999
DXF file: 2165_RIGHT.dxf
999
Pro/ENGINEER 2023134 by Parametric Technology Corporation
  0
SECTION
  2
HEADER
  9
$ACADVER
  1
AC1032
  9
$DWGCODEPAGE
  3
ANSI_1252
  9
$EXTMAX
 10
11.0
 20
8.5
 30
0.0
  9
$EXTMIN
 10
0.0
 20
0.0
 30
0.0
  9
$LIMMIN
 10
0.0
 20
0.0
  9
$LIMMAX
 10
11.0
 20
8.5
  9
$VIEWCTR
 10
5.5
 20
4.25
  9
$VIEWSIZE
 40
8.5
  9
$CLAYER
  8
0
  9
$LTSCALE
 40
0.605
  9
$CELTYPE
  6
BYLAYER
  9
$DIMSCALE
 40
1.0
  9
$DIMASZ
 40
0.1
  9
$DIMEXO
 40
0.0625
  9
$DIMDLI
 40
0.418
  9
$DIMEXE
 40
0.125
  9
$DIMCEN
 40
0.099
  9
$DIMLFAC
 40
1.0
  9
$DIMBLK
  1
_FILLED
  9
$DIMALT
 70
1
  9
$DIMALTD
 70
2
  9
$DIMALTTD
 70
2
  9
$DIMALTF
 40
25.4
  9
$DIMTXT
 40
0.08
  9
$DIMTOL
 70
1
  9
$DIMLIM
 70
0
  9
$DIMTFAC
 40
1.0
  9
$DIMTP
 40
0.001
  9
$DIMTM
 40
0.001
  9
$DIMGAP
 40
0.09
  9
$DIMDSEP
 70
46
  9
$AUNITS
 70
0
  9
$PDMODE
 70
3
  9
$PDSIZE
 40
0.3125
  9
$HANDSEED
  5
39F
  9
$TILEMODE
 70
1
  9
$MEASUREMENT
 70
0
  9
$INSUNITS
 70
1
  0
ENDSEC
  0
SECTION
  2
CLASSES
  0
CLASS
  1
ACDBDICTIONARYWDFLT
  2
AcDbDictionaryWithDefault
  3
AutoCAD 2000
 90
0
 91
1
280
0
281
0
  0
CLASS
  1
ACDBPLACEHOLDER
  2
AcDbPlaceHolder
  3
AutoCAD 2000
 90
0
 91
1
280
0
281
0
  0
CLASS
  1
LAYOUT
  2
AcDbLayout
  3
AutoCAD 2000
 90
0
 91
0
280
0
281
0
  0
ENDSEC
  0
SECTION
  2
TABLES
  0
TABLE
  2
VPORT
  5
8
100
AcDbSymbolTable
 70
2
  0
VPORT
  5
1F4
100
AcDbSymbolTableRecord
100
AcDbViewportTableRecord
  2
*ACTIVE
 70
0
 10
0.0
 20
0.0
 11
1.0
 21
1.0
 12
5.5
 22
4.25
 13
0.0
 23
0.0
 14
1.0
 24
1.0
 15
0.0
 25
0.0
 16
0.0
 26
0.0
 36
1.0
 17
0.0
 27
0.0
 37
0.0
 40
8.5
 41
1.2941176471
 42
50.0
 43
0.0
 44
0.0
 50
0.0
 51
0.0
 71
0
 72
100
 73
1
 74
1
 75
0
 76
0
 77
0
 78
0
  0
ENDTAB
  0
TABLE
  2
LTYPE
  5
5
100
AcDbSymbolTable
 70
6
  0
LTYPE
  5
14
100
AcDbSymbolTableRecord
100
AcDbLinetypeTableRecord
  2
BYBLOCK
 70
0
  3

 72
65
 73
0
 40
0.0
  0
LTYPE
  5
15
100
AcDbSymbolTableRecord
100
AcDbLinetypeTableRecord
  2
BYLAYER
 70
0
  3

 72
65
 73
0
 40
0.0
  0
LTYPE
  5
16
100
AcDbSymbolTableRecord
100
AcDbLinetypeTableRecord
  2
CONTINUOUS
 70
64
  3
Solid line
 72
65
 73
0
 40
0.0
  0
LTYPE
  5
1F5
100
AcDbSymbolTableRecord
100
AcDbLinetypeTableRecord
  2
CENTER
 70
64
  3
____ _ ____ _ ____ _ ____ _ ____ _ ____ _ ____
 72
65
 73
4
 40
0.6
 49
0.375
 74
0
 49
-0.075
 74
0
 49
0.075
 74
0
 49
-0.075
 74
0
  0
LTYPE
  5
1F6
100
AcDbSymbolTableRecord
100
AcDbLinetypeTableRecord
  2
HIDDEN
 70
64
  3
- - - - - - - - - - - - - - - - - - - -
 72
65
 73
2
 40
0.2
 49
0.1
 74
0
 49
-0.1
 74
0
  0
LTYPE
  5
1F7
100
AcDbSymbolTableRecord
100
AcDbLinetypeTableRecord
  2
PHANTOM
 70
64
  3
_____ _ _ _____ _ _ _____ _ _ _____
 72
65
 73
6
 40
0.8
 49
0.45
 74
0
 49
-0.05
 74
0
 49
0.1
 74
0
 49
-0.05
 74
0
 49
0.1
 74
0
 49
-0.05
 74
0
  0
LTYPE
  5
1F8
100
AcDbSymbolTableRecord
100
AcDbLinetypeTableRecord
  2
DOT
 70
64
  3
. . . . . . . . . . . . . . . . . . . .
 72
65
 73
2
 40
0.2
 49
0.1
 74
0
 49
-0.1
 74
0
  0
LTYPE
  5
1F9
100
AcDbSymbolTableRecord
100
AcDbLinetypeTableRecord
  2
DASHED
 70
64
  3
- - - - - - - - - - - - - - - - - - - -
 72
65
 73
2
 40
0.2
 49
0.1
 74
0
 49
-0.1
 74
0
  0
ENDTAB
  0
TABLE
  2
LAYER
  5
2
100
AcDbSymbolTable
 70
36
  0
LAYER
  5
10
100
AcDbSymbolTableRecord
100
AcDbLayerTableRecord
  2
0
 70
0
 62
7
  6
CONTINUOUS
370
-3
390
F
  0
LAYER
  5
1FA
100
AcDbSymbolTableRecord
100
AcDbLayerTableRecord
  2
DEFAULT_1
 70
0
 62
7
  6
CENTER
370
-3
390
F
  0
LAYER
  5
1FB
100
AcDbSymbolTableRecord
100
AcDbLayerTableRecord
  2
DEFAULT_2
 70
0
 62
8
  6
HIDDEN
370
-3
390
F
  0
LAYER
  5
1FC
100
AcDbSymbolTableRecord
100
AcDbLayerTableRecord
  2
DEFAULT_3
 70
0
 62
7
  6
PHANTOM
370
-3
390
F
  0
LAYER
  5
1FD
100
AcDbSymbolTableRecord
100
AcDbLayerTableRecord
  2
DEFAULT_COORDINATE_SYSTEM
 70
0
 62
7
  6
CONTINUOUS
370
-3
390
F
  0
LAYER
  5
1FE
100
AcDbSymbolTableRecord
100
AcDbLayerTableRecord
  2
DEFAULT_DATUM_AXES
 70
0
 62
7
  6
CONTINUOUS
370
-3
390
F
  0
LAYER
  5
1FF
100
AcDbSymbolTableRecord
100
AcDbLayerTableRecord
  2
DEFAULT_DATUM_PLANES
 70
0
 62
7
  6
CONTINUOUS
370
-3
390
F
  0
ENDTAB
  0
TABLE
  2
STYLE
  5
3
100
AcDbSymbolTable
 70
1
  0
STYLE
  5
11
100
AcDbSymbolTableRecord
100
AcDbTextStyleTableRecord
  2
STANDARD
 70
0
 40
0.0
 41
0.8
 50
0.0
 71
0
 42
0.2
  3
txt
  4

  0
STYLE
  5
200
100
AcDbSymbolTableRecord
100
AcDbTextStyleTableRecord
  2
TEXTSTYLE_1
 70
0
 40
0.0
 41
0.8
 50
0.0
 71
0
 42
0.2
  3
gdt
  4

  0
ENDTAB
  0
TABLE
  2
VIEW
  5
6
100
AcDbSymbolTable
 70
0
  0
ENDTAB
  0
TABLE
  2
UCS
  5
7
100
AcDbSymbolTable
 70
0
  0
ENDTAB
  0
TABLE
  2
APPID
  5
9
100
AcDbSymbolTable
 70
1
  0
APPID
  5
201
100
AcDbSymbolTableRecord
100
AcDbRegAppTableRecord
  2
ACAD
 70
0
  0
ENDTAB
  0
TABLE
  2
BLOCK_RECORD
  5
1
100
AcDbSymbolTable
 70
0
  0
BLOCK_RECORD
  5
202
100
AcDbSymbolTableRecord
100
AcDbBlockTableRecord
  2
*Model_Space
  0
BLOCK_RECORD
  5
203
100
AcDbSymbolTableRecord
100
AcDbBlockTableRecord
  2
*Paper_Space
  0
BLOCK_RECORD
  5
204
100
AcDbSymbolTableRecord
100
AcDbBlockTableRecord
  2
_FILLED
  0
ENDTAB
  0
TABLE
  2
DIMSTYLE
  5
A
100
AcDbSymbolTable
 70
1
100
AcDbDimStyleTable
 71
0
  0
DIMSTYLE
105
205
100
AcDbSymbolTableRecord
100
AcDbDimStyleTableRecord
  2
STANDARD
 70
0
  3

  4

 40
1.0
 41
0.1
 42
0.0625
 43
0.38
 44
0.125
 45
0.0
 46
0.0
 47
0.001
 48
0.001
140
0.08
141
0.09
142
0.0
143
25.4
144
1.0
145
0.0
146
1.0
147
0.09
 71
1
 72
0
 73
1
 74
1
 75
0
 76
0
 77
0
 78
4
 79
1
170
1
171
2
172
0
173
0
174
0
175
0
176
0
177
0
178
0
270
2
179
3
271
3
272
3
273
2
274
2
275
0
280
0
281
0
282
0
283
1
284
4
285
0
286
0
287
3
288
0
340
11
278
46
341
204
342
204
343
204
344
204
  0
ENDTAB
  0
ENDSEC
  0
SECTION
  2
BLOCKS
  0
BLOCK
  5
20
100
AcDbEntity
  8
0
100
AcDbBlockBegin
  2
*Model_Space
 70
0
 10
0.0
 20
0.0
 30
0.0
  3
*Model_Space
  1

  0
ENDBLK
  5
21
100
AcDbEntity
  8
0
100
AcDbBlockEnd
  0
BLOCK
  5
1C
100
AcDbEntity
  8
0
100
AcDbBlockBegin
  2
*Paper_Space
 70
0
 10
0.0
 20
0.0
 30
0.0
  3
*Paper_Space
  1

  0
ENDBLK
  5
1D
100
AcDbEntity
  8
0
100
AcDbBlockEnd
  0
BLOCK
  5
206
100
AcDbEntity
  8
0
100
AcDbBlockBegin
  2
_FILLED
 70
64
 10
0.0
 20
0.0
  3
_FILLED
  1

  0
SOLID
  5
207
100
AcDbEntity
  8
0
  6
BYBLOCK
 62
0
100
AcDbTrace
 10
0.0
 20
0.0
 11
-1.0
 21
0.2
 12
-1.0
 22
-0.2
 13
-1.0
 23
-0.2
  0
ENDBLK
  5
208
100
AcDbEntity
  8
0
  6
BYBLOCK
 62
0
100
AcDbBlockEnd
  0
ENDSEC
  0
SECTION
  2
ENTITIES
  0
LINE
  5
209
100
AcDbEntity
  8
0
100
AcDbLine
 62
7
  6
CONTINUOUS
 10
0.0
 20
0.0
 11
0.0
 21
8.5
  0
LINE
  5
20A
100
AcDbEntity
  8
0
100
AcDbLine
 62
7
  6
CONTINUOUS
 10
0.0
 20
0.0
 11
11.0
 21
0.0
  0
LINE
  5
20B
100
AcDbEntity
  8
0
100
AcDbLine
 62
7
  6
CONTINUOUS
 10
0.0
 20
8.5
 11
11.0
 21
8.5
  0
LINE
  5
20C
100
AcDbEntity
  8
0
100
AcDbLine
 62
7
  6
CONTINUOUS
 10
11.0
 20
0.0
 11
11.0
 21
8.5
  0
LINE
  5
20D
100
AcDbEntity
  8
0
100
AcDbLine
 62
7
  6
CONTINUOUS
 10
2.5472220603
 20
3.9263702297
 11
2.5472220603
 21
3.9463648018
  0
LINE
  5
20E
100
AcDbEntity
  8
0
100
AcDbLine
 62
7
  6
CONTINUOUS
 10
2.547346076
 20
3.9238831817
 11
2.547346076
 21
3.8672639305
  0
LINE
  5
20F
100
AcDbEntity
  8
0
100
AcDbLine
 62
7
  6
CONTINUOUS
 10
2.550303517
 20
3.9263702297
 11
2.550303517
 21
3.9463648018
  0
LINE
  5
210
100
AcDbEntity
  8
0
100
AcDbLine
 62
7
  6
CONTINUOUS
 10
2.5504275327
 20
3.8672639305
 11
2.5504275327
 21
3.9238831817
  0
LINE
  5
211
100
AcDbEntity
  8
0
100
AcDbLine
 62
7
  6
CONTINUOUS
 10
2.6503035017
 20
4.0463648018
 11
2.6503587704
 21
3.9257639305
  0
LINE
  5
212
100
AcDbEntity
  8
0
100
AcDbLine
 62
7
  6
CONTINUOUS
 10
2.6504827902
 20
3.8672639305
 11
2.6504827902
 21
3.9257639305
  0
LINE
  5
213
100
AcDbEntity
  8
0
100
AcDbLine
 62
7
  6
CONTINUOUS
 10
2.6504391247
 20
3.7882639305
 11
2.6504827902
 21
3.8672639305
  0
LINE
  5
214
100
AcDbEntity
  8
0
100
AcDbLine
 62
7
  6
CONTINUOUS
 10
3.2915776304
 20
3.7601694423
 11
3.2915776304
 21
3.7882639305
  0
LINE
  5
215
100
AcDbEntity
  8
0
100
AcDbLine
 62
7
  6
CONTINUOUS
 10
3.3177283961
 20
3.7601694423
 11
3.3177283961
 21
3.7882639305
  0
LINE
  5
216
100
AcDbEntity
  8
0
100
AcDbLine
 62
7
  6
CONTINUOUS
 10
3.3885945378
 20
3.7601694423
 11
3.3885945378
 21
3.7882639305
  0
LINE
  5
217
100
AcDbEntity
  8
0
100
AcDbLine
 62
7
  6
CONTINUOUS
 10
3.394451489
 20
3.7601694423
 11
3.394451489
 21
3.7882639305
  0
LINE
  5
218
100
AcDbEntity
  8
0
100
AcDbLine
 62
7
  6
CONTINUOUS
 10
3.3951720189
 20
3.7601694423
 11
3.3951720189
 21
3.7882639305
  0
LINE
  5
219
100
AcDbEntity
  8
0
100
AcDbLine
 62
7
  6
CONTINUOUS
 10
3.4660381606
 20
3.7601694423
 11
3.4660381606
 21
3.7882639305
  0
LINE
  5
21A
100
AcDbEntity
  8
0
100
AcDbLine
 62
7
  6
CONTINUOUS
 10
3.5209430175
 20
3.7601694423
 11
3.5209430175
 21
3.7882639305
  0
LINE
  5
21B
100
AcDbEntity
  8
0
100
AcDbLine
 62
7
  6
CONTINUOUS
 10
3.5220015798
 20
3.7601694423
 11
3.5220015798
 21
3.7882639305
  0
LINE
  5
21C
100
AcDbEntity
  8
0
100
AcDbLine
 62
7
  6
CONTINUOUS
 10
3.5928677215
 20
3.7601694423
 11
3.5928677215
 21
3.7882639305
  0
LINE
  5
21D
100
AcDbEntity
  8
0
100
AcDbLine
 62
7
  6
CONTINUOUS
 10
3.6315984398
 20
3.7601694423
 11
3.6315984398
 21
3.7882639305
  0
LINE
  5
21E
100
AcDbEntity
  8
0
100
AcDbLine
 62
7
  6
CONTINUOUS
 10
3.6950941141
 20
3.7601694423
 11
3.6950941141
 21
3.7882639305
  0
LINE
  5
21F
100
AcDbEntity
  8
0
100
AcDbLine
 62
7
  6
CONTINUOUS
 10
3.7659602558
 20
3.7601694423
 11
3.7659602558
 21
3.7882639305
  0
LINE
  5
220
100
AcDbEntity
  8
0
100
AcDbLine
 62
7
  6
CONTINUOUS
 10
3.8182586708
 20
3.7601694423
 11
3.8182586708
 21
3.7882639305
  0
LINE
  5
221
100
AcDbEntity
  8
0
100
AcDbLine
 62
7
  6
CONTINUOUS
 10
3.8388216413
 20
3.7601694423
 11
3.8388216413
 21
3.7882639305
  0
LINE
  5
222
100
AcDbEntity
  8
0
100
AcDbLine
 62
7
  6
CONTINUOUS
 10
3.8731347594
 20
3.7601694423
 11
3.8731347594
 21
3.7882639305
  0
LINE
  5
223
100
AcDbEntity
  8
0
100
AcDbLine
 62
7
  6
CONTINUOUS
 10
3.9101875091
 20
3.7601694423
 11
3.9101875091
 21
3.7882639305
  0
LINE
  5
224
100
AcDbEntity
  8
0
100
AcDbLine
 62
7
  6
CONTINUOUS
 10
3.9810536508
 20
3.7601694423
 11
3.9810536508
 21
3.7882639305
  0
LINE
  5
225
100
AcDbEntity
  8
0
100
AcDbLine
 62
7
  6
CONTINUOUS
 10
3.9871985221
 20
3.7601694423
 11
3.9871985221
 21
3.7882639305
  0
LINE
  5
226
100
AcDbEntity
  8
0
100
AcDbLine
 62
7
  6
CONTINUOUS
 10
4.0450816004
 20
3.7601694423
 11
4.0450816004
 21
3.7882639305
  0
LINE
  5
227
100
AcDbEntity
  8
0
100
AcDbLine
 62
7
  6
CONTINUOUS
 10
4.1264199346
 20
3.7601694423
 11
4.1264199346
 21
3.7882639305
  0
LINE
  5
228
100
AcDbEntity
  8
0
100
AcDbLine
 62
7
  6
CONTINUOUS
 10
4.1265978954
 20
3.7601694423
 11
4.1265978954
 21
3.7882639305
  0
LINE
  5
229
100
AcDbEntity
  8
0
100
AcDbLine
 62
7
  6
CONTINUOUS
 10
4.132987827
 20
3.7601694423
 11
4.132987827
 21
3.7882639305
  0
LINE
  5
22A
100
AcDbEntity
  8
0
100
AcDbLine
 62
7
  6
CONTINUOUS
 10
4.1619854515
 20
3.7601694423
 11
4.1619854515
 21
3.7882639305
  0
LINE
  5
22B
100
AcDbEntity
  8
0
100
AcDbLine
 62
7
  6
CONTINUOUS
 10
4.2328515932
 20
3.7601694423
 11
4.2328515932
 21
3.7882639305
  0
LINE
  5
22C
100
AcDbEntity
  8
0
100
AcDbLine
 62
7
  6
CONTINUOUS
 10
4.2777066419
 20
3.7601694423
 11
4.2777066419
 21
3.7882639305
  0
LINE
  5
22D
100
AcDbEntity
  8
0
100
AcDbLine
 62
7
  6
CONTINUOUS
 10
4.3550005552
 20
3.7601694423
 11
4.3550005552
 21
3.7882639305
  0
LINE
  5
22E
100
AcDbEntity
  8
0
100
AcDbLine
 62
7
  6
CONTINUOUS
 10
4.3562837656
 20
3.7601694423
 11
4.3562837656
 21
3.7882639305
  0
LINE
  5
22F
100
AcDbEntity
  8
0
100
AcDbLine
 62
7
  6
CONTINUOUS
 10
4.3903949988
 20
3.7601694423
 11
4.3903949988
 21
3.7882639305
  0
LINE
  5
230
100
AcDbEntity
  8
0
100
AcDbLine
 62
7
  6
CONTINUOUS
 10
4.4442878404
 20
3.7601694423
 11
4.4442878404
 21
3.7882639305
  0
LINE
  5
231
100
AcDbEntity
  8
0
100
AcDbLine
 62
7
  6
CONTINUOUS
 10
4.5151539822
 20
3.7601694423
 11
4.5151539822
 21
3.7882639305
  0
LINE
  5
232
100
AcDbEntity
  8
0
100
AcDbLine
 62
7
  6
CONTINUOUS
 10
4.577945385
 20
3.7601694423
 11
4.577945385
 21
3.7882639305
  0
LINE
  5
233
100
AcDbEntity
  8
0
100
AcDbLine
 62
7
  6
CONTINUOUS
 10
4.5786060275
 20
3.7601694423
 11
4.5786060275
 21
3.7882639305
  0
LINE
  5
234
100
AcDbEntity
  8
0
100
AcDbLine
 62
7
  6
CONTINUOUS
 10
4.5826379371
 20
3.7601694423
 11
4.5826379371
 21
3.7882639305
  0
LINE
  5
235
100
AcDbEntity
  8
0
100
AcDbLine
 62
7
  6
CONTINUOUS
 10
4.620573155
 20
3.7601694423
 11
4.620573155
 21
3.7882639305
  0
LINE
  5
236
100
AcDbEntity
  8
0
100
AcDbLine
 62
7
  6
CONTINUOUS
 10
4.680280159
 20
3.7601694423
 11
4.680280159
 21
3.7882639305
  0
LINE
  5
237
100
AcDbEntity
  8
0
100
AcDbLine
 62
7
  6
CONTINUOUS
 10
4.7501434541
 20
3.7601694423
 11
4.7501434541
 21
3.7882639305
  0
LINE
  5
238
100
AcDbEntity
  8
0
100
AcDbLine
 62
7
  6
CONTINUOUS
 10
4.8210095958
 20
3.7601694423
 11
4.8210095958
 21
3.7882639305
  0
LINE
  5
239
100
AcDbEntity
  8
0
100
AcDbLine
 62
7
  6
CONTINUOUS
 10
4.8545800344
 20
3.7601694423
 11
4.8545800344
 21
3.7882639305
  0
LINE
  5
23A
100
AcDbEntity
  8
0
100
AcDbLine
 62
7
  6
CONTINUOUS
 10
5.1337623475
 20
4.9178702297
 11
5.1237623475
 21
4.9078702297
  0
LINE
  5
23B
100
AcDbEntity
  8
0
100
AcDbLine
 62
7
  6
CONTINUOUS
 10
7.4898472217
 20
3.7542639305
 11
7.4898356691
 21
3.7542639305
  0
LINE
  5
23C
100
AcDbEntity
  8
0
100
AcDbLine
 62
7
  6
CONTINUOUS
 10
7.4721676943
 20
3.7542639305
 11
7.4131125762
 21
3.7542639305
  0
LINE
  5
23D
100
AcDbEntity
  8
0
100
AcDbLine
 62
7
  6
CONTINUOUS
 10
7.3456761657
 20
3.7542639305
 11
7.2722162904
 21
3.7542639305
  0
LINE
  5
23E
100
AcDbEntity
  8
0
100
AcDbLine
 62
7
  6
CONTINUOUS
 10
7.2127304071
 20
3.7542639305
 11
7.2127281895
 21
3.7542639305
  0
LINE
  5
23F
100
AcDbEntity
  8
0
100
AcDbLine
 62
7
  6
CONTINUOUS
 10
7.1728955985
 20
3.7542639305
 11
7.1124699511
 21
3.7542639305
  0
LINE
  5
240
100
AcDbEntity
  8
0
100
AcDbLine
 62
7
  6
CONTINUOUS
 10
7.0419589204
 20
3.7542639305
 11
6.9829038025
 21
3.7542639305
  0
LINE
  5
241
100
AcDbEntity
  8
0
100
AcDbLine
 62
7
  6
CONTINUOUS
 10
6.9825945739
 20
3.7542639305
 11
6.9584982609
 21
3.7542639305
  0
LINE
  5
242
100
AcDbEntity
  8
0
100
AcDbLine
 62
7
  6
CONTINUOUS
 10
6.9580804236
 20
3.7542639305
 11
6.8973765561
 21
3.7542639305
  0
LINE
  5
243
100
AcDbEntity
  8
0
100
AcDbLine
 62
7
  6
CONTINUOUS
 10
6.8931060489
 20
3.7542639305
 11
6.8488976632
 21
3.7542639305
  0
LINE
  5
244
100
AcDbEntity
  8
0
100
AcDbLine
 62
7
  6
CONTINUOUS
 10
6.8486251411
 20
3.7542639305
 11
6.789570023
 21
3.7542639305
  0
LINE
  5
245
100
AcDbEntity
  8
0
100
AcDbLine
 62
7
  6
CONTINUOUS
 10
6.7892324254
 20
3.7542639305
 11
6.7885808069
 21
3.7542639305
  0
LINE
  5
246
100
AcDbEntity
  8
0
100
AcDbLine
 62
7
  6
CONTINUOUS
 10
6.6108434369
 20
3.7542639305
 11
6.531980893
 21
3.7542639305
  0
LINE
  5
247
100
AcDbEntity
  8
0
100
AcDbLine
 62
7
  6
CONTINUOUS
 10
6.511618628
 20
3.7542639305
 11
6.4525635099
 21
3.7542639305
  0
LINE
  5
248
100
AcDbEntity
  8
0
100
AcDbLine
 62
7
  6
CONTINUOUS
 10
6.4329332825
 20
3.7542639305
 11
6.3435435324
 21
3.7542639305
  0
LINE
  5
249
100
AcDbEntity
  8
0
100
AcDbLine
 62
7
  6
CONTINUOUS
 10
6.343474162
 20
3.7542639305
 11
6.3425790651
 21
3.7542639305
  0
LINE
  5
24A
100
AcDbEntity
  8
0
100
AcDbLine
 62
7
  6
CONTINUOUS
 10
6.3362567309
 20
3.7542639305
 11
6.247873294
 21
3.7542639305
  0
LINE
  5
24B
100
AcDbEntity
  8
0
100
AcDbLine
 62
7
  6
CONTINUOUS
 10
6.1186932922
 20
3.7542639305
 11
6.0596381742
 21
3.7542639305
  0
LINE
  5
24C
100
AcDbEntity
  8
0
100
AcDbLine
 62
7
  6
CONTINUOUS
 10
5.9633328711
 20
3.7542639305
 11
5.9496375053
 21
3.7542639305
  0
LINE
  5
24D
100
AcDbEntity
  8
0
100
AcDbLine
 62
7
  6
CONTINUOUS
 10
5.9492979201
 20
3.7542639305
 11
5.8742544021
 21
3.7542639305
  0
LINE
  5
24E
100
AcDbEntity
  8
0
100
AcDbLine
 62
7
  6
CONTINUOUS
 10
5.8633815623
 20
3.7542639305
 11
5.7975563813
 21
3.7542639305
  0
LINE
  5
24F
100
AcDbEntity
  8
0
100
AcDbLine
 62
7
  6
CONTINUOUS
 10
5.713188819
 20
3.7542639305
 11
5.6301214015
 21
3.7542639305
  0
LINE
  5
250
100
AcDbEntity
  8
0
100
AcDbLine
 62
7
  6
CONTINUOUS
 10
5.5471496524
 20
3.7542639305
 11
5.4676683756
 21
3.7542639305
  0
LINE
  5
251
100
AcDbEntity
  8
0
100
AcDbLine
 62
7
  6
CONTINUOUS
 10
5.4669557485
 20
3.7542639305
 11
5.4072986254
 21
3.7542639305
  0
LINE
  5
252
100
AcDbEntity
  8
0
100
AcDbLine
 62
7
  6
CONTINUOUS
 10
5.2258056104
 20
3.7542639305
 11
5.1653557418
 21
3.7542639305
  0
LINE
  5
253
100
AcDbEntity
  8
0
100
AcDbLine
 62
7
  6
CONTINUOUS
 10
4.9195406643
 20
3.7542639305
 11
4.8604855462
 21
3.7542639305
  0
LINE
  5
254
100
AcDbEntity
  8
0
100
AcDbLine
 62
7
  6
CONTINUOUS
 10
4.860348655
 20
3.7542639305
 11
4.8158069061
 21
3.7542639305
  0
LINE
  5
255
100
AcDbEntity
  8
0
100
AcDbLine
 62
7
  6
CONTINUOUS
 10
4.745240789
 20
3.7542639305
 11
4.6857396831
 21
3.7542639305
  0
LINE
  5
256
100
AcDbEntity
  8
0
100
AcDbLine
 62
7
  6
CONTINUOUS
 10
4.6855337849
 20
3.7542639305
 11
4.5838551942
 21
3.7542639305
  0
LINE
  5
257
100
AcDbEntity
  8
0
100
AcDbLine
 62
7
  6
CONTINUOUS
 10
4.5092484703
 20
3.7542639305
 11
4.4501933523
 21
3.7542639305
  0
LINE
  5
258
100
AcDbEntity
  8
0
100
AcDbLine
 62
7
  6
CONTINUOUS
 10
4.27180113
 20
3.7542639305
 11
4.1388933388
 21
3.7542639305
  0
LINE
  5
259
100
AcDbEntity
  8
0
100
AcDbLine
 62
7
  6
CONTINUOUS
 10
4.1381062383
 20
3.7542639305
 11
4.1325034072
 21
3.7542639305
  0
LINE
  5
25A
100
AcDbEntity
  8
0
100
AcDbLine
 62
7
  6
CONTINUOUS
 10
3.760054744
 20
3.7542639305
 11
3.7009996259
 21
3.7542639305
  0
LINE
  5
25B
100
AcDbEntity
  8
0
100
AcDbLine
 62
7
  6
CONTINUOUS
 10
3.5269101926
 20
3.7542639305
 11
3.5268612149
 21
3.7542639305
  0
LINE
  5
25C
100
AcDbEntity
  8
0
100
AcDbLine
 62
7
  6
CONTINUOUS
 10
3.4008684484
 20
3.7542639305
 11
3.4003574004
 21
3.7542639305
  0
LINE
  5
25D
100
AcDbEntity
  8
0
100
AcDbLine
 62
7
  6
CONTINUOUS
 10
3.4601326488
 20
3.7542639305
 11
3.4010775307
 21
3.7542639305
  0
LINE
  5
25E
100
AcDbEntity
  8
0
100
AcDbLine
 62
7
  6
CONTINUOUS
 10
3.382689026
 20
3.7542639305
 11
3.2974831422
 21
3.7542639305
  0
LINE
  5
25F
100
AcDbEntity
  8
0
100
AcDbLine
 62
7
  6
CONTINUOUS
 10
3.5279070916
 20
3.7542639305
 11
3.6965590697
 21
3.7542639305
  0
LINE
  5
260
100
AcDbEntity
  8
0
100
AcDbLine
 62
7
  6
CONTINUOUS
 10
3.6996333939
 20
3.7542639305
 11
3.7009380607
 21
3.7542639305
  0
LINE
  5
261
100
AcDbEntity
  8
0
100
AcDbLine
 62
7
  6
CONTINUOUS
 10
3.7605605659
 20
3.7542639305
 11
3.812353159
 21
3.7542639305
  0
LINE
  5
262
100
AcDbEntity
  8
0
100
AcDbLine
 62
7
  6
CONTINUOUS
 10
3.8447271531
 20
3.7542639305
 11
4.0391760886
 21
3.7542639305
  0
LINE
  5
263
100
AcDbEntity
  8
0
100
AcDbLine
 62
7
  6
CONTINUOUS
 10
4.3609060671
 20
3.7542639305
 11
4.4494184436
 21
3.7542639305
  0
LINE
  5
264
100
AcDbEntity
  8
0
100
AcDbLine
 62
7
  6
CONTINUOUS
 10
4.7538314028
 20
3.7542639305
 11
4.815104084
 21
3.7542639305
  0
LINE
  5
265
100
AcDbEntity
  8
0
100
AcDbLine
 62
7
  6
CONTINUOUS
 10
4.9232267749
 20
3.7542639305
 11
5.1521368713
 21
3.7542639305
  0
LINE
  5
266
100
AcDbEntity
  8
0
100
AcDbLine
 62
7
  6
CONTINUOUS
 10
5.2426018954
 20
3.7542639305
 11
5.3215641643
 21
3.7542639305
  0
LINE
  5
267
100
AcDbEntity
  8
0
100
AcDbLine
 62
7
  6
CONTINUOUS
 10
5.3235397346
 20
3.7542639305
 11
5.3885222349
 21
3.7542639305
  0
LINE
  5
268
100
AcDbEntity
  8
0
100
AcDbLine
 62
7
  6
CONTINUOUS
 10
5.4055708074
 20
3.7542639305
 11
5.4068194425
 21
3.7542639305
  0
LINE
  5
269
100
AcDbEntity
  8
0
100
AcDbLine
 62
7
  6
CONTINUOUS
 10
5.5509605308
 20
3.7542639305
 11
5.6299227997
 21
3.7542639305
  0
LINE
  5
26A
100
AcDbEntity
  8
0
100
AcDbLine
 62
7
  6
CONTINUOUS
 10
5.7203878238
 20
3.7542639305
 11
5.796901048
 21
3.7542639305
  0
LINE
  5
26B
100
AcDbEntity
  8
0
100
AcDbLine
 62
7
  6
CONTINUOUS
 10
5.9731934458
 20
3.7542639305
 11
6.0339956062
 21
3.7542639305
  0
LINE
  5
26C
100
AcDbEntity
  8
0
100
AcDbLine
 62
7
  6
CONTINUOUS
 10
6.0344583127
 20
3.7542639305
 11
6.0589350143
 21
3.7542639305
  0
LINE
  5
26D
100
AcDbEntity
  8
0
100
AcDbLine
 62
7
  6
CONTINUOUS
 10
6.1188367776
 20
3.7542639305
 11
6.2475414203
 21
3.7542639305
  0
LINE
  5
26E
100
AcDbEntity
  8
0
100
AcDbLine
 62
7
  6
CONTINUOUS
 10
6.4330470936
 20
3.7542639305
 11
6.4523140424
 21
3.7542639305
  0
LINE
  5
26F
100
AcDbEntity
  8
0
100
AcDbLine
 62
7
  6
CONTINUOUS
 10
6.6455786136
 20
3.7542639305
 11
6.7502385293
 21
3.7542639305
  0
LINE
  5
270
100
AcDbEntity
  8
0
100
AcDbLine
 62
7
  6
CONTINUOUS
 10
7.1733223493
 20
3.7542639305
 11
7.184630524
 21
3.7542639305
  0
LINE
  5
271
100
AcDbEntity
  8
0
100
AcDbLine
 62
7
  6
CONTINUOUS
 10
7.2128922389
 20
3.7542639305
 11
7.2720541149
 21
3.7542639305
  0
LINE
  5
272
100
AcDbEntity
  8
0
100
AcDbLine
 62
7
  6
CONTINUOUS
 10
7.4124088124
 20
3.7542639305
 11
7.4129468123
 21
3.7542639305
  0
LINE
  5
273
100
AcDbEntity
  8
0
100
AcDbLine
 62
7
  6
CONTINUOUS
 10
7.4900763468
 20
3.7542639305
 11
7.5750415529
 21
3.7542639305
  0
LINE
  5
274
100
AcDbEntity
  8
0
100
AcDbLine
 62
7
  6
CONTINUOUS
 10
7.5809470647
 20
3.7601694423
 11
7.4839386027
 21
3.7601694423
  0
LINE
  5
275
100
AcDbEntity
  8
0
100
AcDbLine
 62
7
  6
CONTINUOUS
 10
7.4780732061
 20
3.7601694423
 11
7.4064865344
 21
3.7601694423
  0
LINE
  5
276
100
AcDbEntity
  8
0
100
AcDbLine
 62
7
  6
CONTINUOUS
 10
7.3515816776
 20
3.7601694423
 11
7.2068234823
 21
3.7601694423
  0
LINE
  5
277
100
AcDbEntity
  8
0
100
AcDbLine
 62
7
  6
CONTINUOUS
 10
7.1905360358
 20
3.7601694423
 11
7.1065644393
 21
3.7601694423
  0
LINE
  5
278
100
AcDbEntity
  8
0
100
AcDbLine
 62
7
  6
CONTINUOUS
 10
7.0478644323
 20
3.7601694423
 11
6.9640293605
 21
3.7601694423
  0
LINE
  5
279
100
AcDbEntity
  8
0
100
AcDbLine
 62
7
  6
CONTINUOUS
 10
6.9639859355
 20
3.7601694423
 11
6.782666657
 21
3.7601694423
  0
LINE
  5
27A
100
AcDbEntity
  8
0
100
AcDbLine
 62
7
  6
CONTINUOUS
 10
6.7561440411
 20
3.7601694423
 11
6.6396731018
 21
3.7601694423
  0
LINE
  5
27B
100
AcDbEntity
  8
0
100
AcDbLine
 62
7
  6
CONTINUOUS
 10
6.6167489487
 20
3.7601694423
 11
6.5260581637
 21
3.7601694423
  0
LINE
  5
27C
100
AcDbEntity
  8
0
100
AcDbLine
 62
7
  6
CONTINUOUS
 10
6.5175241398
 20
3.7601694423
 11
5.8843372902
 21
3.7601694423
  0
LINE
  5
27D
100
AcDbEntity
  8
0
100
AcDbLine
 62
7
  6
CONTINUOUS
 10
5.8842440697
 20
3.7601694423
 11
5.7319404181
 21
3.7601694423
  0
LINE
  5
27E
100
AcDbEntity
  8
0
100
AcDbLine
 62
7
  6
CONTINUOUS
 10
5.7318908146
 20
3.7601694423
 11
5.3996634348
 21
3.7601694423
  0
LINE
  5
27F
100
AcDbEntity
  8
0
100
AcDbLine
 62
7
  6
CONTINUOUS
 10
5.3944277468
 20
3.7601694423
 11
5.2366963836
 21
3.7601694423
  0
LINE
  5
280
100
AcDbEntity
  8
0
100
AcDbLine
 62
7
  6
CONTINUOUS
 10
5.2317111222
 20
3.7601694423
 11
5.15945023
 21
3.7601694423
  0
LINE
  5
281
100
AcDbEntity
  8
0
100
AcDbLine
 62
7
  6
CONTINUOUS
 10
5.1580423831
 20
3.7601694423
 11
5.0642464754
 21
3.7601694423
  0
LINE
  5
282
100
AcDbEntity
  8
0
100
AcDbLine
 62
7
  6
CONTINUOUS
 10
5.0641917857
 20
3.7601694423
 11
4.577945385
 21
3.7601694423
  0
LINE
  5
283
100
AcDbEntity
  8
0
100
AcDbLine
 62
7
  6
CONTINUOUS
 10
4.5151539822
 20
3.7601694423
 11
4.3550005552
 21
3.7601694423
  0
LINE
  5
284
100
AcDbEntity
  8
0
100
AcDbLine
 62
7
  6
CONTINUOUS
 10
4.2777066419
 20
3.7601694423
 11
4.1264199346
 21
3.7601694423
  0
LINE
  5
285
100
AcDbEntity
  8
0
100
AcDbLine
 62
7
  6
CONTINUOUS
 10
4.0450816004
 20
3.7601694423
 11
3.8388216413
 21
3.7601694423
  0
LINE
  5
286
100
AcDbEntity
  8
0
100
AcDbLine
 62
7
  6
CONTINUOUS
 10
3.8182586708
 20
3.7601694423
 11
3.5209582402
 21
3.7601694423
  0
LINE
  5
287
100
AcDbEntity
  8
0
100
AcDbLine
 62
7
  6
CONTINUOUS
 10
3.4660381606
 20
3.7601694423
 11
3.394451489
 21
3.7601694423
  0
LINE
  5
288
100
AcDbEntity
  8
0
100
AcDbLine
 62
7
  6
CONTINUOUS
 10
3.3885945378
 20
3.7601694423
 11
3.2915776304
 21
3.7601694423
  0
LINE
  5
289
100
AcDbEntity
  8
0
100
AcDbLine
 62
7
  6
CONTINUOUS
 10
5.4013912527
 20
3.772515899
 11
5.3944277468
 21
3.772515899
  0
LINE
  5
28A
100
AcDbEntity
  8
0
100
AcDbLine
 62
7
  6
CONTINUOUS
 10
4.9189634809
 20
3.7601694423
 11
4.9189634809
 21
3.7882639305
  0
LINE
  5
28B
100
AcDbEntity
  8
0
100
AcDbLine
 62
7
  6
CONTINUOUS
 10
4.9898296226
 20
3.7601694423
 11
4.9898296226
 21
3.7882639305
  0
LINE
  5
28C
100
AcDbEntity
  8
0
100
AcDbLine
 62
7
  6
CONTINUOUS
 10
4.993325644
 20
3.7601694423
 11
4.993325644
 21
3.7882639305
  0
LINE
  5
28D
100
AcDbEntity
  8
0
100
AcDbLine
 62
7
  6
CONTINUOUS
 10
5.0641917857
 20
3.7601694423
 11
5.0641917857
 21
3.7882639305
  0
LINE
  5
28E
100
AcDbEntity
  8
0
100
AcDbLine
 62
7
  6
CONTINUOUS
 10
5.0607631603
 20
4.2128702297
 11
5.0607623475
 21
4.1788702297
  0
LINE
  5
28F
100
AcDbEntity
  8
0
100
AcDbLine
 62
7
  6
CONTINUOUS
 10
8.2464266626
 20
3.7882639305
 11
2.6263460639
 21
3.7882639305
  0
LINE
  5
290
100
AcDbEntity
  8
0
100
AcDbLine
 62
7
  6
CONTINUOUS
 10
8.3254266505
 20
3.8672639305
 11
2.547346076
 21
3.8672639305
  0
LINE
  5
291
100
AcDbEntity
  8
0
100
AcDbLine
 62
7
  6
CONTINUOUS
 10
2.547346076
 20
3.9238831817
 11
2.5504275327
 21
3.9238831817
  0
LINE
  5
292
100
AcDbEntity
  8
0
100
AcDbLine
 62
7
  6
CONTINUOUS
 10
2.644491771
 20
3.9257639305
 11
8.3254266505
 21
3.9257639305
  0
LINE
  5
293
100
AcDbEntity
  8
0
100
AcDbLine
 62
7
  6
CONTINUOUS
 10
2.5472220603
 20
3.9263702297
 11
8.3253026348
 21
3.9263702297
  0
LINE
  5
294
100
AcDbEntity
  8
0
100
AcDbLine
 62
7
  6
CONTINUOUS
 10
8.3253026348
 20
3.9463648018
 11
2.5472220603
 21
3.9463648018
  0
LINE
  5
295
100
AcDbEntity
  8
0
100
AcDbLine
 62
7
  6
CONTINUOUS
 10
5.0720211122
 20
3.7601694423
 11
5.0720211122
 21
3.7882639305
  0
LINE
  5
296
100
AcDbEntity
  8
0
100
AcDbLine
 62
7
  6
CONTINUOUS
 10
5.1237623475
 20
4.9078702297
 11
5.1237623475
 21
4.3053702312
  0
LINE
  5
297
100
AcDbEntity
  8
0
100
AcDbLine
 62
7
  6
CONTINUOUS
 10
5.1428872539
 20
3.7601694423
 11
5.1428872539
 21
3.7882639305
  0
LINE
  5
298
100
AcDbEntity
  8
0
100
AcDbLine
 62
7
  6
CONTINUOUS
 10
5.1580423831
 20
3.7601694423
 11
5.1580423831
 21
3.7882639305
  0
LINE
  5
299
100
AcDbEntity
  8
0
100
AcDbLine
 62
7
  6
CONTINUOUS
 10
5.15945023
 20
3.7601694423
 11
5.15945023
 21
3.7882639305
  0
LINE
  5
29A
100
AcDbEntity
  8
0
100
AcDbLine
 62
7
  6
CONTINUOUS
 10
5.1608449805
 20
3.7601694423
 11
5.1608449805
 21
3.7882639305
  0
LINE
  5
29B
100
AcDbEntity
  8
0
100
AcDbLine
 62
7
  6
CONTINUOUS
 10
5.2317111222
 20
3.7601694423
 11
5.2317111222
 21
3.7882639305
  0
LINE
  5
29C
100
AcDbEntity
  8
0
100
AcDbLine
 62
7
  6
CONTINUOUS
 10
5.2366963836
 20
3.7601694423
 11
5.2366963836
 21
3.7882639305
  0
LINE
  5
29D
100
AcDbEntity
  8
0
100
AcDbLine
 62
7
  6
CONTINUOUS
 10
5.2384136543
 20
3.7601694423
 11
5.2384136543
 21
3.7882639305
  0
LINE
  5
29E
100
AcDbEntity
  8
0
100
AcDbLine
 62
7
  6
CONTINUOUS
 10
8.2253026501
 20
4.0463648018
 11
2.647222045
 21
4.0463648018
  0
LINE
  5
29F
100
AcDbEntity
  8
0
100
AcDbLine
 62
7
  6
CONTINUOUS
 10
8.0550121442
 20
4.0527929461
 11
2.8175125509
 21
4.0527929461
  0
LINE
  5
2A0
100
AcDbEntity
  8
0
100
AcDbLine
 62
7
  6
CONTINUOUS
 10
3.1523432489
 20
4.0909420853
 11
7.7201814462
 21
4.0909420853
  0
LINE
  5
2A1
100
AcDbEntity
  8
0
100
AcDbLine
 62
7
  6
CONTINUOUS
 10
3.2655464627
 20
4.0973702297
 11
7.6069782324
 21
4.0973702297
  0
LINE
  5
2A2
100
AcDbEntity
  8
0
100
AcDbLine
 62
7
  6
CONTINUOUS
 10
7.1319611489
 20
4.0993990341
 11
3.7405635462
 21
4.0993990341
  0
LINE
  5
2A3
100
AcDbEntity
  8
0
100
AcDbLine
 62
7
  6
CONTINUOUS
 10
5.309279796
 20
3.7601694423
 11
5.309279796
 21
3.7882639305
  0
LINE
  5
2A4
100
AcDbEntity
  8
0
100
AcDbLine
 62
7
  6
CONTINUOUS
 10
5.3194693567
 20
3.7601694423
 11
5.3194693567
 21
3.7882639305
  0
LINE
  5
2A5
100
AcDbEntity
  8
0
100
AcDbLine
 62
7
  6
CONTINUOUS
 10
5.3903354985
 20
3.7601694423
 11
5.3903354985
 21
3.7882639305
  0
LINE
  5
2A6
100
AcDbEntity
  8
0
100
AcDbLine
 62
7
  6
CONTINUOUS
 10
5.3944277468
 20
3.7601694423
 11
5.3944277468
 21
3.7882639305
  0
LINE
  5
2A7
100
AcDbEntity
  8
0
100
AcDbLine
 62
7
  6
CONTINUOUS
 10
5.3996634348
 20
3.7601694423
 11
5.3996634348
 21
3.772515899
  0
LINE
  5
2A8
100
AcDbEntity
  8
0
100
AcDbLine
 62
7
  6
CONTINUOUS
 10
5.4002673006
 20
3.7601694423
 11
5.4002673006
 21
3.772515899
  0
LINE
  5
2A9
100
AcDbEntity
  8
0
100
AcDbLine
 62
7
  6
CONTINUOUS
 10
5.4013912527
 20
3.7601694423
 11
5.4013912527
 21
3.7882639305
  0
LINE
  5
2AA
100
AcDbEntity
  8
0
100
AcDbLine
 62
7
  6
CONTINUOUS
 10
5.4019951186
 20
3.7601694423
 11
5.4019951186
 21
3.7882639305
  0
LINE
  5
2AB
100
AcDbEntity
  8
0
100
AcDbLine
 62
7
  6
CONTINUOUS
 10
2.8175125509
 20
4.0527929461
 11
3.1523432489
 21
4.0909420853
  0
LINE
  5
2AC
100
AcDbEntity
  8
0
100
AcDbLine
 62
7
  6
CONTINUOUS
 10
3.7405635462
 20
4.0993990341
 11
4.9544611489
 21
4.1768414252
  0
LINE
  5
2AD
100
AcDbEntity
  8
0
100
AcDbLine
 62
7
  6
CONTINUOUS
 10
4.9544611489
 20
4.1768414252
 11
5.9180635462
 21
4.1768414252
  0
LINE
  5
2AE
100
AcDbEntity
  8
0
100
AcDbLine
 62
7
  6
CONTINUOUS
 10
5.0181281958
 20
4.1788702297
 11
5.8543964993
 21
4.1788702297
  0
LINE
  5
2AF
100
AcDbEntity
  8
0
100
AcDbLine
 62
7
  6
CONTINUOUS
 10
5.0607623475
 20
4.2124670558
 11
5.8117623475
 21
4.2124670557
  0
LINE
  5
2B0
100
AcDbEntity
  8
0
100
AcDbLine
 62
7
  6
CONTINUOUS
 10
5.8117615348
 20
4.2128702297
 11
5.7091342841
 21
4.2128702297
  0
LINE
  5
2B1
100
AcDbEntity
  8
0
100
AcDbLine
 62
7
  6
CONTINUOUS
 10
5.0766510939
 20
4.2128702297
 11
5.0607631603
 21
4.2128702297
  0
LINE
  5
2B2
100
AcDbEntity
  8
0
100
AcDbLine
 62
7
  6
CONTINUOUS
 10
5.1237623475
 20
4.3053702312
 11
5.7487623475
 21
4.3053702311
  0
LINE
  5
2B3
100
AcDbEntity
  8
0
100
AcDbLine
 62
7
  6
CONTINUOUS
 10
7.1319611489
 20
4.0993990341
 11
5.9180635462
 21
4.1768414252
  0
LINE
  5
2B4
100
AcDbEntity
  8
0
100
AcDbLine
 62
7
  6
CONTINUOUS
 10
8.0550121442
 20
4.0527929461
 11
7.7201814462
 21
4.0909420853
  0
LINE
  5
2B5
100
AcDbEntity
  8
0
100
AcDbLine
 62
7
  6
CONTINUOUS
 10
5.4728612603
 20
3.7601694423
 11
5.4728612603
 21
3.7882639305
  0
LINE
  5
2B6
100
AcDbEntity
  8
0
100
AcDbLine
 62
7
  6
CONTINUOUS
 10
5.4821890225
 20
3.7601694423
 11
5.4821890225
 21
3.7882639305
  0
LINE
  5
2B7
100
AcDbEntity
  8
0
100
AcDbLine
 62
7
  6
CONTINUOUS
 10
5.5530551642
 20
3.7601694423
 11
5.5530551642
 21
3.7882639305
  0
LINE
  5
2B8
100
AcDbEntity
  8
0
100
AcDbLine
 62
7
  6
CONTINUOUS
 10
5.5649621698
 20
3.7601694423
 11
5.5649621698
 21
3.7882639305
  0
LINE
  5
2B9
100
AcDbEntity
  8
0
100
AcDbLine
 62
7
  6
CONTINUOUS
 10
5.6358283115
 20
3.7601694423
 11
5.6358283115
 21
3.7882639305
  0
LINE
  5
2BA
100
AcDbEntity
  8
0
100
AcDbLine
 62
7
  6
CONTINUOUS
 10
5.6482281891
 20
3.7601694423
 11
5.6482281891
 21
3.7882639305
  0
LINE
  5
2BB
100
AcDbEntity
  8
0
100
AcDbLine
 62
7
  6
CONTINUOUS
 10
5.7190943308
 20
3.7601694423
 11
5.7190943308
 21
3.7882639305
  0
LINE
  5
2BC
100
AcDbEntity
  8
0
100
AcDbLine
 62
7
  6
CONTINUOUS
 10
5.7319404181
 20
3.7601694423
 11
5.7319404181
 21
3.7882639305
  0
LINE
  5
2BD
100
AcDbEntity
  8
0
100
AcDbLine
 62
7
  6
CONTINUOUS
 10
5.7487623475
 20
4.9078702297
 11
5.7487623475
 21
4.3053702311
  0
LINE
  5
2BE
100
AcDbEntity
  8
0
100
AcDbLine
 62
7
  6
CONTINUOUS
 10
5.8028065598
 20
3.7601694423
 11
5.8028065598
 21
3.7882639305
  0
LINE
  5
2BF
100
AcDbEntity
  8
0
100
AcDbLine
 62
7
  6
CONTINUOUS
 10
5.8117615348
 20
4.2128702297
 11
5.8117623475
 21
4.1788702297
  0
LINE
  5
2C0
100
AcDbEntity
  8
0
100
AcDbLine
 62
7
  6
CONTINUOUS
 10
5.8692870742
 20
3.7601694423
 11
5.8692870742
 21
3.7882639305
  0
LINE
  5
2C1
100
AcDbEntity
  8
0
100
AcDbLine
 62
7
  6
CONTINUOUS
 10
5.8843372902
 20
3.7601694423
 11
5.8843372902
 21
3.7882639305
  0
LINE
  5
2C2
100
AcDbEntity
  8
0
100
AcDbLine
 62
7
  6
CONTINUOUS
 10
5.955203432
 20
3.7601694423
 11
5.955203432
 21
3.7882639305
  0
LINE
  5
2C3
100
AcDbEntity
  8
0
100
AcDbLine
 62
7
  6
CONTINUOUS
 10
5.9690349763
 20
3.7601694423
 11
5.9690349763
 21
3.7882639305
  0
LINE
  5
2C4
100
AcDbEntity
  8
0
100
AcDbLine
 62
7
  6
CONTINUOUS
 10
6.039901118
 20
3.7601694423
 11
6.039901118
 21
3.7882639305
  0
LINE
  5
2C5
100
AcDbEntity
  8
0
100
AcDbLine
 62
7
  6
CONTINUOUS
 10
5.1237623475
 20
4.9078702297
 11
5.7487623475
 21
4.9078702297
  0
LINE
  5
2C6
100
AcDbEntity
  8
0
100
AcDbLine
 62
7
  6
CONTINUOUS
 10
5.1337623475
 20
4.9178702297
 11
5.7387623475
 21
4.9178702297
  0
LINE
  5
2C7
100
AcDbEntity
  8
0
100
AcDbLine
 62
7
  6
CONTINUOUS
 10
6.0537326623
 20
3.7601694423
 11
6.0537326623
 21
3.7882639305
  0
LINE
  5
2C8
100
AcDbEntity
  8
0
100
AcDbLine
 62
7
  6
CONTINUOUS
 10
6.1245988041
 20
3.7601694423
 11
6.1245988041
 21
3.7882639305
  0
LINE
  5
2C9
100
AcDbEntity
  8
0
100
AcDbLine
 62
7
  6
CONTINUOUS
 10
6.1605368382
 20
3.7601694423
 11
6.1605368382
 21
3.7882639305
  0
LINE
  5
2CA
100
AcDbEntity
  8
0
100
AcDbLine
 62
7
  6
CONTINUOUS
 10
6.1825807904
 20
3.7601694423
 11
6.1825807904
 21
3.7882639305
  0
LINE
  5
2CB
100
AcDbEntity
  8
0
100
AcDbLine
 62
7
  6
CONTINUOUS
 10
5.7387623475
 20
4.9178702297
 11
5.7487623475
 21
4.9078702297
  0
LINE
  5
2CC
100
AcDbEntity
  8
0
100
AcDbLine
 62
7
  6
CONTINUOUS
 10
6.2534469321
 20
3.7601694423
 11
6.2534469321
 21
3.7882639305
  0
LINE
  5
2CD
100
AcDbEntity
  8
0
100
AcDbLine
 62
7
  6
CONTINUOUS
 10
6.271296101
 20
3.7601694423
 11
6.271296101
 21
3.7882639305
  0
LINE
  5
2CE
100
AcDbEntity
  8
0
100
AcDbLine
 62
7
  6
CONTINUOUS
 10
6.3421622428
 20
3.7601694423
 11
6.3421622428
 21
3.7882639305
  0
LINE
  5
2CF
100
AcDbEntity
  8
0
100
AcDbLine
 62
7
  6
CONTINUOUS
 10
6.3594482584
 20
3.7601694423
 11
6.3594482584
 21
3.7882639305
  0
LINE
  5
2D0
100
AcDbEntity
  8
0
100
AcDbLine
 62
7
  6
CONTINUOUS
 10
6.4303144001
 20
3.7601694423
 11
6.4303144001
 21
3.7882639305
  0
LINE
  5
2D1
100
AcDbEntity
  8
0
100
AcDbLine
 62
7
  6
CONTINUOUS
 10
6.4388387944
 20
3.7601694423
 11
6.4388387944
 21
3.7882639305
  0
LINE
  5
2D2
100
AcDbEntity
  8
0
100
AcDbLine
 62
7
  6
CONTINUOUS
 10
6.4466579981
 20
3.7601694423
 11
6.4466579981
 21
3.7882639305
  0
LINE
  5
2D3
100
AcDbEntity
  8
0
100
AcDbLine
 62
7
  6
CONTINUOUS
 10
6.5175241398
 20
3.7601694423
 11
6.5175241398
 21
3.7882639305
  0
LINE
  5
2D4
100
AcDbEntity
  8
0
100
AcDbLine
 62
7
  6
CONTINUOUS
 10
6.5260581637
 20
3.7601694423
 11
6.5260581637
 21
3.7882639305
  0
LINE
  5
2D5
100
AcDbEntity
  8
0
100
AcDbLine
 62
7
  6
CONTINUOUS
 10
6.5267422061
 20
3.7601694423
 11
6.5267422061
 21
3.7882639305
  0
LINE
  5
2D6
100
AcDbEntity
  8
0
100
AcDbLine
 62
7
  6
CONTINUOUS
 10
6.545882807
 20
3.7601694423
 11
6.545882807
 21
3.7882639305
  0
LINE
  5
2D7
100
AcDbEntity
  8
0
100
AcDbLine
 62
7
  6
CONTINUOUS
 10
6.6167489487
 20
3.7601694423
 11
6.6167489487
 21
3.7882639305
  0
LINE
  5
2D8
100
AcDbEntity
  8
0
100
AcDbLine
 62
7
  6
CONTINUOUS
 10
6.6396731018
 20
3.7601694423
 11
6.6396731018
 21
3.7882639305
  0
LINE
  5
2D9
100
AcDbEntity
  8
0
100
AcDbLine
 62
7
  6
CONTINUOUS
 10
6.6415594737
 20
3.7601694423
 11
6.6415594737
 21
3.7882639305
  0
LINE
  5
2DA
100
AcDbEntity
  8
0
100
AcDbLine
 62
7
  6
CONTINUOUS
 10
6.7124256154
 20
3.7601694423
 11
6.7124256154
 21
3.7882639305
  0
LINE
  5
2DB
100
AcDbEntity
  8
0
100
AcDbLine
 62
7
  6
CONTINUOUS
 10
6.735893614
 20
3.7601694423
 11
6.735893614
 21
3.7882639305
  0
LINE
  5
2DC
100
AcDbEntity
  8
0
100
AcDbLine
 62
7
  6
CONTINUOUS
 10
6.7561440411
 20
3.7601694423
 11
6.7561440411
 21
3.7882639305
  0
LINE
  5
2DD
100
AcDbEntity
  8
0
100
AcDbLine
 62
7
  6
CONTINUOUS
 10
6.782666657
 20
3.7601694423
 11
6.782666657
 21
3.7882639305
  0
LINE
  5
2DE
100
AcDbEntity
  8
0
100
AcDbLine
 62
7
  6
CONTINUOUS
 10
6.7836645112
 20
3.7601694423
 11
6.7836645112
 21
3.7882639305
  0
LINE
  5
2DF
100
AcDbEntity
  8
0
100
AcDbLine
 62
7
  6
CONTINUOUS
 10
6.8545306529
 20
3.7601694423
 11
6.8545306529
 21
3.7882639305
  0
LINE
  5
2E0
100
AcDbEntity
  8
0
100
AcDbLine
 62
7
  6
CONTINUOUS
 10
6.8931197937
 20
3.7601694423
 11
6.8931197937
 21
3.7882639305
  0
LINE
  5
2E1
100
AcDbEntity
  8
0
100
AcDbLine
 62
7
  6
CONTINUOUS
 10
6.9639859355
 20
3.7601694423
 11
6.9639859355
 21
3.7882639305
  0
LINE
  5
2E2
100
AcDbEntity
  8
0
100
AcDbLine
 62
7
  6
CONTINUOUS
 10
6.9769982906
 20
3.7601694423
 11
6.9769982906
 21
3.7882639305
  0
LINE
  5
2E3
100
AcDbEntity
  8
0
100
AcDbLine
 62
7
  6
CONTINUOUS
 10
7.0478644323
 20
3.7601694423
 11
7.0478644323
 21
3.7882639305
  0
LINE
  5
2E4
100
AcDbEntity
  8
0
100
AcDbLine
 62
7
  6
CONTINUOUS
 10
7.1065644393
 20
3.7601694423
 11
7.1065644393
 21
3.7882639305
  0
LINE
  5
2E5
100
AcDbEntity
  8
0
100
AcDbLine
 62
7
  6
CONTINUOUS
 10
7.1079349686
 20
3.7601694423
 11
7.1079349686
 21
3.7882639305
  0
LINE
  5
2E6
100
AcDbEntity
  8
0
100
AcDbLine
 62
7
  6
CONTINUOUS
 10
7.1788011104
 20
3.7601694423
 11
7.1788011104
 21
3.7882639305
  0
LINE
  5
2E7
100
AcDbEntity
  8
0
100
AcDbLine
 62
7
  6
CONTINUOUS
 10
7.1905360358
 20
3.7601694423
 11
7.1905360358
 21
3.7882639305
  0
LINE
  5
2E8
100
AcDbEntity
  8
0
100
AcDbLine
 62
7
  6
CONTINUOUS
 10
7.2068226777
 20
3.7601694423
 11
7.2068226777
 21
3.7882639305
  0
LINE
  5
2E9
100
AcDbEntity
  8
0
100
AcDbLine
 62
7
  6
CONTINUOUS
 10
7.207093485
 20
3.7601694423
 11
7.207093485
 21
3.7882639305
  0
LINE
  5
2EA
100
AcDbEntity
  8
0
100
AcDbLine
 62
7
  6
CONTINUOUS
 10
7.2779596267
 20
3.7601694423
 11
7.2779596267
 21
3.7882639305
  0
LINE
  5
2EB
100
AcDbEntity
  8
0
100
AcDbLine
 62
7
  6
CONTINUOUS
 10
7.2807155358
 20
3.7601694423
 11
7.2807155358
 21
3.7882639305
  0
LINE
  5
2EC
100
AcDbEntity
  8
0
100
AcDbLine
 62
7
  6
CONTINUOUS
 10
7.3515816776
 20
3.7601694423
 11
7.3515816776
 21
3.7882639305
  0
LINE
  5
2ED
100
AcDbEntity
  8
0
100
AcDbLine
 62
7
  6
CONTINUOUS
 10
7.4064865344
 20
3.7601694423
 11
7.4064865344
 21
3.7882639305
  0
LINE
  5
2EE
100
AcDbEntity
  8
0
100
AcDbLine
 62
7
  6
CONTINUOUS
 10
7.4072070644
 20
3.7601694423
 11
7.4072070644
 21
3.7882639305
  0
LINE
  5
2EF
100
AcDbEntity
  8
0
100
AcDbLine
 62
7
  6
CONTINUOUS
 10
7.4780732061
 20
3.7601694423
 11
7.4780732061
 21
3.7882639305
  0
LINE
  5
2F0
100
AcDbEntity
  8
0
100
AcDbLine
 62
7
  6
CONTINUOUS
 10
7.4839301573
 20
3.7601694423
 11
7.4839301573
 21
3.7882639305
  0
LINE
  5
2F1
100
AcDbEntity
  8
0
100
AcDbLine
 62
7
  6
CONTINUOUS
 10
7.484294913
 20
3.7601694423
 11
7.484294913
 21
3.7882639305
  0
LINE
  5
2F2
100
AcDbEntity
  8
0
100
AcDbLine
 62
7
  6
CONTINUOUS
 10
7.5551610547
 20
3.7601694423
 11
7.5551610547
 21
3.7882639305
  0
LINE
  5
2F3
100
AcDbEntity
  8
0
100
AcDbLine
 62
7
  6
CONTINUOUS
 10
7.5809470647
 20
3.7601694423
 11
7.5809470647
 21
3.7882639305
  0
LINE
  5
2F4
100
AcDbEntity
  8
0
100
AcDbLine
 62
7
  6
CONTINUOUS
 10
8.2253026501
 20
4.0463648018
 11
8.2253579188
 21
3.9257639305
  0
LINE
  5
2F5
100
AcDbEntity
  8
0
100
AcDbLine
 62
7
  6
CONTINUOUS
 10
8.2254819386
 20
3.9257639305
 11
8.2254819386
 21
3.8672639305
  0
LINE
  5
2F6
100
AcDbEntity
  8
0
100
AcDbLine
 62
7
  6
CONTINUOUS
 10
8.3253026348
 20
3.9463648018
 11
8.3253026348
 21
3.9263702297
  0
LINE
  5
2F7
100
AcDbEntity
  8
0
100
AcDbLine
 62
7
  6
CONTINUOUS
 10
8.3254266505
 20
3.9257639305
 11
8.3254266505
 21
3.8672639305
  0
LINE
  5
2F8
100
AcDbEntity
  8
0
100
AcDbLine
 62
7
  6
CONTINUOUS
 10
8.2254382731
 20
3.7882639305
 11
8.2254819386
 21
3.8672639305
  0
ARC
  5
2F9
100
AcDbEntity
  8
0
100
AcDbCircle
 62
7
  6
CONTINUOUS
 10
3.2655464627
 20
3.0973702297
 40
1.0
100
AcDbArc
 50
90.0
 51
96.5
  0
ARC
  5
2FA
100
AcDbEntity
  8
0
100
AcDbCircle
 62
7
  6
CONTINUOUS
 10
2.6503035017
 20
3.9463648018
 40
0.1
100
AcDbArc
 50
90.0
 51
180.0
  0
ARC
  5
2FB
100
AcDbEntity
  8
0
100
AcDbCircle
 62
7
  6
CONTINUOUS
 10
2.647222045
 20
3.9463648018
 40
0.1
100
AcDbArc
 50
90.0
 51
180.0
  0
ARC
  5
2FC
100
AcDbEntity
  8
0
100
AcDbCircle
 62
7
  6
CONTINUOUS
 10
2.6263460639
 20
3.8672639305
 40
0.079
100
AcDbArc
 50
180.0
 51
270.0
  0
ARC
  5
2FD
100
AcDbEntity
  8
0
100
AcDbCircle
 62
7
  6
CONTINUOUS
 10
2.6294275206
 20
3.8672639305
 40
0.079
100
AcDbArc
 50
180.0
 51
270.0
  0
ARC
  5
2FE
100
AcDbEntity
  8
0
100
AcDbCircle
 62
7
  6
CONTINUOUS
 10
2.5753035132
 20
3.9263702297
 40
0.025
100
AcDbArc
 50
180.0
 51
185.7093386674
  0
ARC
  5
2FF
100
AcDbEntity
  8
0
100
AcDbCircle
 62
7
  6
CONTINUOUS
 10
2.5722220564
 20
3.9263702297
 40
0.025
100
AcDbArc
 50
180.0
 51
185.7093386674
  0
ARC
  5
300
100
AcDbEntity
  8
0
100
AcDbCircle
 62
7
  6
CONTINUOUS
 10
3.6996290965
 20
3.7601694423
 40
0.0059055118
100
AcDbArc
 50
254.9336691301
 51
270.0
  0
ARC
  5
301
100
AcDbEntity
  8
0
100
AcDbCircle
 62
7
  6
CONTINUOUS
 10
3.5268485293
 20
3.7601694423
 40
0.0059055118
100
AcDbArc
 50
180.0
 51
270.0
  0
ARC
  5
302
100
AcDbEntity
  8
0
100
AcDbCircle
 62
7
  6
CONTINUOUS
 10
3.4003570008
 20
3.7601694423
 40
0.0059055118
100
AcDbArc
 50
180.0
 51
270.0
  0
ARC
  5
303
100
AcDbEntity
  8
0
100
AcDbCircle
 62
7
  6
CONTINUOUS
 10
3.2974831422
 20
3.7601694423
 40
0.0059055118
100
AcDbArc
 50
180.0
 51
270.0
  0
ARC
  5
304
100
AcDbEntity
  8
0
100
AcDbCircle
 62
7
  6
CONTINUOUS
 10
3.3236339079
 20
3.7601694423
 40
0.0059055118
100
AcDbArc
 50
180.0
 51
270.0
  0
ARC
  5
305
100
AcDbEntity
  8
0
100
AcDbCircle
 62
7
  6
CONTINUOUS
 10
3.382689026
 20
3.7601694423
 40
0.0059055118
100
AcDbArc
 50
270.0
 51
360.0
  0
ARC
  5
306
100
AcDbEntity
  8
0
100
AcDbCircle
 62
7
  6
CONTINUOUS
 10
3.4010775307
 20
3.7601694423
 40
0.0059055118
100
AcDbArc
 50
180.0
 51
270.0
  0
ARC
  5
307
100
AcDbEntity
  8
0
100
AcDbCircle
 62
7
  6
CONTINUOUS
 10
3.4601326488
 20
3.7601694423
 40
0.0059055118
100
AcDbArc
 50
270.0
 51
360.0
  0
ARC
  5
308
100
AcDbEntity
  8
0
100
AcDbCircle
 62
7
  6
CONTINUOUS
 10
3.5279070916
 20
3.7601694423
 40
0.0059055118
100
AcDbArc
 50
180.0
 51
270.0
  0
ARC
  5
309
100
AcDbEntity
  8
0
100
AcDbCircle
 62
7
  6
CONTINUOUS
 10
3.5869622097
 20
3.7601694423
 40
0.0059055118
100
AcDbArc
 50
270.0
 51
360.0
  0
ARC
  5
30A
100
AcDbEntity
  8
0
100
AcDbCircle
 62
7
  6
CONTINUOUS
 10
3.7009996259
 20
3.7601694423
 40
0.0059055118
100
AcDbArc
 50
180.0
 51
270.0
  0
ARC
  5
30B
100
AcDbEntity
  8
0
100
AcDbCircle
 62
7
  6
CONTINUOUS
 10
3.760054744
 20
3.7601694423
 40
0.0059055118
100
AcDbArc
 50
270.0
 51
360.0
  0
ARC
  5
30C
100
AcDbEntity
  8
0
100
AcDbCircle
 62
7
  6
CONTINUOUS
 10
3.9160930209
 20
3.7601694423
 40
0.0059055118
100
AcDbArc
 50
180.0
 51
270.0
  0
ARC
  5
30D
100
AcDbEntity
  8
0
100
AcDbCircle
 62
7
  6
CONTINUOUS
 10
3.975148139
 20
3.7601694423
 40
0.0059055118
100
AcDbArc
 50
270.0
 51
360.0
  0
ARC
  5
30E
100
AcDbEntity
  8
0
100
AcDbCircle
 62
7
  6
CONTINUOUS
 10
3.6375039516
 20
3.7601694423
 40
0.0059055118
100
AcDbArc
 50
180.0
 51
270.0
  0
ARC
  5
30F
100
AcDbEntity
  8
0
100
AcDbCircle
 62
7
  6
CONTINUOUS
 10
3.6965590697
 20
3.7601694423
 40
0.0059055118
100
AcDbArc
 50
270.0
 51
292.0915618105
  0
ARC
  5
310
100
AcDbEntity
  8
0
100
AcDbCircle
 62
7
  6
CONTINUOUS
 10
3.812353159
 20
3.7601694423
 40
0.0059055118
100
AcDbArc
 50
270.0
 51
360.0
  0
ARC
  5
311
100
AcDbEntity
  8
0
100
AcDbCircle
 62
7
  6
CONTINUOUS
 10
3.9812930103
 20
3.7601694423
 40
0.0059055118
100
AcDbArc
 50
270.0
 51
360.0
  0
ARC
  5
312
100
AcDbEntity
  8
0
100
AcDbCircle
 62
7
  6
CONTINUOUS
 10
3.8447271531
 20
3.7601694423
 40
0.0059055118
100
AcDbArc
 50
180.0
 51
270.0
  0
ARC
  5
313
100
AcDbEntity
  8
0
100
AcDbCircle
 62
7
  6
CONTINUOUS
 10
3.8790402712
 20
3.7601694423
 40
0.0059055118
100
AcDbArc
 50
180.0
 51
270.0
  0
ARC
  5
314
100
AcDbEntity
  8
0
100
AcDbCircle
 62
7
  6
CONTINUOUS
 10
5.0181281958
 20
3.1788702297
 40
1.0
100
AcDbArc
 50
90.0
 51
93.650322013
  0
ARC
  5
315
100
AcDbEntity
  8
0
100
AcDbCircle
 62
7
  6
CONTINUOUS
 10
5.4055689466
 20
3.7601694423
 40
0.0059055118
100
AcDbArc
 50
180.0
 51
270.0
  0
ARC
  5
316
100
AcDbEntity
  8
0
100
AcDbCircle
 62
7
  6
CONTINUOUS
 10
4.7538314028
 20
3.7601694423
 40
0.0059055118
100
AcDbArc
 50
223.3157917041
 51
270.0
  0
ARC
  5
317
100
AcDbEntity
  8
0
100
AcDbCircle
 62
7
  6
CONTINUOUS
 10
4.1678909633
 20
3.7601694423
 40
0.0059055118
100
AcDbArc
 50
180.0
 51
270.0
  0
ARC
  5
318
100
AcDbEntity
  8
0
100
AcDbCircle
 62
7
  6
CONTINUOUS
 10
4.2269460814
 20
3.7601694423
 40
0.0059055118
100
AcDbArc
 50
270.0
 51
360.0
  0
ARC
  5
319
100
AcDbEntity
  8
0
100
AcDbCircle
 62
7
  6
CONTINUOUS
 10
4.4501933522
 20
3.7601694423
 40
0.0059055118
100
AcDbArc
 50
180.0
 51
270.0
  0
ARC
  5
31A
100
AcDbEntity
  8
0
100
AcDbCircle
 62
7
  6
CONTINUOUS
 10
4.5092484704
 20
3.7601694423
 40
0.0059055118
100
AcDbArc
 50
270.0
 51
360.0
  0
ARC
  5
31B
100
AcDbEntity
  8
0
100
AcDbCircle
 62
7
  6
CONTINUOUS
 10
4.7560489659
 20
3.7601694423
 40
0.0059055118
100
AcDbArc
 50
180.0
 51
270.0
  0
ARC
  5
31C
100
AcDbEntity
  8
0
100
AcDbCircle
 62
7
  6
CONTINUOUS
 10
4.815104084
 20
3.7601694423
 40
0.0059055118
100
AcDbArc
 50
270.0
 51
360.0
  0
ARC
  5
31D
100
AcDbEntity
  8
0
100
AcDbCircle
 62
7
  6
CONTINUOUS
 10
5.077926624
 20
3.7601694423
 40
0.0059055118
100
AcDbArc
 50
180.0
 51
270.0
  0
ARC
  5
31E
100
AcDbEntity
  8
0
100
AcDbCircle
 62
7
  6
CONTINUOUS
 10
5.1369817421
 20
3.7601694423
 40
0.0059055118
100
AcDbArc
 50
270.0
 51
360.0
  0
ARC
  5
31F
100
AcDbEntity
  8
0
100
AcDbCircle
 62
7
  6
CONTINUOUS
 10
5.4079006304
 20
3.7601694423
 40
0.0059055118
100
AcDbArc
 50
180.0
 51
270.0
  0
ARC
  5
320
100
AcDbEntity
  8
0
100
AcDbCircle
 62
7
  6
CONTINUOUS
 10
5.3235397346
 20
3.7601694423
 40
0.0059055118
100
AcDbArc
 50
260.3688188501
 51
270.0
  0
ARC
  5
321
100
AcDbEntity
  8
0
100
AcDbCircle
 62
7
  6
CONTINUOUS
 10
4.1388933388
 20
3.7601694423
 40
0.0059055118
100
AcDbArc
 50
180.0
 51
270.0
  0
ARC
  5
322
100
AcDbEntity
  8
0
100
AcDbCircle
 62
7
  6
CONTINUOUS
 10
4.3963005106
 20
3.7601694423
 40
0.0059055118
100
AcDbArc
 50
180.0
 51
270.0
  0
ARC
  5
323
100
AcDbEntity
  8
0
100
AcDbCircle
 62
7
  6
CONTINUOUS
 10
4.6861856709
 20
3.7601694423
 40
0.0059055118
100
AcDbArc
 50
180.0
 51
270.0
  0
ARC
  5
324
100
AcDbEntity
  8
0
100
AcDbCircle
 62
7
  6
CONTINUOUS
 10
4.745240789
 20
3.7601694423
 40
0.0059055118
100
AcDbArc
 50
270.0
 51
336.2316234998
  0
ARC
  5
325
100
AcDbEntity
  8
0
100
AcDbCircle
 62
7
  6
CONTINUOUS
 10
4.9992311558
 20
3.7601694423
 40
0.0059055118
100
AcDbArc
 50
180.0
 51
270.0
  0
ARC
  5
326
100
AcDbEntity
  8
0
100
AcDbCircle
 62
7
  6
CONTINUOUS
 10
5.0582862739
 20
3.7601694423
 40
0.0059055118
100
AcDbArc
 50
270.0
 51
360.0
  0
ARC
  5
327
100
AcDbEntity
  8
0
100
AcDbCircle
 62
7
  6
CONTINUOUS
 10
5.3253748685
 20
3.7601694423
 40
0.0059055118
100
AcDbArc
 50
180.0
 51
270.0
  0
ARC
  5
328
100
AcDbEntity
  8
0
100
AcDbCircle
 62
7
  6
CONTINUOUS
 10
5.3844299866
 20
3.7601694423
 40
0.0059055118
100
AcDbArc
 50
270.0
 51
360.0
  0
ARC
  5
329
100
AcDbEntity
  8
0
100
AcDbCircle
 62
7
  6
CONTINUOUS
 10
5.2426018954
 20
3.7601694423
 40
0.0059055118
100
AcDbArc
 50
180.0
 51
270.0
  0
ARC
  5
32A
100
AcDbEntity
  8
0
100
AcDbCircle
 62
7
  6
CONTINUOUS
 10
4.9232267749
 20
3.7601694423
 40
0.0059055118
100
AcDbArc
 50
251.8131522091
 51
270.0
  0
ARC
  5
32B
100
AcDbEntity
  8
0
100
AcDbCircle
 62
7
  6
CONTINUOUS
 10
4.3609060671
 20
3.7601694423
 40
0.0059055118
100
AcDbArc
 50
180.0
 51
270.0
  0
ARC
  5
32C
100
AcDbEntity
  8
0
100
AcDbCircle
 62
7
  6
CONTINUOUS
 10
4.0391760886
 20
3.7601694423
 40
0.0059055118
100
AcDbArc
 50
270.0
 51
360.0
  0
ARC
  5
32D
100
AcDbEntity
  8
0
100
AcDbCircle
 62
7
  6
CONTINUOUS
 10
4.3621892775
 20
3.7601694423
 40
0.0059055118
100
AcDbArc
 50
180.0
 51
270.0
  0
ARC
  5
32E
100
AcDbEntity
  8
0
100
AcDbCircle
 62
7
  6
CONTINUOUS
 10
4.6264786668
 20
3.7601694423
 40
0.0059055118
100
AcDbArc
 50
180.0
 51
270.0
  0
ARC
  5
32F
100
AcDbEntity
  8
0
100
AcDbCircle
 62
7
  6
CONTINUOUS
 10
4.6855337849
 20
3.7601694423
 40
0.0059055118
100
AcDbArc
 50
270.0
 51
273.1642222436
  0
ARC
  5
330
100
AcDbEntity
  8
0
100
AcDbCircle
 62
7
  6
CONTINUOUS
 10
4.9248689927
 20
3.7601694423
 40
0.0059055118
100
AcDbArc
 50
180.0
 51
270.0
  0
ARC
  5
331
100
AcDbEntity
  8
0
100
AcDbCircle
 62
7
  6
CONTINUOUS
 10
4.9839241108
 20
3.7601694423
 40
0.0059055118
100
AcDbArc
 50
270.0
 51
360.0
  0
ARC
  5
332
100
AcDbEntity
  8
0
100
AcDbCircle
 62
7
  6
CONTINUOUS
 10
5.2443191661
 20
3.7601694423
 40
0.0059055118
100
AcDbArc
 50
180.0
 51
270.0
  0
ARC
  5
333
100
AcDbEntity
  8
0
100
AcDbCircle
 62
7
  6
CONTINUOUS
 10
5.3033742842
 20
3.7601694423
 40
0.0059055118
100
AcDbArc
 50
270.0
 51
360.0
  0
ARC
  5
334
100
AcDbEntity
  8
0
100
AcDbCircle
 62
7
  6
CONTINUOUS
 10
5.1653557418
 20
3.7601694423
 40
0.0059055118
100
AcDbArc
 50
180.0
 51
270.0
  0
ARC
  5
335
100
AcDbEntity
  8
0
100
AcDbCircle
 62
7
  6
CONTINUOUS
 10
4.1323254464
 20
3.7601694423
 40
0.0059055118
100
AcDbArc
 50
180.0
 51
270.0
  0
ARC
  5
336
100
AcDbEntity
  8
0
100
AcDbCircle
 62
7
  6
CONTINUOUS
 10
4.1325034072
 20
3.7601694423
 40
0.0059055118
100
AcDbArc
 50
180.0
 51
270.0
  0
ARC
  5
337
100
AcDbEntity
  8
0
100
AcDbCircle
 62
7
  6
CONTINUOUS
 10
4.27180113
 20
3.7601694423
 40
0.0059055118
100
AcDbArc
 50
270.0
 51
360.0
  0
ARC
  5
338
100
AcDbEntity
  8
0
100
AcDbCircle
 62
7
  6
CONTINUOUS
 10
4.588543449
 20
3.7601694423
 40
0.0059055118
100
AcDbArc
 50
180.0
 51
270.0
  0
ARC
  5
339
100
AcDbEntity
  8
0
100
AcDbCircle
 62
7
  6
CONTINUOUS
 10
4.8604855462
 20
3.7601694423
 40
0.0059055118
100
AcDbArc
 50
180.0
 51
270.0
  0
ARC
  5
33A
100
AcDbEntity
  8
0
100
AcDbCircle
 62
7
  6
CONTINUOUS
 10
4.9195406643
 20
3.7601694423
 40
0.0059055118
100
AcDbArc
 50
270.0
 51
296.8185102274
  0
ARC
  5
33B
100
AcDbEntity
  8
0
100
AcDbCircle
 62
7
  6
CONTINUOUS
 10
5.1667504923
 20
3.7601694423
 40
0.0059055118
100
AcDbArc
 50
180.0
 51
270.0
  0
ARC
  5
33C
100
AcDbEntity
  8
0
100
AcDbCircle
 62
7
  6
CONTINUOUS
 10
5.2258056104
 20
3.7601694423
 40
0.0059055118
100
AcDbArc
 50
270.0
 51
360.0
  0
ARC
  5
33D
100
AcDbEntity
  8
0
100
AcDbCircle
 62
7
  6
CONTINUOUS
 10
5.4061728124
 20
3.7601694423
 40
0.0059055118
100
AcDbArc
 50
180.0
 51
270.0
  0
ARC
  5
33E
100
AcDbEntity
  8
0
100
AcDbCircle
 62
7
  6
CONTINUOUS
 10
4.5838508968
 20
3.7601694423
 40
0.0059055118
100
AcDbArc
 50
180.0
 51
270.0
  0
ARC
  5
33F
100
AcDbEntity
  8
0
100
AcDbCircle
 62
7
  6
CONTINUOUS
 10
4.5845115393
 20
3.7601694423
 40
0.0059055118
100
AcDbArc
 50
180.0
 51
270.0
  0
ARC
  5
340
100
AcDbEntity
  8
0
100
AcDbCircle
 62
7
  6
CONTINUOUS
 10
5.1521368713
 20
3.7601694423
 40
0.0059055118
100
AcDbArc
 50
270.0
 51
360.0
  0
ARC
  5
341
100
AcDbEntity
  8
0
100
AcDbCircle
 62
7
  6
CONTINUOUS
 10
5.4072967645
 20
3.7601694423
 40
0.0059055118
100
AcDbArc
 50
180.0
 51
270.0
  0
ARC
  5
342
100
AcDbEntity
  8
0
100
AcDbCircle
 62
7
  6
CONTINUOUS
 10
5.3885222349
 20
3.7601694423
 40
0.0059055118
100
AcDbArc
 50
270.0
 51
360.0
  0
ARC
  5
343
100
AcDbEntity
  8
0
100
AcDbCircle
 62
7
  6
CONTINUOUS
 10
4.998270293
 20
3.7601694423
 40
0.0059055118
100
AcDbArc
 50
270.0
 51
274.6678887817
  0
ARC
  5
344
100
AcDbEntity
  8
0
100
AcDbCircle
 62
7
  6
CONTINUOUS
 10
5.3215641643
 20
3.7601694423
 40
0.0059055118
100
AcDbArc
 50
270.0
 51
288.8281074184
  0
ARC
  5
345
100
AcDbEntity
  8
0
100
AcDbCircle
 62
7
  6
CONTINUOUS
 10
2.7043093371
 20
5.0463648018
 40
1.0
100
AcDbArc
 50
270.0
 51
276.5
  0
ARC
  5
346
100
AcDbEntity
  8
0
100
AcDbCircle
 62
7
  6
CONTINUOUS
 10
3.6768964993
 20
5.0973702297
 40
1.0
100
AcDbArc
 50
270.0
 51
273.650322013
  0
ARC
  5
347
100
AcDbEntity
  8
0
100
AcDbCircle
 62
7
  6
CONTINUOUS
 10
5.1607623475
 20
4.2124670558
 40
0.1
100
AcDbArc
 50
111.7156172833
 51
125.8036763309
  0
ARC
  5
348
100
AcDbEntity
  8
0
100
AcDbCircle
 62
7
  6
CONTINUOUS
 10
5.8543964993
 20
3.1788702297
 40
1.0
100
AcDbArc
 50
86.349677987
 51
90.0
  0
ARC
  5
349
100
AcDbEntity
  8
0
100
AcDbCircle
 62
7
  6
CONTINUOUS
 10
6.3653537702
 20
3.7601694423
 40
0.0059055118
100
AcDbArc
 50
180.0
 51
270.0
  0
ARC
  5
34A
100
AcDbEntity
  8
0
100
AcDbCircle
 62
7
  6
CONTINUOUS
 10
6.4244088883
 20
3.7601694423
 40
0.0059055118
100
AcDbArc
 50
270.0
 51
360.0
  0
ARC
  5
34B
100
AcDbEntity
  8
0
100
AcDbCircle
 62
7
  6
CONTINUOUS
 10
6.6474649855
 20
3.7601694423
 40
0.0059055118
100
AcDbArc
 50
180.0
 51
270.0
  0
ARC
  5
34C
100
AcDbEntity
  8
0
100
AcDbCircle
 62
7
  6
CONTINUOUS
 10
6.7065201036
 20
3.7601694423
 40
0.0059055118
100
AcDbArc
 50
270.0
 51
360.0
  0
ARC
  5
34D
100
AcDbEntity
  8
0
100
AcDbCircle
 62
7
  6
CONTINUOUS
 10
6.6455786136
 20
3.7601694423
 40
0.0059055118
100
AcDbArc
 50
180.0
 51
270.0
  0
ARC
  5
34E
100
AcDbEntity
  8
0
100
AcDbCircle
 62
7
  6
CONTINUOUS
 10
5.4669557485
 20
3.7601694423
 40
0.0059055118
100
AcDbArc
 50
270.0
 51
360.0
  0
ARC
  5
34F
100
AcDbEntity
  8
0
100
AcDbCircle
 62
7
  6
CONTINUOUS
 10
5.7378459299
 20
3.7601694423
 40
0.0059055118
100
AcDbArc
 50
180.0
 51
270.0
  0
ARC
  5
350
100
AcDbEntity
  8
0
100
AcDbCircle
 62
7
  6
CONTINUOUS
 10
5.796901048
 20
3.7601694423
 40
0.0059055118
100
AcDbArc
 50
270.0
 51
360.0
  0
ARC
  5
351
100
AcDbEntity
  8
0
100
AcDbCircle
 62
7
  6
CONTINUOUS
 10
6.1186932923
 20
3.7601694423
 40
0.0059055118
100
AcDbArc
 50
270.0
 51
360.0
  0
ARC
  5
352
100
AcDbEntity
  8
0
100
AcDbCircle
 62
7
  6
CONTINUOUS
 10
6.0596381741
 20
3.7601694423
 40
0.0059055118
100
AcDbArc
 50
180.0
 51
270.0
  0
ARC
  5
353
100
AcDbEntity
  8
0
100
AcDbCircle
 62
7
  6
CONTINUOUS
 10
6.2772016128
 20
3.7601694423
 40
0.0059055118
100
AcDbArc
 50
180.0
 51
270.0
  0
ARC
  5
354
100
AcDbEntity
  8
0
100
AcDbCircle
 62
7
  6
CONTINUOUS
 10
6.3362567309
 20
3.7601694423
 40
0.0059055118
100
AcDbArc
 50
270.0
 51
360.0
  0
ARC
  5
355
100
AcDbEntity
  8
0
100
AcDbCircle
 62
7
  6
CONTINUOUS
 10
6.5517883188
 20
3.7601694423
 40
0.0059055118
100
AcDbArc
 50
180.0
 51
270.0
  0
ARC
  5
356
100
AcDbEntity
  8
0
100
AcDbCircle
 62
7
  6
CONTINUOUS
 10
6.6108434369
 20
3.7601694423
 40
0.0059055118
100
AcDbArc
 50
270.0
 51
360.0
  0
ARC
  5
357
100
AcDbEntity
  8
0
100
AcDbCircle
 62
7
  6
CONTINUOUS
 10
6.789570023
 20
3.7601694423
 40
0.0059055118
100
AcDbArc
 50
180.0
 51
270.0
  0
ARC
  5
358
100
AcDbEntity
  8
0
100
AcDbCircle
 62
7
  6
CONTINUOUS
 10
6.8486251411
 20
3.7601694423
 40
0.0059055118
100
AcDbArc
 50
270.0
 51
360.0
  0
ARC
  5
359
100
AcDbEntity
  8
0
100
AcDbCircle
 62
7
  6
CONTINUOUS
 10
6.7885721688
 20
3.7601694423
 40
0.0059055118
100
AcDbArc
 50
180.0
 51
270.0
  0
ARC
  5
35A
100
AcDbEntity
  8
0
100
AcDbCircle
 62
7
  6
CONTINUOUS
 10
5.9731934458
 20
3.7601694423
 40
0.0059055118
100
AcDbArc
 50
213.3853066211
 51
270.0
  0
ARC
  5
35B
100
AcDbEntity
  8
0
100
AcDbCircle
 62
7
  6
CONTINUOUS
 10
5.6541337009
 20
3.7601694423
 40
0.0059055118
100
AcDbArc
 50
180.0
 51
270.0
  0
ARC
  5
35C
100
AcDbEntity
  8
0
100
AcDbCircle
 62
7
  6
CONTINUOUS
 10
5.713188819
 20
3.7601694423
 40
0.0059055118
100
AcDbArc
 50
270.0
 51
360.0
  0
ARC
  5
35D
100
AcDbEntity
  8
0
100
AcDbCircle
 62
7
  6
CONTINUOUS
 10
6.0339956062
 20
3.7601694423
 40
0.0059055118
100
AcDbArc
 50
270.0
 51
360.0
  0
ARC
  5
35E
100
AcDbEntity
  8
0
100
AcDbCircle
 62
7
  6
CONTINUOUS
 10
5.9749404881
 20
3.7601694423
 40
0.0059055118
100
AcDbArc
 50
180.0
 51
270.0
  0
ARC
  5
35F
100
AcDbEntity
  8
0
100
AcDbCircle
 62
7
  6
CONTINUOUS
 10
6.1884863022
 20
3.7601694423
 40
0.0059055118
100
AcDbArc
 50
180.0
 51
270.0
  0
ARC
  5
360
100
AcDbEntity
  8
0
100
AcDbCircle
 62
7
  6
CONTINUOUS
 10
6.2475414203
 20
3.7601694423
 40
0.0059055118
100
AcDbArc
 50
270.0
 51
360.0
  0
ARC
  5
361
100
AcDbEntity
  8
0
100
AcDbCircle
 62
7
  6
CONTINUOUS
 10
6.4525635099
 20
3.7601694423
 40
0.0059055118
100
AcDbArc
 50
180.0
 51
270.0
  0
ARC
  5
362
100
AcDbEntity
  8
0
100
AcDbCircle
 62
7
  6
CONTINUOUS
 10
6.511618628
 20
3.7601694423
 40
0.0059055118
100
AcDbArc
 50
270.0
 51
360.0
  0
ARC
  5
363
100
AcDbEntity
  8
0
100
AcDbCircle
 62
7
  6
CONTINUOUS
 10
6.7299881022
 20
3.7601694423
 40
0.0059055118
100
AcDbArc
 50
270.0
 51
360.0
  0
ARC
  5
364
100
AcDbEntity
  8
0
100
AcDbCircle
 62
7
  6
CONTINUOUS
 10
5.5708676816
 20
3.7601694423
 40
0.0059055118
100
AcDbArc
 50
180.0
 51
270.0
  0
ARC
  5
365
100
AcDbEntity
  8
0
100
AcDbCircle
 62
7
  6
CONTINUOUS
 10
5.6299227997
 20
3.7601694423
 40
0.0059055118
100
AcDbArc
 50
270.0
 51
360.0
  0
ARC
  5
366
100
AcDbEntity
  8
0
100
AcDbCircle
 62
7
  6
CONTINUOUS
 10
5.9492979201
 20
3.7601694423
 40
0.0059055118
100
AcDbArc
 50
270.0
 51
360.0
  0
ARC
  5
367
100
AcDbEntity
  8
0
100
AcDbCircle
 62
7
  6
CONTINUOUS
 10
5.890242802
 20
3.7601694423
 40
0.0059055118
100
AcDbArc
 50
180.0
 51
270.0
  0
ARC
  5
368
100
AcDbEntity
  8
0
100
AcDbCircle
 62
7
  6
CONTINUOUS
 10
6.1546313263
 20
3.7601694423
 40
0.0059055118
100
AcDbArc
 50
270.0
 51
360.0
  0
ARC
  5
369
100
AcDbEntity
  8
0
100
AcDbCircle
 62
7
  6
CONTINUOUS
 10
6.3435435324
 20
3.7601694423
 40
0.0059055118
100
AcDbArc
 50
231.8935468832
 51
270.0
  0
ARC
  5
36A
100
AcDbEntity
  8
0
100
AcDbCircle
 62
7
  6
CONTINUOUS
 10
6.5326477179
 20
3.7601694423
 40
0.0059055118
100
AcDbArc
 50
180.0
 51
270.0
  0
ARC
  5
36B
100
AcDbEntity
  8
0
100
AcDbCircle
 62
7
  6
CONTINUOUS
 10
6.7502385293
 20
3.7601694423
 40
0.0059055118
100
AcDbArc
 50
270.0
 51
360.0
  0
ARC
  5
36C
100
AcDbEntity
  8
0
100
AcDbCircle
 62
7
  6
CONTINUOUS
 10
6.5319636755
 20
3.7601694423
 40
0.0059055118
100
AcDbArc
 50
180.0
 51
270.0
  0
ARC
  5
36D
100
AcDbEntity
  8
0
100
AcDbCircle
 62
7
  6
CONTINUOUS
 10
6.3425715435
 20
3.7601694423
 40
0.0059055118
100
AcDbArc
 50
237.6710432956
 51
270.0
  0
ARC
  5
36E
100
AcDbEntity
  8
0
100
AcDbCircle
 62
7
  6
CONTINUOUS
 10
5.4880945343
 20
3.7601694423
 40
0.0059055118
100
AcDbArc
 50
180.0
 51
270.0
  0
ARC
  5
36F
100
AcDbEntity
  8
0
100
AcDbCircle
 62
7
  6
CONTINUOUS
 10
5.5471496524
 20
3.7601694423
 40
0.0059055118
100
AcDbArc
 50
270.0
 51
360.0
  0
ARC
  5
370
100
AcDbEntity
  8
0
100
AcDbCircle
 62
7
  6
CONTINUOUS
 10
5.8633815624
 20
3.7601694423
 40
0.0059055118
100
AcDbArc
 50
270.0
 51
360.0
  0
ARC
  5
371
100
AcDbEntity
  8
0
100
AcDbCircle
 62
7
  6
CONTINUOUS
 10
5.8043264442
 20
3.7601694423
 40
0.0059055118
100
AcDbArc
 50
231.0459977349
 51
270.0
  0
ARC
  5
372
100
AcDbEntity
  8
0
100
AcDbCircle
 62
7
  6
CONTINUOUS
 10
6.4329332825
 20
3.7601694423
 40
0.0059055118
100
AcDbArc
 50
270.0
 51
360.0
  0
ARC
  5
373
100
AcDbEntity
  8
0
100
AcDbCircle
 62
7
  6
CONTINUOUS
 10
5.7203878238
 20
3.7601694423
 40
0.0059055118
100
AcDbArc
 50
232.4304503635
 51
270.0
  0
ARC
  5
374
100
AcDbEntity
  8
0
100
AcDbCircle
 62
7
  6
CONTINUOUS
 10
5.7214567658
 20
3.7601694423
 40
0.0059055118
100
AcDbArc
 50
225.5598736692
 51
270.0
  0
ARC
  5
375
100
AcDbEntity
  8
0
100
AcDbCircle
 62
7
  6
CONTINUOUS
 10
5.9633328711
 20
3.7601694423
 40
0.0059055118
100
AcDbArc
 50
270.0
 51
349.4560625997
  0
ARC
  5
376
100
AcDbEntity
  8
0
100
AcDbCircle
 62
7
  6
CONTINUOUS
 10
5.6367590797
 20
3.7601694423
 40
0.0059055118
100
AcDbArc
 50
234.6244028958
 51
270.0
  0
ARC
  5
377
100
AcDbEntity
  8
0
100
AcDbCircle
 62
7
  6
CONTINUOUS
 10
5.8742544021
 20
3.7601694423
 40
0.0059055118
100
AcDbArc
 50
202.9485921281
 51
270.0
  0
ARC
  5
378
100
AcDbEntity
  8
0
100
AcDbCircle
 62
7
  6
CONTINUOUS
 10
5.5509605308
 20
3.7601694423
 40
0.0059055118
100
AcDbArc
 50
251.1709962765
 51
270.0
  0
ARC
  5
379
100
AcDbEntity
  8
0
100
AcDbCircle
 62
7
  6
CONTINUOUS
 10
5.5514520578
 20
3.7601694423
 40
0.0059055118
100
AcDbArc
 50
248.6339133887
 51
270.0
  0
ARC
  5
37A
100
AcDbEntity
  8
0
100
AcDbCircle
 62
7
  6
CONTINUOUS
 10
5.4674614168
 20
3.7601694423
 40
0.0059055118
100
AcDbArc
 50
267.5458602413
 51
270.0
  0
ARC
  5
37B
100
AcDbEntity
  8
0
100
AcDbCircle
 62
7
  6
CONTINUOUS
 10
7.6069782324
 20
3.0973702297
 40
1.0
100
AcDbArc
 50
83.5
 51
90.0
  0
ARC
  5
37C
100
AcDbEntity
  8
0
100
AcDbCircle
 62
7
  6
CONTINUOUS
 10
6.8990253055
 20
3.7601694423
 40
0.0059055118
100
AcDbArc
 50
180.0
 51
270.0
  0
ARC
  5
37D
100
AcDbEntity
  8
0
100
AcDbCircle
 62
7
  6
CONTINUOUS
 10
6.9580804236
 20
3.7601694423
 40
0.0059055118
100
AcDbArc
 50
270.0
 51
360.0
  0
ARC
  5
37E
100
AcDbEntity
  8
0
100
AcDbCircle
 62
7
  6
CONTINUOUS
 10
7.1138404804
 20
3.7601694423
 40
0.0059055118
100
AcDbArc
 50
180.0
 51
270.0
  0
ARC
  5
37F
100
AcDbEntity
  8
0
100
AcDbCircle
 62
7
  6
CONTINUOUS
 10
7.1728955985
 20
3.7601694423
 40
0.0059055118
100
AcDbArc
 50
270.0
 51
360.0
  0
ARC
  5
380
100
AcDbEntity
  8
0
100
AcDbCircle
 62
7
  6
CONTINUOUS
 10
7.3456761658
 20
3.7601694423
 40
0.0059055118
100
AcDbArc
 50
270.0
 51
360.0
  0
ARC
  5
381
100
AcDbEntity
  8
0
100
AcDbCircle
 62
7
  6
CONTINUOUS
 10
7.2866210476
 20
3.7601694423
 40
0.0059055118
100
AcDbArc
 50
180.0
 51
270.0
  0
ARC
  5
382
100
AcDbEntity
  8
0
100
AcDbCircle
 62
7
  6
CONTINUOUS
 10
7.4721676943
 20
3.7601694423
 40
0.0059055118
100
AcDbArc
 50
270.0
 51
360.0
  0
ARC
  5
383
100
AcDbEntity
  8
0
100
AcDbCircle
 62
7
  6
CONTINUOUS
 10
7.4131125762
 20
3.7601694423
 40
0.0059055118
100
AcDbArc
 50
180.0
 51
270.0
  0
ARC
  5
384
100
AcDbEntity
  8
0
100
AcDbCircle
 62
7
  6
CONTINUOUS
 10
7.5492555429
 20
3.7601694423
 40
0.0059055118
100
AcDbArc
 50
270.0
 51
360.0
  0
ARC
  5
385
100
AcDbEntity
  8
0
100
AcDbCircle
 62
7
  6
CONTINUOUS
 10
7.4902004248
 20
3.7601694423
 40
0.0059055118
100
AcDbArc
 50
180.0
 51
270.0
  0
ARC
  5
386
100
AcDbEntity
  8
0
100
AcDbCircle
 62
7
  6
CONTINUOUS
 10
7.5750415529
 20
3.7601694423
 40
0.0059055118
100
AcDbArc
 50
270.0
 51
360.0
  0
ARC
  5
387
100
AcDbEntity
  8
0
100
AcDbCircle
 62
7
  6
CONTINUOUS
 10
7.4898356691
 20
3.7601694423
 40
0.0059055118
100
AcDbArc
 50
180.0
 51
270.0
  0
ARC
  5
388
100
AcDbEntity
  8
0
100
AcDbCircle
 62
7
  6
CONTINUOUS
 10
7.4123920462
 20
3.7601694423
 40
0.0059055118
100
AcDbArc
 50
180.0
 51
270.0
  0
ARC
  5
389
100
AcDbEntity
  8
0
100
AcDbCircle
 62
7
  6
CONTINUOUS
 10
7.1124699511
 20
3.7601694423
 40
0.0059055118
100
AcDbArc
 50
180.0
 51
270.0
  0
ARC
  5
38A
100
AcDbEntity
  8
0
100
AcDbCircle
 62
7
  6
CONTINUOUS
 10
6.8973765561
 20
3.7601694423
 40
0.0059055118
100
AcDbArc
 50
248.8014215427
 51
270.0
  0
ARC
  5
38B
100
AcDbEntity
  8
0
100
AcDbCircle
 62
7
  6
CONTINUOUS
 10
6.9829038024
 20
3.7601694423
 40
0.0059055118
100
AcDbArc
 50
180.0
 51
270.0
  0
ARC
  5
38C
100
AcDbEntity
  8
0
100
AcDbCircle
 62
7
  6
CONTINUOUS
 10
7.0419589205
 20
3.7601694423
 40
0.0059055118
100
AcDbArc
 50
270.0
 51
360.0
  0
ARC
  5
38D
100
AcDbEntity
  8
0
100
AcDbCircle
 62
7
  6
CONTINUOUS
 10
7.184630524
 20
3.7601694423
 40
0.0059055118
100
AcDbArc
 50
270.0
 51
360.0
  0
ARC
  5
38E
100
AcDbEntity
  8
0
100
AcDbCircle
 62
7
  6
CONTINUOUS
 10
7.2720541149
 20
3.7601694423
 40
0.0059055118
100
AcDbArc
 50
270.0
 51
360.0
  0
ARC
  5
38F
100
AcDbEntity
  8
0
100
AcDbCircle
 62
7
  6
CONTINUOUS
 10
7.2129989968
 20
3.7601694423
 40
0.0059055118
100
AcDbArc
 50
180.0
 51
270.0
  0
ARC
  5
390
100
AcDbEntity
  8
0
100
AcDbCircle
 62
7
  6
CONTINUOUS
 10
7.2127281895
 20
3.7601694423
 40
0.0059055118
100
AcDbArc
 50
180.0
 51
270.0
  0
ARC
  5
391
100
AcDbEntity
  8
0
100
AcDbCircle
 62
7
  6
CONTINUOUS
 10
6.8931060489
 20
3.7601694423
 40
0.0059055118
100
AcDbArc
 50
270.0
 51
300.0782092954
  0
ARC
  5
392
100
AcDbEntity
  8
0
100
AcDbCircle
 62
7
  6
CONTINUOUS
 10
8.2253026501
 20
3.9463648018
 40
0.1
100
AcDbArc
 50
0.0
 51
90.0
  0
ARC
  5
393
100
AcDbEntity
  8
0
100
AcDbCircle
 62
7
  6
CONTINUOUS
 10
8.2464266626
 20
3.8672639305
 40
0.079
100
AcDbArc
 50
270.0
 51
360.0
  0
ARC
  5
394
100
AcDbEntity
  8
0
100
AcDbCircle
 62
7
  6
CONTINUOUS
 10
8.3003026386
 20
3.9263702297
 40
0.025
100
AcDbArc
 50
358.6103281046
 51
360.0
  0
ARC
  5
395
100
AcDbEntity
  8
0
100
AcDbCircle
 62
7
  6
CONTINUOUS
 10
8.168215358
 20
5.0463648018
 40
1.0
100
AcDbArc
 50
263.5
 51
270.0
  0
ARC
  5
396
100
AcDbEntity
  8
0
100
AcDbCircle
 62
7
  6
CONTINUOUS
 10
7.1956281958
 20
5.0973702297
 40
1.0
100
AcDbArc
 50
266.349677987
 51
270.0
  0
ARC
  5
397
100
AcDbEntity
  8
0
100
AcDbCircle
 62
7
  6
CONTINUOUS
 10
5.7117623475
 20
4.2124670557
 40
0.1
100
AcDbArc
 50
54.1963236691
 51
68.2843827167
  0
SPLINE
  5
398
100
AcDbEntity
  8
0
100
AcDbSpline
 62
7
  6
CONTINUOUS
 70
0
 71
3
 72
22
 73
18
 74
0
 42
0.0000001
 43
0.0000001
 44
0.0000000001
 40
0.0
 40
0.0
 40
0.0
 40
0.0
 40
0.1056003032
 40
0.2078330732
 40
0.3042291527
 40
0.3933614556
 40
0.4747310106
 40
0.5484679723
 40
0.6150589854
 40
0.6751545811
 40
0.7294566982
 40
0.778659637
 40
0.8234211916
 40
0.8643494824
 40
0.9368254539
 40
0.9693755161
 40
1.0
 40
1.0
 40
1.0
 40
1.0
 10
5.7958736012
 20
4.2128702297
 30
0.0
 10
5.7958678978
 20
4.2159430293
 30
0.0
 10
5.7957287381
 20
4.221991218
 30
0.0
 10
5.7951486511
 20
4.23082738
 30
0.0
 10
5.7942396459
 20
4.2391540173
 30
0.0
 10
5.7930554414
 20
4.2468321691
 30
0.0
 10
5.7916506613
 20
4.2538015762
 30
0.0
 10
5.7900735519
 20
4.2600595613
 30
0.0
 10
5.7883635279
 20
4.2656379946
 30
0.0
 10
5.7865514438
 20
4.270585761
 30
0.0
 10
5.7846609057
 20
4.2749578239
 30
0.0
 10
5.7827100795
 20
4.2788089355
 30
0.0
 10
5.7807123053
 20
4.2821914541
 30
0.0
 10
5.7781053983
 20
4.2859870247
 30
0.0
 10
5.7753386357
 20
4.2892343819
 30
0.0
 10
5.7724335878
 20
4.2919115184
 30
0.0
 10
5.7709860747
 20
4.2930484653
 30
0.0
 10
5.7702633213
 20
4.2935697437
 30
0.0
  0
SPLINE
  5
399
100
AcDbEntity
  8
0
100
AcDbSpline
 62
7
  6
CONTINUOUS
 70
0
 71
3
 72
22
 73
18
 74
0
 42
0.0000001
 43
0.0000001
 44
0.0000000001
 40
0.0
 40
0.0
 40
0.0
 40
0.0
 40
0.1056003032
 40
0.2078330732
 40
0.3042291527
 40
0.3933614556
 40
0.4747310106
 40
0.5484679723
 40
0.6150589854
 40
0.6751545811
 40
0.7294566982
 40
0.778659637
 40
0.8234211916
 40
0.8643494825
 40
0.9368254539
 40
0.9693755161
 40
1.0
 40
1.0
 40
1.0
 40
1.0
 10
5.0766510939
 20
4.2128702297
 30
0.0
 10
5.0766567973
 20
4.2159430293
 30
0.0
 10
5.0767959569
 20
4.221991218
 30
0.0
 10
5.077376044
 20
4.23082738
 30
0.0
 10
5.0782850492
 20
4.2391540173
 30
0.0
 10
5.0794692537
 20
4.2468321692
 30
0.0
 10
5.0808740338
 20
4.2538015762
 30
0.0
 10
5.0824511431
 20
4.2600595613
 30
0.0
 10
5.0841611672
 20
4.2656379946
 30
0.0
 10
5.0859732513
 20
4.270585761
 30
0.0
 10
5.0878637894
 20
4.2749578239
 30
0.0
 10
5.0898146156
 20
4.2788089355
 30
0.0
 10
5.0918123897
 20
4.2821914541
 30
0.0
 10
5.0944192968
 20
4.2859870247
 30
0.0
 10
5.0971860594
 20
4.2892343819
 30
0.0
 10
5.1000911073
 20
4.2919115185
 30
0.0
 10
5.1015386203
 20
4.2930484653
 30
0.0
 10
5.1022613738
 20
4.2935697437
 30
0.0
  0
SPLINE
  5
39A
100
AcDbEntity
  8
0
100
AcDbSpline
 62
7
  6
CONTINUOUS
 70
0
 71
3
 72
15
 73
11
 74
0
 42
0.0000001
 43
0.0000001
 44
0.0000000001
 40
0.0
 40
0.0
 40
0.0
 40
0.0
 40
0.139088756
 40
0.2718910893
 40
0.3997676937
 40
0.5238635096
 40
0.6451579827
 40
0.7644772957
 40
0.8825452092
 40
1.0
 40
1.0
 40
1.0
 40
1.0
 10
5.7702633213
 20
4.2935697437
 30
0.0
 10
5.7695494023
 20
4.2940846503
 30
0.0
 10
5.768112544
 20
4.2950355523
 30
0.0
 10
5.765892
 20
4.2962535849
 30
0.0
 10
5.7636662968
 20
4.2972480439
 30
0.0
 10
5.7614368849
 20
4.2980364074
 30
0.0
 10
5.7592053216
 20
4.2986347208
 30
0.0
 10
5.7569720949
 20
4.2990533314
 30
0.0
 10
5.7547382715
 20
4.29930182
 30
0.0
 10
5.7532471541
 20
4.2993564196
 30
0.0
 10
5.7525038337
 20
4.2993564196
 30
0.0
  0
SPLINE
  5
39B
100
AcDbEntity
  8
0
100
AcDbSpline
 62
7
  6
CONTINUOUS
 70
0
 71
3
 72
33
 73
29
 74
0
 42
0.0000001
 43
0.0000001
 44
0.0000000001
 40
0.0
 40
0.0
 40
0.0
 40
0.0
 40
0.0306410246
 40
0.0616258858
 40
0.0933409359
 40
0.109622636
 40
0.1262743999
 40
0.1433745941
 40
0.16101396
 40
0.1792923167
 40
0.1983226411
 40
0.2391352911
 40
0.2846319585
 40
0.3362001697
 40
0.3647674363
 40
0.3954780794
 40
0.4285701403
 40
0.464292189
 40
0.5028990736
 40
0.5446438269
 40
0.5897622256
 40
0.6384498711
 40
0.6908264886
 40
0.7468848275
 40
0.8064280661
 40
0.8690052406
 40
0.9338685348
 40
1.0
 40
1.0
 40
1.0
 40
1.0
 10
5.7525038337
 20
4.2993564196
 30
0.0
 10
5.7514182971
 20
4.2993564196
 30
0.0
 10
5.7492331927
 20
4.2992390796
 30
0.0
 10
5.7459636246
 20
4.2987045122
 30
0.0
 10
5.7432631972
 20
4.2979467825
 30
0.0
 10
5.741117977
 20
4.2971414842
 30
0.0
 10
5.739496875
 20
4.2964218766
 30
0.0
 10
5.7378783976
 20
4.2955856567
 30
0.0
 10
5.7362636408
 20
4.2946239847
 30
0.0
 10
5.7346531399
 20
4.2935282722
 30
0.0
 10
5.7324619961
 20
4.2918350967
 30
0.0
 10
5.7297252108
 20
4.289283611
 30
0.0
 10
5.7265595701
 20
4.2855503429
 30
0.0
 10
5.7240674781
 20
4.2818517337
 30
0.0
 10
5.7221190627
 20
4.2784408656
 30
0.0
 10
5.7206358378
 20
4.2755223434
 30
0.0
 10
5.7191860264
 20
4.2723069915
 30
0.0
 10
5.717776976
 20
4.268770495
 30
0.0
 10
5.7164176444
 20
4.2648882175
 30
0.0
 10
5.7151191845
 20
4.2606357842
 30
0.0
 10
5.7138951974
 20
4.2559909668
 30
0.0
 10
5.7127621287
 20
4.2509363673
 30
0.0
 10
5.7117395244
 20
4.2454634633
 30
0.0
 10
5.7108498621
 20
4.2395781062
 30
0.0
 10
5.7101177006
 20
4.2333070896
 30
0.0
 10
5.7095678328
 20
4.226704358
 30
0.0
 10
5.709222202
 20
4.2198541378
 30
0.0
 10
5.7091386327
 20
4.2152131018
 30
0.0
 10
5.7091342841
 20
4.2128702297
 30
0.0
  0
SPLINE
  5
39C
100
AcDbEntity
  8
0
100
AcDbSpline
 62
7
  6
CONTINUOUS
 70
0
 71
3
 72
34
 73
30
 74
0
 42
0.0000001
 43
0.0000001
 44
0.0000000001
 40
0.0
 40
0.0
 40
0.0
 40
0.0
 40
0.0003102726
 40
0.0012129593
 40
0.0027074637
 40
0.004793173
 40
0.0074689584
 40
0.010733084
 40
0.0190191463
 40
0.0296329938
 40
0.0425509907
 40
0.0577440971
 40
0.0751788253
 40
0.1166117835
 40
0.1664803315
 40
0.224339361
 40
0.2896696293
 40
0.3618874385
 40
0.4403491646
 40
0.5243548285
 40
0.6131548611
 40
0.7059588768
 40
0.7536056877
 40
0.8019412972
 40
0.8508579261
 40
0.9002466749
 40
0.9499976053
 40
0.9749743351
 40
1.0
 40
1.0
 40
1.0
 40
1.0
 10
2.5504275327
 20
3.9238831817
 30
0.0
 10
2.5504372635
 20
3.9238831817
 30
0.0
 10
2.5504753001
 20
3.9238839057
 30
0.0
 10
2.5505602066
 20
3.923884697
 30
0.0
 10
2.5507007879
 20
3.9238865707
 30
0.0
 10
2.5508969741
 20
3.9238889339
 30
0.0
 10
2.5511486542
 20
3.9238920766
 30
0.0
 10
2.5515947751
 20
3.9238976069
 30
0.0
 10
2.5522898299
 20
3.9239062801
 30
0.0
 10
2.5532876254
 20
3.9239187823
 30
0.0
 10
2.5545020214
 20
3.9239340973
 30
0.0
 10
2.5559303154
 20
3.9239522397
 30
0.0
 10
2.5582528208
 20
3.9239819882
 30
0.0
 10
2.5616627203
 20
3.9240263353
 30
0.0
 10
2.5663402805
 20
3.9240886721
 30
0.0
 10
2.571767212
 20
3.9241632194
 30
0.0
 10
2.5778949512
 20
3.9242505581
 30
0.0
 10
2.584668703
 20
3.9243515068
 30
0.0
 10
2.5920279955
 20
3.9244672422
 30
0.0
 10
2.5999071413
 20
3.9245994882
 30
0.0
 10
2.6082358247
 20
3.9247509071
 30
0.0
 10
2.6154241519
 20
3.9248952892
 30
0.0
 10
2.6213434229
 20
3.9250265392
 30
0.0
 10
2.625886449
 20
3.9251353719
 30
0.0
 10
2.6304838266
 20
3.9252561399
 30
0.0
 10
2.6351251648
 20
3.9253928817
 30
0.0
 10
2.6390154725
 20
3.9255256422
 30
0.0
 10
2.6421414166
 20
3.9256514386
 30
0.0
 10
2.6437079393
 20
3.9257238583
 30
0.0
 10
2.644491771
 20
3.9257639305
 30
0.0
  0
ENDSEC
  0
SECTION
  2
OBJECTS
  0
DICTIONARY
  5
C
100
AcDbDictionary
280
0
281
1
  3
ACAD_GROUP
350
D
  3
ACAD_MLINESTYLE
350
17
  3
ACAD_LAYOUT
350
1A
  3
ACAD_PLOTSETTINGS
350
19
  3
ACAD_PLOTSTYLENAME
350
E
  0
DICTIONARY
  5
D
102
{ACAD_REACTORS
330
C
102
}
100
AcDbDictionary
280
0
281
1
  0
ACDBDICTIONARYWDFLT
  5
E
102
{ACAD_REACTORS
330
C
102
}
100
AcDbDictionary
281
1
  3
Normal
350
F
100
AcDbDictionaryWithDefault
340
F
  0
DICTIONARY
  5
17
102
{ACAD_REACTORS
330
C
102
}
100
AcDbDictionary
280
0
281
1
  3
Standard
350
18
  0
DICTIONARY
  5
19
102
{ACAD_REACTORS
330
C
102
}
100
AcDbDictionary
281
1
  0
DICTIONARY
  5
1A
102
{ACAD_REACTORS
330
C
102
}
100
AcDbDictionary
281
1
  3
Model
350
39D
  3
Layout1
350
39E
  0
ACDBPLACEHOLDER
  5
F
102
{ACAD_REACTORS
330
E
102
}
  0
MLINESTYLE
  5
18
102
{ACAD_REACTORS
330
17
102
}
100
AcDbMlineStyle
  2
STANDARD
 70
0
  3

 62
256
 51
90.0
 52
90.0
 71
2
 49
0.5
 62
256
  6
BYLAYER
 49
-0.5
 62
256
  6
BYLAYER
  0
LAYOUT
  5
39D
102
{ACAD_REACTORS
330
1A
102
}
100
AcDbPlotSettings
  1

  2
none_device
  4
ANSI_A_(11.00_x_8.50_Inches)
  6

 40
0.0
 41
0.0
 42
0.0
 43
0.0
 44
279.4
 45
215.9
 46
0.0
 47
0.0
 48
0.0
 49
0.0
140
0.0
141
0.0
142
1.0
143
1.0
 70
1024
 72
0
 73
0
 74
0
  7

 75
0
147
1.0
148
0.0
149
0.0
100
AcDbLayout
  1
Model
 70
0
 71
0
 10
0.0
 20
0.0
 11
11.0
 21
8.5
 12
0.0
 22
0.0
 32
0.0
 14
0.0
 24
0.0
 34
0.0
 15
0.0
 25
0.0
 35
0.0
146
0.0
 13
0.0
 23
0.0
 33
0.0
 16
1.0
 26
0.0
 36
0.0
 17
0.0
 27
1.0
 37
0.0
 76
0
330
202
345
0
346
0
  0
LAYOUT
  5
39E
102
{ACAD_REACTORS
330
1A
102
}
100
AcDbPlotSettings
  1

  2
none_device
  4
ANSI_A_(11.00_x_8.50_Inches)
  6

 40
0.0
 41
0.0
 42
0.0
 43
0.0
 44
279.4
 45
215.9
 46
0.0
 47
0.0
 48
0.0
 49
0.0
140
0.0
141
0.0
142
1.0
143
1.0
 70
0
 72
0
 73
0
 74
0
  7

 75
0
147
1.0
148
0.0
149
0.0
100
AcDbLayout
  1
Layout1
 70
0
 71
1
 10
0.0
 20
0.0
 11
11.0
 21
8.5
 12
0.0
 22
0.0
 32
0.0
 14
0.0
 24
0.0
 34
0.0
 15
0.0
 25
0.0
 35
0.0
146
0.0
 13
0.0
 23
0.0
 33
0.0
 16
1.0
 26
0.0
 36
0.0
 17
0.0
 27
1.0
 37
0.0
 76
0
330
203
345
0
346
0
  0
ENDSEC
  0
EOF
