  0
SECTION
  2
HEADER
  9
$ACADVER
  1
AC1015
  9
$DWGCODEPAGE
  3
ANSI_1252
  9
$EXTMAX
 10
11.6929133858
 20
8.2677165354
 30
0.0
  9
$EXTMIN
 10
0.0
 20
0.0
 30
0.0
  9
$LIMMIN
 10
0.0
 20
0.0
  9
$LIMMAX
 10
11.6929133858
 20
8.2677165354
  9
$VIEWCTR
 10
5.8464566929
 20
4.1338582677
  9
$VIEWSIZE
 40
8.2677165354
  9
$CLAYER
  8
0
  9
$LTSCALE
 40
0.6431102362
  9
$CELTYPE
  6
BYLAYER
  9
$DIMSCALE
 40
1.0
  9
$DIMASZ
 40
0.1875
  9
$DIMEXO
 40
0.0730807087
  9
$DIMDLI
 40
0.4443307087
  9
$DIMEXE
 40
0.2104724409
  9
$DIMCEN
 40
0.1052362205
  9
$DIMLFAC
 40
1.0
  9
$DIMBLK
  1
_CLOSED
  9
$DIMTXT
 40
0.15625
  9
$DIMTOL
 70
0
  9
$DIMLIM
 70
0
  9
$DIMTFAC
 40
1.0
  9
$PDMODE
 70
3
  9
$PDSIZE
 40
0.3125
  9
$HANDSEED
  5
272
  9
$TILEMODE
 70
1
  9
$MEASUREMENT
 70
0
  9
$INSUNITS
 70
1
  0
ENDSEC
  0
SECTION
  2
CLASSES
  0
CLASS
  1
ACDBDICTIONARYWDFLT
  2
AcDbDictionaryWithDefault
  3
AutoCAD 2000
 90
0
280
0
281
0
  0
CLASS
  1
ACDBPLACEHOLDER
  2
AcDbPlaceHolder
  3
AutoCAD 2000
 90
0
280
0
281
0
  0
CLASS
  1
LAYOUT
  2
AcDbLayout
  3
AutoCAD 2000
 90
0
280
0
281
0
  0
ENDSEC
  0
SECTION
  2
TABLES
  0
TABLE
  2
VPORT
  5
8
100
AcDbSymbolTable
 70
2
  0
VPORT
  5
1F4
100
AcDbSymbolTableRecord
100
AcDbViewportTableRecord
  2
*ACTIVE
 70
0
 10
0.0
 20
0.0
 11
1.0
 21
1.0
 12
5.8464566929
 22
4.1338582677
 13
0.0
 23
0.0
 14
1.0
 24
1.0
 15
0.0
 25
0.0
 16
0.0
 26
0.0
 36
1.0
 17
0.0
 27
0.0
 37
0.0
 40
8.2677165354
 41
1.4142857143
 42
50.0
 43
0.0
 44
0.0
 50
0.0
 51
0.0
 71
0
 72
100
 73
1
 74
1
 75
0
 76
0
 77
0
 78
0
  0
ENDTAB
  0
TABLE
  2
LTYPE
  5
5
100
AcDbSymbolTable
 70
6
  0
LTYPE
  5
14
100
AcDbSymbolTableRecord
100
AcDbLinetypeTableRecord
  2
BYBLOCK
 70
0
  3

 72
65
 73
0
 40
0.0
  0
LTYPE
  5
15
100
AcDbSymbolTableRecord
100
AcDbLinetypeTableRecord
  2
BYLAYER
 70
0
  3

 72
65
 73
0
 40
0.0
  0
LTYPE
  5
16
100
AcDbSymbolTableRecord
100
AcDbLinetypeTableRecord
  2
CONTINUOUS
 70
64
  3
Solid line
 72
65
 73
0
 40
0.0
  0
LTYPE
  5
1F5
100
AcDbSymbolTableRecord
100
AcDbLinetypeTableRecord
  2
CENTER
 70
64
  3
____ _ ____ _ ____ _ ____ _ ____ _ ____ _ ____
 72
65
 73
4
 40
0.6
 49
0.375
 74
0
 49
-0.075
 74
0
 49
0.075
 74
0
 49
-0.075
 74
0
  0
LTYPE
  5
1F6
100
AcDbSymbolTableRecord
100
AcDbLinetypeTableRecord
  2
HIDDEN
 70
64
  3
- - - - - - - - - - - - - - - - - - - -
 72
65
 73
2
 40
0.2
 49
0.1
 74
0
 49
-0.1
 74
0
  0
LTYPE
  5
1F7
100
AcDbSymbolTableRecord
100
AcDbLinetypeTableRecord
  2
PHANTOM
 70
64
  3
_____ _ _ _____ _ _ _____ _ _ _____
 72
65
 73
6
 40
0.8
 49
0.45
 74
0
 49
-0.05
 74
0
 49
0.1
 74
0
 49
-0.05
 74
0
 49
0.1
 74
0
 49
-0.05
 74
0
  0
LTYPE
  5
1F8
100
AcDbSymbolTableRecord
100
AcDbLinetypeTableRecord
  2
DOT
 70
64
  3
. . . . . . . . . . . . . . . . . . . .
 72
65
 73
2
 40
0.2
 49
0.1
 74
0
 49
-0.1
 74
0
  0
LTYPE
  5
1F9
100
AcDbSymbolTableRecord
100
AcDbLinetypeTableRecord
  2
DASHED
 70
64
  3
- - - - - - - - - - - - - - - - - - - -
 72
65
 73
2
 40
0.2
 49
0.1
 74
0
 49
-0.1
 74
0
  0
ENDTAB
  0
TABLE
  2
LAYER
  5
2
100
AcDbSymbolTable
 70
36
  0
LAYER
  5
10
100
AcDbSymbolTableRecord
100
AcDbLayerTableRecord
  2
0
 70
0
 62
7
  6
CONTINUOUS
370
-3
390
F
  0
LAYER
  5
1FA
100
AcDbSymbolTableRecord
100
AcDbLayerTableRecord
  2
DEFAULT_1
 70
0
 62
7
  6
CENTER
370
-3
390
F
  0
LAYER
  5
1FB
100
AcDbSymbolTableRecord
100
AcDbLayerTableRecord
  2
DEFAULT_2
 70
0
 62
8
  6
HIDDEN
370
-3
390
F
  0
LAYER
  5
1FC
100
AcDbSymbolTableRecord
100
AcDbLayerTableRecord
  2
DEFAULT_3
 70
0
 62
7
  6
PHANTOM
370
-3
390
F
  0
LAYER
  5
1FD
100
AcDbSymbolTableRecord
100
AcDbLayerTableRecord
  2
DEFAULT_COORDINATE_SYSTEM
 70
0
 62
7
  6
CONTINUOUS
370
-3
390
F
  0
LAYER
  5
1FE
100
AcDbSymbolTableRecord
100
AcDbLayerTableRecord
  2
DEFAULT_DATUM_AXES
 70
0
 62
7
  6
CONTINUOUS
370
-3
390
F
  0
LAYER
  5
1FF
100
AcDbSymbolTableRecord
100
AcDbLayerTableRecord
  2
DEFAULT_DATUM_CURVES
 70
0
 62
7
  6
CONTINUOUS
370
-3
390
F
  0
LAYER
  5
200
100
AcDbSymbolTableRecord
100
AcDbLayerTableRecord
  2
DEFAULT_DATUM_PLANES
 70
0
 62
7
  6
CONTINUOUS
370
-3
390
F
  0
ENDTAB
  0
TABLE
  2
STYLE
  5
3
100
AcDbSymbolTable
 70
1
  0
STYLE
  5
11
100
AcDbSymbolTableRecord
100
AcDbTextStyleTableRecord
  2
STANDARD
 70
0
 40
0.0
 41
0.8
 50
0.0
 71
0
 42
0.2
  3
txt
  4

  0
STYLE
  5
201
100
AcDbSymbolTableRecord
100
AcDbTextStyleTableRecord
  2
TEXTSTYLE_1
 70
0
 40
0.0
 41
0.8
 50
0.0
 71
0
 42
0.2
  3
gdt
  4

  0
ENDTAB
  0
TABLE
  2
VIEW
  5
6
100
AcDbSymbolTable
 70
0
  0
ENDTAB
  0
TABLE
  2
UCS
  5
7
100
AcDbSymbolTable
 70
0
  0
ENDTAB
  0
TABLE
  2
APPID
  5
9
100
AcDbSymbolTable
 70
1
  0
APPID
  5
202
100
AcDbSymbolTableRecord
100
AcDbRegAppTableRecord
  2
ACAD
 70
0
  0
ENDTAB
  0
TABLE
  2
BLOCK_RECORD
  5
1
100
AcDbSymbolTable
 70
0
  0
BLOCK_RECORD
  5
203
100
AcDbSymbolTableRecord
100
AcDbBlockTableRecord
  2
*Model_Space
  0
BLOCK_RECORD
  5
204
100
AcDbSymbolTableRecord
100
AcDbBlockTableRecord
  2
*Paper_Space
  0
ENDTAB
  0
TABLE
  2
DIMSTYLE
  5
A
100
AcDbSymbolTable
 70
1
100
AcDbDimStyleTable
 71
0
  0
DIMSTYLE
105
205
100
AcDbSymbolTableRecord
100
AcDbDimStyleTableRecord
  2
STANDARD
 70
0
  3

  4

 40
1.0
 41
0.1875
 42
0.0625
 43
0.38
 44
0.18
 45
0.0
 46
0.0
 47
0.01
 48
0.01
140
0.15625
141
0.09
142
0.0
143
25.4
144
1.0
145
0.0
146
1.0
147
0.09
 71
0.0
 72
0.0
 73
1
 74
1
 75
0
 76
0
 77
0
 78
4
170
0
171
2
172
0
173
0
174
0
175
0
176
0
177
0
178
0
270
2
271
2
272
2
273
2
274
2
275
0
280
0
281
0
282
0
283
1
284
4
285
0
286
0
287
3
288
0
340
11
  0
ENDTAB
  0
ENDSEC
  0
SECTION
  2
BLOCKS
  0
BLOCK
  5
20
100
AcDbEntity
  8
0
100
AcDbBlockBegin
  2
*Model_Space
 70
0
 10
0.0
 20
0.0
 30
0.0
  3
*Model_Space
  1

  0
ENDBLK
  5
21
100
AcDbEntity
  8
0
100
AcDbBlockEnd
  0
BLOCK
  5
1C
100
AcDbEntity
  8
0
100
AcDbBlockBegin
  2
*Paper_Space
 70
0
 10
0.0
 20
0.0
 30
0.0
  3
*Paper_Space
  1

  0
ENDBLK
  5
1D
100
AcDbEntity
  8
0
100
AcDbBlockEnd
  0
ENDSEC
  0
SECTION
  2
ENTITIES
  0
LINE
  5
206
100
AcDbEntity
  8
0
100
AcDbLine
 62
6
  6
CONTINUOUS
 10
5.4849015318
 20
3.4195791474
 11
5.9929697687
 21
3.4195791474
  0
LINE
  5
207
100
AcDbEntity
  8
0
100
AcDbLine
 62
6
  6
CONTINUOUS
 10
5.2048866513
 20
3.8745791474
 11
5.4589207697
 21
3.4345791474
  0
LINE
  5
208
100
AcDbEntity
  8
0
100
AcDbLine
 62
6
  6
CONTINUOUS
 10
5.554932114
 20
4.5306374246
 11
5.7139356503
 21
4.6155791474
  0
LINE
  5
209
100
AcDbEntity
  8
0
100
AcDbLine
 62
6
  6
CONTINUOUS
 10
6.1454356503
 20
3.8895791474
 11
6.143797204
 21
3.8895791474
  0
LINE
  5
20A
100
AcDbEntity
  8
0
100
AcDbLine
 62
6
  6
CONTINUOUS
 10
5.4589207697
 20
4.3445791474
 11
5.2048866513
 21
3.9045791474
  0
LINE
  5
20B
100
AcDbEntity
  8
0
100
AcDbLine
 62
6
  6
CONTINUOUS
 10
5.5139356503
 20
4.4995791475
 11
5.5139356503
 21
5.0295791474
  0
LINE
  5
20C
100
AcDbEntity
  8
0
100
AcDbLine
 62
6
  6
CONTINUOUS
 10
5.5244356503
 20
4.3595791474
 11
5.5244356503
 21
4.4995794956
  0
LINE
  5
20D
100
AcDbEntity
  8
0
100
AcDbLine
 62
9
  6
CONTINUOUS
 10
5.554932114
 20
4.5306374246
 11
5.554932114
 21
5.0295791474
  0
LINE
  5
20E
100
AcDbEntity
  8
0
100
AcDbLine
 62
6
  6
CONTINUOUS
 10
5.7139356503
 20
4.6155791474
 11
5.7139356503
 21
5.0295791474
  0
LINE
  5
20F
100
AcDbEntity
  8
0
100
AcDbLine
 62
6
  6
CONTINUOUS
 10
5.7639356503
 20
4.6155791474
 11
5.7639356503
 21
5.0295791474
  0
LINE
  5
210
100
AcDbEntity
  8
0
100
AcDbLine
 62
6
  6
CONTINUOUS
 10
5.9929697687
 20
4.3595791474
 11
5.4849015318
 21
4.3595791474
  0
LINE
  5
211
100
AcDbEntity
  8
0
100
AcDbLine
 62
9
  6
CONTINUOUS
 10
5.9229391865
 20
4.5306374246
 11
5.9229391865
 21
5.0295791474
  0
LINE
  5
212
100
AcDbEntity
  8
0
100
AcDbLine
 62
6
  6
CONTINUOUS
 10
5.9534356503
 20
4.3595791474
 11
5.9534356503
 21
4.4995793591
  0
LINE
  5
213
100
AcDbEntity
  8
0
100
AcDbLine
 62
6
  6
CONTINUOUS
 10
5.9639356503
 20
4.4995791474
 11
5.9639356503
 21
5.0295791474
  0
LINE
  5
214
100
AcDbEntity
  8
0
100
AcDbLine
 62
6
  6
CONTINUOUS
 10
5.9639356503
 20
4.4995791474
 11
5.9534352036
 21
4.4995791474
  0
LINE
  5
215
100
AcDbEntity
  8
0
100
AcDbLine
 62
6
  6
CONTINUOUS
 10
5.5244363853
 20
4.4995791474
 11
5.5139356503
 21
4.4995791474
  0
LINE
  5
216
100
AcDbEntity
  8
0
100
AcDbLine
 62
9
  6
CONTINUOUS
 10
5.9472723645
 20
4.5143240079
 11
5.9204770684
 21
4.5143240079
  0
LINE
  5
217
100
AcDbEntity
  8
0
100
AcDbLine
 62
9
  6
CONTINUOUS
 10
5.5573942322
 20
4.5143240079
 11
5.530598936
 21
4.5143240079
  0
LINE
  5
218
100
AcDbEntity
  8
0
100
AcDbLine
 62
6
  6
CONTINUOUS
 10
6.2729846493
 20
3.9045791474
 11
6.0189505308
 21
4.3445791474
  0
LINE
  5
219
100
AcDbEntity
  8
0
100
AcDbLine
 62
6
  6
CONTINUOUS
 10
5.7139356503
 20
4.6155791474
 11
5.7639356503
 21
4.6155791474
  0
LINE
  5
21A
100
AcDbEntity
  8
0
100
AcDbLine
 62
6
  6
CONTINUOUS
 10
5.7639356503
 20
4.6155791474
 11
5.9229391865
 21
4.5306374246
  0
LINE
  5
21B
100
AcDbEntity
  8
0
100
AcDbLine
 62
6
  6
CONTINUOUS
 10
6.0189505308
 20
3.4345791474
 11
6.2729846493
 21
3.8745791474
  0
LINE
  5
21C
100
AcDbEntity
  8
0
100
AcDbLine
 62
6
  6
CONTINUOUS
 10
5.5139356503
 20
5.0295791474
 11
5.9639356503
 21
5.0295791474
  0
ARC
  5
21D
100
AcDbEntity
  8
0
100
AcDbCircle
 62
6
  6
CONTINUOUS
 10
2.7205575182
 20
0.8509994449
 40
4.8817656184
100
AcDbArc
 50
48.3647398012
 51
48.6258849856
  0
ARC
  5
21E
100
AcDbEntity
  8
0
100
AcDbCircle
 62
6
  6
CONTINUOUS
 10
8.7573137794
 20
0.8509994481
 40
4.8817656141
100
AcDbArc
 50
131.3741150143
 51
131.6352601989
  0
CIRCLE
  5
21F
100
AcDbEntity
  8
0
100
AcDbCircle
 62
6
  6
CONTINUOUS
 10
5.7389356503
 20
3.8895791474
 40
0.4065
  0
ARC
  5
220
100
AcDbEntity
  8
0
100
AcDbCircle
 62
6
  6
CONTINUOUS
 10
5.7385871498
 20
3.8895309485
 40
0.4009223342
100
AcDbArc
 50
270.0566973742
 51
288.4494585913
  0
ARC
  5
221
100
AcDbEntity
  8
0
100
AcDbCircle
 62
6
  6
CONTINUOUS
 10
5.7385870052
 20
3.8895118755
 40
0.4003193861
100
AcDbArc
 50
270.0498998691
 51
288.4537489239
  0
ARC
  5
222
100
AcDbEntity
  8
0
100
AcDbCircle
 62
6
  6
CONTINUOUS
 10
5.7385869986
 20
3.8895119162
 40
0.3986809817
100
AcDbArc
 50
270.0501058821
 51
288.453955048
  0
ARC
  5
223
100
AcDbEntity
  8
0
100
AcDbCircle
 62
6
  6
CONTINUOUS
 10
5.7386119482
 20
3.889741912
 40
0.3944667715
100
AcDbArc
 50
216.8518438366
 51
270.0470175021
  0
ARC
  5
224
100
AcDbEntity
  8
0
100
AcDbCircle
 62
6
  6
CONTINUOUS
 10
5.7386122864
 20
3.8897411601
 40
0.3938818544
100
AcDbArc
 50
216.8537728633
 51
270.0470381723
  0
ARC
  5
225
100
AcDbEntity
  8
0
100
AcDbCircle
 62
6
  6
CONTINUOUS
 10
5.7385945236
 20
3.8894738459
 40
0.3936114869
100
AcDbArc
 50
270.0496557347
 51
304.4617701479
  0
ARC
  5
226
100
AcDbEntity
  8
0
100
AcDbCircle
 62
6
  6
CONTINUOUS
 10
5.7391006136
 20
3.8901031001
 40
0.3928538691
100
AcDbArc
 50
209.8008477911
 51
216.8534916972
  0
ARC
  5
227
100
AcDbEntity
  8
0
100
AcDbCircle
 62
6
  6
CONTINUOUS
 10
5.7389356503
 20
3.8895791474
 40
0.3918667799
100
AcDbArc
 50
209.7478991587
 51
304.4129476412
  0
ARC
  5
228
100
AcDbEntity
  8
0
100
AcDbCircle
 62
6
  6
CONTINUOUS
 10
5.7389356503
 20
3.8895791474
 40
0.3618667799
100
AcDbArc
 50
274.8483244227
 51
178.7906834002
  0
ARC
  5
229
100
AcDbEntity
  8
0
100
AcDbCircle
 62
6
  6
CONTINUOUS
 10
5.7390164038
 20
3.8900117232
 40
0.3534915747
100
AcDbArc
 50
202.1420506489
 51
210.1105039283
  0
ARC
  5
22A
100
AcDbEntity
  8
0
100
AcDbCircle
 62
6
  6
CONTINUOUS
 10
5.7389330595
 20
3.8900091474
 40
0.3534184393
100
AcDbArc
 50
211.0125532807
 51
218.7194730576
  0
ARC
  5
22B
100
AcDbEntity
  8
0
100
AcDbCircle
 62
6
  6
CONTINUOUS
 10
5.7386775743
 20
3.889829833
 40
0.3531074795
100
AcDbArc
 50
203.4975347176
 51
248.5226484991
  0
ARC
  5
22C
100
AcDbEntity
  8
0
100
AcDbCircle
 62
6
  6
CONTINUOUS
 10
5.7382468179
 20
3.8894684405
 40
0.352544805
100
AcDbArc
 50
218.7206725149
 51
219.8684225545
  0
CIRCLE
  5
22D
100
AcDbEntity
  8
0
100
AcDbCircle
 62
6
  6
CONTINUOUS
 10
5.7389356503
 20
3.8895791474
 40
0.3149998127
  0
CIRCLE
  5
22E
100
AcDbEntity
  8
0
100
AcDbCircle
 62
6
  6
CONTINUOUS
 10
5.7389356503
 20
3.8895791474
 40
0.295
  0
CIRCLE
  5
22F
100
AcDbEntity
  8
0
100
AcDbCircle
 62
6
  6
CONTINUOUS
 10
5.7389356503
 20
3.8895791474
 40
0.115
  0
ARC
  5
230
100
AcDbEntity
  8
0
100
AcDbCircle
 62
6
  6
CONTINUOUS
 10
5.9929697687
 20
4.3295791474
 40
0.03
100
AcDbArc
 50
30.0
 51
90.0
  0
ARC
  5
231
100
AcDbEntity
  8
0
100
AcDbCircle
 62
6
  6
CONTINUOUS
 10
5.4849015318
 20
4.3295791474
 40
0.03
100
AcDbArc
 50
90.0
 51
150.0
  0
ARC
  5
232
100
AcDbEntity
  8
0
100
AcDbCircle
 62
6
  6
CONTINUOUS
 10
5.2308674134
 20
3.8895791474
 40
0.03
100
AcDbArc
 50
150.0
 51
210.0
  0
ARC
  5
233
100
AcDbEntity
  8
0
100
AcDbCircle
 62
6
  6
CONTINUOUS
 10
5.4849015318
 20
3.4495791474
 40
0.03
100
AcDbArc
 50
210.0
 51
270.0
  0
ARC
  5
234
100
AcDbEntity
  8
0
100
AcDbCircle
 62
6
  6
CONTINUOUS
 10
5.9929697687
 20
3.4495791474
 40
0.03
100
AcDbArc
 50
270.0
 51
330.0
  0
ARC
  5
235
100
AcDbEntity
  8
0
100
AcDbCircle
 62
6
  6
CONTINUOUS
 10
6.2470038872
 20
3.8895791474
 40
0.03
100
AcDbArc
 50
330.0
 51
30.0
  0
SPLINE
  5
236
100
AcDbEntity
  8
0
100
AcDbSpline
 62
6
  6
CONTINUOUS
 70
0
 71
3
 72
19
 73
15
 74
13
 42
0.0000001
 43
0.0000001
 44
0.0000000001
 12
0.0052693303
 22
-0.1539865099
 32
0.0
 13
0.0692053395
 23
-0.1376598419
 33
0.0
 40
0.0
 40
0.0
 40
0.0
 40
0.0
 40
0.1249468059
 40
0.1874569643
 40
0.2499758332
 40
0.3124946237
 40
0.3750055226
 40
0.4999949807
 40
0.6249849606
 40
0.6874973731
 40
0.7500187502
 40
0.812540276
 40
0.8750524408
 40
1.0
 40
1.0
 40
1.0
 40
1.0
 10
5.3771494708
 20
3.8972163419
 30
0.0
 10
5.3773689328
 20
3.8908029678
 30
0.0
 10
5.3779556114
 20
3.8811872164
 30
0.0
 10
5.3792497358
 20
3.8684131042
 30
0.0
 10
5.3804764589
 20
3.8588580453
 30
0.0
 10
5.3819586218
 20
3.8493392832
 30
0.0
 10
5.3842748125
 20
3.8367078797
 30
0.0
 10
5.3878061757
 20
3.8210435834
 30
0.0
 10
5.3921771189
 20
3.8055923642
 30
0.0
 10
5.3961719055
 20
3.7933872219
 30
0.0
 10
5.3994159299
 20
3.7843159992
 30
0.0
 10
5.4029046545
 20
3.7753359835
 30
0.0
 10
5.4078772594
 20
3.7634981749
 30
0.0
 10
5.4119671624
 20
3.7547753705
 30
0.0
 10
5.4148495085
 20
3.7490419501
 30
0.0
 11
5.3771494708
 21
3.8972163419
 31
0.0
 11
5.3783215221
 21
3.8780006691
 31
0.0
 11
5.3792923152
 21
3.8684183643
 31
0.0
 11
5.3805190338
 21
3.8588640973
 31
0.0
 11
5.3820012381
 21
3.8493461304
 31
0.0
 11
5.3837384529
 21
3.839872626
 31
0.0
 11
5.3879740722
 21
3.8210862376
 31
0.0
 11
5.3932168415
 21
3.8025555785
 31
0.0
 11
5.3962129779
 21
3.7934017345
 31
0.0
 11
5.3994567134
 21
3.7843312063
 31
0.0
 11
5.4029451844
 21
3.7753519349
 31
0.0
 11
5.4066754407
 21
3.7664719493
 31
0.0
 11
5.4148495085
 21
3.7490419501
 31
0.0
  0
SPLINE
  5
237
100
AcDbEntity
  8
0
100
AcDbSpline
 62
6
  6
CONTINUOUS
 70
0
 71
3
 72
8
 73
4
 74
2
 42
0.0000001
 43
0.0000001
 44
0.0000000001
 12
-0.0000482998
 22
-0.0000000452
 32
0.0
 13
-0.0000482998
 23
-0.0000000452
 33
0.0
 40
0.0
 40
0.0
 40
0.0
 40
0.0
 40
1.0
 40
1.0
 40
1.0
 40
1.0
 10
5.7389356503
 20
4.2938849501
 30
0.0
 10
5.7389195504
 20
4.293884935
 30
0.0
 10
5.7389034504
 20
4.29388492
 30
0.0
 10
5.7388873505
 20
4.2938849049
 30
0.0
 11
5.7389356503
 21
4.2938849501
 31
0.0
 11
5.7388873505
 21
4.2938849049
 31
0.0
  0
SPLINE
  5
238
100
AcDbEntity
  8
0
100
AcDbSpline
 62
6
  6
CONTINUOUS
 70
0
 71
3
 72
90
 73
86
 74
84
 42
0.0000001
 43
0.0000001
 44
0.0000000001
 12
-1.2682221697
 22
-0.0012619922
 32
0.0
 13
1.2682224316
 23
0.0009634804
 33
0.0
 40
0.0
 40
0.0
 40
0.0
 40
0.0
 40
0.0156148709
 40
0.0312410144
 40
0.0390567132
 40
0.0468726156
 40
0.0546878823
 40
0.0625020762
 40
0.0781268707
 40
0.0937499346
 40
0.1015619517
 40
0.1093741977
 40
0.1249983662
 40
0.140623201
 40
0.1562480851
 40
0.1718726772
 40
0.1874971105
 40
0.2031214789
 40
0.2109342685
 40
0.2187471135
 40
0.2343718204
 40
0.2499966815
 40
0.2578097155
 40
0.2656227613
 40
0.2812477733
 40
0.2968728687
 40
0.312497896
 40
0.3203109591
 40
0.3281240161
 40
0.3437489262
 40
0.3593736737
 40
0.3671865354
 40
0.37499934
 40
0.3906237188
 40
0.4062481061
 40
0.4218725621
 40
0.4374972717
 40
0.4531222415
 40
0.4687473059
 40
0.476560436
 40
0.48437359
 40
0.4999988021
 40
0.5156240107
 40
0.5234371594
 40
0.5312502806
 40
0.5468753234
 40
0.5625002892
 40
0.5781250334
 40
0.5937495652
 40
0.6093740135
 40
0.6249983611
 40
0.6328110895
 40
0.6406238247
 40
0.6562481948
 40
0.6718726171
 40
0.6796854086
 40
0.6874982007
 40
0.7031226856
 40
0.7187472643
 40
0.7343718259
 40
0.7421846891
 40
0.7499975699
 40
0.7656221913
 40
0.7812467348
 40
0.7890595286
 40
0.7968722897
 40
0.8046850529
 40
0.812497841
 40
0.828122361
 40
0.8437471365
 40
0.8515602734
 40
0.8593734824
 40
0.8749986594
 40
0.882811643
 40
0.8906243957
 40
0.8984368615
 40
0.9062491199
 40
0.9218726701
 40
0.9374978597
 40
0.9453121829
 40
0.953127519
 40
0.9609434466
 40
0.9687591376
 40
0.9843852044
 40
1.0
 40
1.0
 40
1.0
 40
1.0
 10
5.7388873505
 20
4.2938849049
 30
0.0
 10
5.7322863087
 20
4.2938783363
 30
0.0
 10
5.719077667
 20
4.2935402959
 30
0.0
 10
5.7026058147
 20
4.2923103058
 30
0.0
 10
5.6894724004
 20
4.2908436468
 30
0.0
 10
5.6796505578
 20
4.2895026029
 30
0.0
 10
5.6698651978
 20
4.2879210433
 30
0.0
 10
5.6568766636
 20
4.2854928198
 30
0.0
 10
5.6407604848
 20
4.2818616742
 30
0.0
 10
5.6248424387
 20
4.2774457429
 30
0.0
 10
5.6122509402
 20
4.2734486802
 30
0.0
 10
5.5997609358
 20
4.2691435894
 30
0.0
 10
5.5843513259
 20
4.2631892982
 30
0.0
 10
5.566232297
 20
4.2551480581
 30
0.0
 10
5.5485283095
 20
4.2462291273
 30
0.0
 10
5.5312839984
 20
4.2364513058
 30
0.0
 10
5.5145398853
 20
4.225840575
 30
0.0
 10
5.501035401
 20
4.2163251397
 30
0.0
 10
5.4905226983
 20
4.2083229716
 30
0.0
 10
5.4802096342
 20
4.2000648386
 30
0.0
 10
5.4677025972
 20
4.1892715802
 30
0.0
 10
5.4557390122
 20
4.1778787943
 30
0.0
 10
5.4465125491
 20
4.1684217794
 30
0.0
 10
5.4375211022
 20
4.158740998
 30
0.0
 10
5.4267316246
 20
4.1462299819
 30
0.0
 10
5.4145360422
 20
4.1306017289
 30
0.0
 10
5.4050225139
 20
4.1170950027
 30
0.0
 10
5.3978174215
 20
4.106020215
 30
0.0
 10
5.3908865242
 20
4.0947718189
 30
0.0
 10
5.3827432678
 20
4.0803978148
 30
0.0
 10
5.3753138831
 20
4.0656422625
 30
0.0
 10
5.3698105005
 20
4.0536310314
 30
0.0
 10
5.3646040947
 20
4.0414883197
 30
0.0
 10
5.3586574007
 20
4.0260756183
 30
0.0
 10
5.3524363774
 20
4.0072541076
 30
0.0
 10
5.3471454431
 20
3.988149856
 30
0.0
 10
5.3427998903
 20
3.9688083938
 30
0.0
 10
5.3394074019
 20
3.9492772187
 30
0.0
 10
5.337381114
 20
3.9328811446
 30
0.0
 10
5.3362448481
 20
3.9197177253
 30
0.0
 10
5.3354325483
 20
3.9065302632
 30
0.0
 10
5.3350243308
 20
3.8900145038
 30
0.0
 10
5.3354259362
 20
3.8734985851
 30
0.0
 10
5.3362329273
 20
3.8603108049
 30
0.0
 10
5.3373638612
 20
3.8471469414
 30
0.0
 10
5.3393837496
 20
3.8307500866
 30
0.0
 10
5.342768927
 20
3.8112176351
 30
0.0
 10
5.3471074796
 20
3.791874551
 30
0.0
 10
5.3523918769
 20
3.7727684054
 30
0.0
 10
5.3586070858
 20
3.753944916
 30
0.0
 10
5.3645494008
 20
3.73853054
 30
0.0
 10
5.3697525224
 20
3.7263865267
 30
0.0
 10
5.3752528193
 20
3.7143741497
 30
0.0
 10
5.3826788666
 20
3.6996173725
 30
0.0
 10
5.3908194449
 20
3.685242387
 30
0.0
 10
5.3977485618
 20
3.6739934003
 30
0.0
 10
5.4049521004
 20
3.6629181439
 30
0.0
 10
5.4144642037
 20
3.6494110837
 30
0.0
 10
5.4266589678
 20
3.6337829796
 30
0.0
 10
5.4374485476
 20
3.6212726683
 30
0.0
 10
5.446440569
 20
3.6115928706
 30
0.0
 10
5.4556679028
 20
3.6021370402
 30
0.0
 10
5.4676331057
 20
3.5907462791
 30
0.0
 10
5.4801424969
 20
3.5799559661
 30
0.0
 10
5.4904578418
 20
3.5717009303
 30
0.0
 10
5.498344779
 20
3.5657016131
 30
0.0
 10
5.5063767631
 20
3.559897933
 30
0.0
 10
5.5172722209
 20
3.5524252852
 30
0.0
 10
5.5312306052
 20
3.5435889434
 30
0.0
 10
5.5456061228
 20
3.5354485302
 30
0.0
 10
5.5573356557
 20
3.529367117
 30
0.0
 10
5.5692110391
 20
3.5235756323
 30
0.0
 10
5.5812963104
 20
3.5182230166
 30
0.0
 10
5.5935651841
 20
3.5133207066
 30
0.0
 10
5.6028546144
 20
3.5098708517
 30
0.0
 10
5.6122257638
 20
3.5066506053
 30
0.0
 10
5.6248215578
 20
3.502665935
 30
0.0
 10
5.6407448523
 20
3.4982669636
 30
0.0
 10
5.6568657705
 20
3.4946548456
 30
0.0
 10
5.6698576419
 20
3.4922431299
 30
0.0
 10
5.6796452026
 20
3.4906746181
 30
0.0
 10
5.6894689529
 20
3.4893473057
 30
0.0
 10
5.7026044782
 20
3.4878998513
 30
0.0
 10
5.7190781956
 20
3.4866955298
 30
0.0
 10
5.7322873578
 20
3.4863797933
 30
0.0
 10
5.7388883692
 20
3.4863848081
 30
0.0
 11
5.7388873505
 21
4.2938849049
 31
0.0
 11
5.7190906763
 21
4.2933790808
 31
0.0
 11
5.699328247
 21
4.2919036231
 31
0.0
 11
5.6894774383
 21
4.2908035094
 31
0.0
 11
5.6796562677
 21
4.2894624606
 31
0.0
 11
5.6698717537
 21
4.2878809723
 31
0.0
 11
5.6601303748
 21
4.286059876
 31
0.0
 11
5.640799222
 21
4.2817044986
 31
0.0
 11
5.6217067732
 21
4.2764078766
 31
0.0
 11
5.6122637745
 21
4.2734102247
 31
0.0
 11
5.6028969082
 21
4.2701816474
 31
0.0
 11
5.584413695
 21
4.2630400687
 31
0.0
 11
5.5663015171
 21
4.2550017965
 31
0.0
 11
5.5486047886
 21
4.246085907
 31
0.0
 11
5.5313672758
 21
4.2363124347
 31
0.0
 11
5.5146296805
 21
4.2257059493
 31
0.0
 11
5.498431799
 21
4.2142923607
 31
0.0
 11
5.4905476866
 21
4.2082910003
 31
0.0
 11
5.482813272
 21
4.2020977961
 31
0.0
 11
5.4678113462
 21
4.1891517309
 31
0.0
 11
5.4534613894
 21
4.1754862682
 31
0.0
 11
5.4465419361
 21
4.168393817
 31
0.0
 11
5.4397987099
 21
4.1611335901
 31
0.0
 11
5.4268569156
 21
4.1461274688
 31
0.0
 11
5.4146659445
 21
4.1305051089
 31
0.0
 11
5.4032552562
 21
4.1143041621
 31
0.0
 11
5.3978516925
 21
4.1059985057
 31
0.0
 11
5.3926537271
 21
4.0975626636
 31
0.0
 11
5.3828859999
 21
4.080321431
 31
0.0
 11
5.37397485
 21
4.0626225094
 31
0.0
 11
5.3698476063
 21
4.0536145559
 31
0.0
 11
5.3659429543
 21
4.0445079854
 31
0.0
 11
5.3588098865
 21
4.0260212
 31
0.0
 11
5.3525914071
 21
4.0072070344
 31
0.0
 11
5.3473030424
 21
3.9881104648
 31
0.0
 11
5.3429587645
 21
3.9687769249
 31
0.0
 11
5.3395675751
 21
3.9492533128
 31
0.0
 11
5.3371374845
 21
3.9295868183
 31
0.0
 11
5.3362853467
 21
3.9197147377
 31
0.0
 11
5.335676082
 21
3.9098246664
 31
0.0
 11
5.3351862931
 21
3.89001447
 31
0.0
 11
5.3356681414
 21
3.8702040834
 31
0.0
 11
5.3362734231
 21
3.8603137743
 31
0.0
 11
5.3371215823
 21
3.8504413625
 31
0.0
 11
5.3395439825
 21
3.8307739467
 31
0.0
 11
5.3429278483
 21
3.8112490692
 31
0.0
 11
5.3472651508
 21
3.7919139182
 31
0.0
 11
5.3525470303
 21
3.7728154542
 31
0.0
 11
5.3587596818
 21
3.7539992818
 31
0.0
 11
5.3658874771
 21
3.7355105053
 31
0.0
 11
5.369789669
 21
3.7264029856
 31
0.0
 11
5.3739146145
 21
3.7173941558
 31
0.0
 11
5.3828217581
 21
3.6996937534
 31
0.0
 11
5.3925862425
 21
3.6824513951
 31
0.0
 11
5.3977828639
 21
3.6740151204
 31
0.0
 11
5.4031852657
 21
3.6657091182
 31
0.0
 11
5.4145942444
 21
3.6495078089
 31
0.0
 11
5.4267843921
 21
3.6338856375
 31
0.0
 11
5.4397263165
 21
3.6188803829
 31
0.0
 11
5.4464699769
 21
3.6116208752
 31
0.0
 11
5.4533900774
 21
3.6045293269
 31
0.0
 11
5.4677419717
 21
3.59086634
 31
0.0
 11
5.4827467179
 21
3.5779238611
 31
0.0
 11
5.4904828832
 21
3.5717329479
 31
0.0
 11
5.4983689531
 21
3.5657342195
 31
0.0
 11
5.5064000668
 21
3.5599311079
 31
0.0
 11
5.5145712485
 21
3.5543268855
 31
0.0
 11
5.5313139125
 21
3.5437281975
 31
0.0
 11
5.5485571368
 21
3.5339643332
 31
0.0
 11
5.5573538417
 21
3.5294033829
 31
0.0
 11
5.5662600373
 21
3.5250599081
 31
0.0
 11
5.5843786348
 21
3.5170350445
 31
0.0
 11
5.5935799034
 21
3.5133584855
 31
0.0
 11
5.6028683966
 21
3.5099090617
 31
0.0
 11
5.6122385483
 21
3.5066891741
 31
0.0
 11
5.6216848088
 21
3.5037008021
 31
0.0
 11
5.6407835341
 21
3.4984245402
 31
0.0
 11
5.660120334
 21
3.4940920107
 31
0.0
 11
5.6698641875
 21
3.4922833041
 31
0.0
 11
5.6796508917
 21
3.4907148697
 31
0.0
 11
5.6894739597
 21
3.4893875528
 31
0.0
 11
5.6993263566
 21
3.4883018443
 31
0.0
 11
5.7190909645
 21
3.4868571955
 31
0.0
 11
5.7388883692
 21
3.4863848081
 31
0.0
  0
SPLINE
  5
239
100
AcDbEntity
  8
0
100
AcDbSpline
 62
6
  6
CONTINUOUS
 70
0
 71
3
 72
8
 73
4
 74
2
 42
0.0000001
 43
0.0000001
 44
0.0000000001
 12
0.0000472811
 22
0.0000000387
 32
0.0
 13
0.0000472811
 23
0.0000000387
 33
0.0
 40
0.0
 40
0.0
 40
0.0
 40
0.0
 40
1.0
 40
1.0
 40
1.0
 40
1.0
 10
5.7388883692
 20
3.4863848081
 30
0.0
 10
5.7389041295
 20
3.486384821
 30
0.0
 10
5.7389198899
 20
3.4863848339
 30
0.0
 10
5.7389356503
 20
3.4863848468
 30
0.0
 11
5.7388883692
 21
3.4863848081
 31
0.0
 11
5.7389356503
 21
3.4863848468
 31
0.0
  0
SPLINE
  5
23A
100
AcDbEntity
  8
0
100
AcDbSpline
 62
6
  6
CONTINUOUS
 70
0
 71
3
 72
8
 73
4
 74
2
 42
0.0000001
 43
0.0000001
 44
0.0000000001
 12
-0.0000484732
 22
-0.0000000456
 32
0.0
 13
-0.0000484732
 23
-0.0000000456
 33
0.0
 40
0.0
 40
0.0
 40
0.0
 40
0.0
 40
1.0
 40
1.0
 40
1.0
 40
1.0
 10
5.7389356503
 20
4.291661946
 30
0.0
 10
5.7389194925
 20
4.2916619308
 30
0.0
 10
5.7389033348
 20
4.2916619156
 30
0.0
 10
5.7388871771
 20
4.2916619004
 30
0.0
 11
5.7389356503
 21
4.291661946
 31
0.0
 11
5.7388871771
 21
4.2916619004
 31
0.0
  0
SPLINE
  5
23B
100
AcDbEntity
  8
0
100
AcDbSpline
 62
6
  6
CONTINUOUS
 70
0
 71
3
 72
89
 73
85
 74
83
 42
0.0000001
 43
0.0000001
 44
0.0000000001
 12
-1.2612369249
 22
-0.0012625241
 32
0.0
 13
1.2612371897
 23
0.0009623563
 33
0.0
 40
0.0
 40
0.0
 40
0.0
 40
0.0
 40
0.0156148886
 40
0.0312411044
 40
0.0390568874
 40
0.0468729209
 40
0.0546883754
 40
0.0625027977
 40
0.0781280924
 40
0.0937516024
 40
0.1015637783
 40
0.109376121
 40
0.1250003575
 40
0.140625154
 40
0.1484381677
 40
0.1562511185
 40
0.1718755823
 40
0.1874998779
 40
0.1953125907
 40
0.2031253098
 40
0.2109380634
 40
0.2187508893
 40
0.2343756057
 40
0.2500005244
 40
0.2578135974
 40
0.2656266839
 40
0.2812517809
 40
0.2968769796
 40
0.3125021356
 40
0.3203152716
 40
0.3281284075
 40
0.343753494
 40
0.3593784371
 40
0.3671913983
 40
0.3750042984
 40
0.390628826
 40
0.4062532466
 40
0.4218775305
 40
0.4375018039
 40
0.4531261713
 40
0.4687505862
 40
0.4765634074
 40
0.484376274
 40
0.5000009719
 40
0.5156257413
 40
0.5234386986
 40
0.5312516482
 40
0.5468764008
 40
0.5625011328
 40
0.5781256982
 40
0.5937501214
 40
0.6093745421
 40
0.6249989655
 40
0.6328117838
 40
0.640624647
 40
0.6562493412
 40
0.6718741021
 40
0.6796870438
 40
0.6874999621
 40
0.7031246121
 40
0.7187492337
 40
0.7343737148
 40
0.7499980848
 40
0.7656224469
 40
0.7812467387
 40
0.7890594365
 40
0.7968721353
 40
0.8124964725
 40
0.8281210373
 40
0.8359340151
 40
0.8437470966
 40
0.8593723871
 40
0.8749976871
 40
0.8906223759
 40
0.8984349203
 40
0.9062472883
 40
0.9218711445
 40
0.9374967325
 40
0.9453112837
 40
0.9531268521
 40
0.9609429786
 40
0.9687588328
 40
0.9843851201
 40
1.0
 40
1.0
 40
1.0
 40
1.0
 10
5.7388871771
 20
4.2916619004
 30
0.0
 10
5.7323224857
 20
4.291655329
 30
0.0
 10
5.7191865599
 20
4.2913190787
 30
0.0
 10
5.7028053666
 20
4.2900957666
 30
0.0
 10
5.6897441781
 20
4.2886370964
 30
0.0
 10
5.6799762733
 20
4.2873033567
 30
0.0
 10
5.6702445917
 20
4.2857304173
 30
0.0
 10
5.6573272365
 20
4.283315398
 30
0.0
 10
5.6412993763
 20
4.2797039939
 30
0.0
 10
5.6254685891
 20
4.2753121405
 30
0.0
 10
5.6129461852
 20
4.2713369494
 30
0.0
 10
5.6005248344
 20
4.2670554933
 30
0.0
 10
5.5852002585
 20
4.261133886
 30
0.0
 10
5.570183623
 20
4.2544692458
 30
0.0
 10
5.5583778017
 20
4.2487016281
 30
0.0
 10
5.5467170401
 20
4.2426463855
 30
0.0
 10
5.532425574
 20
4.2345428534
 30
0.0
 10
5.5185484943
 20
4.2257487322
 30
0.0
 10
5.5077162393
 20
4.2183128522
 30
0.0
 10
5.4997306919
 20
4.2125381952
 30
0.0
 10
5.4918892031
 20
4.2065693015
 30
0.0
 10
5.4816330336
 20
4.1983566592
 30
0.0
 10
5.4691949204
 20
4.1876227328
 30
0.0
 10
5.4572972764
 20
4.1762925958
 30
0.0
 10
5.448121626
 20
4.1668875933
 30
0.0
 10
5.4391796554
 20
4.1572600828
 30
0.0
 10
5.4284496053
 20
4.1448178464
 30
0.0
 10
5.4163212281
 20
4.1292754772
 30
0.0
 10
5.4068600962
 20
4.1158429921
 30
0.0
 10
5.3996946191
 20
4.1048291077
 30
0.0
 10
5.3928018755
 20
4.0936425168
 30
0.0
 10
5.3847034939
 20
4.0793474516
 30
0.0
 10
5.3773150587
 20
4.064672936
 30
0.0
 10
5.3718419544
 20
4.0527276968
 30
0.0
 10
5.3666641787
 20
4.0406517281
 30
0.0
 10
5.3607503527
 20
4.0253237462
 30
0.0
 10
5.3545638034
 20
4.0066058315
 30
0.0
 10
5.3493020771
 20
3.9876070398
 30
0.0
 10
5.3449805381
 20
3.9683726109
 30
0.0
 10
5.3416069698
 20
3.9489496896
 30
0.0
 10
5.3395920101
 20
3.9326445655
 30
0.0
 10
5.3384620597
 20
3.9195541701
 30
0.0
 10
5.3376542339
 20
3.9064398113
 30
0.0
 10
5.3372481951
 20
3.8900155435
 30
0.0
 10
5.3376474859
 20
3.8735910714
 30
0.0
 10
5.3384499676
 20
3.8604762618
 30
0.0
 10
5.3395746382
 20
3.8473851764
 30
0.0
 10
5.341583218
 20
3.8310789086
 30
0.0
 10
5.344949462
 20
3.8116542889
 30
0.0
 10
5.3492639552
 20
3.7924179304
 30
0.0
 10
5.3545191277
 20
3.7734171263
 30
0.0
 10
5.3606998135
 20
3.7546972481
 30
0.0
 10
5.3666092385
 20
3.7393676452
 30
0.0
 10
5.3717837343
 20
3.727290399
 30
0.0
 10
5.3772538034
 20
3.7153439655
 30
0.0
 10
5.3846389571
 20
3.7006681014
 30
0.0
 10
5.3927347096
 20
3.686371904
 30
0.0
 10
5.3996257097
 20
3.6751846025
 30
0.0
 10
5.4067896532
 20
3.6641701716
 30
0.0
 10
5.4162493389
 20
3.6507373735
 30
0.0
 10
5.428377003
 20
3.635195092
 30
0.0
 10
5.4412523412
 20
3.6202661247
 30
0.0
 10
5.4548464121
 20
3.6059886696
 30
0.0
 10
5.4691245734
 20
3.5923958358
 30
0.0
 10
5.4815648743
 20
3.5816649125
 30
0.0
 10
5.4918232925
 20
3.5734554333
 30
0.0
 10
5.50228066
 20
3.5655008539
 30
0.0
 10
5.5157141742
 20
3.5560429183
 30
0.0
 10
5.5295955377
 20
3.5472552396
 30
0.0
 10
5.5409485616
 20
3.5406408204
 30
0.0
 10
5.5524610922
 20
3.5343075288
 30
0.0
 10
5.5671391407
 20
3.5269249239
 30
0.0
 10
5.5851646628
 20
3.5189411129
 30
0.0
 10
5.6004949654
 20
3.5130323201
 30
0.0
 10
5.6129206552
 20
3.508762446
 30
0.0
 10
5.6254473146
 20
3.5047996148
 30
0.0
 10
5.6412831901
 20
3.5004247222
 30
0.0
 10
5.657315695
 20
3.4968323563
 30
0.0
 10
5.670236365
 20
3.4944338696
 30
0.0
 10
5.6799702975
 20
3.4928739949
 30
0.0
 10
5.6897401892
 20
3.4915539766
 30
0.0
 10
5.7028036104
 20
3.4901144814
 30
0.0
 10
5.7191867887
 20
3.4889167828
 30
0.0
 10
5.7323233255
 20
3.4886028027
 30
0.0
 10
5.7388880146
 20
3.4886078117
 30
0.0
 11
5.7388871771
 21
4.2916619004
 31
0.0
 11
5.7191995215
 21
4.2911587517
 31
0.0
 11
5.6995458587
 21
4.2896913045
 31
0.0
 11
5.689749208
 21
4.2885971816
 31
0.0
 11
5.6799819756
 21
4.287263439
 31
0.0
 11
5.6702511293
 21
4.2856905654
 31
0.0
 11
5.6605631354
 21
4.283879374
 31
0.0
 11
5.6413378788
 21
4.2795476796
 31
0.0
 11
5.6223500852
 21
4.2742799433
 31
0.0
 11
5.6129589199
 21
4.2712986995
 31
0.0
 11
5.6036435408
 21
4.2680878339
 31
0.0
 11
5.5852621155
 21
4.2609853928
 31
0.0
 11
5.5672498387
 21
4.2529911959
 31
0.0
 11
5.5583958957
 21
4.2486656537
 31
0.0
 11
5.5496507576
 21
4.2441243301
 31
0.0
 11
5.5325083721
 21
4.2344046911
 31
0.0
 11
5.5158631938
 21
4.2238565898
 31
0.0
 11
5.5077394002
 21
4.2182799312
 31
0.0
 11
5.4997547197
 21
4.2125058358
 31
0.0
 11
5.4919140892
 21
4.2065375301
 31
0.0
 11
5.4842223181
 21
4.2003784221
 31
0.0
 11
5.4693030912
 21
4.1875035634
 31
0.0
 11
5.4550321995
 21
4.1739132349
 31
0.0
 11
5.4481508475
 21
4.1668597897
 31
0.0
 11
5.4414447355
 21
4.1596395062
 31
0.0
 11
5.4285742184
 21
4.1447158997
 31
0.0
 11
5.4164504172
 21
4.1291794027
 31
0.0
 11
5.4051025535
 21
4.1130675076
 31
0.0
 11
5.39972871
 21
4.1048075154
 31
0.0
 11
5.3945593573
 21
4.0964180309
 31
0.0
 11
5.3848454459
 21
4.0792714965
 31
0.0
 11
5.3759833881
 21
4.0616697772
 31
0.0
 11
5.3718788525
 21
4.0527113116
 31
0.0
 11
5.3679956802
 21
4.0436547796
 31
0.0
 11
5.3609019869
 21
4.0252695831
 31
0.0
 11
5.3547179186
 21
4.0065589467
 31
0.0
 11
5.3494587726
 21
3.9875677591
 31
0.0
 11
5.3451385426
 21
3.9683412433
 31
0.0
 11
5.34176625
 21
3.9489258984
 31
0.0
 11
5.3393497314
 21
3.9293685272
 31
0.0
 11
5.3385023292
 21
3.9195512085
 31
0.0
 11
5.3378964229
 21
3.9097159737
 31
0.0
 11
5.3374092588
 21
3.8900155403
 31
0.0
 11
5.3378883412
 21
3.8703148186
 31
0.0
 11
5.338490243
 21
3.8604792234
 31
0.0
 11
5.3393336908
 21
3.8506614015
 31
0.0
 11
5.341742552
 21
3.8311026565
 31
0.0
 11
5.3451075219
 21
3.8116855745
 31
0.0
 11
5.3494207546
 21
3.7924571102
 31
0.0
 11
5.3546733828
 21
3.7734639367
 31
0.0
 11
5.3608515655
 21
3.7547513559
 31
0.0
 11
5.3679399498
 21
3.7363642527
 31
0.0
 11
5.3718206689
 21
3.7273067814
 31
0.0
 11
5.3759229352
 21
3.7183474124
 31
0.0
 11
5.3847810586
 21
3.7007440643
 31
0.0
 11
5.3944917992
 21
3.6835962058
 31
0.0
 11
5.3996598372
 21
3.6752061989
 31
0.0
 11
5.4050325413
 21
3.6669457932
 31
0.0
 11
5.416378722
 21
3.6508334934
 31
0.0
 11
5.4285016653
 21
3.6352972503
 31
0.0
 11
5.4413721734
 21
3.6203746618
 31
0.0
 11
5.4549604389
 21
3.6061027613
 31
0.0
 11
5.46923293
 21
3.5925151308
 31
0.0
 11
5.4841547077
 21
3.5796440483
 31
0.0
 11
5.4918481597
 21
3.5734872987
 31
0.0
 11
5.4996907194
 21
3.5675216424
 31
0.0
 11
5.5158036435
 21
3.5561770338
 31
0.0
 11
5.5324540353
 21
3.5456365292
 31
0.0
 11
5.5409684296
 21
3.5406760029
 31
0.0
 11
5.5496023643
 21
3.5359263209
 31
0.0
 11
5.5672078525
 21
3.5270707778
 31
0.0
 11
5.5852267223
 21
3.5190898843
 31
0.0
 11
5.6036147545
 21
3.5120029792
 31
0.0
 11
5.6129333886
 21
3.5088007902
 31
0.0
 11
5.6223277464
 21
3.5058288184
 31
0.0
 11
5.6413216303
 21
3.5005814443
 31
0.0
 11
5.660552404
 21
3.4962726173
 31
0.0
 11
5.6702428739
 21
3.4944738295
 31
0.0
 11
5.6799759684
 21
3.4929140197
 31
0.0
 11
5.6897451833
 21
3.491594
 31
0.0
 11
5.69954352
 21
3.4905142597
 31
0.0
 11
5.7191995448
 21
3.4890775612
 31
0.0
 11
5.7388880146
 21
3.4886078117
 31
0.0
  0
SPLINE
  5
23C
100
AcDbEntity
  8
0
100
AcDbSpline
 62
6
  6
CONTINUOUS
 70
0
 71
3
 72
8
 73
4
 74
2
 42
0.0000001
 43
0.0000001
 44
0.0000000001
 12
0.0000476357
 22
0.0000000392
 32
0.0
 13
0.0000476357
 23
0.0000000392
 33
0.0
 40
0.0
 40
0.0
 40
0.0
 40
0.0
 40
1.0
 40
1.0
 40
1.0
 40
1.0
 10
5.7388880146
 20
3.4886078117
 30
0.0
 10
5.7389038932
 20
3.4886078248
 30
0.0
 10
5.7389197717
 20
3.4886078378
 30
0.0
 10
5.7389356503
 20
3.4886078509
 30
0.0
 11
5.7388880146
 21
3.4886078117
 31
0.0
 11
5.7389356503
 21
3.4886078509
 31
0.0
  0
SPLINE
  5
23D
100
AcDbEntity
  8
0
100
AcDbSpline
 62
6
  6
CONTINUOUS
 70
0
 71
3
 72
8
 73
4
 74
2
 42
0.0000001
 43
0.0000001
 44
0.0000000001
 12
-0.0000485492
 22
-0.0000000459
 32
0.0
 13
-0.0000485492
 23
-0.0000000459
 33
0.0
 40
0.0
 40
0.0
 40
0.0
 40
0.0
 40
1.0
 40
1.0
 40
1.0
 40
1.0
 10
5.7389356503
 20
4.2894389419
 30
0.0
 10
5.7389194672
 20
4.2894389266
 30
0.0
 10
5.7389032842
 20
4.2894389113
 30
0.0
 10
5.7388871011
 20
4.289438896
 30
0.0
 11
5.7389356503
 21
4.2894389419
 31
0.0
 11
5.7388871011
 21
4.289438896
 31
0.0
  0
SPLINE
  5
23E
100
AcDbEntity
  8
0
100
AcDbSpline
 62
6
  6
CONTINUOUS
 70
0
 71
3
 72
88
 73
84
 74
82
 42
0.0000001
 43
0.0000001
 44
0.0000000001
 12
-1.2542522833
 22
-0.0012627518
 32
0.0
 13
1.2542525494
 23
0.0009627432
 33
0.0
 40
0.0
 40
0.0
 40
0.0
 40
0.0
 40
0.0156149053
 40
0.0312411606
 40
0.0390569847
 40
0.0468730803
 40
0.0546886227
 40
0.0625031539
 40
0.078128716
 40
0.0937525489
 40
0.1015649027
 40
0.1093774337
 40
0.1250021009
 40
0.1406273711
 40
0.1562526216
 40
0.1640656785
 40
0.1718786313
 40
0.1875031542
 40
0.2031274707
 40
0.2109401737
 40
0.2187528914
 40
0.2343772723
 40
0.2500017838
 40
0.2656263726
 40
0.2812511415
 40
0.2968760766
 40
0.3125010165
 40
0.3203140548
 40
0.3281270975
 40
0.3437520138
 40
0.3593768097
 40
0.3671897055
 40
0.375002545
 40
0.390626977
 40
0.4062513642
 40
0.4218757127
 40
0.4375001602
 40
0.4531247235
 40
0.4687492396
 40
0.4765620388
 40
0.4843748251
 40
0.4999992291
 40
0.515623601
 40
0.5234363477
 40
0.5312490925
 40
0.546873467
 40
0.5624978751
 40
0.5781221964
 40
0.5937464852
 40
0.6093708675
 40
0.6249953339
 40
0.6328082047
 40
0.6406211403
 40
0.6562460333
 40
0.6718710672
 40
0.6796841778
 40
0.6874972908
 40
0.7031224016
 40
0.7187475489
 40
0.734372588
 40
0.7499975171
 40
0.7656223832
 40
0.7812470459
 40
0.7890598511
 40
0.7968725924
 40
0.8046853103
 40
0.8124980352
 40
0.8281224047
 40
0.8437470516
 40
0.8515601464
 40
0.8593733262
 40
0.8749984781
 40
0.8906230531
 40
0.8984355459
 40
0.9062478559
 40
0.9218715792
 40
0.9374970212
 40
0.9453114969
 40
0.9531269936
 40
0.9609430637
 40
0.9687588763
 40
0.9843851201
 40
1.0
 40
1.0
 40
1.0
 40
1.0
 10
5.7388871011
 20
4.289438896
 30
0.0
 10
5.7323587575
 20
4.2894323234
 30
0.0
 10
5.7192955559
 20
4.2890978621
 30
0.0
 10
5.7030050465
 20
4.2878812324
 30
0.0
 10
5.6900161382
 20
4.2864305657
 30
0.0
 10
5.6803022549
 20
4.2851041523
 30
0.0
 10
5.6706243666
 20
4.2835398636
 30
0.0
 10
5.6577783679
 20
4.2811381194
 30
0.0
 10
5.641839003
 20
4.2775465593
 30
0.0
 10
5.6260956042
 20
4.2731788515
 30
0.0
 10
5.6136422899
 20
4.2692255154
 30
0.0
 10
5.6012894577
 20
4.2649676125
 30
0.0
 10
5.586049199
 20
4.2590783687
 30
0.0
 10
5.5681296318
 20
4.251125113
 30
0.0
 10
5.5535378204
 20
4.2437737072
 30
0.0
 10
5.5420928292
 20
4.237468702
 30
0.0
 10
5.5308063244
 20
4.230884742
 30
0.0
 10
5.5170060963
 20
4.2221391155
 30
0.0
 10
5.5036507485
 20
4.2127282838
 30
0.0
 10
5.4932539556
 20
4.204814261
 30
0.0
 10
5.483054736
 20
4.1966471921
 30
0.0
 10
5.4706858135
 20
4.1859726834
 30
0.0
 10
5.4564888603
 20
4.1724526363
 30
0.0
 10
5.4429712946
 20
4.158252735
 30
0.0
 10
5.4301676058
 20
4.1434057162
 30
0.0
 10
5.4181065673
 20
4.1279494753
 30
0.0
 10
5.4086980622
 20
4.1145915672
 30
0.0
 10
5.4015723529
 20
4.1036388172
 30
0.0
 10
5.394717876
 20
4.0925142969
 30
0.0
 10
5.3866644616
 20
4.0782985256
 30
0.0
 10
5.3793170474
 20
4.0637054038
 30
0.0
 10
5.3738743066
 20
4.0518264175
 30
0.0
 10
5.3687252303
 20
4.0398174147
 30
0.0
 10
5.3628441669
 20
4.0245743981
 30
0.0
 10
5.3566918765
 20
4.0059601706
 30
0.0
 10
5.3514592784
 20
3.987066506
 30
0.0
 10
5.3471616761
 20
3.9679384084
 30
0.0
 10
5.3438067822
 20
3.9486228518
 30
0.0
 10
5.341802947
 20
3.9324079135
 30
0.0
 10
5.3406792027
 20
3.9193900167
 30
0.0
 10
5.3398758214
 20
3.9063484518
 30
0.0
 10
5.3394720161
 20
3.8900154631
 30
0.0
 10
5.3398690899
 20
3.8736823255
 30
0.0
 10
5.3406671124
 20
3.8606404843
 30
0.0
 10
5.3417855221
 20
3.8476222267
 30
0.0
 10
5.3437828295
 20
3.8314066276
 30
0.0
 10
5.3471301987
 20
3.8120899402
 30
0.0
 10
5.3514206799
 20
3.7929603841
 30
0.0
 10
5.3566466386
 20
3.7740649573
 30
0.0
 10
5.362792866
 20
3.7554487313
 30
0.0
 10
5.3686694324
 20
3.740203943
 30
0.0
 10
5.3738152915
 20
3.7281935114
 30
0.0
 10
5.3792550818
 20
3.7163130944
 30
0.0
 10
5.3865993099
 20
3.701718237
 30
0.0
 10
5.394650238
 20
3.6875009069
 30
0.0
 10
5.4015031669
 20
3.6763753024
 30
0.0
 10
5.408627635
 20
3.6654215859
 30
0.0
 10
5.4180351937
 20
3.6520627576
 30
0.0
 10
5.4300960523
 20
3.6366060068
 30
0.0
 10
5.4429005069
 20
3.6217591685
 30
0.0
 10
5.4564198147
 20
3.6075603339
 30
0.0
 10
5.4706194371
 20
3.5940424764
 30
0.0
 10
5.4829912363
 20
3.58337077
 30
0.0
 10
5.4931929695
 20
3.5752066442
 30
0.0
 10
5.5009930088
 20
3.5692734142
 30
0.0
 10
5.508936463
 20
3.5635336813
 30
0.0
 10
5.5197118029
 20
3.5561433897
 30
0.0
 10
5.5335162955
 20
3.5474044426
 30
0.0
 10
5.5477333825
 20
3.5393538015
 30
0.0
 10
5.5593336173
 20
3.53333944
 30
0.0
 10
5.5710782509
 20
3.527611707
 30
0.0
 10
5.5860171021
 20
3.5209951467
 30
0.0
 10
5.6012622294
 20
3.5151193064
 30
0.0
 10
5.6136190537
 20
3.510873128
 30
0.0
 10
5.6260762542
 20
3.5069323248
 30
0.0
 10
5.6418243207
 20
3.5025817737
 30
0.0
 10
5.657767911
 20
3.4990094154
 30
0.0
 10
5.670616916
 20
3.4966242835
 30
0.0
 10
5.6802968632
 20
3.4950730891
 30
0.0
 10
5.6900125849
 20
3.4937604287
 30
0.0
 10
5.7030036093
 20
3.4923289676
 30
0.0
 10
5.7192960291
 20
3.4911379827
 30
0.0
 10
5.7323598001
 20
3.4908258046
 30
0.0
 10
5.7388881344
 20
3.4908308157
 30
0.0
 11
5.7388871011
 21
4.289438896
 31
0.0
 11
5.7193084561
 21
4.2889384235
 31
0.0
 11
5.6997635924
 21
4.2874789934
 31
0.0
 11
5.6900211492
 21
4.2863908731
 31
0.0
 11
5.6803079363
 21
4.2850644579
 31
0.0
 11
5.6706308771
 21
4.2835002327
 31
0.0
 11
5.6609964092
 21
4.2816989988
 31
0.0
 11
5.6418773172
 21
4.2773911135
 31
0.0
 11
5.6229943162
 21
4.2721523333
 31
0.0
 11
5.6136549621
 21
4.2691874808
 31
0.0
 11
5.6043909659
 21
4.2659942669
 31
0.0
 11
5.5861109034
 21
4.258930778
 31
0.0
 11
5.5681979263
 21
4.2509804038
 31
0.0
 11
5.5506958521
 21
4.2421622618
 31
0.0
 11
5.5421125698
 21
4.2374337912
 31
0.0
 11
5.5336480632
 21
4.2324961056
 31
0.0
 11
5.5170949818
 21
4.222006017
 31
0.0
 11
5.5010757968
 21
4.2107178804
 31
0.0
 11
5.4932786606
 21
4.2047826349
 31
0.0
 11
5.4856296126
 21
4.1986576946
 31
0.0
 11
5.4707934555
 21
4.1858542605
 31
0.0
 11
5.4566021334
 21
4.1723393693
 31
0.0
 11
5.4430903444
 21
4.1581449599
 31
0.0
 11
5.4302914407
 21
4.1433042516
 31
0.0
 11
5.4182350752
 21
4.1278539836
 31
0.0
 11
5.4069502708
 21
4.1118314947
 31
0.0
 11
5.4016062585
 21
4.1036173456
 31
0.0
 11
5.3964656046
 21
4.0952744146
 31
0.0
 11
5.3868056301
 21
4.0782230013
 31
0.0
 11
5.3779927654
 21
4.0607189076
 31
0.0
 11
5.3739109988
 21
4.051810126
 31
0.0
 11
5.3700493546
 21
4.042803821
 31
0.0
 11
5.3629949711
 21
4.0245205589
 31
0.0
 11
5.3568451539
 21
4.0059135833
 31
0.0
 11
5.3516151238
 21
3.987027486
 31
0.0
 11
5.3473188062
 21
3.9679072241
 31
0.0
 11
5.3439651678
 21
3.9485991543
 31
0.0
 11
5.3415619895
 21
3.9291499676
 31
0.0
 11
5.3407192487
 21
3.9193870468
 31
0.0
 11
5.340116675
 21
3.9096063811
 31
0.0
 11
5.3396321896
 21
3.8900154166
 31
0.0
 11
5.3401086072
 21
3.8704242944
 31
0.0
 11
5.3407071623
 21
3.8606434317
 31
0.0
 11
5.3415459088
 21
3.8508802354
 31
0.0
 11
5.3439412673
 21
3.831430263
 31
0.0
 11
5.3472873924
 21
3.8121210874
 31
0.0
 11
5.3515765963
 21
3.7929993906
 31
0.0
 11
5.3568000023
 21
3.7741115378
 31
0.0
 11
5.3629437734
 21
3.7555025715
 31
0.0
 11
5.3699927797
 21
3.7372171894
 31
0.0
 11
5.3738520142
 21
3.7282098089
 31
0.0
 11
5.3779315676
 21
3.7192999587
 31
0.0
 11
5.3867406133
 21
3.7017938063
 31
0.0
 11
5.3963976125
 21
3.6847405382
 31
0.0
 11
5.4015371078
 21
3.6763967934
 31
0.0
 11
5.4068801889
 21
3.668181927
 31
0.0
 11
5.4181638462
 21
3.6521583679
 31
0.0
 11
5.4302200219
 21
3.6367076143
 31
0.0
 11
5.4430196931
 21
3.6218671205
 31
0.0
 11
5.4565332378
 21
3.607673793
 31
0.0
 11
5.4707272377
 21
3.5941610695
 31
0.0
 11
5.4855667934
 21
3.5813610334
 31
0.0
 11
5.4932177475
 21
3.5752382983
 31
0.0
 11
5.5010169236
 21
3.5693056546
 31
0.0
 11
5.5089595165
 21
3.5635664861
 31
0.0
 11
5.5170406153
 21
3.5580240274
 31
0.0
 11
5.533598687
 21
3.547542177
 31
0.0
 11
5.550651849
 21
3.5378859757
 31
0.0
 11
5.5593516127
 21
3.533375298
 31
0.0
 11
5.5681596655
 21
3.529079673
 31
0.0
 11
5.5860786327
 21
3.5211431749
 31
0.0
 11
5.6043647387
 21
3.5140956683
 31
0.0
 11
5.6136317159
 21
3.5109112628
 31
0.0
 11
5.6229739902
 21
3.5079558069
 31
0.0
 11
5.6418625515
 21
3.5027376261
 31
0.0
 11
5.6609866683
 21
3.4984527924
 31
0.0
 11
5.6706233869
 21
3.4966640205
 31
0.0
 11
5.6803024965
 21
3.4951128945
 31
0.0
 11
5.6900175451
 21
3.4938002315
 31
0.0
 11
5.6997615721
 21
3.4927265182
 31
0.0
 11
5.7193086955
 21
3.4912978714
 31
0.0
 11
5.7388881344
 21
3.4908308157
 31
0.0
  0
SPLINE
  5
23F
100
AcDbEntity
  8
0
100
AcDbSpline
 62
6
  6
CONTINUOUS
 70
0
 71
3
 72
8
 73
4
 74
2
 42
0.0000001
 43
0.0000001
 44
0.0000000001
 12
0.0000475159
 22
0.0000000393
 32
0.0
 13
0.0000475159
 23
0.0000000393
 33
0.0
 40
0.0
 40
0.0
 40
0.0
 40
0.0
 40
1.0
 40
1.0
 40
1.0
 40
1.0
 10
5.7388881344
 20
3.4908308157
 30
0.0
 10
5.738903973
 20
3.4908308288
 30
0.0
 10
5.7389198117
 20
3.4908308419
 30
0.0
 10
5.7389356503
 20
3.490830855
 30
0.0
 11
5.7388881344
 21
3.4908308157
 31
0.0
 11
5.7389356503
 21
3.490830855
 31
0.0
  0
SPLINE
  5
240
100
AcDbEntity
  8
0
100
AcDbSpline
 62
6
  6
CONTINUOUS
 70
0
 71
3
 72
8
 73
4
 74
2
 42
0.0000001
 43
0.0000001
 44
0.0000000001
 12
-0.0000482606
 22
-0.0000000461
 32
0.0
 13
-0.0000482606
 23
-0.0000000461
 33
0.0
 40
0.0
 40
0.0
 40
0.0
 40
0.0
 40
1.0
 40
1.0
 40
1.0
 40
1.0
 10
5.7389356503
 20
4.2849929338
 30
0.0
 10
5.7389195634
 20
4.2849929184
 30
0.0
 10
5.7389034766
 20
4.284992903
 30
0.0
 10
5.7388873897
 20
4.2849928876
 30
0.0
 11
5.7389356503
 21
4.2849929338
 31
0.0
 11
5.7388873897
 21
4.2849928876
 31
0.0
  0
SPLINE
  5
241
100
AcDbEntity
  8
0
100
AcDbSpline
 62
6
  6
CONTINUOUS
 70
0
 71
3
 72
68
 73
64
 74
62
 42
0.0000001
 43
0.0000001
 44
0.0000000001
 12
-0.8741425269
 22
-0.0008893189
 32
0.0
 13
0.524332963
 23
-0.6994289758
 33
0.0
 40
0.0
 40
0.0
 40
0.0
 40
0.0
 40
0.0156132905
 40
0.0312359384
 40
0.0468645148
 40
0.0624955708
 40
0.0781257407
 40
0.0937531291
 40
0.1093783941
 40
0.1250024036
 40
0.1406260021
 40
0.1562500498
 40
0.1718749268
 40
0.1875003866
 40
0.2031261024
 40
0.2187517635
 40
0.2343771601
 40
0.2500023384
 40
0.2656273874
 40
0.2812523486
 40
0.2968772814
 40
0.3125023083
 40
0.328127488
 40
0.3437527722
 40
0.3593780839
 40
0.3750033856
 40
0.4062494496
 40
0.4218748299
 40
0.4375001137
 40
0.4531252674
 40
0.468750354
 40
0.4843754106
 40
0.5000004073
 40
0.5156253115
 40
0.5312501551
 40
0.5468750393
 40
0.562499999
 40
0.5937454277
 40
0.6093706417
 40
0.6249960479
 40
0.6406216018
 40
0.6562472222
 40
0.6718728593
 40
0.687498551
 40
0.7031243307
 40
0.7187501446
 40
0.7343759119
 40
0.7500015926
 40
0.7812481801
 40
0.796873716
 40
0.8124990849
 40
0.8281242552
 40
0.8437493022
 40
0.8593742915
 40
0.8749992236
 40
0.8906240965
 40
0.9062489714
 40
0.9218739468
 40
0.9374990292
 40
0.9531241737
 40
0.968749352
 40
0.9843746118
 40
1.0
 40
1.0
 40
1.0
 40
1.0
 10
5.7388873897
 20
4.2849928876
 30
0.0
 10
5.734337976
 20
4.2849882592
 30
0.0
 10
5.7252358019
 20
4.284821216
 30
0.0
 10
5.7115968918
 20
4.2840992894
 30
0.0
 10
5.6979856456
 20
4.2829072323
 30
0.0
 10
5.6844214432
 20
4.2812464228
 30
0.0
 10
5.6709230408
 20
4.279117953
 30
0.0
 10
5.6575081265
 20
4.2765235258
 30
0.0
 10
5.6441926221
 20
4.2734675559
 30
0.0
 10
5.6309916432
 20
4.2699539314
 30
0.0
 10
5.6179201888
 20
4.2659866989
 30
0.0
 10
5.6049935241
 20
4.2615696524
 30
0.0
 10
5.5922268356
 20
4.2567080492
 30
0.0
 10
5.5796350629
 20
4.251408628
 30
0.0
 10
5.5672334072
 20
4.2456778509
 30
0.0
 10
5.5550369963
 20
4.2395223446
 30
0.0
 10
5.5430611283
 20
4.2329483647
 30
0.0
 10
5.5313199803
 20
4.2259641772
 30
0.0
 10
5.5198270689
 20
4.2185788675
 30
0.0
 10
5.5085960023
 20
4.21080127
 30
0.0
 10
5.4976403312
 20
4.2026403057
 30
0.0
 10
5.486973788
 20
4.1941048156
 30
0.0
 10
5.4766085322
 20
4.1852057085
 30
0.0
 10
5.4665566276
 20
4.1759540946
 30
0.0
 10
5.456829923
 20
4.1663607743
 30
0.0
 10
5.4443125896
 20
4.1531308028
 30
0.0
 10
5.4324896687
 20
4.139257409
 30
0.0
 10
5.4214096969
 20
4.1248023282
 30
0.0
 10
5.4134779178
 20
4.1136790656
 30
0.0
 10
5.405935906
 20
4.1022882933
 30
0.0
 10
5.3987928843
 20
4.0906431826
 30
0.0
 10
5.3920564505
 20
4.0787583239
 30
0.0
 10
5.385734445
 20
4.0666479896
 30
0.0
 10
5.3798345528
 20
4.0543265367
 30
0.0
 10
5.3743648469
 20
4.0418082753
 30
0.0
 10
5.3693316279
 20
4.0291079656
 30
0.0
 10
5.3632103508
 20
4.0119548401
 30
0.0
 10
5.3579812018
 20
3.9944935481
 30
0.0
 10
5.3536696467
 20
3.9767983595
 30
0.0
 10
5.35089654
 20
3.9634210372
 30
0.0
 10
5.3485872079
 20
3.9499560221
 30
0.0
 10
5.3467443376
 20
3.9364191443
 30
0.0
 10
5.3453706958
 20
3.922826595
 30
0.0
 10
5.3444690345
 20
3.9091945531
 30
0.0
 10
5.3440393598
 20
3.8955394295
 30
0.0
 10
5.3440816702
 20
3.8818776545
 30
0.0
 10
5.3445959876
 20
3.8682252904
 30
0.0
 10
5.3459109267
 20
3.8500593524
 30
0.0
 10
5.3481700336
 20
3.8319717563
 30
0.0
 10
5.3513604522
 20
3.814040091
 30
0.0
 10
5.3542168856
 20
3.8006803363
 30
0.0
 10
5.3575340826
 20
3.7874278482
 30
0.0
 10
5.3613085472
 20
3.7742983326
 30
0.0
 10
5.3655346389
 20
3.7613072481
 30
0.0
 10
5.3702071205
 20
3.7484700062
 30
0.0
 10
5.3753205727
 20
3.7358019846
 30
0.0
 10
5.3808699228
 20
3.7233187371
 30
0.0
 10
5.3868483416
 20
3.7110351457
 30
0.0
 10
5.3932478252
 20
3.6989654822
 30
0.0
 10
5.4000606546
 20
3.6871241632
 30
0.0
 10
5.4072790239
 20
3.6755254733
 30
0.0
 10
5.4148951839
 20
3.6641841329
 30
0.0
 10
5.4202316045
 20
3.6568032011
 30
0.0
 10
5.4229625733
 20
3.6531602514
 30
0.0
 11
5.7388873897
 21
4.2849928876
 31
0.0
 11
5.7252414333
 21
4.28474278
 31
0.0
 11
5.7116040868
 21
4.2840211101
 31
0.0
 11
5.6979945688
 21
4.2828292148
 31
0.0
 11
5.6844320976
 21
4.2811684312
 31
0.0
 11
5.6709358803
 21
4.2790401037
 31
0.0
 11
5.6575237965
 21
4.2764464134
 31
0.0
 11
5.6442111756
 21
4.2733911493
 31
0.0
 11
5.6310130582
 21
4.2698782825
 31
0.0
 11
5.6179444848
 21
4.265911784
 31
0.0
 11
5.6050204991
 21
4.2614956725
 31
0.0
 11
5.5922562212
 21
4.2566351724
 31
0.0
 11
5.5796668524
 21
4.2513367804
 31
0.0
 11
5.5672675978
 21
4.245607054
 31
0.0
 11
5.5550736622
 21
4.2394525508
 31
0.0
 11
5.5431001672
 21
4.2328799505
 31
0.0
 11
5.531361303
 21
4.2258972927
 31
0.0
 11
5.5198706785
 21
4.2185134655
 31
0.0
 11
5.5086418939
 21
4.2107373702
 31
0.0
 11
5.4976885492
 21
4.2025779081
 31
0.0
 11
5.48702405
 21
4.1940442521
 31
0.0
 11
5.4766607905
 21
4.1851469867
 31
0.0
 11
5.4666108378
 21
4.1758971531
 31
0.0
 11
5.4568862586
 21
4.1663057928
 31
0.0
 11
5.4474991192
 21
4.1563839481
 31
0.0
 11
5.4297822191
 21
4.1355959651
 31
0.0
 11
5.4214728104
 21
4.1247554396
 31
0.0
 11
5.4135428494
 21
4.1136344377
 31
0.0
 11
5.4060023878
 21
4.1022458778
 31
0.0
 11
5.3988606406
 21
4.0906032105
 31
0.0
 11
5.3921255094
 21
4.0787207215
 31
0.0
 11
5.3858047806
 21
4.0666127698
 31
0.0
 11
5.3799062408
 21
4.0542937143
 31
0.0
 11
5.3744376002
 21
4.0417779473
 31
0.0
 11
5.3694052932
 21
4.0290804158
 31
0.0
 11
5.3648147009
 21
4.016216525
 31
0.0
 11
5.3569800583
 21
3.9900513416
 31
0.0
 11
5.3537464662
 21
3.9767809544
 31
0.0
 11
5.3509738476
 21
3.9634064834
 31
0.0
 11
5.3486649563
 21
3.9499440752
 31
0.0
 11
5.3468225437
 21
3.9364098772
 31
0.0
 11
5.3454493612
 21
3.9228200365
 31
0.0
 11
5.3445477006
 21
3.9091907403
 31
0.0
 11
5.3441180243
 21
3.8955383346
 31
0.0
 11
5.3441603385
 21
3.8818792046
 31
0.0
 11
5.3446746498
 21
3.868229736
 31
0.0
 11
5.345660963
 21
3.854606314
 31
0.0
 11
5.3490450922
 21
3.8275027819
 31
0.0
 11
5.3514377068
 21
3.8140550171
 31
0.0
 11
5.3542936979
 21
3.8006981346
 31
0.0
 11
5.3576103079
 21
3.7874482911
 31
0.0
 11
5.3613838266
 21
3.7743213773
 31
0.0
 11
5.3656090454
 21
3.7613328648
 31
0.0
 11
5.3702806237
 21
3.7484981883
 31
0.0
 11
5.3753932212
 21
3.7358327827
 31
0.0
 11
5.3809414175
 21
3.7233520489
 31
0.0
 11
5.3869184991
 21
3.7110708399
 31
0.0
 11
5.3933167027
 21
3.6990035641
 31
0.0
 11
5.4001282351
 21
3.6871646172
 31
0.0
 11
5.407345303
 21
3.6755683947
 31
0.0
 11
5.4149599037
 21
3.66422916
 31
0.0
 11
5.4229625733
 21
3.6531602514
 31
0.0
  0
SPLINE
  5
242
100
AcDbEntity
  8
0
100
AcDbSpline
 62
6
  6
CONTINUOUS
 70
0
 71
3
 72
8
 73
4
 74
2
 42
0.0000001
 43
0.0000001
 44
0.0000000001
 12
-0.0000486413
 22
-0.0000000463
 32
0.0
 13
-0.0000486413
 23
-0.0000000463
 33
0.0
 40
0.0
 40
0.0
 40
0.0
 40
0.0
 40
1.0
 40
1.0
 40
1.0
 40
1.0
 10
5.7389356503
 20
4.2872159379
 30
0.0
 10
5.7389194365
 20
4.2872159224
 30
0.0
 10
5.7389032228
 20
4.287215907
 30
0.0
 10
5.738887009
 20
4.2872158916
 30
0.0
 11
5.7389356503
 21
4.2872159379
 31
0.0
 11
5.738887009
 21
4.2872158916
 31
0.0
  0
SPLINE
  5
243
100
AcDbEntity
  8
0
100
AcDbSpline
 62
6
  6
CONTINUOUS
 70
0
 71
3
 72
87
 73
83
 74
81
 42
0.0000001
 43
0.0000001
 44
0.0000000001
 12
-1.24726764
 22
-0.0012630327
 32
0.0
 13
1.2472679076
 23
0.000963132
 33
0.0
 40
0.0
 40
0.0
 40
0.0
 40
0.0
 40
0.0156149412
 40
0.0312412665
 40
0.0390571381
 40
0.0468732897
 40
0.0546888955
 40
0.0625034887
 40
0.0781291606
 40
0.0937530851
 40
0.1015654775
 40
0.1093780424
 40
0.1250027809
 40
0.1406281321
 40
0.1562534722
 40
0.1640665749
 40
0.171879572
 40
0.1875041826
 40
0.2031285904
 40
0.2109413407
 40
0.2187541061
 40
0.23437856
 40
0.2500030589
 40
0.2656274725
 40
0.2812518654
 40
0.2968763164
 40
0.3125007789
 40
0.3203136158
 40
0.3281264907
 40
0.343751157
 40
0.3593757971
 40
0.3671886463
 40
0.3750014596
 40
0.3906258975
 40
0.4062503603
 40
0.4218748557
 40
0.43749953
 40
0.4531244069
 40
0.4687493419
 40
0.4765623988
 40
0.4843754746
 40
0.5000005082
 40
0.5156254949
 40
0.523438511
 40
0.5312514828
 40
0.5468761893
 40
0.5625008132
 40
0.5781252735
 40
0.5937496449
 40
0.6093740847
 40
0.6249986053
 40
0.6328115033
 40
0.6406244681
 40
0.6562494356
 40
0.6718745654
 40
0.6796877268
 40
0.6875008873
 40
0.7031260832
 40
0.7187513179
 40
0.7343764444
 40
0.742189542
 40
0.7500026236
 40
0.7656275615
 40
0.7812523212
 40
0.7890651848
 40
0.7968779862
 40
0.8125023455
 40
0.8281267173
 40
0.8437511819
 40
0.8593758805
 40
0.8750005365
 40
0.8906246172
 40
0.8984368861
 40
0.9062489793
 40
0.9218722968
 40
0.9374973936
 40
0.9453117281
 40
0.9531271125
 40
0.9609431082
 40
0.968758878
 40
0.9843851016
 40
1.0
 40
1.0
 40
1.0
 40
1.0
 10
5.738887009
 20
4.2872158916
 30
0.0
 10
5.7323950054
 20
4.2872093175
 30
0.0
 10
5.7194045076
 20
4.2868766383
 30
0.0
 10
5.7032046599
 20
4.2856666824
 30
0.0
 10
5.6902880199
 20
4.2842240166
 30
0.0
 10
5.6806281687
 20
4.2829049324
 30
0.0
 10
5.6710041062
 20
4.281349304
 30
0.0
 10
5.6582295585
 20
4.278960858
 30
0.0
 10
5.6423788684
 20
4.2753891893
 30
0.0
 10
5.626723068
 20
4.271045694
 30
0.0
 10
5.6143390568
 20
4.2671142943
 30
0.0
 10
5.6020549739
 20
4.2628800372
 30
0.0
 10
5.5868995453
 20
4.2570234748
 30
0.0
 10
5.5690797241
 20
4.2491143602
 30
0.0
 10
5.5545691238
 20
4.2418037883
 30
0.0
 10
5.5431878125
 20
4.2355338382
 30
0.0
 10
5.5319641216
 20
4.2289864606
 30
0.0
 10
5.5182407116
 20
4.2202894129
 30
0.0
 10
5.5049597119
 20
4.2109308606
 30
0.0
 10
5.4946207803
 20
4.2030608287
 30
0.0
 10
5.4844783308
 20
4.1949391619
 30
0.0
 10
5.4721783269
 20
4.1843239818
 30
0.0
 10
5.4580605521
 20
4.1708791712
 30
0.0
 10
5.4446184218
 20
4.1567585203
 30
0.0
 10
5.4318862882
 20
4.1419945294
 30
0.0
 10
5.4198927751
 20
4.1266247842
 30
0.0
 10
5.410536974
 20
4.113341636
 30
0.0
 10
5.403451165
 20
4.1024501571
 30
0.0
 10
5.3966349716
 20
4.0913878203
 30
0.0
 10
5.3886264381
 20
4.0772514698
 30
0.0
 10
5.3813199276
 20
4.0627398296
 30
0.0
 10
5.3759075034
 20
4.0509270954
 30
0.0
 10
5.3707871082
 20
4.0389849952
 30
0.0
 10
5.3649386861
 20
4.023826883
 30
0.0
 10
5.3588204707
 20
4.0053162737
 30
0.0
 10
5.35361691
 20
3.9865276563
 30
0.0
 10
5.3493431302
 20
3.9675058114
 30
0.0
 10
5.3460067269
 20
3.9482974476
 30
0.0
 10
5.344013934
 20
3.9321724043
 30
0.0
 10
5.3428964203
 20
3.9192266
 30
0.0
 10
5.3420975141
 20
3.9062571701
 30
0.0
 10
5.3416959957
 20
3.8900144967
 30
0.0
 10
5.3420908998
 20
3.8737716865
 30
0.0
 10
5.3428844919
 20
3.8608020106
 30
0.0
 10
5.3439966633
 20
3.8478559018
 30
0.0
 10
5.3459829977
 20
3.831730294
 30
0.0
 10
5.3493119882
 20
3.8125209333
 30
0.0
 10
5.3535786938
 20
3.7934977473
 30
0.0
 10
5.3587756295
 20
3.7747074441
 30
0.0
 10
5.3648878817
 20
3.7561948832
 30
0.0
 10
5.3707318917
 20
3.741034996
 30
0.0
 10
5.3758491102
 20
3.7290914045
 30
0.0
 10
5.3812586789
 20
3.7172771188
 30
0.0
 10
5.388562223
 20
3.7027635493
 30
0.0
 10
5.3965685355
 20
3.6886254122
 30
0.0
 10
5.4033834194
 20
3.6775617405
 30
0.0
 10
5.410468234
 20
3.6666689523
 30
0.0
 10
5.41982363
 20
3.653384504
 30
0.0
 10
5.4318174841
 20
3.6380140528
 30
0.0
 10
5.4424292261
 20
3.625710025
 30
0.0
 10
5.4512729401
 20
3.6161898425
 30
0.0
 10
5.4603480933
 20
3.6068900855
 30
0.0
 10
5.4721159724
 20
3.5956874678
 30
0.0
 10
5.4844189847
 20
3.5850754612
 30
0.0
 10
5.494564087
 20
3.5769567602
 30
0.0
 10
5.5049057365
 20
3.5690902659
 30
0.0
 10
5.5181908197
 20
3.5597373474
 30
0.0
 10
5.5346632713
 20
3.5493099295
 30
0.0
 10
5.5516280258
 20
3.5397033938
 30
0.0
 10
5.5690451382
 20
3.5309434261
 30
0.0
 10
5.5868706574
 20
3.5230486677
 30
0.0
 10
5.6020306478
 20
3.5172058825
 30
0.0
 10
5.6143182935
 20
3.5129835468
 30
0.0
 10
5.626705814
 20
3.509064862
 30
0.0
 10
5.6423658183
 20
3.5047387387
 30
0.0
 10
5.6582202804
 20
3.5011864424
 30
0.0
 10
5.6709974973
 20
3.498814692
 30
0.0
 10
5.6806234096
 20
3.4972721885
 30
0.0
 10
5.6902849376
 20
3.4959668908
 30
0.0
 10
5.7032035674
 20
3.4945434639
 30
0.0
 10
5.7194052457
 20
3.4933591876
 30
0.0
 10
5.7323962682
 20
3.4930488065
 30
0.0
 10
5.7388882554
 20
3.4930538196
 30
0.0
 11
5.738887009
 21
4.2872158916
 31
0.0
 11
5.719417351
 21
4.2867180883
 31
0.0
 11
5.6999812496
 21
4.2852666653
 31
0.0
 11
5.6902930066
 21
4.2841845458
 31
0.0
 11
5.6806338217
 21
4.2828654607
 31
0.0
 11
5.6710105802
 21
4.2813098925
 31
0.0
 11
5.6614296966
 21
4.2795186312
 31
0.0
 11
5.642416963
 21
4.2752346066
 31
0.0
 11
5.6236390341
 21
4.2700248716
 31
0.0
 11
5.6143516564
 21
4.2670764722
 31
0.0
 11
5.6051392222
 21
4.2639009888
 31
0.0
 11
5.5869609115
 21
4.2568767062
 31
0.0
 11
5.5691476405
 21
4.2489704628
 31
0.0
 11
5.5517429673
 21
4.2402013052
 31
0.0
 11
5.5432074446
 21
4.2354991181
 31
0.0
 11
5.5347900457
 21
4.2305888699
 31
0.0
 11
5.5183291051
 21
4.2201570558
 31
0.0
 11
5.5023990902
 21
4.2089316351
 31
0.0
 11
5.4946453482
 21
4.2030293785
 31
0.0
 11
5.4870388726
 21
4.1969384806
 31
0.0
 11
5.4722853427
 21
4.1842061969
 31
0.0
 11
5.4581731316
 21
4.170766503
 31
0.0
 11
5.4447367464
 21
4.1566512883
 31
0.0
 11
5.4320094091
 21
4.1418935917
 31
0.0
 11
5.4200205684
 21
4.1265298275
 31
0.0
 11
5.4087989843
 21
4.1105970262
 31
0.0
 11
5.4034848823
 21
4.1024288214
 31
0.0
 11
5.3983729507
 21
4.0941325374
 31
0.0
 11
5.3887668347
 21
4.0771764014
 31
0.0
 11
5.3800030347
 21
4.0597700074
 31
0.0
 11
5.375943998
 21
4.0509109008
 31
0.0
 11
5.3721038584
 21
4.0419547854
 31
0.0
 11
5.3650886548
 21
4.0237733709
 31
0.0
 11
5.3589729216
 21
4.0052699678
 31
0.0
 11
5.3537718983
 21
3.9864888851
 31
0.0
 11
5.3494993822
 21
3.9674748374
 31
0.0
 11
5.346164248
 21
3.9482739225
 31
0.0
 11
5.3437743208
 21
3.9289325336
 31
0.0
 11
5.3429362487
 21
3.9192236597
 31
0.0
 11
5.3423370297
 21
3.9094970984
 31
0.0
 11
5.341855278
 21
3.8900144449
 31
0.0
 11
5.3423290867
 21
3.8705316551
 31
0.0
 11
5.3429243182
 21
3.8608049237
 31
0.0
 11
5.3437584025
 21
3.8510958129
 31
0.0
 11
5.3461405765
 21
3.8317537548
 31
0.0
 11
5.3494682919
 21
3.8125518728
 31
0.0
 11
5.3537337438
 21
3.7935365128
 31
0.0
 11
5.3589281725
 21
3.7747537656
 31
0.0
 11
5.3650379417
 21
3.7562484224
 31
0.0
 11
5.3720478634
 21
3.7380648604
 31
0.0
 11
5.3758856346
 21
3.729107615
 31
0.0
 11
5.3799425229
 21
3.7202473657
 31
0.0
 11
5.3887027352
 21
3.7028387087
 31
0.0
 11
5.3983062029
 21
3.6858804081
 31
0.0
 11
5.4034171604
 21
3.6775831043
 31
0.0
 11
5.4087305292
 21
3.6694139412
 31
0.0
 11
5.4199515472
 21
3.6534796223
 31
0.0
 11
5.4319408584
 21
3.6381149855
 31
0.0
 11
5.4446694458
 21
3.6233571586
 31
0.0
 11
5.4513018824
 21
3.6162173848
 31
0.0
 11
5.4581078606
 21
3.6092428698
 31
0.0
 11
5.4722230659
 21
3.5958055265
 31
0.0
 11
5.4869802461
 21
3.5830768899
 31
0.0
 11
5.4945886931
 21
3.5769882584
 31
0.0
 11
5.5023445308
 21
3.5710886511
 31
0.0
 11
5.5182792436
 21
3.5598700051
 31
0.0
 11
5.5347452683
 21
3.5494467748
 31
0.0
 11
5.5517033157
 21
3.5398445438
 31
0.0
 11
5.5691132467
 21
3.53108761
 31
0.0
 11
5.5869319711
 21
3.5231958055
 31
0.0
 11
5.6051157583
 21
3.5161879937
 31
0.0
 11
5.6143308851
 21
3.5130214687
 31
0.0
 11
5.623620893
 21
3.5100826038
 31
0.0
 11
5.6424038101
 21
3.5048937243
 31
0.0
 11
5.6614210316
 21
3.500632946
 31
0.0
 11
5.6710039199
 21
3.4988542076
 31
0.0
 11
5.6806289959
 21
3.4973117755
 31
0.0
 11
5.690289857
 21
3.4960064737
 31
0.0
 11
5.6999795734
 21
3.4949387876
 31
0.0
 11
5.7194178247
 21
3.4935181864
 31
0.0
 11
5.7388882554
 21
3.4930538196
 31
0.0
  0
SPLINE
  5
244
100
AcDbEntity
  8
0
100
AcDbSpline
 62
6
  6
CONTINUOUS
 70
0
 71
3
 72
8
 73
4
 74
2
 42
0.0000001
 43
0.0000001
 44
0.0000000001
 12
0.0000473948
 22
0.0000000394
 32
0.0
 13
0.0000473948
 23
0.0000000394
 33
0.0
 40
0.0
 40
0.0
 40
0.0
 40
0.0
 40
1.0
 40
1.0
 40
1.0
 40
1.0
 10
5.7388882554
 20
3.4930538196
 30
0.0
 10
5.7389040537
 20
3.4930538328
 30
0.0
 10
5.738919852
 20
3.4930538459
 30
0.0
 10
5.7389356503
 20
3.493053859
 30
0.0
 11
5.7388882554
 21
3.4930538196
 31
0.0
 11
5.7389356503
 21
3.493053859
 31
0.0
  0
SPLINE
  5
245
100
AcDbEntity
  8
0
100
AcDbSpline
 62
6
  6
CONTINUOUS
 70
0
 71
3
 72
47
 73
43
 74
41
 42
0.0000001
 43
0.0000001
 44
0.0000000001
 12
-0.4943042137
 22
-0.3392773896
 32
0.0
 13
-0.3596263851
 23
0.4797026848
 33
0.0
 40
0.0
 40
0.0
 40
0.0
 40
0.0
 40
0.0312333281
 40
0.0624865572
 40
0.0937464584
 40
0.1093760434
 40
0.1250037487
 40
0.1562530077
 40
0.1874998083
 40
0.2031244368
 40
0.2187495736
 40
0.2499988697
 40
0.2812489625
 40
0.2968751046
 40
0.312501125
 40
0.3437506864
 40
0.3750000433
 40
0.3906257765
 40
0.4062515076
 40
0.437500885
 40
0.4687504093
 40
0.4999998788
 40
0.5312493468
 40
0.5624988741
 40
0.5937482609
 40
0.6093739956
 40
0.624999732
 40
0.656249102
 40
0.6874986842
 40
0.7031247137
 40
0.7187508616
 40
0.750000965
 40
0.7812502727
 40
0.7968754126
 40
0.8125000436
 40
0.8437468649
 40
0.8749961636
 40
0.8906238904
 40
0.9062534948
 40
0.9375134102
 40
0.9687666444
 40
1.0
 40
1.0
 40
1.0
 40
1.0
 10
5.9604005118
 20
3.566294616
 30
0.0
 10
5.9552542566
 20
3.562762362
 30
0.0
 10
5.9447872357
 20
3.5559413943
 30
0.0
 10
5.9286150804
 20
3.5464702406
 30
0.0
 10
5.9147725633
 20
3.539226982
 30
0.0
 10
5.9035008969
 20
3.5338352973
 30
0.0
 10
5.8921052618
 20
3.5287159294
 30
0.0
 10
5.8776375504
 20
3.5228303952
 30
0.0
 10
5.8629058231
 20
3.5176427769
 30
0.0
 10
5.8509830154
 20
3.5139191966
 30
0.0
 10
5.8389740392
 20
3.5104818544
 30
0.0
 10
5.8238135291
 20
3.5067245102
 30
0.0
 10
5.8084907973
 20
3.5036948328
 30
0.0
 10
5.7961572149
 20
3.5017125241
 30
0.0
 10
5.7837798135
 20
3.5000260756
 30
0.0
 10
5.76823787
 20
3.4984737899
 30
0.0
 10
5.7526396214
 20
3.4976650674
 30
0.0
 10
5.7401496299
 20
3.4974655376
 30
0.0
 10
5.7276584558
 20
3.4975648022
 30
0.0
 10
5.7120540995
 20
3.4982492157
 30
0.0
 10
5.6933904379
 20
3.4999630139
 30
0.0
 10
5.6748295986
 20
3.5025657054
 30
0.0
 10
5.6564145602
 20
3.5060535569
 30
0.0
 10
5.6381872046
 20
3.5104162262
 30
0.0
 10
5.6231876536
 20
3.5147725837
 30
0.0
 10
5.6113244633
 20
3.5186846244
 30
0.0
 10
5.5995581856
 20
3.5228792032
 30
0.0
 10
5.5850431277
 20
3.5286474408
 30
0.0
 10
5.5708197232
 20
3.5351016216
 30
0.0
 10
5.5596366639
 20
3.5406679047
 30
0.0
 10
5.5485899006
 20
3.5465002215
 30
0.0
 10
5.5350474771
 20
3.5542827494
 30
0.0
 10
5.5218917409
 20
3.562702083
 30
0.0
 10
5.511618406
 20
3.569807677
 30
0.0
 10
5.5015183067
 20
3.5771565868
 30
0.0
 10
5.4892264973
 20
3.5867922825
 30
0.0
 10
5.4774080048
 20
3.5970039201
 30
0.0
 10
5.4682537029
 20
3.6055049511
 30
0.0
 10
5.4593038749
 20
3.6142239835
 30
0.0
 10
5.4485115602
 20
3.6255202564
 30
0.0
 10
5.4362253502
 20
3.6396726464
 30
0.0
 10
5.4284941508
 20
3.6494865379
 30
0.0
 10
5.4247500378
 20
3.6544807794
 30
0.0
 11
5.9604005118
 21
3.566294616
 31
0.0
 11
5.9447124929
 21
3.556070482
 31
0.0
 11
5.9285438169
 21
3.5466011762
 31
0.0
 11
5.9119380366
 21
3.5379125732
 31
0.0
 11
5.9034848181
 21
3.5338690685
 31
0.0
 11
5.8949382466
 21
3.5300295596
 31
0.0
 11
5.8775841742
 21
3.5229697567
 31
0.0
 11
5.859914044
 21
3.5167475451
 31
0.0
 11
5.8509724011
 21
3.5139550243
 31
0.0
 11
5.8419662228
 21
3.511377116
 31
0.0
 11
5.8237812797
 21
3.5068700854
 31
0.0
 11
5.8054014663
 21
3.5032361019
 31
0.0
 11
5.7961517001
 21
3.5017495025
 31
0.0
 11
5.7868690803
 21
3.5004846888
 31
0.0
 11
5.7682265569
 21
3.4986224964
 31
0.0
 11
5.7495165084
 21
3.4976524812
 31
0.0
 11
5.7401494821
 21
3.4975028881
 31
0.0
 11
5.7307815586
 21
3.4975773478
 31
0.0
 11
5.7120643502
 21
3.4983979657
 31
0.0
 11
5.6934075671
 21
3.5001111638
 31
0.0
 11
5.6748538985
 21
3.502713232
 31
0.0
 11
5.6564458496
 21
3.506199358
 31
0.0
 11
5.6382251981
 21
3.5105603822
 31
0.0
 11
5.6202335426
 21
3.5157860731
 31
0.0
 11
5.6113365777
 21
3.5187199429
 31
0.0
 11
5.6025122949
 21
3.5218656747
 31
0.0
 11
5.5851015073
 21
3.5287846062
 31
0.0
 11
5.5680406298
 21
3.5365265933
 31
0.0
 11
5.5596537342
 21
3.5407011434
 31
0.0
 11
5.5513690163
 21
3.5450751198
 31
0.0
 11
5.5351246433
 21
3.5544102126
 31
0.0
 11
5.519344437
 21
3.5645092634
 31
0.0
 11
5.5116399275
 21
3.5698381871
 31
0.0
 11
5.5040652381
 21
3.5753495625
 31
0.0
 11
5.4893216359
 21
3.5869070744
 31
0.0
 11
5.4751453154
 21
3.5991560528
 31
0.0
 11
5.4682797273
 21
3.6055317611
 31
0.0
 11
5.4615677714
 21
3.6120706216
 31
0.0
 11
5.4486208787
 21
3.625621343
 31
0.0
 11
5.4363373566
 21
3.6397708673
 31
0.0
 11
5.4247500378
 21
3.6544807794
 31
0.0
  0
SPLINE
  5
246
100
AcDbEntity
  8
0
100
AcDbSpline
 62
6
  6
CONTINUOUS
 70
0
 71
3
 72
8
 73
4
 74
2
 42
0.0000001
 43
0.0000001
 44
0.0000000001
 12
-0.0000462988
 22
-0.0000000444
 32
0.0
 13
-0.0000462988
 23
-0.0000000444
 33
0.0
 40
0.0
 40
0.0
 40
0.0
 40
0.0
 40
1.0
 40
1.0
 40
1.0
 40
1.0
 10
5.7389356503
 20
4.2827699297
 30
0.0
 10
5.7389202173
 20
4.2827699149
 30
0.0
 10
5.7389047844
 20
4.2827699001
 30
0.0
 10
5.7388893515
 20
4.2827698853
 30
0.0
 11
5.7389356503
 21
4.2827699297
 31
0.0
 11
5.7388893515
 21
4.2827698853
 31
0.0
  0
SPLINE
  5
247
100
AcDbEntity
  8
0
100
AcDbSpline
 62
6
  6
CONTINUOUS
 70
0
 71
3
 72
66
 73
62
 74
60
 42
0.0000001
 43
0.0000001
 44
0.0000000001
 12
-0.8208834281
 22
-0.0008357068
 32
0.0
 13
0.4079810198
 23
-0.7123214081
 33
0.0
 40
0.0
 40
0.0
 40
0.0
 40
0.0
 40
0.0312329495
 40
0.0468612183
 40
0.0624918724
 40
0.0781218967
 40
0.0937494021
 40
0.1093748754
 40
0.1249990737
 40
0.1406227291
 40
0.15624659
 40
0.1718710894
 40
0.1874960833
 40
0.2031213363
 40
0.2187466188
 40
0.2343717674
 40
0.2499967967
 40
0.2656217691
 40
0.2812467041
 40
0.2968716282
 40
0.3124966217
 40
0.3281217563
 40
0.3437470171
 40
0.374993585
 40
0.390619067
 40
0.4062446749
 40
0.4218703675
 40
0.4374960763
 40
0.4531217587
 40
0.4687474419
 40
0.4843731469
 40
0.4999988223
 40
0.5312456461
 40
0.5624920332
 40
0.5781172094
 40
0.5937422906
 40
0.6093672878
 40
0.6249922829
 40
0.6406173322
 40
0.6562424356
 40
0.6718675877
 40
0.68749283
 40
0.7031182292
 40
0.7187437586
 40
0.7343693377
 40
0.7499948875
 40
0.7656203862
 40
0.7812458915
 40
0.7968714248
 40
0.8124969645
 40
0.8281224986
 40
0.8437480672
 40
0.8593736382
 40
0.8749990368
 40
0.9062442656
 40
0.9218679909
 40
0.9374916263
 40
0.9531159374
 40
0.9687416799
 40
0.9843696477
 40
1.0
 40
1.0
 40
1.0
 40
1.0
 10
5.7388893515
 20
4.2827698853
 30
0.0
 10
5.7303431479
 20
4.2827611848
 30
0.0
 10
5.7175158777
 20
4.2823282441
 30
0.0
 10
5.7004726075
 20
4.2809179204
 30
0.0
 10
5.6877249481
 20
4.2794438563
 30
0.0
 10
5.6750326184
 20
4.2775547311
 30
0.0
 10
5.6624101936
 20
4.2752517318
 30
0.0
 10
5.6498712336
 20
4.2725383851
 30
0.0
 10
5.6374284418
 20
4.2694178454
 30
0.0
 10
5.6250944408
 20
4.2658933631
 30
0.0
 10
5.612882005
 20
4.2619680278
 30
0.0
 10
5.6008039582
 20
4.2576457737
 30
0.0
 10
5.5888728662
 20
4.2529319915
 30
0.0
 10
5.577101516
 20
4.2478318421
 30
0.0
 10
5.565502648
 20
4.2423506245
 30
0.0
 10
5.5540891307
 20
4.236493344
 30
0.0
 10
5.5428731603
 20
4.2302663271
 30
0.0
 10
5.5318662634
 20
4.2236769165
 30
0.0
 10
5.5210800682
 20
4.2167321862
 30
0.0
 10
5.5105261123
 20
4.2094393114
 30
0.0
 10
5.5002161968
 20
4.2018053217
 30
0.0
 10
5.4901608458
 20
4.1938385614
 30
0.0
 10
5.4771086397
 20
4.182786037
 30
0.0
 10
5.464603261
 20
4.1711001676
 30
0.0
 10
5.4526945059
 20
4.1588238764
 30
0.0
 10
5.4440671357
 20
4.1493287427
 30
0.0
 10
5.4357540861
 20
4.1395574154
 30
0.0
 10
5.4277640483
 20
4.1295201468
 30
0.0
 10
5.4201059253
 20
4.1192273968
 30
0.0
 10
5.4127886301
 20
4.1086896586
 30
0.0
 10
5.4058192019
 20
4.0979185495
 30
0.0
 10
5.3970008829
 20
4.0832632959
 30
0.0
 10
5.3868813602
 20
4.0644165098
 30
0.0
 10
5.3780159558
 20
4.0449484659
 30
0.0
 10
5.3716973491
 20
4.029055077
 30
0.0
 10
5.3673493299
 20
4.0169856181
 30
0.0
 10
5.3633980293
 20
4.0047807026
 30
0.0
 10
5.3598480607
 20
3.9924530494
 30
0.0
 10
5.3567023312
 20
3.9800160888
 30
0.0
 10
5.3539639912
 20
3.9674830818
 30
0.0
 10
5.3516360646
 20
3.9548673372
 30
0.0
 10
5.3497218504
 20
3.9421821362
 30
0.0
 10
5.3482235231
 20
3.9294410203
 30
0.0
 10
5.3471417971
 20
3.9166577078
 30
0.0
 10
5.3464776982
 20
3.9038458678
 30
0.0
 10
5.3462320999
 20
3.8910191801
 30
0.0
 10
5.3464061913
 20
3.8781913358
 30
0.0
 10
5.346999676
 20
3.8653760577
 30
0.0
 10
5.3480111277
 20
3.8525869718
 30
0.0
 10
5.3494393951
 20
3.8398377004
 30
0.0
 10
5.3512831885
 20
3.8271418299
 30
0.0
 10
5.3535415023
 20
3.8145131437
 30
0.0
 10
5.3562115721
 20
3.8019649051
 30
0.0
 10
5.3603151223
 20
3.7853615246
 30
0.0
 10
5.3652293937
 20
3.7689674167
 30
0.0
 10
5.3709377479
 20
3.7528462166
 30
0.0
 10
5.3756123518
 20
3.7409004435
 30
0.0
 10
5.3806747191
 20
3.7291133865
 30
0.0
 10
5.3861199381
 20
3.7174968179
 30
0.0
 10
5.3919428167
 20
3.7060631897
 30
0.0
 10
5.3960728577
 20
3.6985711905
 30
0.0
 10
5.3981984867
 20
3.6948599123
 30
0.0
 11
5.7388893515
 21
4.2827698853
 31
0.0
 11
5.7132652655
 21
4.2819066028
 31
0.0
 11
5.7004799669
 21
4.2808486741
 31
0.0
 11
5.6877339649
 21
4.2793746487
 31
0.0
 11
5.6750433563
 21
4.2774855998
 31
0.0
 11
5.6624232984
 21
4.2751831808
 31
0.0
 11
5.6498867506
 21
4.2724704014
 31
0.0
 11
5.6374463587
 21
4.2693504651
 31
0.0
 11
5.6251147684
 21
4.2658265754
 31
0.0
 11
5.6129046264
 21
4.2619019506
 31
0.0
 11
5.6008286368
 21
4.2575805887
 31
0.0
 11
5.5888995885
 21
4.2528676374
 31
0.0
 11
5.5771302769
 21
4.2477683367
 31
0.0
 11
5.5655334978
 21
4.2422879265
 31
0.0
 11
5.5541220139
 21
4.2364316993
 31
0.0
 11
5.5429079839
 21
4.2302059155
 31
0.0
 11
5.5319030342
 21
4.2236176886
 31
0.0
 11
5.521118773
 21
4.216674161
 31
0.0
 11
5.5105668085
 21
4.2093824754
 31
0.0
 11
5.500258667
 21
4.2017498928
 31
0.0
 11
5.490205146
 21
4.1937847323
 31
0.0
 11
5.4804166601
 21
4.185495868
 31
0.0
 11
5.461676439
 21
4.1679825443
 31
0.0
 11
5.4527453411
 21
4.1587760316
 31
0.0
 11
5.4441195447
 21
4.1492827355
 31
0.0
 11
5.4358079265
 21
4.1395130978
 31
0.0
 11
5.4278193628
 21
4.1294775604
 31
0.0
 11
5.42016273
 21
4.1191865655
 31
0.0
 11
5.4128466111
 21
4.1086507681
 31
0.0
 11
5.4058783989
 21
4.0978816875
 31
0.0
 11
5.3992651843
 21
4.086891062
 31
0.0
 11
5.3871321118
 21
4.06429213
 31
0.0
 11
5.3765011067
 21
4.0409493257
 31
0.0
 11
5.3717625427
 21
4.0290302672
 31
0.0
 11
5.3674154395
 21
4.0169630125
 31
0.0
 11
5.3634649173
 21
4.0047602444
 31
0.0
 11
5.359915439
 21
3.9924348505
 31
0.0
 11
5.3567702345
 21
3.9800001024
 31
0.0
 11
5.3540323977
 21
3.9674693139
 31
0.0
 11
5.3517050229
 21
3.9548557988
 31
0.0
 11
5.3497911729
 21
3.9421728766
 31
0.0
 11
5.3482929619
 21
3.9294340382
 31
0.0
 11
5.3472114031
 21
3.9166529736
 31
0.0
 11
5.346547448
 21
3.9038433838
 31
0.0
 11
5.3463020481
 21
3.89101897
 31
0.0
 11
5.3464760901
 21
3.8781934312
 31
0.0
 11
5.3470693366
 21
3.8653804326
 31
0.0
 11
5.3480805967
 21
3.8525936106
 31
0.0
 11
5.3495086494
 21
3.8398466006
 31
0.0
 11
5.3513522735
 21
3.827153038
 31
0.0
 11
5.3536101295
 21
3.8145265463
 31
0.0
 11
5.3562795627
 21
3.8019806152
 31
0.0
 11
5.3593570978
 21
3.7895286514
 31
0.0
 11
5.3667225228
 21
3.7649602464
 31
0.0
 11
5.371003278
 21
3.7528704769
 31
0.0
 11
5.3756768729
 21
3.7409271519
 31
0.0
 11
5.3807382853
 21
3.7291423383
 31
0.0
 11
5.3861824922
 21
3.7175281023
 31
0.0
 11
5.3920044708
 21
3.70609651
 31
0.0
 11
5.3981984867
 21
3.6948599123
 31
0.0
  0
SPLINE
  5
248
100
AcDbEntity
  8
0
100
AcDbSpline
 62
6
  6
CONTINUOUS
 70
0
 71
3
 72
46
 73
42
 74
40
 42
0.0000001
 43
0.0000001
 44
0.0000000001
 12
-0.0005552831
 22
0.6354195401
 32
0.0
 13
-0.6354195977
 23
-0.0004848453
 33
0.0
 40
0.0
 40
0.0
 40
0.0
 40
0.0
 40
0.0312323398
 40
0.062485344
 40
0.0937450833
 40
0.1093744923
 40
0.1250019639
 40
0.1562505668
 40
0.1874967583
 40
0.2031212201
 40
0.2187462354
 40
0.2499952725
 40
0.2812452648
 40
0.2968714995
 40
0.3124976933
 40
0.3437477047
 40
0.3749976852
 40
0.3906238188
 40
0.4062499587
 40
0.4375000091
 40
0.4687500504
 40
0.4999997357
 40
0.5312490644
 40
0.5624982035
 40
0.5937470885
 40
0.62499588
 40
0.6562449659
 40
0.6874945011
 40
0.7031206975
 40
0.7187471054
 40
0.7499977952
 40
0.7812478021
 40
0.796873353
 40
0.8124983864
 40
0.8437458809
 40
0.8749958143
 40
0.8906238981
 40
0.9062538475
 40
0.9375142847
 40
0.968767583
 40
1.0
 40
1.0
 40
1.0
 40
1.0
 10
6.143797204
 20
3.8895791474
 30
0.0
 10
6.143791423
 20
3.8961943604
 30
0.0
 10
6.1434541491
 20
3.9094312018
 30
0.0
 10
6.1419766446
 20
3.9292393395
 30
0.0
 10
6.1399384408
 20
3.9456717535
 30
0.0
 10
6.1378252277
 20
3.958744624
 30
0.0
 10
6.1353918728
 20
3.9717593431
 30
0.0
 10
6.1317529286
 20
3.9879082802
 30
0.0
 10
6.1273270154
 20
4.0038588482
 30
0.0
 10
6.1233202774
 20
4.016476096
 30
0.0
 10
6.1190046838
 20
4.0289917046
 30
0.0
 10
6.1130365258
 20
4.0444326719
 30
0.0
 10
6.1063191021
 20
4.059563019
 30
0.0
 10
6.1005051349
 20
4.071457748
 30
0.0
 10
6.0944004946
 20
4.0832059512
 30
0.0
 10
6.0862316773
 20
4.0976048505
 30
0.0
 10
6.0773670988
 20
4.1115861362
 30
0.0
 10
6.0698711637
 20
4.1224992885
 30
0.0
 10
6.0621093682
 20
4.13322497
 30
0.0
 10
6.0519163622
 20
4.1462697608
 30
0.0
 10
6.038933175
 20
4.1613043358
 30
0.0
 10
6.0252284522
 20
4.1756844342
 30
0.0
 10
6.0108335949
 20
4.1893732848
 30
0.0
 10
5.9957850643
 20
4.2023398028
 30
0.0
 10
5.9801191831
 20
4.2145531223
 30
0.0
 10
5.9638719114
 20
4.2259817578
 30
0.0
 10
5.9470836781
 20
4.2365995404
 30
0.0
 10
5.9326755373
 20
4.2447518142
 30
0.0
 10
5.9209201955
 20
4.2508425162
 30
0.0
 10
5.9090183818
 20
4.2566424012
 30
0.0
 10
5.8938796276
 20
4.2633418275
 30
0.0
 10
5.8784308773
 20
4.2692911459
 30
0.0
 10
5.8659093855
 20
4.273591003
 30
0.0
 10
5.8532864649
 20
4.2775815343
 30
0.0
 10
5.8373293864
 20
4.2819865125
 30
0.0
 10
5.821174793
 20
4.2856034803
 30
0.0
 10
5.8081561361
 20
4.2880185793
 30
0.0
 10
5.7950798473
 20
4.2901130327
 30
0.0
 10
5.7786440951
 20
4.2921269505
 30
0.0
 10
5.7588334621
 20
4.2935739781
 30
0.0
 10
5.7455960014
 20
4.2938900347
 30
0.0
 10
5.7389807714
 20
4.293884987
 30
0.0
 11
6.143797204
 21
3.8895791474
 31
0.0
 11
6.1432924802
 21
3.9094183748
 31
0.0
 11
6.141815465
 21
3.9292221486
 31
0.0
 11
6.1393698834
 21
3.9489340778
 31
0.0
 11
6.1377850871
 21
3.9587380496
 31
0.0
 11
6.1359601529
 21
3.9684989207
 31
0.0
 11
6.1315953838
 21
3.9878692267
 31
0.0
 11
6.1262866348
 21
4.0070007791
 31
0.0
 11
6.1232817298
 21
4.0164632079
 31
0.0
 11
6.1200452988
 21
4.0258493419
 31
0.0
 11
6.1128867717
 21
4.044370314
 31
0.0
 11
6.1048291256
 21
4.06251885
 31
0.0
 11
6.1004687956
 21
4.0714394389
 31
0.0
 11
6.0958905956
 21
4.0802501682
 31
0.0
 11
6.0860925224
 21
4.0975213368
 31
0.0
 11
6.0754596415
 21
4.1142914461
 31
0.0
 11
6.0698379317
 21
4.1224758512
 31
0.0
 11
6.0640168749
 21
4.1305196988
 31
0.0
 11
6.0517910601
 21
4.1461666136
 31
0.0
 11
6.038812851
 21
4.1611953309
 31
0.0
 11
6.0251133539
 21
4.1755693022
 31
0.0
 11
6.0107245987
 21
4.189252942
 31
0.0
 11
5.9956821163
 21
4.2022143159
 31
0.0
 11
5.9800222676
 21
4.214422355
 31
0.0
 11
5.9637818224
 21
4.2258465687
 31
0.0
 11
5.9470002428
 21
4.2364602739
 31
0.0
 11
5.929718079
 21
4.2462383257
 31
0.0
 11
5.9209019531
 21
4.2508061288
 31
0.0
 11
5.9119760818
 21
4.2551558861
 31
0.0
 11
5.8938174618
 21
4.2631918766
 31
0.0
 11
5.8752870946
 21
4.2703277635
 31
0.0
 11
5.8658965393
 21
4.2735523913
 31
0.0
 11
5.8564298812
 21
4.276545151
 31
0.0
 11
5.8372905111
 21
4.2818287583
 31
0.0
 11
5.8179134132
 21
4.2861671462
 31
0.0
 11
5.8081495952
 21
4.2879783821
 31
0.0
 11
5.7983430136
 21
4.2895491207
 31
0.0
 11
5.7786270434
 21
4.291965556
 31
0.0
 11
5.7588208318
 21
4.2934120802
 31
0.0
 11
5.7389807714
 21
4.293884987
 31
0.0
  0
SPLINE
  5
249
100
AcDbEntity
  8
0
100
AcDbSpline
 62
6
  6
CONTINUOUS
 70
0
 71
3
 72
8
 73
4
 74
2
 42
0.0000001
 43
0.0000001
 44
0.0000000001
 12
-0.0000451212
 22
-0.000000037
 32
0.0
 13
-0.0000451212
 23
-0.000000037
 33
0.0
 40
0.0
 40
0.0
 40
0.0
 40
0.0
 40
1.0
 40
1.0
 40
1.0
 40
1.0
 10
5.7389807714
 20
4.293884987
 30
0.0
 10
5.7389657311
 20
4.2938849747
 30
0.0
 10
5.7389506907
 20
4.2938849624
 30
0.0
 10
5.7389356503
 20
4.2938849501
 30
0.0
 11
5.7389807714
 21
4.293884987
 31
0.0
 11
5.7389356503
 21
4.2938849501
 31
0.0
  0
SPLINE
  5
24A
100
AcDbEntity
  8
0
100
AcDbSpline
 62
6
  6
CONTINUOUS
 70
0
 71
3
 72
8
 73
4
 74
2
 42
0.0000001
 43
0.0000001
 44
0.0000000001
 12
0.0000482354
 22
0.0000000455
 32
0.0
 13
0.0000482354
 23
0.0000000455
 33
0.0
 40
0.0
 40
0.0
 40
0.0
 40
0.0
 40
1.0
 40
1.0
 40
1.0
 40
1.0
 10
5.7389356503
 20
3.4886078509
 30
0.0
 10
5.7389517288
 20
3.4886078661
 30
0.0
 10
5.7389678072
 20
3.4886078812
 30
0.0
 10
5.7389838857
 20
3.4886078964
 30
0.0
 11
5.7389356503
 21
3.4886078509
 31
0.0
 11
5.7389838857
 21
3.4886078964
 31
0.0
  0
SPLINE
  5
24B
100
AcDbEntity
  8
0
100
AcDbSpline
 62
6
  6
CONTINUOUS
 70
0
 71
3
 72
85
 73
81
 74
79
 42
0.0000001
 43
0.0000001
 44
0.0000000001
 12
1.0710258331
 22
0.3573488612
 32
0.0
 13
-1.1290676666
 23
-0.0008648487
 33
0.0
 40
0.0
 40
0.0
 40
0.0
 40
0.0
 40
0.0156240876
 40
0.0312490492
 40
0.0468743883
 40
0.0624996122
 40
0.0781244923
 40
0.0937491639
 40
0.1093737088
 40
0.117186435
 40
0.1249991811
 40
0.1406238592
 40
0.1562486756
 40
0.1718735093
 40
0.1796863872
 40
0.1874992704
 40
0.2031241342
 40
0.218748992
 40
0.2343737263
 40
0.2421865139
 40
0.2499992867
 40
0.2656238719
 40
0.2812484027
 40
0.2968728378
 40
0.3124972786
 40
0.3281218228
 40
0.3437464464
 40
0.3515592613
 40
0.3593721155
 40
0.3749970515
 40
0.3906221801
 40
0.4062473794
 40
0.4140604611
 40
0.421873562
 40
0.4374989021
 40
0.4531242909
 40
0.4687496067
 40
0.4765627026
 40
0.484375791
 40
0.5000009998
 40
0.5156260868
 40
0.5234390156
 40
0.5312518751
 40
0.5468764932
 40
0.5625010301
 40
0.5703137525
 40
0.578126464
 40
0.5859391729
 40
0.5937518995
 40
0.609376538
 40
0.6250013488
 40
0.6406262362
 40
0.6484391684
 40
0.6562521246
 40
0.6718771917
 40
0.6875023295
 40
0.7031274063
 40
0.7109403818
 40
0.7187533482
 40
0.7343783199
 40
0.7500031996
 40
0.7656278773
 40
0.7812523948
 40
0.7968769293
 40
0.8125015631
 40
0.8281263999
 40
0.843751534
 40
0.8593766268
 40
0.8750011568
 40
0.8828135307
 40
0.8906256274
 40
0.9062486511
 40
0.921872584
 40
0.9374988567
 40
0.9453138151
 40
0.9531295461
 40
0.9609453976
 40
0.9687606744
 40
0.9843857273
 40
1.0
 40
1.0
 40
1.0
 40
1.0
 10
5.8654661855
 20
3.5092149103
 30
0.0
 10
5.8710441193
 20
3.5110759936
 30
0.0
 10
5.8821197489
 20
3.5150448654
 30
0.0
 10
5.8984543241
 20
3.5217226848
 30
0.0
 10
5.9144804975
 20
3.5291119338
 30
0.0
 10
5.9301660935
 20
3.5371988193
 30
0.0
 10
5.9454795735
 20
3.5459695987
 30
0.0
 10
5.9603920543
 20
3.5554052165
 30
0.0
 10
5.9724619476
 20
3.5638072684
 30
0.0
 10
5.9818881941
 20
3.5708421418
 30
0.0
 10
5.9911570787
 20
3.5780831673
 30
0.0
 10
6.0024407315
 20
3.5875150533
 30
0.0
 10
6.0154696827
 20
3.5994170595
 30
0.0
 10
6.0258812168
 20
3.6098037985
 30
0.0
 10
6.0339291996
 20
3.6183815956
 30
0.0
 10
6.0417859785
 20
3.6271348756
 30
0.0
 10
6.0512426512
 20
3.6383979372
 30
0.0
 10
6.0619847517
 20
3.6523986648
 30
0.0
 10
6.0704151636
 20
3.6644490236
 30
0.0
 10
6.0768351974
 20
3.6743044348
 30
0.0
 10
6.0830363246
 20
3.6842989698
 30
0.0
 10
6.0903729058
 20
3.6970445892
 30
0.0
 10
6.098495331
 20
3.7127108667
 30
0.0
 10
6.1059204816
 20
3.7287195473
 30
0.0
 10
6.1126320787
 20
3.7450402483
 30
0.0
 10
6.1186190204
 20
3.7616403482
 30
0.0
 10
6.1229951125
 20
3.7756805482
 30
0.0
 10
6.1261222158
 20
3.7870192988
 30
0.0
 10
6.1289983899
 20
3.7984244004
 30
0.0
 10
6.1321209883
 20
3.8127958429
 30
0.0
 10
6.1351056231
 20
3.8301888284
 30
0.0
 10
6.136952895
 20
3.8447793023
 30
0.0
 10
6.1380436877
 20
3.8564910825
 30
0.0
 10
6.1388756553
 20
3.8682241422
 30
0.0
 10
6.139430391
 20
3.8829207826
 30
0.0
 10
6.1393195264
 20
3.9005679387
 30
0.0
 10
6.1385800301
 20
3.9152564406
 30
0.0
 10
6.1376001493
 20
3.9269780621
 30
0.0
 10
6.1363618045
 20
3.9386751838
 30
0.0
 10
6.1343310771
 20
3.9532410915
 30
0.0
 10
6.131661432
 20
3.9677034825
 30
0.0
 10
6.1291454517
 20
3.979193532
 30
0.0
 10
6.1263768594
 20
3.9906251655
 30
0.0
 10
6.122443795
 20
4.0047957648
 30
0.0
 10
6.1178904307
 20
4.0187793344
 30
0.0
 10
6.1138815202
 20
4.0298369624
 30
0.0
 10
6.1106928276
 20
4.0380623358
 30
0.0
 10
6.1073236613
 20
4.0462154576
 30
0.0
 10
6.1025928167
 20
4.0569840321
 30
0.0
 10
6.0962351348
 20
4.0702453092
 30
0.0
 10
6.0879132001
 20
4.0858067061
 30
0.0
 10
6.0804137015
 20
4.0984575323
 30
0.0
 10
6.0740843221
 20
4.1083716244
 30
0.0
 10
6.0675374568
 20
4.1181435446
 30
0.0
 10
6.0589519468
 20
4.1300842645
 30
0.0
 10
6.0480291528
 20
4.1439448952
 30
0.0
 10
6.0384265249
 20
4.1550840964
 30
0.0
 10
6.0304557605
 20
4.1637339137
 30
0.0
 10
6.0222959257
 20
4.1722055526
 30
0.0
 10
6.0117488166
 20
4.1824547204
 30
0.0
 10
5.998563815
 20
4.1941839594
 30
0.0
 10
5.9848749793
 20
4.2053211064
 30
0.0
 10
5.9707077054
 20
4.215842638
 30
0.0
 10
5.9560905376
 20
4.2257295709
 30
0.0
 10
5.9410521125
 20
4.2349633801
 30
0.0
 10
5.9256209059
 20
4.2435251551
 30
0.0
 10
5.9098263137
 20
4.2513968928
 30
0.0
 10
5.893700669
 20
4.2585652879
 30
0.0
 10
5.8800122649
 20
4.2639416721
 30
0.0
 10
5.8689286107
 20
4.2678770577
 30
0.0
 10
5.857761273
 20
4.2715664703
 30
0.0
 10
5.8436531991
 20
4.2757148248
 30
0.0
 10
5.8265205015
 20
4.2799419028
 30
0.0
 10
5.8120995933
 20
4.2828319832
 30
0.0
 10
5.8004941343
 20
4.284760052
 30
0.0
 10
5.7917586256
 20
4.2860135927
 30
0.0
 10
5.7829974953
 20
4.2870742387
 30
0.0
 10
5.7712902005
 20
4.2882305838
 30
0.0
 10
5.7566183079
 20
4.2891921397
 30
0.0
 10
5.7448594758
 20
4.2894434823
 30
0.0
 10
5.7389829523
 20
4.289438981
 30
0.0
 11
5.8654661855
 21
3.5092149103
 31
0.0
 11
5.8820729162
 21
3.5151654803
 31
0.0
 11
5.8984027276
 21
3.5218411726
 31
0.0
 11
5.9144237778
 21
3.5292282287
 31
0.0
 11
5.9301042245
 21
3.5373128835
 31
0.0
 11
5.9454128442
 21
3.5460804673
 31
0.0
 11
5.9603206475
 21
3.5555130413
 31
0.0
 11
5.9747991502
 21
3.5655919286
 31
0.0
 11
5.9818685124
 21
3.5708679031
 31
0.0
 11
5.988819881
 21
3.5762984336
 31
0.0
 11
6.0023554711
 21
3.5876123239
 31
0.0
 11
6.0153804613
 21
3.5995107041
 31
0.0
 11
6.0278695827
 21
3.6119704136
 31
0.0
 11
6.0339052961
 21
3.6184035291
 31
0.0
 11
6.0397976762
 21
3.6249681901
 31
0.0
 11
6.0511416949
 21
3.6384788136
 31
0.0
 11
6.0618804972
 21
3.6524752988
 31
0.0
 11
6.0719930098
 21
3.6669305968
 31
0.0
 11
6.07680784
 21
3.6743218364
 31
0.0
 11
6.0814585392
 21
3.6818174161
 31
0.0
 11
6.090259359
 21
3.6971065686
 31
0.0
 11
6.0983791385
 21
3.7127679743
 31
0.0
 11
6.105801555
 21
3.7287715478
 31
0.0
 11
6.1125112846
 21
3.7450867674
 31
0.0
 11
6.1184963909
 21
3.7616816304
 31
0.0
 11
6.1237456554
 21
3.7785238205
 31
0.0
 11
6.1260908412
 21
3.7870275643
 31
0.0
 11
6.1282478908
 21
3.7955810126
 31
0.0
 11
6.1319938975
 21
3.8128203287
 31
0.0
 11
6.1349776273
 21
3.8302080145
 31
0.0
 11
6.1371933108
 21
3.8477102379
 31
0.0
 11
6.1380113324
 21
3.8564937287
 31
0.0
 11
6.1386353306
 21
3.8652931537
 31
0.0
 11
6.1393009673
 21
3.8829226635
 31
0.0
 11
6.1391901054
 21
3.9005644415
 31
0.0
 11
6.1383027221
 21
3.9181841541
 31
0.0
 11
6.1375678396
 21
3.9269750074
 31
0.0
 11
6.1366391701
 21
3.9357474973
 31
0.0
 11
6.1342032857
 21
3.9532204455
 31
0.0
 11
6.1310007931
 21
3.970569124
 31
0.0
 11
6.1291138634
 21
3.9791862766
 31
0.0
 11
6.1270374353
 21
3.9877596594
 31
0.0
 11
6.1223197248
 21
4.0047583985
 31
0.0
 11
6.1168577743
 21
4.0215327177
 31
0.0
 11
6.113851198
 21
4.0298256191
 31
0.0
 11
6.1106627484
 21
4.0380502945
 31
0.0
 11
6.1072938211
 21
4.0462027036
 31
0.0
 11
6.1037458213
 21
4.0542788101
 31
0.0
 11
6.0961197043
 21
4.0701865778
 31
0.0
 11
6.0878003293
 21
4.0857432356
 31
0.0
 11
6.0788040333
 21
4.1009185876
 31
0.0
 11
6.0740571452
 21
4.1083538378
 31
0.0
 11
6.0691472368
 21
4.1156824919
 31
0.0
 11
6.0588485803
 21
4.1300062304
 31
0.0
 11
6.0479291006
 21
4.143862622
 31
0.0
 11
6.0364099533
 21
4.157224562
 31
0.0
 11
6.0304321203
 21
4.1637116468
 31
0.0
 11
6.0243125247
 21
4.1700651596
 31
0.0
 11
6.0116606739
 21
4.1823598203
 31
0.0
 11
5.998479763
 21
4.194085345
 31
0.0
 11
5.984795175
 21
4.2052185544
 31
0.0
 11
5.9706327263
 21
4.2157368698
 31
0.0
 11
5.9560203764
 21
4.2256206861
 31
0.0
 11
5.9409867475
 21
4.2348513171
 31
0.0
 11
5.925560466
 21
4.2434100831
 31
0.0
 11
5.9097711063
 21
4.2512796828
 31
0.0
 11
5.8936503795
 21
4.2584459231
 31
0.0
 11
5.8772302894
 21
4.2648950359
 31
0.0
 11
5.8689179843
 21
4.2678463672
 31
0.0
 11
5.860542834
 21
4.2706133346
 31
0.0
 11
5.843619839
 21
4.2755895432
 31
0.0
 11
5.8264929332
 21
4.279815147
 31
0.0
 11
5.8091937346
 21
4.2832817825
 31
0.0
 11
5.8004894223
 21
4.2847278838
 31
0.0
 11
5.79175442
 21
4.2859814341
 31
0.0
 11
5.782993762
 21
4.2870420605
 31
0.0
 11
5.7742125144
 21
4.2879094101
 31
0.0
 11
5.7566085154
 21
4.289062867
 31
0.0
 11
5.7389829523
 21
4.289438981
 31
0.0
  0
SPLINE
  5
24C
100
AcDbEntity
  8
0
100
AcDbSpline
 62
6
  6
CONTINUOUS
 70
0
 71
3
 72
8
 73
4
 74
2
 42
0.0000001
 43
0.0000001
 44
0.0000000001
 12
-0.0000473021
 22
-0.000000039
 32
0.0
 13
-0.0000473021
 23
-0.000000039
 33
0.0
 40
0.0
 40
0.0
 40
0.0
 40
0.0
 40
1.0
 40
1.0
 40
1.0
 40
1.0
 10
5.7389829523
 20
4.289438981
 30
0.0
 10
5.738967185
 20
4.289438968
 30
0.0
 10
5.7389514176
 20
4.2894389549
 30
0.0
 10
5.7389356503
 20
4.2894389419
 30
0.0
 11
5.7389829523
 21
4.289438981
 31
0.0
 11
5.7389356503
 21
4.2894389419
 31
0.0
  0
SPLINE
  5
24D
100
AcDbEntity
  8
0
100
AcDbSpline
 62
6
  6
CONTINUOUS
 70
0
 71
3
 72
8
 73
4
 74
2
 42
0.0000001
 43
0.0000001
 44
0.0000000001
 12
0.0000486369
 22
0.0000000456
 32
0.0
 13
0.0000486369
 23
0.0000000456
 33
0.0
 40
0.0
 40
0.0
 40
0.0
 40
0.0
 40
1.0
 40
1.0
 40
1.0
 40
1.0
 10
5.7389356503
 20
3.4863848468
 30
0.0
 10
5.7389518626
 20
3.486384862
 30
0.0
 10
5.7389680749
 20
3.4863848772
 30
0.0
 10
5.7389842872
 20
3.4863848924
 30
0.0
 11
5.7389356503
 21
3.4863848468
 31
0.0
 11
5.7389842872
 21
3.4863848924
 31
0.0
  0
SPLINE
  5
24E
100
AcDbEntity
  8
0
100
AcDbSpline
 62
6
  6
CONTINUOUS
 70
0
 71
3
 72
87
 73
83
 74
81
 42
0.0000001
 43
0.0000001
 44
0.0000000001
 12
1.2647255871
 22
0.0012630445
 32
0.0
 13
-1.2647258511
 23
-0.0009629561
 33
0.0
 40
0.0
 40
0.0
 40
0.0
 40
0.0
 40
0.0156149405
 40
0.0312412665
 40
0.0390571392
 40
0.046873292
 40
0.0546888994
 40
0.0625034941
 40
0.0781291686
 40
0.0937530947
 40
0.1015654874
 40
0.1093780521
 40
0.1250027896
 40
0.1406281412
 40
0.1562534857
 40
0.1640665928
 40
0.1718795951
 40
0.1875042135
 40
0.2031286159
 40
0.210941355
 40
0.2187541018
 40
0.2343785069
 40
0.2500029633
 40
0.2656273681
 40
0.2812518023
 40
0.2968763284
 40
0.312500878
 40
0.3203137565
 40
0.3281266697
 40
0.3437514031
 40
0.3593760972
 40
0.3671889674
 40
0.3750017971
 40
0.390626254
 40
0.4062507195
 40
0.4218752011
 40
0.437499844
 40
0.4531246743
 40
0.4687495483
 40
0.4765625687
 40
0.4843756036
 40
0.500000543
 40
0.5156254187
 40
0.5234383729
 40
0.5312512784
 40
0.546875846
 40
0.562500342
 40
0.5781247113
 40
0.5937490508
 40
0.6093735003
 40
0.6249980463
 40
0.6328109561
 40
0.6406239295
 40
0.6562489037
 40
0.6718740303
 40
0.6796871887
 40
0.6875003472
 40
0.7031255431
 40
0.7187507798
 40
0.7343759107
 40
0.7421890125
 40
0.7500020995
 40
0.7656270462
 40
0.7812518052
 40
0.7890646632
 40
0.7968774554
 40
0.812501791
 40
0.828126143
 40
0.8437506089
 40
0.859375339
 40
0.8750000458
 40
0.8906241896
 40
0.8984364943
 40
0.9062486297
 40
0.9218720441
 40
0.9374972406
 40
0.9453116209
 40
0.9531270444
 40
0.9609430685
 40
0.9687588575
 40
0.9843850989
 40
1.0
 40
1.0
 40
1.0
 40
1.0
 10
5.7389842872
 20
3.4863848924
 30
0.0
 10
5.7455671587
 20
3.4863914666
 30
0.0
 10
5.7587394885
 20
3.486728625
 30
0.0
 10
5.7751661005
 20
3.4879553115
 30
0.0
 10
5.7882635525
 20
3.4894180159
 30
0.0
 10
5.7980586288
 20
3.4907554525
 30
0.0
 10
5.8078174178
 20
3.492332749
 30
0.0
 10
5.8207707976
 20
3.4947544916
 30
0.0
 10
5.8368433868
 20
3.4983759971
 30
0.0
 10
5.8527183616
 20
3.5027801473
 30
0.0
 10
5.865275745
 20
3.5067664702
 30
0.0
 10
5.8777318014
 20
3.5110598943
 30
0.0
 10
5.8930994034
 20
3.5169983172
 30
0.0
 10
5.9111687017
 20
3.5250180177
 30
0.0
 10
5.925882452
 20
3.5324308331
 30
0.0
 10
5.9374231044
 20
3.5387884874
 30
0.0
 10
5.9488039298
 20
3.5454274591
 30
0.0
 10
5.9627194651
 20
3.5542461827
 30
0.0
 10
5.9761863915
 20
3.5637356725
 30
0.0
 10
5.9866700544
 20
3.5717158127
 30
0.0
 10
5.9969544715
 20
3.5799510996
 30
0.0
 10
6.009426638
 20
3.5907147889
 30
0.0
 10
6.0237420197
 20
3.6043477238
 30
0.0
 10
6.0373723087
 20
3.6186660055
 30
0.0
 10
6.0502826914
 20
3.6336366741
 30
0.0
 10
6.0624441419
 20
3.6492216068
 30
0.0
 10
6.071930953
 20
3.6626907432
 30
0.0
 10
6.0791159819
 20
3.6737347274
 30
0.0
 10
6.086027604
 20
3.6849519619
 30
0.0
 10
6.0941482397
 20
3.6992862515
 30
0.0
 10
6.1015570137
 20
3.71400108
 30
0.0
 10
6.1070451921
 20
3.7259792001
 30
0.0
 10
6.1122372495
 20
3.7380884823
 30
0.0
 10
6.1181674902
 20
3.7534587955
 30
0.0
 10
6.1243712728
 20
3.7722285227
 30
0.0
 10
6.1296476156
 20
3.7912801187
 30
0.0
 10
6.1339811544
 20
3.8105681856
 30
0.0
 10
6.1373641695
 20
3.8300453637
 30
0.0
 10
6.1393847871
 20
3.8463960551
 30
0.0
 10
6.140517903
 20
3.8595230059
 30
0.0
 10
6.1413279504
 20
3.8726738981
 30
0.0
 10
6.1417350366
 20
3.8891438167
 30
0.0
 10
6.1413345588
 20
3.9056138626
 30
0.0
 10
6.1405298292
 20
3.9187649715
 30
0.0
 10
6.1394020684
 20
3.9318921712
 30
0.0
 10
6.1373879334
 20
3.9482433464
 30
0.0
 10
6.1340123605
 20
3.9677214289
 30
0.0
 10
6.1296859085
 20
3.9870107676
 30
0.0
 10
6.1244161963
 20
4.0060640176
 30
0.0
 10
6.1182184011
 20
4.0248357016
 30
0.0
 10
6.1122925938
 20
4.040207803
 30
0.0
 10
6.107103723
 20
4.0523185778
 30
0.0
 10
6.10161842
 20
4.064298232
 30
0.0
 10
6.0942126566
 20
4.0790149563
 30
0.0
 10
6.0860942911
 20
4.0933509907
 30
0.0
 10
6.0791840201
 20
4.1045695163
 30
0.0
 10
6.0720000225
 20
4.1156147565
 30
0.0
 10
6.0625136899
 20
4.1290851527
 30
0.0
 10
6.0503519896
 20
4.1446707705
 30
0.0
 10
6.0395917323
 20
4.157147038
 30
0.0
 10
6.0306242252
 20
4.1668004745
 30
0.0
 10
6.0214220549
 20
4.1762304173
 30
0.0
 10
6.0094894896
 20
4.1875898745
 30
0.0
 10
5.9970143086
 20
4.1983504601
 30
0.0
 10
5.9867272304
 20
4.2065828184
 30
0.0
 10
5.9762408579
 20
4.21455943
 30
0.0
 10
5.9627698849
 20
4.224043307
 30
0.0
 10
5.9460669396
 20
4.2346167553
 30
0.0
 10
5.9288647562
 20
4.2443578103
 30
0.0
 10
5.9112038658
 20
4.2532404837
 30
0.0
 10
5.893128846
 20
4.2612458992
 30
0.0
 10
5.8777566456
 20
4.2671705995
 30
0.0
 10
5.8652969783
 20
4.2714521242
 30
0.0
 10
5.8527360253
 20
4.2754257602
 30
0.0
 10
5.8368567639
 20
4.2798125776
 30
0.0
 10
5.820780317
 20
4.2834147462
 30
0.0
 10
5.807824201
 20
4.2858198127
 30
0.0
 10
5.7980635208
 20
4.2873839922
 30
0.0
 10
5.7882667362
 20
4.2887076495
 30
0.0
 10
5.7751672708
 20
4.2901511216
 30
0.0
 10
5.7587388138
 20
4.2913521345
 30
0.0
 10
5.7455659515
 20
4.2916669971
 30
0.0
 10
5.7389830951
 20
4.2916619849
 30
0.0
 11
5.7389842872
 21
3.4863848924
 31
0.0
 11
5.7587264666
 21
3.4868893976
 31
0.0
 11
5.7784346334
 21
3.4883608898
 31
0.0
 11
5.7882584962
 21
3.4894580399
 31
0.0
 11
5.798052897
 21
3.4907954774
 31
0.0
 11
5.8078108535
 21
3.492372713
 31
0.0
 11
5.8175258609
 21
3.4941889456
 31
0.0
 11
5.8368047601
 21
3.4985327465
 31
0.0
 11
5.8558455716
 21
3.5038152328
 31
0.0
 11
5.8652629694
 21
3.5068048224
 31
0.0
 11
5.8746043749
 21
3.5100246782
 31
0.0
 11
5.8930371776
 21
3.5171471429
 31
0.0
 11
5.9110998329
 21
3.5251639315
 31
0.0
 11
5.928748174
 21
3.5340557321
 31
0.0
 11
5.937403197
 21
3.538823694
 31
0.0
 11
5.9459384427
 21
3.5438026342
 31
0.0
 11
5.9626298388
 21
3.5543803968
 31
0.0
 11
5.9787828636
 21
3.5657628729
 31
0.0
 11
5.9866451451
 21
3.571747705
 31
0.0
 11
5.9943580923
 21
3.5779238143
 31
0.0
 11
6.0093181209
 21
3.5908342229
 31
0.0
 11
6.0236278515
 21
3.6044619622
 31
0.0
 11
6.0372523129
 21
3.6187747237
 31
0.0
 11
6.0501578383
 21
3.6337390136
 31
0.0
 11
6.0623145557
 21
3.6493178896
 31
0.0
 11
6.0736932796
 21
3.6654737854
 31
0.0
 11
6.0790817917
 21
3.6737563639
 31
0.0
 11
6.0842652935
 21
3.6821688158
 31
0.0
 11
6.0940058788
 21
3.6993623761
 31
0.0
 11
6.1028923405
 21
3.7170124851
 31
0.0
 11
6.1070081877
 21
3.725995623
 31
0.0
 11
6.1109020709
 21
3.735077122
 31
0.0
 11
6.1180154224
 21
3.7535130632
 31
0.0
 11
6.124216694
 21
3.7722754818
 31
0.0
 11
6.1294904591
 21
3.7913194396
 31
0.0
 11
6.1338227128
 21
3.8105995996
 31
0.0
 11
6.1372044458
 21
3.8300692232
 31
0.0
 11
6.139627746
 21
3.8496812644
 31
0.0
 11
6.1404775172
 21
3.8595259891
 31
0.0
 11
6.1410850927
 21
3.8693886425
 31
0.0
 11
6.141573526
 21
3.8891438758
 31
0.0
 11
6.141093031
 21
3.9088992232
 31
0.0
 11
6.1404894461
 21
3.9187620194
 31
0.0
 11
6.1396436716
 21
3.9286069425
 31
0.0
 11
6.1372281519
 21
3.9482195531
 31
0.0
 11
6.1338538672
 21
3.9676900397
 31
0.0
 11
6.129528695
 21
3.986971435
 31
0.0
 11
6.1242615331
 21
4.0060170337
 31
0.0
 11
6.1180662428
 21
4.024781407
 31
0.0
 11
6.1109581932
 21
4.0432195137
 31
0.0
 11
6.1070666876
 21
4.052302142
 31
0.0
 11
6.1029530025
 21
4.0612864137
 31
0.0
 11
6.0940701758
 21
4.0789387489
 31
0.0
 11
6.0843323006
 21
4.0961344157
 31
0.0
 11
6.079149805
 21
4.1045478518
 31
0.0
 11
6.0737620571
 21
4.1128313498
 31
0.0
 11
6.0623839862
 21
4.1289887052
 31
0.0
 11
6.0502268874
 21
4.1445684236
 31
0.0
 11
6.0373201536
 21
4.1595328349
 31
0.0
 11
6.0305948802
 21
4.1667725483
 31
0.0
 11
6.0236936429
 21
4.1738446983
 31
0.0
 11
6.009380895
 21
4.1874701679
 31
0.0
 11
5.9944171998
 21
4.2003770118
 31
0.0
 11
5.9867022783
 21
4.2065508797
 31
0.0
 11
5.9788379055
 21
4.2125330745
 31
0.0
 11
5.9626802255
 21
4.2239087946
 31
0.0
 11
5.9459837984
 21
4.2344779845
 31
0.0
 11
5.9287884252
 21
4.2442146822
 31
0.0
 11
5.9111348143
 21
4.2530942866
 31
0.0
 11
5.8930666775
 21
4.2610967
 31
0.0
 11
5.8746283472
 21
4.2682027551
 31
0.0
 11
5.865284213
 21
4.2714136717
 31
0.0
 11
5.8558641415
 21
4.2743937472
 31
0.0
 11
5.8368182405
 21
4.2796554242
 31
0.0
 11
5.8175347472
 21
4.2839760201
 31
0.0
 11
5.8078176855
 21
4.2857797442
 31
0.0
 11
5.7980578516
 21
4.2873438526
 31
0.0
 11
5.7882617438
 21
4.2886675137
 31
0.0
 11
5.7784363868
 21
4.2897502357
 31
0.0
 11
5.7587260508
 21
4.2911909129
 31
0.0
 11
5.7389830951
 21
4.2916619849
 31
0.0
  0
SPLINE
  5
24F
100
AcDbEntity
  8
0
100
AcDbSpline
 62
6
  6
CONTINUOUS
 70
0
 71
3
 72
8
 73
4
 74
2
 42
0.0000001
 43
0.0000001
 44
0.0000000001
 12
-0.0000474448
 22
-0.0000000389
 32
0.0
 13
-0.0000474448
 23
-0.0000000389
 33
0.0
 40
0.0
 40
0.0
 40
0.0
 40
0.0
 40
1.0
 40
1.0
 40
1.0
 40
1.0
 10
5.7389830951
 20
4.2916619849
 30
0.0
 10
5.7389672802
 20
4.291661972
 30
0.0
 10
5.7389514652
 20
4.291661959
 30
0.0
 10
5.7389356503
 20
4.291661946
 30
0.0
 11
5.7389830951
 21
4.2916619849
 31
0.0
 11
5.7389356503
 21
4.291661946
 31
0.0
  0
SPLINE
  5
250
100
AcDbEntity
  8
0
100
AcDbSpline
 62
6
  6
CONTINUOUS
 70
0
 71
3
 72
85
 73
81
 74
79
 42
0.0000001
 43
0.0000001
 44
0.0000000001
 12
1.0650385874
 22
0.3554107924
 32
0.0
 13
-1.1227748113
 23
-0.000864334
 33
0.0
 40
0.0
 40
0.0
 40
0.0
 40
0.0
 40
0.0156141686
 40
0.0312391499
 40
0.039054407
 40
0.046870255
 40
0.0546860015
 40
0.0625009934
 40
0.0781273159
 40
0.0937512564
 40
0.1093742421
 40
0.1171863004
 40
0.1249986339
 40
0.140623127
 40
0.1562482911
 40
0.1718736717
 40
0.1796868112
 40
0.1874999261
 40
0.2031251831
 40
0.218750392
 40
0.2343755235
 40
0.2500006637
 40
0.2656258346
 40
0.2812508889
 40
0.2968756883
 40
0.3125002911
 40
0.3281248397
 40
0.343749379
 40
0.3515621427
 40
0.3593749524
 40
0.3749998151
 40
0.3906248757
 40
0.4062500064
 40
0.4140630557
 40
0.4218761269
 40
0.437501407
 40
0.4531267258
 40
0.4687519618
 40
0.4765650176
 40
0.4843780665
 40
0.4921911116
 40
0.5000041436
 40
0.5156291573
 40
0.5312539441
 40
0.546878551
 40
0.5625030897
 40
0.5781275549
 40
0.585940236
 40
0.5937529198
 40
0.6093774145
 40
0.6250019868
 40
0.6406265282
 40
0.6484392453
 40
0.6562519592
 40
0.6718764804
 40
0.6875010393
 40
0.7031255773
 40
0.7187501466
 40
0.7343748072
 40
0.7499994504
 40
0.7656239556
 40
0.7812483809
 40
0.7968728972
 40
0.8124975835
 40
0.8203104984
 40
0.8281235141
 40
0.8437488513
 40
0.8593741846
 40
0.8749990044
 40
0.8828115511
 40
0.8906238594
 40
0.9062474224
 40
0.9218719413
 40
0.9374987212
 40
0.9453138643
 40
0.9531297084
 40
0.9609456108
 40
0.9687608896
 40
0.9843858531
 40
1.0
 40
1.0
 40
1.0
 40
1.0
 10
5.8647864848
 20
3.5113316718
 30
0.0
 10
5.8703297155
 20
3.5131814865
 30
0.0
 10
5.8813397013
 20
3.5171278483
 30
0.0
 10
5.8948734407
 20
3.5226614688
 30
0.0
 10
5.9055502695
 20
3.5274430871
 30
0.0
 10
5.9134788955
 20
3.53120519
 30
0.0
 10
5.9213227707
 20
3.5351407486
 30
0.0
 10
5.9316611605
 20
3.5406165243
 30
0.0
 10
5.9443523389
 20
3.547885978
 30
0.0
 10
5.95918087
 20
3.5572694838
 30
0.0
 10
5.9711820311
 20
3.5656249343
 30
0.0
 10
5.9805543312
 20
3.572620829
 30
0.0
 10
5.9897705578
 20
3.5798220039
 30
0.0
 10
6.0009908043
 20
3.5892017786
 30
0.0
 10
6.0139470201
 20
3.601037969
 30
0.0
 10
6.0243005539
 20
3.6113674107
 30
0.0
 10
6.0323034558
 20
3.6198981448
 30
0.0
 10
6.0401162272
 20
3.6286032839
 30
0.0
 10
6.0495199856
 20
3.6398041777
 30
0.0
 10
6.0602020331
 20
3.6537277198
 30
0.0
 10
6.0702613005
 20
3.6681078343
 30
0.0
 10
6.0796763121
 20
3.6829177017
 30
0.0
 10
6.088430418
 20
3.698127518
 30
0.0
 10
6.0965073266
 20
3.7137073782
 30
0.0
 10
6.1038904775
 20
3.729627517
 30
0.0
 10
6.1105639776
 20
3.7458577615
 30
0.0
 10
6.1165168809
 20
3.7623656118
 30
0.0
 10
6.1208679625
 20
3.7763277028
 30
0.0
 10
6.1239770703
 20
3.7876033436
 30
0.0
 10
6.1268366128
 20
3.7989449651
 30
0.0
 10
6.1299412117
 20
3.8132363642
 30
0.0
 10
6.1329085695
 20
3.83053244
 30
0.0
 10
6.1347450022
 20
3.8450416005
 30
0.0
 10
6.1358291845
 20
3.8566881058
 30
0.0
 10
6.1366560158
 20
3.8683557603
 30
0.0
 10
6.1372071459
 20
3.8829704483
 30
0.0
 10
6.1370963349
 20
3.9005191602
 30
0.0
 10
6.1363604573
 20
3.9151257188
 30
0.0
 10
6.1353855638
 20
3.926781874
 30
0.0
 10
6.1344616358
 20
3.9355061221
 30
0.0
 10
6.1333457404
 20
3.9442078874
 30
0.0
 10
6.1316029382
 20
3.9557740782
 30
0.0
 10
6.1289478131
 20
3.9701557833
 30
0.0
 10
6.125005083
 20
3.9872558199
 30
0.0
 10
6.1203112394
 20
4.004165157
 30
0.0
 10
6.1148775051
 20
4.0208510669
 30
0.0
 10
6.1097416486
 20
4.0345438832
 30
0.0
 10
6.1052743714
 20
4.0453534892
 30
0.0
 10
6.1005695767
 20
4.0560618621
 30
0.0
 10
6.0942470788
 20
4.0692489073
 30
0.0
 10
6.0859713243
 20
4.084723162
 30
0.0
 10
6.0785135164
 20
4.0973030667
 30
0.0
 10
6.0722193268
 20
4.1071614896
 30
0.0
 10
6.0657089349
 20
4.1168784879
 30
0.0
 10
6.0571714464
 20
4.1287521069
 30
0.0
 10
6.0463096663
 20
4.1425349684
 30
0.0
 10
6.0348514324
 20
4.1558263903
 30
0.0
 10
6.0228174151
 20
4.1685988439
 30
0.0
 10
6.0102320926
 20
4.1808284608
 30
0.0
 10
5.997120702
 20
4.1924922649
 30
0.0
 10
5.9835081956
 20
4.2035670193
 30
0.0
 10
5.9694198012
 20
4.2140296901
 30
0.0
 10
5.954884275
 20
4.2238614924
 30
0.0
 10
5.9424215824
 20
4.231513711
 30
0.0
 10
5.9322569537
 20
4.2373008871
 30
0.0
 10
5.921966727
 20
4.2428621765
 30
0.0
 10
5.9088771893
 20
4.2493857866
 30
0.0
 10
5.8928413139
 20
4.2565143366
 30
0.0
 10
5.8792289432
 20
4.2618609088
 30
0.0
 10
5.8682067991
 20
4.2657743589
 30
0.0
 10
5.8571013329
 20
4.269443195
 30
0.0
 10
5.8430713869
 20
4.2735684852
 30
0.0
 10
5.8260335705
 20
4.2777720908
 30
0.0
 10
5.8116925597
 20
4.2806461177
 30
0.0
 10
5.8001514751
 20
4.2825634229
 30
0.0
 10
5.7914645179
 20
4.2838099485
 30
0.0
 10
5.7827521504
 20
4.284864644
 30
0.0
 10
5.7711101136
 20
4.2860144805
 30
0.0
 10
5.7565200692
 20
4.2869705932
 30
0.0
 10
5.7448268545
 20
4.2872204759
 30
0.0
 10
5.7389831309
 20
4.2872159773
 30
0.0
 11
5.8647864848
 21
3.5113316718
 31
0.0
 11
5.8812897947
 21
3.517246378
 31
0.0
 11
5.8975282986
 21
3.5238856394
 31
0.0
 11
5.9055366303
 21
3.5274721871
 31
0.0
 11
5.9134648189
 21
3.531234124
 31
0.0
 11
5.9213082173
 21
3.5351695337
 31
0.0
 11
5.9290622075
 21
3.5392764924
 31
0.0
 11
5.9442865595
 21
3.5479966268
 31
0.0
 11
5.9591101088
 21
3.5573769353
 31
0.0
 11
5.9735057724
 21
3.5673996624
 31
0.0
 11
5.9805346838
 21
3.5726463842
 31
0.0
 11
5.9874464995
 21
3.5780469311
 31
0.0
 11
6.0009059052
 21
3.5892983297
 31
0.0
 11
6.0138582363
 21
3.6011310435
 31
0.0
 11
6.0262777646
 21
3.6135221634
 31
0.0
 11
6.032279699
 21
3.6199199572
 31
0.0
 11
6.0381390825
 21
3.6264485191
 31
0.0
 11
6.0494196143
 21
3.6398846369
 31
0.0
 11
6.060098258
 21
3.6538038444
 31
0.0
 11
6.0701539242
 21
3.668179459
 31
0.0
 11
6.0795661576
 21
3.6829843542
 31
0.0
 11
6.0883175826
 21
3.6981892491
 31
0.0
 11
6.0963917578
 21
3.7137642088
 31
0.0
 11
6.1037722447
 21
3.7296792975
 31
0.0
 11
6.1104438915
 21
3.7459040631
 31
0.0
 11
6.1163949381
 21
3.7624066932
 31
0.0
 11
6.1216141767
 21
3.7791551539
 31
0.0
 11
6.1239458655
 21
3.7876115601
 31
0.0
 11
6.1260904559
 21
3.7961173944
 31
0.0
 11
6.1298148409
 21
3.8132607047
 31
0.0
 11
6.1327812853
 21
3.8305515152
 31
0.0
 11
6.1349839372
 21
3.8479561988
 31
0.0
 11
6.1357970134
 21
3.8566907344
 31
0.0
 11
6.1364171628
 21
3.8654411087
 31
0.0
 11
6.1370784523
 21
3.882972317
 31
0.0
 11
6.1369676286
 21
3.9005156866
 31
0.0
 11
6.1360845703
 21
3.9180370748
 31
0.0
 11
6.1353534406
 21
3.9267788584
 31
0.0
 11
6.1344296409
 21
3.9355023778
 31
0.0
 11
6.1333138645
 21
3.9442034217
 31
0.0
 11
6.1320068127
 21
3.9528777792
 31
0.0
 11
6.1288216872
 21
3.9701295922
 31
0.0
 11
6.1248798738
 21
3.9872241307
 31
0.0
 11
6.1201879113
 21
4.0041279628
 31
0.0
 11
6.1147559564
 21
4.0208086471
 31
0.0
 11
6.1085950462
 21
4.037233983
 31
0.0
 11
6.1052446818
 21
4.0453408325
 31
0.0
 11
6.1017162352
 21
4.053371777
 31
0.0
 11
6.0941322858
 21
4.0691905425
 31
0.0
 11
6.085859068
 21
4.0846600789
 31
0.0
 11
6.0769127813
 21
4.0997503216
 31
0.0
 11
6.0721922995
 21
4.1071438128
 31
0.0
 11
6.0673097466
 21
4.1144312866
 31
0.0
 11
6.0570686364
 21
4.1286745426
 31
0.0
 11
6.0462102543
 21
4.1424530655
 31
0.0
 11
6.0347554807
 21
4.1557398823
 31
0.0
 11
6.0227255594
 21
4.168508342
 31
0.0
 11
6.0101444067
 21
4.1807341656
 31
0.0
 11
5.9970371322
 21
4.1923941329
 31
0.0
 11
5.9834288513
 21
4.2034650289
 31
0.0
 11
5.9693453165
 21
4.2139245194
 31
0.0
 11
5.954814426
 21
4.2237532377
 31
0.0
 11
5.9398645294
 21
4.232932441
 31
0.0
 11
5.9322413131
 21
4.2372726174
 31
0.0
 11
5.9245239939
 21
4.2414434118
 31
0.0
 11
5.9088223969
 21
4.2492691815
 31
0.0
 11
5.892791294
 21
4.2563956399
 31
0.0
 11
5.8764624235
 21
4.2628089404
 31
0.0
 11
5.8681962435
 21
4.2657438295
 31
0.0
 11
5.8598675193
 21
4.2684953675
 31
0.0
 11
5.8430382307
 21
4.2734438999
 31
0.0
 11
5.8260061269
 21
4.2776460454
 31
0.0
 11
5.8088027743
 21
4.2810934097
 31
0.0
 11
5.8001467632
 21
4.282531438
 31
0.0
 11
5.7914603128
 21
4.283777972
 31
0.0
 11
5.7827484199
 21
4.284832647
 31
0.0
 11
5.7740161077
 21
4.2856951156
 31
0.0
 11
5.7565103185
 21
4.2868420439
 31
0.0
 11
5.7389831309
 21
4.2872159773
 31
0.0
  0
SPLINE
  5
251
100
AcDbEntity
  8
0
100
AcDbSpline
 62
6
  6
CONTINUOUS
 70
0
 71
3
 72
8
 73
4
 74
2
 42
0.0000001
 43
0.0000001
 44
0.0000000001
 12
-0.0000474806
 22
-0.0000000394
 32
0.0
 13
-0.0000474806
 23
-0.0000000394
 33
0.0
 40
0.0
 40
0.0
 40
0.0
 40
0.0
 40
1.0
 40
1.0
 40
1.0
 40
1.0
 10
5.7389831309
 20
4.2872159773
 30
0.0
 10
5.738967304
 20
4.2872159641
 30
0.0
 10
5.7389514771
 20
4.287215951
 30
0.0
 10
5.7389356503
 20
4.2872159379
 30
0.0
 11
5.7389831309
 21
4.2872159773
 31
0.0
 11
5.7389356503
 21
4.2872159379
 31
0.0
  0
SPLINE
  5
252
100
AcDbEntity
  8
0
100
AcDbSpline
 62
6
  6
CONTINUOUS
 70
0
 71
3
 72
8
 73
4
 74
2
 42
0.0000001
 43
0.0000001
 44
0.0000000001
 12
0.0000485024
 22
0.0000000463
 32
0.0
 13
0.0000485024
 23
0.0000000463
 33
0.0
 40
0.0
 40
0.0
 40
0.0
 40
0.0
 40
1.0
 40
1.0
 40
1.0
 40
1.0
 10
5.7389356503
 20
3.493053859
 30
0.0
 10
5.7389518177
 20
3.4930538745
 30
0.0
 10
5.7389679852
 20
3.4930538899
 30
0.0
 10
5.7389841527
 20
3.4930539053
 30
0.0
 11
5.7389356503
 21
3.493053859
 31
0.0
 11
5.7389841527
 21
3.4930539053
 31
0.0
  0
SPLINE
  5
253
100
AcDbEntity
  8
0
100
AcDbSpline
 62
6
  6
CONTINUOUS
 70
0
 71
3
 72
89
 73
85
 74
83
 42
0.0000001
 43
0.0000001
 44
0.0000000001
 12
1.243778888
 22
0.0012625904
 32
0.0
 13
-1.2437791564
 23
-0.0009624575
 33
0.0
 40
0.0
 40
0.0
 40
0.0
 40
0.0
 40
0.0156148903
 40
0.0312411145
 40
0.0390569073
 40
0.0468729561
 40
0.0546884325
 40
0.0625028818
 40
0.0781282435
 40
0.0937518382
 40
0.1015640632
 40
0.1093764601
 40
0.1250008227
 40
0.1406257475
 40
0.1484388163
 40
0.1562518105
 40
0.1718763101
 40
0.1875005897
 40
0.1953132848
 40
0.2031259842
 40
0.2109387189
 40
0.2187515294
 40
0.2343762269
 40
0.2500011378
 40
0.257814208
 40
0.2656272905
 40
0.2812523743
 40
0.2968775578
 40
0.3125026986
 40
0.3203158264
 40
0.3281289535
 40
0.343754024
 40
0.3593789547
 40
0.3671919108
 40
0.3750048057
 40
0.390629323
 40
0.4062537346
 40
0.4218780098
 40
0.4375022694
 40
0.4531266101
 40
0.4687509725
 40
0.4765637528
 40
0.4843765679
 40
0.5000011433
 40
0.5156257844
 40
0.5234386826
 40
0.5312515801
 40
0.54687625
 40
0.5625009225
 40
0.5781254465
 40
0.5937498437
 40
0.6093742518
 40
0.6249986752
 40
0.6328114987
 40
0.6406243709
 40
0.6562490954
 40
0.6718739079
 40
0.6796868856
 40
0.6874998483
 40
0.7031246065
 40
0.7187493398
 40
0.7343739083
 40
0.7499983181
 40
0.7656226813
 40
0.781246955
 40
0.7890596419
 40
0.7968723308
 40
0.8124966509
 40
0.828121201
 40
0.8359341717
 40
0.8437472455
 40
0.8593725205
 40
0.8749978064
 40
0.890622483
 40
0.8984350218
 40
0.9062473831
 40
0.921871223
 40
0.9374967905
 40
0.9453113299
 40
0.9531268861
 40
0.9609430022
 40
0.9687588478
 40
0.9843851238
 40
1.0
 40
1.0
 40
1.0
 40
1.0
 10
5.7389841527
 20
3.4930539053
 30
0.0
 10
5.7454579763
 20
3.493060477
 30
0.0
 10
5.7584120743
 20
3.4933922498
 30
0.0
 10
5.774566512
 20
3.4945988358
 30
0.0
 10
5.7874469043
 20
3.4960374714
 30
0.0
 10
5.797079606
 20
3.4973528631
 30
0.0
 10
5.8066765912
 20
3.4989041385
 30
0.0
 10
5.8194151666
 20
3.5012858726
 30
0.0
 10
5.8352212052
 20
3.5048474654
 30
0.0
 10
5.8508329014
 20
3.5091786996
 30
0.0
 10
5.8631820087
 20
3.5130990029
 30
0.0
 10
5.8754314763
 20
3.5173213335
 30
0.0
 10
5.8905439898
 20
3.5231611743
 30
0.0
 10
5.9053528199
 20
3.5297337548
 30
0.0
 10
5.9169952658
 20
3.5354216683
 30
0.0
 10
5.9284946352
 20
3.541393184
 30
0.0
 10
5.9425882623
 20
3.5493846309
 30
0.0
 10
5.9562731866
 20
3.5580571355
 30
0.0
 10
5.9669554295
 20
3.565390154
 30
0.0
 10
5.9748303844
 20
3.5710849165
 30
0.0
 10
5.982563288
 20
3.5769712088
 30
0.0
 10
5.9926774394
 20
3.5850702022
 30
0.0
 10
6.0049433107
 20
3.5956556089
 30
0.0
 10
6.0166762029
 20
3.606828964
 30
0.0
 10
6.0257248089
 20
3.6161038082
 30
0.0
 10
6.0345429893
 20
3.6255980581
 30
0.0
 10
6.0451244698
 20
3.6378680905
 30
0.0
 10
6.0570848986
 20
3.6531953524
 30
0.0
 10
6.0664150273
 20
3.6664419145
 30
0.0
 10
6.073481316
 20
3.6773033314
 30
0.0
 10
6.0802786317
 20
3.6883350733
 30
0.0
 10
6.0882648806
 20
3.7024322688
 30
0.0
 10
6.0955510162
 20
3.7169036586
 30
0.0
 10
6.1009483601
 20
3.7286835423
 30
0.0
 10
6.1060544787
 20
3.7405923405
 30
0.0
 10
6.1118864359
 20
3.7557081463
 30
0.0
 10
6.1179873337
 20
3.774166961
 30
0.0
 10
6.1231762456
 20
3.7929027526
 30
0.0
 10
6.1274379855
 20
3.811870914
 30
0.0
 10
6.1307648493
 20
3.8310249459
 30
0.0
 10
6.1327519282
 20
3.8471043227
 30
0.0
 10
6.1338662735
 20
3.8600134575
 30
0.0
 10
6.1346629485
 20
3.8729461965
 30
0.0
 10
6.1350633991
 20
3.8891429938
 30
0.0
 10
6.1346696679
 20
3.9053399909
 30
0.0
 10
6.1338783267
 20
3.918273168
 30
0.0
 10
6.1327692625
 20
3.9311829694
 30
0.0
 10
6.13078855
 20
3.9472634525
 30
0.0
 10
6.1274689886
 20
3.9664191349
 30
0.0
 10
6.1232142879
 20
3.9853891864
 30
0.0
 10
6.1180319224
 20
4.004126965
 30
0.0
 10
6.1119368684
 20
4.022587732
 30
0.0
 10
6.1061092967
 20
4.0377051612
 30
0.0
 10
6.1010064512
 20
4.0496152515
 30
0.0
 10
6.0956121217
 20
4.0613963535
 30
0.0
 10
6.0883292237
 20
4.0758691319
 30
0.0
 10
6.0803455488
 20
4.0899675074
 30
0.0
 10
6.0735499261
 20
4.101000014
 30
0.0
 10
6.0664851121
 20
4.1118620549
 30
0.0
 10
6.057156311
 20
4.125109011
 30
0.0
 10
6.0451964475
 20
4.1404362632
 30
0.0
 10
6.0324992787
 20
4.1551586711
 30
0.0
 10
6.0190933454
 20
4.1692385422
 30
0.0
 10
6.0050127942
 20
4.1826432093
 30
0.0
 10
5.9927446777
 20
4.1932255612
 30
0.0
 10
5.982628255
 20
4.2013213773
 30
0.0
 10
5.9723156362
 20
4.2091658211
 30
0.0
 10
5.9590680573
 20
4.2184927946
 30
0.0
 10
5.945378826
 20
4.2271587834
 30
0.0
 10
5.9341829404
 20
4.2336816043
 30
0.0
 10
5.9228297587
 20
4.2399271911
 30
0.0
 10
5.9083548683
 20
4.2472075422
 30
0.0
 10
5.8905788321
 20
4.2550807473
 30
0.0
 10
5.8754607119
 20
4.2609076638
 30
0.0
 10
5.8632070049
 20
4.2651183643
 30
0.0
 10
5.8508537272
 20
4.2690262645
 30
0.0
 10
5.8352370403
 20
4.273340492
 30
0.0
 10
5.8194264507
 20
4.2768830127
 30
0.0
 10
5.8066846284
 20
4.2792481989
 30
0.0
 10
5.7970854348
 20
4.280786404
 30
0.0
 10
5.7874507795
 20
4.2820880674
 30
0.0
 10
5.7745681817
 20
4.2835075207
 30
0.0
 10
5.7584117772
 20
4.2846884844
 30
0.0
 10
5.7454570789
 20
4.2849979831
 30
0.0
 10
5.7389832597
 20
4.2849929735
 30
0.0
 11
5.7389841527
 21
3.4930539053
 31
0.0
 11
5.7583992875
 21
3.4935503545
 31
0.0
 11
5.7777808965
 21
3.4949977371
 31
0.0
 11
5.7874419413
 21
3.4960768327
 31
0.0
 11
5.7970739796
 21
3.4973922268
 31
0.0
 11
5.8066701417
 21
3.4989434379
 31
0.0
 11
5.8162240486
 21
3.5007296661
 31
0.0
 11
5.8351832273
 21
3.5050016128
 31
0.0
 11
5.8539082438
 21
3.5101966415
 31
0.0
 11
5.863169448
 21
3.5131367222
 31
0.0
 11
5.872355919
 21
3.5163032475
 31
0.0
 11
5.8904829869
 21
3.52330761
 31
0.0
 11
5.9082460115
 21
3.5311913796
 31
0.0
 11
5.9169774278
 21
3.5354571439
 31
0.0
 11
5.9256015373
 21
3.5399356821
 31
0.0
 11
5.9425066226
 21
3.5495208999
 31
0.0
 11
5.9589213046
 21
3.5599231059
 31
0.0
 11
5.9669325904
 21
3.5654226186
 31
0.0
 11
5.9748066911
 21
3.5711168246
 31
0.0
 11
5.9825387452
 21
3.5770025393
 31
0.0
 11
5.9901240047
 21
3.5830764153
 31
0.0
 11
6.0048366349
 21
3.5957731231
 31
0.0
 11
6.0189099186
 21
3.6091753944
 31
0.0
 11
6.025695995
 21
3.6161312247
 31
0.0
 11
6.032309266
 21
3.6232515724
 31
0.0
 11
6.0450015799
 21
3.6379686277
 31
0.0
 11
6.0569575006
 21
3.6532900941
 31
0.0
 11
6.0681482439
 21
3.6691789761
 31
0.0
 11
6.0734476952
 21
3.6773246261
 31
0.0
 11
6.0785454806
 21
3.6855979791
 31
0.0
 11
6.0881248939
 21
3.7025071702
 31
0.0
 11
6.0968642548
 21
3.7198652439
 31
0.0
 11
6.1009119746
 21
3.7286997
 31
0.0
 11
6.1047414027
 21
3.7376308618
 31
0.0
 11
6.1117368994
 21
3.7557615592
 31
0.0
 11
6.1178353578
 21
3.7742131949
 31
0.0
 11
6.1230217201
 21
3.7929414918
 31
0.0
 11
6.1272821652
 21
3.8119018535
 31
0.0
 11
6.1306077792
 21
3.8310484177
 31
0.0
 11
6.1329908656
 21
3.8503350082
 31
0.0
 11
6.1338265614
 21
3.8600163827
 31
0.0
 11
6.1344241041
 21
3.8697154128
 31
0.0
 11
6.134904565
 21
3.8891429997
 31
0.0
 11
6.1344321554
 21
3.9085708656
 31
0.0
 11
6.1338386099
 21
3.9182702447
 31
0.0
 11
6.1330068669
 21
3.927952106
 31
0.0
 11
6.130631425
 21
3.9472400249
 31
0.0
 11
6.1273131162
 21
3.9663882752
 31
0.0
 11
6.1230596602
 21
3.985350543
 31
0.0
 11
6.1178798072
 21
4.0040807988
 31
0.0
 11
6.1117872173
 21
4.0225343685
 31
0.0
 11
6.1047970114
 21
4.0406669813
 31
0.0
 11
6.1009700289
 21
4.0495990947
 31
0.0
 11
6.0969245646
 21
4.058434469
 31
0.0
 11
6.0881890915
 21
4.0757942125
 31
0.0
 11
6.0786127815
 21
4.0927047926
 31
0.0
 11
6.0735162711
 21
4.1009787127
 31
0.0
 11
6.0682179137
 21
4.1091248295
 31
0.0
 11
6.0570287187
 21
4.1250142198
 31
0.0
 11
6.0450735045
 21
4.1403355271
 31
0.0
 11
6.0323810901
 21
4.1550516495
 31
0.0
 11
6.0189808811
 21
4.1691260364
 31
0.0
 11
6.0049059305
 21
4.1825255692
 31
0.0
 11
5.9901906919
 21
4.1952184467
 31
0.0
 11
5.9826037322
 21
4.2012899527
 31
0.0
 11
5.9748697277
 21
4.2071730101
 31
0.0
 11
5.958979827
 21
4.2183605338
 31
0.0
 11
5.9425598933
 21
4.2287550771
 31
0.0
 11
5.9341633476
 21
4.2336469092
 31
0.0
 11
5.9256489175
 21
4.2383308152
 31
0.0
 11
5.9082871074
 21
4.247063704
 31
0.0
 11
5.8905176325
 21
4.2549340331
 31
0.0
 11
5.8723841039
 21
4.2619227389
 31
0.0
 11
5.8631944473
 21
4.2650805501
 31
0.0
 11
5.8539301164
 21
4.2680113261
 31
0.0
 11
5.835199131
 21
4.2731859374
 31
0.0
 11
5.8162345434
 21
4.2774349785
 31
0.0
 11
5.8066782097
 21
4.2792087918
 31
0.0
 11
5.7970798433
 21
4.2807469322
 31
0.0
 11
5.7874458556
 21
4.2820485971
 31
0.0
 11
5.7777831483
 21
4.2831133042
 31
0.0
 11
5.7583992024
 21
4.2845299287
 31
0.0
 11
5.7389832597
 21
4.2849929735
 31
0.0
  0
SPLINE
  5
254
100
AcDbEntity
  8
0
100
AcDbSpline
 62
6
  6
CONTINUOUS
 70
0
 71
3
 72
8
 73
4
 74
2
 42
0.0000001
 43
0.0000001
 44
0.0000000001
 12
-0.0000476095
 22
-0.0000000397
 32
0.0
 13
-0.0000476095
 23
-0.0000000397
 33
0.0
 40
0.0
 40
0.0
 40
0.0
 40
0.0
 40
1.0
 40
1.0
 40
1.0
 40
1.0
 10
5.7389832597
 20
4.2849929735
 30
0.0
 10
5.7389673899
 20
4.2849929603
 30
0.0
 10
5.7389515201
 20
4.284992947
 30
0.0
 10
5.7389356503
 20
4.2849929338
 30
0.0
 11
5.7389832597
 21
4.2849929735
 31
0.0
 11
5.7389356503
 21
4.2849929338
 31
0.0
  0
SPLINE
  5
255
100
AcDbEntity
  8
0
100
AcDbSpline
 62
6
  6
CONTINUOUS
 70
0
 71
3
 72
8
 73
4
 74
2
 42
0.0000001
 43
0.0000001
 44
0.0000000001
 12
0.0000485942
 22
0.0000000466
 32
0.0
 13
0.0000485942
 23
0.0000000466
 33
0.0
 40
0.0
 40
0.0
 40
0.0
 40
0.0
 40
1.0
 40
1.0
 40
1.0
 40
1.0
 10
5.7389356503
 20
3.4952768631
 30
0.0
 10
5.7389518484
 20
3.4952768787
 30
0.0
 10
5.7389680464
 20
3.4952768942
 30
0.0
 10
5.7389842445
 20
3.4952769097
 30
0.0
 11
5.7389356503
 21
3.4952768631
 31
0.0
 11
5.7389842445
 21
3.4952769097
 31
0.0
  0
SPLINE
  5
256
100
AcDbEntity
  8
0
100
AcDbSpline
 62
6
  6
CONTINUOUS
 70
0
 71
3
 72
89
 73
85
 74
83
 42
0.0000001
 43
0.0000001
 44
0.0000000001
 12
1.2367956964
 22
0.0012628699
 32
0.0
 13
-1.2367959664
 23
-0.0009627959
 33
0.0
 40
0.0
 40
0.0
 40
0.0
 40
0.0
 40
0.0156148955
 40
0.0312411548
 40
0.0390569862
 40
0.0468730927
 40
0.0546886494
 40
0.0625031945
 40
0.0781287784
 40
0.0937526245
 40
0.1015649811
 40
0.1093775123
 40
0.1250021803
 40
0.1406274574
 40
0.1562527248
 40
0.1640657944
 40
0.1718787607
 40
0.187503306
 40
0.2031276243
 40
0.2109403145
 40
0.2187530074
 40
0.2343773099
 40
0.2500017181
 40
0.2656261925
 40
0.2812508466
 40
0.2968756733
 40
0.3125005177
 40
0.3203135155
 40
0.3281265228
 40
0.3437513823
 40
0.3593761382
 40
0.3671890203
 40
0.3750018505
 40
0.3906262765
 40
0.406250672
 40
0.4218750421
 40
0.4374995255
 40
0.4531241425
 40
0.4687487354
 40
0.476561584
 40
0.4843744263
 40
0.4999989475
 40
0.5156234157
 40
0.5234361914
 40
0.5312489467
 40
0.5468732951
 40
0.5624976472
 40
0.5781219187
 40
0.5937461883
 40
0.6093705776
 40
0.6249950627
 40
0.632807942
 40
0.6406208841
 40
0.6562457871
 40
0.6718708299
 40
0.6796839445
 40
0.6874970606
 40
0.7031221768
 40
0.7187473336
 40
0.7343723883
 40
0.7421854586
 40
0.7499985175
 40
0.7656234021
 40
0.7812480724
 40
0.7890608725
 40
0.7968735994
 40
0.8046862934
 40
0.8124989861
 40
0.8281232697
 40
0.8437478032
 40
0.8515608332
 40
0.8593739462
 40
0.8749989661
 40
0.890623421
 40
0.8984358608
 40
0.9062481211
 40
0.9218717557
 40
0.9374971266
 40
0.9453115748
 40
0.95312705
 40
0.9609431044
 40
0.9687589059
 40
0.9843851347
 40
1.0
 40
1.0
 40
1.0
 40
1.0
 10
5.7389842445
 20
3.4952769097
 30
0.0
 10
5.745421723
 20
3.4952834829
 30
0.0
 10
5.758303105
 20
3.4956134691
 30
0.0
 10
5.7743668692
 20
3.4968133761
 30
0.0
 10
5.7871749906
 20
3.4982440106
 30
0.0
 10
5.7967536749
 20
3.4995520771
 30
0.0
 10
5.8062968662
 20
3.5010947013
 30
0.0
 10
5.8189640701
 20
3.5034631592
 30
0.0
 10
5.8346815743
 20
3.5070049033
 30
0.0
 10
5.8502058304
 20
3.5113119782
 30
0.0
 10
5.862485792
 20
3.5152104041
 30
0.0
 10
5.8746666658
 20
3.5194091456
 30
0.0
 10
5.8896947661
 20
3.5252165511
 30
0.0
 10
5.9073648765
 20
3.5330592602
 30
0.0
 10
5.9217535631
 20
3.5403084562
 30
0.0
 10
5.9330392448
 20
3.5465257808
 30
0.0
 10
5.9441686411
 20
3.5530181869
 30
0.0
 10
5.9577767566
 20
3.5616421882
 30
0.0
 10
5.970946179
 20
3.5709221144
 30
0.0
 10
5.981198231
 20
3.5787260175
 30
0.0
 10
5.9912554376
 20
3.5867794178
 30
0.0
 10
6.0034521051
 20
3.5973053519
 30
0.0
 10
6.0174513273
 20
3.6106371968
 30
0.0
 10
6.0307806297
 20
3.624639396
 30
0.0
 10
6.0434060134
 20
3.6392796813
 30
0.0
 10
6.0552990984
 20
3.6545207062
 30
0.0
 10
6.0645765966
 20
3.6676926192
 30
0.0
 10
6.071603091
 20
3.6784928714
 30
0.0
 10
6.0783621481
 20
3.6894625095
 30
0.0
 10
6.0863034728
 20
3.7034803658
 30
0.0
 10
6.0935486355
 20
3.7178703263
 30
0.0
 10
6.0989156323
 20
3.72958395
 30
0.0
 10
6.1039930537
 20
3.7414257955
 30
0.0
 10
6.1097923012
 20
3.7564566436
 30
0.0
 10
6.1158590239
 20
3.7748117909
 30
0.0
 10
6.1210188497
 20
3.7934425085
 30
0.0
 10
6.125256695
 20
3.812304417
 30
0.0
 10
6.1285649653
 20
3.831351199
 30
0.0
 10
6.1305409636
 20
3.8473405277
 30
0.0
 10
6.131649103
 20
3.860177315
 30
0.0
 10
6.1324413276
 20
3.8730374591
 30
0.0
 10
6.1328395312
 20
3.8891432376
 30
0.0
 10
6.1324480085
 20
3.9052491523
 30
0.0
 10
6.1316611277
 20
3.9181095364
 30
0.0
 10
6.1305583341
 20
3.930946617
 30
0.0
 10
6.1285888539
 20
3.9469365035
 30
0.0
 10
6.1252880872
 20
3.9659842902
 30
0.0
 10
6.1210573534
 20
3.984847557
 30
0.0
 10
6.1159041649
 20
4.0034799825
 30
0.0
 10
6.1098434859
 20
4.0218371146
 30
0.0
 10
6.1040487185
 20
4.0368697456
 30
0.0
 10
6.098974504
 20
4.048713043
 30
0.0
 10
6.0936104348
 20
4.0604281257
 30
0.0
 10
6.0863684102
 20
4.0748198593
 30
0.0
 10
6.0784295176
 20
4.0888393143
 30
0.0
 10
6.0716719641
 20
4.0998100809
 30
0.0
 10
6.0646466727
 20
4.1106113562
 30
0.0
 10
6.0553699948
 20
4.1237842849
 30
0.0
 10
6.043477092
 20
4.1390257641
 30
0.0
 10
6.0329545936
 20
4.1512265243
 30
0.0
 10
6.0241851544
 20
4.1606667295
 30
0.0
 10
6.015186281
 20
4.1698884313
 30
0.0
 10
6.0035173826
 20
4.1809970687
 30
0.0
 10
5.991317826
 20
4.191520078
 30
0.0
 10
5.9812580546
 20
4.1995705699
 30
0.0
 10
5.9735665826
 20
4.2054211949
 30
0.0
 10
5.9657336841
 20
4.2110809946
 30
0.0
 10
5.9551083264
 20
4.2183683422
 30
0.0
 10
5.9414959917
 20
4.2269855274
 30
0.0
 10
5.9274768439
 20
4.2349240166
 30
0.0
 10
5.9160381277
 20
4.2408545821
 30
0.0
 10
5.9044570232
 20
4.2465024895
 30
0.0
 10
5.8897261682
 20
4.2530268148
 30
0.0
 10
5.8746932997
 20
4.2588207289
 30
0.0
 10
5.8625085193
 20
4.2630077093
 30
0.0
 10
5.8502247484
 20
4.2668935656
 30
0.0
 10
5.8346959169
 20
4.2711834404
 30
0.0
 10
5.8189742774
 20
4.2747059471
 30
0.0
 10
5.8063041339
 20
4.2770577751
 30
0.0
 10
5.7967589252
 20
4.2785872981
 30
0.0
 10
5.7871784346
 20
4.2798816044
 30
0.0
 10
5.7743682227
 20
4.2812930262
 30
0.0
 10
5.7583025646
 20
4.2824672812
 30
0.0
 10
5.7454206229
 20
4.2827749809
 30
0.0
 10
5.7389831554
 20
4.2827699696
 30
0.0
 11
5.7389842445
 21
3.4952769097
 31
0.0
 11
5.7582903767
 21
3.4957706854
 31
0.0
 11
5.7775632029
 21
3.497210055
 31
0.0
 11
5.7871700474
 21
3.4982831498
 31
0.0
 11
5.7967480709
 21
3.4995912176
 31
0.0
 11
5.8062904461
 21
3.5011337804
 31
0.0
 11
5.81579082
 21
3.5029100508
 31
0.0
 11
5.8346437958
 21
3.5071581837
 31
0.0
 11
5.8532639502
 21
3.5123242372
 31
0.0
 11
5.8624732972
 21
3.5152479084
 31
0.0
 11
5.871608332
 21
3.5183967554
 31
0.0
 11
5.8896339174
 21
3.5253620851
 31
0.0
 11
5.9072975291
 21
3.53320195
 31
0.0
 11
5.9245559705
 21
3.5418974891
 31
0.0
 11
5.9330197778
 21
3.5465602066
 31
0.0
 11
5.9413664602
 21
3.5514292304
 31
0.0
 11
5.957689116
 21
3.5617734358
 31
0.0
 11
5.9734852919
 21
3.572904548
 31
0.0
 11
5.9811738743
 21
3.5787572055
 31
0.0
 11
5.9887164205
 21
3.5847969043
 31
0.0
 11
6.0033459693
 21
3.597422132
 31
0.0
 11
6.0173396377
 21
3.610748886
 31
0.0
 11
6.030663241
 21
3.6247456673
 31
0.0
 11
6.0432839021
 21
3.6393797301
 31
0.0
 11
6.0551723776
 21
3.6546148632
 31
0.0
 11
6.0663000499
 21
3.6704142584
 31
0.0
 11
6.0715696576
 21
3.6785140415
 31
0.0
 11
6.0766387476
 21
3.6867408152
 31
0.0
 11
6.0861642673
 21
3.7035548324
 31
0.0
 11
6.0948544859
 21
3.7208152452
 31
0.0
 11
6.0988794496
 21
3.7296000134
 31
0.0
 11
6.1026873557
 21
3.7384809535
 31
0.0
 11
6.1096435958
 21
3.7565097278
 31
0.0
 11
6.1157078765
 21
3.7748577255
 31
0.0
 11
6.1208651715
 21
3.7934809801
 31
0.0
 11
6.1251017519
 21
3.8123351603
 31
0.0
 11
6.1284087811
 21
3.8313745579
 31
0.0
 11
6.1307785749
 21
3.8505531407
 31
0.0
 11
6.1316096127
 21
3.860180241
 31
0.0
 11
6.132203819
 21
3.8698248485
 31
0.0
 11
6.1326815882
 21
3.8891432922
 31
0.0
 11
6.132211834
 21
3.9084618668
 31
0.0
 11
6.1316216361
 21
3.918106638
 31
0.0
 11
6.1307945959
 21
3.9277339667
 31
0.0
 11
6.1284326156
 21
3.9469132086
 31
0.0
 11
6.1251330851
 21
3.9659535748
 31
0.0
 11
6.1209036117
 21
3.9848090818
 31
0.0
 11
6.1157529352
 21
4.0034340391
 31
0.0
 11
6.1096946821
 21
4.0217840198
 31
0.0
 11
6.1027437969
 21
4.0398149376
 31
0.0
 11
6.09893829
 21
4.0486969722
 31
0.0
 11
6.0949155235
 21
4.0574828285
 31
0.0
 11
6.0862290724
 21
4.0747453412
 31
0.0
 11
6.0767064627
 21
4.0915612672
 31
0.0
 11
6.071638498
 21
4.09978889
 31
0.0
 11
6.0663697879
 21
4.1078894315
 31
0.0
 11
6.0552431604
 21
4.1236899737
 31
0.0
 11
6.0433547435
 21
4.1389256704
 31
0.0
 11
6.030733185
 21
4.1535596135
 31
0.0
 11
6.0241564647
 21
4.1606394253
 31
0.0
 11
6.0174076862
 21
4.1675553996
 31
0.0
 11
6.0034111712
 21
4.1808800184
 31
0.0
 11
5.9887780976
 21
4.1935018572
 31
0.0
 11
5.9812336208
 21
4.1995393565
 31
0.0
 11
5.9735429948
 21
4.2053894032
 31
0.0
 11
5.9657109483
 21
4.2110486469
 31
0.0
 11
5.957742327
 21
4.2165139039
 31
0.0
 11
5.9414147427
 21
4.2268497232
 31
0.0
 11
5.9245990088
 21
4.2363713937
 31
0.0
 11
5.9160203813
 21
4.2408192217
 31
0.0
 11
5.9073349709
 21
4.2450549804
 31
0.0
 11
5.8896654996
 21
4.2528808444
 31
0.0
 11
5.8716339916
 21
4.2598300947
 31
0.0
 11
5.8624960348
 21
4.2629701044
 31
0.0
 11
5.8532838262
 21
4.2658843515
 31
0.0
 11
5.8346582259
 21
4.2710297537
 31
0.0
 11
5.8158003317
 21
4.2752547947
 31
0.0
 11
5.8062977558
 21
4.2770185902
 31
0.0
 11
5.796753373
 21
4.2785480458
 31
0.0
 11
5.7871735456
 21
4.2798423547
 31
0.0
 11
5.7775651393
 21
4.2809010369
 31
0.0
 11
5.7582900761
 21
4.2823096151
 31
0.0
 11
5.7389831554
 21
4.2827699696
 31
0.0
  0
SPLINE
  5
257
100
AcDbEntity
  8
0
100
AcDbSpline
 62
6
  6
CONTINUOUS
 70
0
 71
3
 72
8
 73
4
 74
2
 42
0.0000001
 43
0.0000001
 44
0.0000000001
 12
-0.0000475051
 22
-0.0000000399
 32
0.0
 13
-0.0000475051
 23
-0.0000000399
 33
0.0
 40
0.0
 40
0.0
 40
0.0
 40
0.0
 40
1.0
 40
1.0
 40
1.0
 40
1.0
 10
5.7389831554
 20
4.2827699696
 30
0.0
 10
5.7389673203
 20
4.2827699563
 30
0.0
 10
5.7389514853
 20
4.282769943
 30
0.0
 10
5.7389356503
 20
4.2827699297
 30
0.0
 11
5.7389831554
 21
4.2827699696
 31
0.0
 11
5.7389356503
 21
4.2827699297
 31
0.0
  0
SPLINE
  5
258
100
AcDbEntity
  8
0
100
AcDbSpline
 62
6
  6
CONTINUOUS
 70
0
 71
3
 72
87
 73
83
 74
81
 42
0.0000001
 43
0.0000001
 44
0.0000000001
 12
0.0010334485
 22
1.2261683263
 32
0.0
 13
-0.1706896687
 23
-1.2142301551
 33
0.0
 40
0.0
 40
0.0
 40
0.0
 40
0.0
 40
0.0156153732
 40
0.0312424971
 40
0.0468732703
 40
0.0546882886
 40
0.0625022123
 40
0.0781265389
 40
0.0937496537
 40
0.1015620302
 40
0.1093746985
 40
0.124999383
 40
0.1406244684
 40
0.1484376265
 40
0.1562506961
 40
0.1718753859
 40
0.1875000076
 40
0.1953129556
 40
0.2031258976
 40
0.2187505415
 40
0.2343752773
 40
0.2421882886
 40
0.2500012691
 40
0.2656259184
 40
0.2812506338
 40
0.2968752924
 40
0.312499924
 40
0.3281246395
 40
0.3437493235
 40
0.3593739494
 40
0.3749986566
 40
0.3906233587
 40
0.3984363233
 40
0.4062492861
 40
0.4218739835
 40
0.4374987022
 40
0.4453116739
 40
0.453124631
 40
0.4687493141
 40
0.4843740428
 40
0.4921870228
 40
0.4999999784
 40
0.5156246443
 40
0.5312493756
 40
0.5390623626
 40
0.5468753221
 40
0.5624999712
 40
0.5781246985
 40
0.5937493908
 40
0.6093740304
 40
0.6249987503
 40
0.6406234655
 40
0.6484364169
 40
0.656249365
 40
0.6718740702
 40
0.6874988007
 40
0.6953117603
 40
0.7031247021
 40
0.7187493875
 40
0.7343741248
 40
0.7421870932
 40
0.7500000358
 40
0.7656246997
 40
0.7812494352
 40
0.796874125
 40
0.812498774
 40
0.8281235022
 40
0.8437482173
 40
0.8515611536
 40
0.8593740895
 40
0.8749988014
 40
0.8906235349
 40
0.8984364812
 40
0.9062494114
 40
0.9218741046
 40
0.9374988452
 40
0.9453117982
 40
0.9531247234
 40
0.9609376446
 40
0.9687505845
 40
0.9843753077
 40
1.0
 40
1.0
 40
1.0
 40
1.0
 10
5.3771494708
 20
3.8972163419
 30
0.0
 10
5.3771548501
 20
3.9035987006
 30
0.0
 10
5.3775050807
 20
3.9163705378
 30
0.0
 10
5.3790411066
 20
3.9354752891
 30
0.0
 10
5.3811592079
 20
3.9513124557
 30
0.0
 10
5.3833541712
 20
3.9639003504
 30
0.0
 10
5.385880502
 20
3.9764233022
 30
0.0
 10
5.3896559229
 20
3.9919438282
 30
0.0
 10
5.3942426378
 20
4.0072435733
 30
0.0
 10
5.3983910016
 20
4.0193243008
 30
0.0
 10
5.4028561399
 20
4.0312922481
 30
0.0
 10
5.4090248071
 20
4.0460265671
 30
0.0
 10
5.4159572941
 20
4.0604175181
 30
0.0
 10
5.4219499787
 20
4.0716990695
 30
0.0
 10
5.4282368828
 20
4.0828191569
 30
0.0
 10
5.4366385887
 20
4.0964045174
 30
0.0
 10
5.4457387737
 20
4.1095321622
 30
0.0
 10
5.453422332
 20
4.119737062
 30
0.0
 10
5.4613704501
 20
4.1297372983
 30
0.0
 10
5.4717915196
 20
4.1418430725
 30
0.0
 10
5.4828290535
 20
4.1533895522
 30
0.0
 10
5.4920099853
 20
4.1622715392
 30
0.0
 10
5.5014194864
 20
4.1709109229
 30
0.0
 10
5.5135990292
 20
4.1812459074
 30
0.0
 10
5.5288377366
 20
4.1928713743
 30
0.0
 10
5.5446596637
 20
4.2036902068
 30
0.0
 10
5.5610225828
 20
4.2136717749
 30
0.0
 10
5.577880323
 20
4.2227927479
 30
0.0
 10
5.5951873347
 20
4.2310294505
 30
0.0
 10
5.6128980667
 20
4.2383580131
 30
0.0
 10
5.6309633092
 20
4.2447621453
 30
0.0
 10
5.64627385
 20
4.2493159142
 30
0.0
 10
5.6586497156
 20
4.2524805345
 30
0.0
 10
5.6711031807
 20
4.2553245926
 30
0.0
 10
5.6868011827
 20
4.2582767217
 30
0.0
 10
5.7026301796
 20
4.260418014
 30
0.0
 10
5.7153456247
 20
4.2616406723
 30
0.0
 10
5.7280883264
 20
4.2625354322
 30
0.0
 10
5.7440535037
 20
4.2630395236
 30
0.0
 10
5.760023525
 20
4.2627247715
 30
0.0
 10
5.7727760146
 20
4.2619822149
 30
0.0
 10
5.785505211
 20
4.2609124773
 30
0.0
 10
5.801359009
 20
4.2589639674
 30
0.0
 10
5.8170925185
 20
4.2562079604
 30
0.0
 10
5.8295813435
 20
4.2535234372
 30
0.0
 10
5.8419973622
 20
4.250520364
 30
0.0
 10
5.8573674308
 20
4.2461724085
 30
0.0
 10
5.8755205398
 20
4.2400223807
 30
0.0
 10
5.8933372948
 20
4.2329561733
 30
0.0
 10
5.9107704301
 20
4.2249904245
 30
0.0
 10
5.9277760381
 20
4.2161492774
 30
0.0
 10
5.9415561812
 20
4.2080715634
 30
0.0
 10
5.952322145
 20
4.201196263
 30
0.0
 10
5.9629099528
 20
4.1940496151
 30
0.0
 10
5.9757998685
 20
4.1846164304
 30
0.0
 10
5.98819605
 20
4.1745432236
 30
0.0
 10
5.9977966113
 20
4.1661167478
 30
0.0
 10
6.0071804633
 20
4.1574496189
 30
0.0
 10
6.0184947186
 20
4.1461748148
 30
0.0
 10
6.0292258373
 20
4.1343436616
 30
0.0
 10
6.0374437471
 20
4.1245639734
 30
0.0
 10
6.0454119282
 20
4.1145798326
 30
0.0
 10
6.0548958577
 20
4.1017271041
 30
0.0
 10
6.0654857756
 20
4.0857519847
 30
0.0
 10
6.0752593617
 20
4.0692644942
 30
0.0
 10
6.0841902362
 20
4.0523057516
 30
0.0
 10
6.0922590684
 20
4.0349206135
 30
0.0
 10
6.098249122
 20
4.0201133487
 30
0.0
 10
6.1025903079
 20
4.0080996568
 30
0.0
 10
6.1066287707
 20
3.9959808256
 30
0.0
 10
6.1111061226
 20
3.9806484287
 30
0.0
 10
6.1148119187
 20
3.9651115015
 30
0.0
 10
6.1173075496
 20
3.9525836482
 30
0.0
 10
6.1194887904
 20
3.9399972637
 30
0.0
 10
6.121624859
 20
3.9241680247
 30
0.0
 10
6.1229697543
 20
3.9082520109
 30
0.0
 10
6.1235689875
 20
3.8954921223
 30
0.0
 10
6.1237795303
 20
3.8859134333
 30
0.0
 10
6.1237511709
 20
3.876332488
 30
0.0
 10
6.1233955925
 20
3.8635634835
 30
0.0
 10
6.1223563354
 20
3.8476248235
 30
0.0
 10
6.1208928123
 20
3.8349304894
 30
0.0
 10
6.1200038211
 20
3.8286064986
 30
0.0
 11
5.3771494708
 21
3.8972163419
 31
0.0
 11
5.3776732169
 21
3.9163562602
 31
0.0
 11
5.3792084838
 21
3.9354561476
 31
0.0
 11
5.3817497065
 21
3.9544528956
 31
0.0
 11
5.3833957375
 21
3.9638929956
 31
0.0
 11
5.3852903651
 21
3.9732849906
 31
0.0
 11
5.3898183392
 21
3.9919002736
 31
0.0
 11
5.3953194734
 21
4.0102499848
 31
0.0
 11
5.3984305326
 21
4.019310015
 31
0.0
 11
5.4017790638
 21
4.0282853718
 31
0.0
 11
5.4091774856
 21
4.0459577083
 31
0.0
 11
5.4174925062
 21
4.0632182816
 31
0.0
 11
5.4219867849
 21
4.0716789352
 31
0.0
 11
5.4267016069
 21
4.0800185736
 31
0.0
 11
5.4367783028
 21
4.0963130075
 31
0.0
 11
5.4476930357
 21
4.1120582854
 31
0.0
 11
5.4534554041
 21
4.119711479
 31
0.0
 11
5.4594160704
 21
4.127211251
 31
0.0
 11
5.4719147814
 21
4.1417311834
 31
0.0
 11
5.4851532309
 21
4.1555801542
 31
0.0
 11
5.49203857
 21
4.1622412241
 31
0.0
 11
5.4990952767
 21
4.1687204152
 31
0.0
 11
5.5137029253
 21
4.1811165062
 31
0.0
 11
5.5289349597
 21
4.1927369494
 31
0.0
 11
5.5447498382
 21
4.2035506689
 31
0.0
 11
5.5611050218
 21
4.2135283244
 31
0.0
 11
5.5779552135
 21
4.2226453753
 31
0.0
 11
5.5952546436
 21
4.2308781039
 31
0.0
 11
5.6129571195
 21
4.2382039291
 31
0.0
 11
5.6310144926
 21
4.2446055283
 31
0.0
 11
5.6493780487
 21
4.2500670991
 31
0.0
 11
5.6586594169
 21
4.2524404629
 31
0.0
 11
5.6679989514
 21
4.2545734666
 31
0.0
 11
5.6868273719
 21
4.2581145554
 31
0.0
 11
5.705812998
 21
4.260682771
 31
0.0
 11
5.7153490397
 21
4.261599684
 31
0.0
 11
5.7249055069
 21
4.2622708085
 31
0.0
 11
5.744054452
 21
4.2628757573
 31
0.0
 11
5.7632092867
 21
4.2624982546
 31
0.0
 11
5.772773116
 21
4.2619413147
 31
0.0
 11
5.7823194723
 21
4.2611391169
 31
0.0
 11
5.8013349227
 21
4.2588024749
 31
0.0
 11
5.8202061632
 21
4.2554969334
 31
0.0
 11
5.8295722574
 21
4.2534836135
 31
0.0
 11
5.8388837646
 21
4.251231422
 31
0.0
 11
5.8573189528
 21
4.2460169909
 31
0.0
 11
5.8754644947
 21
4.2398696787
 31
0.0
 11
5.8932733786
 21
4.2328062413
 31
0.0
 11
5.9106991447
 21
4.22484454
 31
0.0
 11
5.9276977539
 21
4.2160072852
 31
0.0
 11
5.9442258304
 21
4.2063185158
 31
0.0
 11
5.9522998762
 21
4.2011623422
 31
0.0
 11
5.9602403313
 21
4.1958027306
 31
0.0
 11
5.9757011143
 21
4.1844884348
 31
0.0
 11
5.9905695312
 21
4.1724061973
 31
0.0
 11
5.9977695287
 21
4.1660866586
 31
0.0
 11
6.0048070818
 21
4.1595867384
 31
0.0
 11
6.0183780769
 21
4.1460635636
 31
0.0
 11
6.0312494781
 21
4.1318728048
 31
0.0
 11
6.0374125389
 21
4.1245384047
 31
0.0
 11
6.0433883763
 21
4.1170507148
 31
0.0
 11
6.0547640705
 21
4.1016351143
 31
0.0
 11
6.0653497306
 21
4.0856665727
 31
0.0
 11
6.0751189184
 21
4.0691859373
 31
0.0
 11
6.0840465474
 21
4.0522347162
 31
0.0
 11
6.0921122562
 21
4.0348567267
 31
0.0
 11
6.0992967145
 21
4.0170962898
 31
0.0
 11
6.1025524662
 21
4.0080865136
 31
0.0
 11
6.1055812222
 21
3.9989979155
 31
0.0
 11
6.1109518112
 21
3.9806075326
 31
0.0
 11
6.1153966646
 21
3.9619717148
 31
0.0
 11
6.1172682509
 21
3.952576323
 31
0.0
 11
6.1189041758
 21
3.9431370649
 31
0.0
 11
6.1214666244
 21
3.9241506911
 31
0.0
 11
6.1230798168
 21
3.9050601602
 31
0.0
 11
6.1235291715
 21
3.8954907057
 31
0.0
 11
6.1237397133
 21
3.8859130547
 31
0.0
 11
6.1237114487
 21
3.8763331366
 31
0.0
 11
6.12344482
 21
3.8667568648
 31
0.0
 11
6.1221983018
 21
3.8476389116
 31
0.0
 11
6.1200038211
 21
3.8286064986
 31
0.0
  0
SPLINE
  5
259
100
AcDbEntity
  8
0
100
AcDbSpline
 62
6
  6
CONTINUOUS
 70
0
 71
3
 72
29
 73
25
 74
23
 42
0.0000001
 43
0.0000001
 44
0.0000000001
 12
-0.0439365571
 22
-0.3125502146
 32
0.0
 13
-0.2570014331
 23
-0.1832165961
 33
0.0
 40
0.0
 40
0.0
 40
0.0
 40
0.0
 40
0.0624980044
 40
0.1249962977
 40
0.1562479522
 40
0.1874994711
 40
0.2187508215
 40
0.250002134
 40
0.3125000519
 40
0.3749985657
 40
0.4062505826
 40
0.4375027994
 40
0.5000022962
 40
0.5625001351
 40
0.5937501369
 40
0.6249989399
 40
0.6874911293
 40
0.7499891123
 40
0.7812450453
 40
0.8125051422
 40
0.8437684469
 40
0.8750316159
 40
0.937538088
 40
1.0
 40
1.0
 40
1.0
 40
1.0
 10
6.1200038211
 20
3.8286064986
 30
0.0
 10
6.1190885054
 20
3.8220952437
 30
0.0
 10
6.116923872
 20
3.8091173352
 30
0.0
 10
6.1133940732
 20
3.7930547038
 30
0.0
 10
6.1100822829
 20
3.7803261494
 30
0.0
 10
6.1073557261
 20
3.7708456298
 30
0.0
 10
6.104388011
 20
3.7614378428
 30
0.0
 10
6.1001126811
 20
3.748999896
 30
0.0
 10
6.0941768993
 20
3.7336624101
 30
0.0
 10
6.0874695297
 20
3.7186462749
 30
0.0
 10
6.0816511672
 20
3.7068507236
 30
0.0
 10
6.075534388
 20
3.6952070116
 30
0.0
 10
6.0673371129
 20
3.6809493591
 30
0.0
 10
6.0584284855
 20
3.6671253226
 30
0.0
 10
6.0508893694
 20
3.6563488248
 30
0.0
 10
6.0430796541
 20
3.6457675225
 30
0.0
 10
6.0328183833
 20
3.6329166699
 30
0.0
 10
6.0219202318
 20
3.620600277
 30
0.0
 10
6.0128365337
 20
3.6110869129
 30
0.0
 10
6.0058437932
 20
3.6041250711
 30
0.0
 10
5.9986766383
 20
3.5973418312
 30
0.0
 10
5.9888968451
 20
3.5885426199
 30
0.0
 10
5.9762660844
 20
3.5780132147
 30
0.0
 10
5.9657514455
 20
3.5701093023
 30
0.0
 10
5.9604005118
 20
3.566294616
 30
0.0
 11
6.1200038211
 21
3.8286064986
 31
0.0
 11
6.116759088
 21
3.8091493689
 31
0.0
 11
6.1125255638
 21
3.7898831015
 31
0.0
 11
6.1100418418
 21
3.7803371764
 31
0.0
 11
6.1073155262
 21
3.7708577292
 31
0.0
 11
6.1043481914
 21
3.761450998
 31
0.0
 11
6.1011419402
 21
3.7521230087
 31
0.0
 11
6.0940226141
 21
3.7337267507
 31
0.0
 11
6.085977439
 21
3.7157159293
 31
0.0
 11
6.0816138789
 21
3.7068697346
 31
0.0
 11
6.0770266293
 21
3.6981373693
 31
0.0
 11
6.067194729
 21
3.6810358925
 31
0.0
 11
6.0565094276
 21
3.6644548654
 31
0.0
 11
6.0508554265
 21
3.6563730622
 31
0.0
 11
6.0449985332
 21
3.648437534
 31
0.0
 11
6.0326914999
 21
3.63302414
 31
0.0
 11
6.0196198007
 21
3.618251239
 31
0.0
 11
6.0128070754
 21
3.6111163266
 31
0.0
 11
6.0058150567
 21
3.6041551622
 31
0.0
 11
5.9986485239
 21
3.597372322
 31
0.0
 11
5.9913132259
 21
3.5907724226
 31
0.0
 11
5.9761595602
 21
3.5781399229
 31
0.0
 11
5.9604005118
 21
3.566294616
 31
0.0
  0
SPLINE
  5
25A
100
AcDbEntity
  8
0
100
AcDbSpline
 62
6
  6
CONTINUOUS
 70
0
 71
3
 72
51
 73
47
 74
45
 42
0.0000001
 43
0.0000001
 44
0.0000000001
 12
0.010314502
 22
-0.034605725
 32
0.0
 13
-0.0333274403
 23
0.0139006073
 33
0.0
 40
0.0
 40
0.0
 40
0.0
 40
0.0
 40
0.0000040505
 40
0.0000162018
 40
0.0000364523
 40
0.0000648008
 40
0.0001012457
 40
0.0001457857
 40
0.0002591451
 40
0.0004048677
 40
0.0005829422
 40
0.0007933573
 40
0.0010361014
 40
0.0016185319
 40
0.0023301429
 40
0.0031708438
 40
0.0041405437
 40
0.0052391519
 40
0.0064665779
 40
0.0078227307
 40
0.0093075198
 40
0.012662644
 40
0.0165312249
 40
0.0209125371
 40
0.0258058556
 40
0.0312104552
 40
0.037125611
 40
0.043550598
 40
0.0504846915
 40
0.0658772816
 40
0.0832943982
 40
0.1027202969
 40
0.1241383748
 40
0.1475320429
 40
0.172884727
 40
0.2001798682
 40
0.2294009241
 40
0.2605313331
 40
0.328442082
 40
0.4037383528
 40
0.4862424876
 40
0.5757774781
 40
0.6721519034
 40
0.7751364226
 40
0.8844967664
 40
1.0
 40
1.0
 40
1.0
 40
1.0
 10
5.9534356503
 20
4.4995791474
 30
0.0
 10
5.9534356642
 20
4.4995791007
 30
0.0
 10
5.9534353473
 20
4.4995793499
 30
0.0
 10
5.9534350877
 20
4.4995793798
 30
0.0
 10
5.9534343503
 20
4.4995797862
 30
0.0
 10
5.9534334612
 20
4.4995801877
 30
0.0
 10
5.9534322607
 20
4.499580771
 30
0.0
 10
5.9534301566
 20
4.4995817727
 30
0.0
 10
5.9534268553
 20
4.499583354
 30
0.0
 10
5.9534221097
 20
4.4995856213
 30
0.0
 10
5.9534163075
 20
4.4995883949
 30
0.0
 10
5.9534094523
 20
4.4995916706
 30
0.0
 10
5.9533982049
 20
4.4995970445
 30
0.0
 10
5.9533815134
 20
4.4996050172
 30
0.0
 10
5.9533583258
 20
4.499616089
 30
0.0
 10
5.9533309299
 20
4.4996291656
 30
0.0
 10
5.9532993281
 20
4.4996442445
 30
0.0
 10
5.9532635228
 20
4.499661323
 30
0.0
 10
5.9532235164
 20
4.4996803987
 30
0.0
 10
5.9531793113
 20
4.499701469
 30
0.0
 10
5.9531119832
 20
4.4997335495
 30
0.0
 10
5.9530173448
 20
4.4997786179
 30
0.0
 10
5.9528912123
 20
4.4998386419
 30
0.0
 10
5.9527483427
 20
4.4999065826
 30
0.0
 10
5.9525887554
 20
4.4999824194
 30
0.0
 10
5.9524124696
 20
4.5000661316
 30
0.0
 10
5.9522195045
 20
4.5001576989
 30
0.0
 10
5.9520098794
 20
4.5002571007
 30
0.0
 10
5.951697137
 20
4.5004052925
 30
0.0
 10
5.9512647431
 20
4.5006099582
 30
0.0
 10
5.950696282
 20
4.5008786088
 30
0.0
 10
5.9500619958
 20
4.5011777155
 30
0.0
 10
5.9493623187
 20
4.5015068163
 30
0.0
 10
5.9485976908
 20
4.501865438
 30
0.0
 10
5.9477685533
 20
4.5022531085
 30
0.0
 10
5.946875347
 20
4.502669356
 30
0.0
 10
5.9459185117
 20
4.503113705
 30
0.0
 10
5.9445173858
 20
4.5037620432
 30
0.0
 10
5.9426109416
 20
4.5046389627
 30
0.0
 10
5.9401387414
 20
4.505765635
 30
0.0
 10
5.9374248713
 20
4.5069896181
 30
0.0
 10
5.9344740926
 20
4.508305359
 30
0.0
 10
5.9312916991
 20
4.5097069086
 30
0.0
 10
5.9278833002
 20
4.5111872403
 30
0.0
 10
5.9242550456
 20
4.5127391961
 30
0.0
 10
5.9217602108
 20
4.5137888195
 30
0.0
 10
5.9204770684
 20
4.5143240079
 30
0.0
 11
5.9534356503
 21
4.4995791474
 31
0.0
 11
5.9534355183
 21
4.4995792105
 31
0.0
 11
5.9534351225
 21
4.4995793999
 31
0.0
 11
5.9534344628
 21
4.4995797154
 31
0.0
 11
5.9534335393
 21
4.4995801571
 31
0.0
 11
5.9534323521
 21
4.4995807248
 31
0.0
 11
5.9534309011
 21
4.4995814187
 31
0.0
 11
5.9534272081
 21
4.4995831844
 31
0.0
 11
5.9534224606
 21
4.4995854538
 31
0.0
 11
5.9534166589
 21
4.4995882268
 31
0.0
 11
5.9534098033
 21
4.4995915028
 31
0.0
 11
5.9534018941
 21
4.4995952817
 31
0.0
 11
5.9533829163
 21
4.4996043467
 31
0.0
 11
5.9533597278
 21
4.499615419
 31
0.0
 11
5.9533323309
 21
4.4996284962
 31
0.0
 11
5.9533007282
 21
4.4996435756
 31
0.0
 11
5.9532649219
 21
4.4996606547
 31
0.0
 11
5.9532249146
 21
4.499679731
 31
0.0
 11
5.9531807086
 21
4.4997008018
 31
0.0
 11
5.9531323063
 21
4.4997238646
 31
0.0
 11
5.9530229225
 21
4.499775956
 31
0.0
 11
5.9528967824
 21
4.4998359845
 31
0.0
 11
5.9527539054
 21
4.4999039297
 31
0.0
 11
5.9525943106
 21
4.499979771
 31
0.0
 11
5.9524180172
 21
4.5000634877
 31
0.0
 11
5.9522250446
 21
4.5001550595
 31
0.0
 11
5.9520154119
 21
4.5002544657
 31
0.0
 11
5.9517891385
 21
4.5003616859
 31
0.0
 11
5.9512867466
 21
4.5005994852
 31
0.0
 11
5.9507181072
 21
4.5008682022
 31
0.0
 11
5.9500836379
 21
4.5011673888
 31
0.0
 11
5.949383779
 21
4.501496572
 31
0.0
 11
5.9486189711
 21
4.501855279
 31
0.0
 11
5.9477896546
 21
4.5022430367
 31
0.0
 11
5.94689627
 21
4.5026593723
 31
0.0
 11
5.9459392577
 21
4.5031038128
 31
0.0
 11
5.9449190591
 21
4.503575884
 31
0.0
 11
5.9426911392
 21
4.5046005782
 31
0.0
 11
5.9402169884
 21
4.5057281117
 31
0.0
 11
5.937501187
 21
4.5069529745
 31
0.0
 11
5.9345483162
 21
4.5082696558
 31
0.0
 11
5.9313633655
 21
4.5096722144
 31
0.0
 11
5.9279523721
 21
4.5111536056
 31
0.0
 11
5.9243215387
 21
4.5127066099
 31
0.0
 11
5.9204770684
 21
4.5143240079
 31
0.0
  0
SPLINE
  5
25B
100
AcDbEntity
  8
0
100
AcDbSpline
 62
6
  6
CONTINUOUS
 70
0
 71
3
 72
49
 73
45
 74
43
 42
0.0000001
 43
0.0000001
 44
0.0000000001
 12
-0.0005553181
 22
0.6380312522
 32
0.0
 13
-0.6380312811
 23
-0.0005210271
 33
0.0
 40
0.0
 40
0.0
 40
0.0
 40
0.0
 40
0.0312306527
 40
0.0624834738
 40
0.0781150044
 40
0.0937468563
 40
0.1093773646
 40
0.1250057718
 40
0.1562555869
 40
0.1875021257
 40
0.2031264174
 40
0.2187511738
 40
0.2499998797
 40
0.2812497592
 40
0.3124997044
 40
0.3437492173
 40
0.3749984866
 40
0.4062475546
 40
0.4218732507
 40
0.4374990036
 40
0.4687483266
 40
0.4999976655
 40
0.5156234577
 40
0.5312492391
 40
0.5468750469
 40
0.5625008833
 40
0.5937502017
 40
0.6249993897
 40
0.6406251659
 40
0.6562509812
 40
0.687500319
 40
0.7187495592
 40
0.7343753241
 40
0.750001117
 40
0.7812504429
 40
0.8124997259
 40
0.8281254932
 40
0.8437512646
 40
0.8750005578
 40
0.9062498746
 40
0.9218756597
 40
0.9375014216
 40
0.9687506683
 40
1.0
 40
1.0
 40
1.0
 40
1.0
 10
6.1454356503
 20
3.8895791474
 30
0.0
 10
6.1454298693
 20
3.8962211916
 30
0.0
 10
6.1450911648
 20
3.9095118423
 30
0.0
 10
6.1438547141
 20
3.9260859573
 30
0.0
 10
6.1423794941
 20
3.939300774
 30
0.0
 10
6.141030338
 20
3.9491833952
 30
0.0
 10
6.1394389457
 20
3.9590292501
 30
0.0
 10
6.1369954388
 20
3.9720980778
 30
0.0
 10
6.1333411096
 20
3.9883138745
 30
0.0
 10
6.1288965532
 20
4.0043301679
 30
0.0
 10
6.1248733114
 20
4.0169992516
 30
0.0
 10
6.1205398794
 20
4.0295660761
 30
0.0
 10
6.114546405
 20
4.0450702314
 30
0.0
 10
6.106452018
 20
4.0632999412
 30
0.0
 10
6.0974735852
 20
4.0811113645
 30
0.0
 10
6.0876304364
 20
4.0984597427
 30
0.0
 10
6.0769490209
 20
4.1153044195
 30
0.0
 10
6.0673700634
 20
4.1288893213
 30
0.0
 10
6.0593142655
 20
4.1394639845
 30
0.0
 10
6.0510010077
 20
4.1498375672
 30
0.0
 10
6.0401360081
 20
4.1624174749
 30
0.0
 10
6.0286675428
 20
4.1744498591
 30
0.0
 10
6.0191477028
 20
4.1837285147
 30
0.0
 10
6.0118384305
 20
4.1905101891
 30
0.0
 10
6.0043648066
 20
4.1971103126
 30
0.0
 10
5.994187693
 20
4.20566293
 30
0.0
 10
5.9810776945
 20
4.2158820741
 30
0.0
 10
5.9674821543
 20
4.2254457492
 30
0.0
 10
5.9563344341
 20
4.232687971
 30
0.0
 10
5.9450123103
 20
4.2396544363
 30
0.0
 10
5.9305443868
 20
4.2478386688
 30
0.0
 10
5.9156925756
 20
4.2553036972
 30
0.0
 10
5.9036028178
 20
4.2608317472
 30
0.0
 10
5.8913808374
 20
4.2660610058
 30
0.0
 10
5.8758682603
 20
4.2720328281
 30
0.0
 10
5.8600815478
 20
4.2772369168
 30
0.0
 10
5.8473114355
 20
4.2809309568
 30
0.0
 10
5.834454302
 20
4.2843096949
 30
0.0
 10
5.818233092
 20
4.287939456
 30
0.0
 10
5.8018534108
 20
4.2907694585
 30
0.0
 10
5.7886793849
 20
4.2925489977
 30
0.0
 10
5.7754655677
 20
4.2940040653
 30
0.0
 10
5.7588873923
 20
4.295212868
 30
0.0
 10
5.7455929567
 20
4.2955282551
 30
0.0
 10
5.7389469396
 20
4.2955228279
 30
0.0
 11
6.1454356503
 21
3.8895791474
 31
0.0
 11
6.1449288201
 21
3.9094988407
 31
0.0
 11
6.143445604
 21
3.9293838854
 31
0.0
 11
6.1423390711
 21
3.9392957201
 31
0.0
 11
6.1409899058
 21
3.9491776594
 31
0.0
 11
6.1393986046
 21
3.9590226396
 31
0.0
 11
6.1375660495
 21
3.9688242149
 31
0.0
 11
6.1331828563
 21
3.9882748206
 31
0.0
 11
6.1278518755
 21
4.0074851236
 31
0.0
 11
6.1248345859
 21
4.0169863204
 31
0.0
 11
6.1215847623
 21
4.0264108276
 31
0.0
 11
6.1143961388
 21
4.045007438
 31
0.0
 11
6.106304694
 21
4.0632301877
 31
0.0
 11
6.097329412
 21
4.0810342903
 31
0.0
 11
6.0874906828
 21
4.0983758636
 31
0.0
 11
6.0768134622
 21
4.115213961
 31
0.0
 11
6.0653236315
 21
4.1315082308
 31
0.0
 11
6.0592820935
 21
4.1394388337
 31
0.0
 11
6.0530475275
 21
4.1472186507
 31
0.0
 11
6.0400153201
 21
4.162307968
 31
0.0
 11
6.0262590973
 21
4.176740316
 31
0.0
 11
6.0191195122
 21
4.1836989214
 31
0.0
 11
6.0118110439
 21
4.1904799258
 31
0.0
 11
6.0043382298
 21
4.197079404
 31
0.0
 11
5.9967057549
 21
4.2034935879
 31
0.0
 11
5.9809805633
 21
4.2157510003
 31
0.0
 11
5.9646729526
 21
4.2272220214
 31
0.0
 11
5.9563126432
 21
4.2326534936
 31
0.0
 11
5.9478214899
 21
4.2378780966
 31
0.0
 11
5.9304675902
 21
4.2476948409
 31
0.0
 11
5.9126531301
 21
4.2566485458
 31
0.0
 11
5.9035862969
 21
4.2607943936
 31
0.0
 11
5.8944203051
 21
4.2647161878
 31
0.0
 11
5.8758134244
 21
4.271879287
 31
0.0
 11
5.8568776577
 21
4.2781212137
 31
0.0
 11
5.8473005585
 21
4.2808915424
 31
0.0
 11
5.8376582285
 21
4.2834255259
 31
0.0
 11
5.8182014037
 21
4.2877795055
 31
0.0
 11
5.7985544256
 21
4.2911739159
 31
0.0
 11
5.7886744041
 21
4.2925084381
 31
0.0
 11
5.7787645757
 21
4.2935996678
 31
0.0
 11
5.7588793891
 21
4.2950499568
 31
0.0
 11
5.7389469396
 21
4.2955228279
 31
0.0
  0
SPLINE
  5
25C
100
AcDbEntity
  8
0
100
AcDbSpline
 62
6
  6
CONTINUOUS
 70
0
 71
3
 72
52
 73
48
 74
46
 42
0.0000001
 43
0.0000001
 44
0.0000000001
 12
-0.6808520815
 22
-0.0005559952
 32
0.0
 13
0.0738071799
 23
-0.6768399857
 33
0.0
 40
0.0
 40
0.0
 40
0.0
 40
0.0
 40
0.0312488746
 40
0.0624977489
 40
0.0937467398
 40
0.1093725483
 40
0.124998317
 40
0.1562471766
 40
0.1874961623
 40
0.2031219772
 40
0.218747752
 40
0.2343735064
 40
0.2499992886
 40
0.2812482674
 40
0.312497187
 40
0.328122941
 40
0.3437487147
 40
0.3749976835
 40
0.4062466158
 40
0.4218723717
 40
0.437498138
 40
0.4687470959
 40
0.4999960414
 40
0.5156218017
 40
0.5312475622
 40
0.5624965074
 40
0.5937454638
 40
0.6093712296
 40
0.6249969851
 40
0.6562459143
 40
0.6874948776
 40
0.703120649
 40
0.7187464005
 40
0.7343721803
 40
0.7499979987
 40
0.7812469663
 40
0.7968727445
 40
0.8124984955
 40
0.8281242675
 40
0.8437500799
 40
0.8749990538
 40
0.8906248408
 40
0.9062505945
 40
0.9218763599
 40
0.9375021654
 40
0.9687511415
 40
1.0
 40
1.0
 40
1.0
 40
1.0
 10
5.7389469396
 20
4.2955228279
 30
0.0
 10
5.7318549859
 20
4.2955170365
 30
0.0
 10
5.7176684932
 20
4.2951339458
 30
0.0
 10
5.6964508118
 20
4.2934430824
 30
0.0
 10
5.6788657451
 20
4.2911100793
 30
0.0
 10
5.6648871464
 20
4.288693595
 30
0.0
 10
5.6509766411
 20
4.285911634
 30
0.0
 10
5.6337327623
 20
4.2817504554
 30
0.0
 10
5.6167304973
 20
4.2766917615
 30
0.0
 10
5.6033029884
 20
4.2721155126
 30
0.0
 10
5.5933251189
 20
4.2684203733
 30
0.0
 10
5.5834477194
 20
4.2644645149
 30
0.0
 10
5.5704216717
 20
4.2588465174
 30
0.0
 10
5.5544217797
 20
4.2511868131
 30
0.0
 10
5.538844854
 20
4.2426999983
 30
0.0
 10
5.5266645836
 20
4.235427974
 30
0.0
 10
5.5146794963
 20
4.2278385609
 30
0.0
 10
5.5000773669
 20
4.2177665964
 30
0.0
 10
5.4860226087
 20
4.206943904
 30
0.0
 10
5.4751321142
 20
4.1978533339
 30
0.0
 10
5.4644842221
 20
4.1884797618
 30
0.0
 10
5.4516407825
 20
4.1762440412
 30
0.0
 10
5.4394556855
 20
4.1633525598
 30
0.0
 10
5.4301242136
 20
4.1526677559
 30
0.0
 10
5.4210767588
 20
4.141741413
 30
0.0
 10
5.4103096505
 20
4.1276440254
 30
0.0
 10
5.4002956305
 20
4.1130020899
 30
0.0
 10
5.3927540335
 20
4.1009868595
 30
0.0
 10
5.3855307987
 20
4.0887775905
 30
0.0
 10
5.377106467
 20
4.0731667794
 30
0.0
 10
5.3695113787
 20
4.0571361055
 30
0.0
 10
5.3639463877
 20
4.0440873258
 30
0.0
 10
5.3600309795
 20
4.0341938305
 30
0.0
 10
5.3563768013
 20
4.0242008542
 30
0.0
 10
5.3518559335
 20
4.0107547488
 30
0.0
 10
5.3478651646
 20
3.9971350378
 30
0.0
 10
5.3444147026
 20
3.9833753114
 30
0.0
 10
5.3420986364
 20
3.9729903165
 30
0.0
 10
5.3400563281
 20
3.962548029
 30
0.0
 10
5.3376995437
 20
3.9485594049
 30
0.0
 10
5.3358936401
 20
3.9344824169
 30
0.0
 10
5.3346433003
 20
3.920351868
 30
0.0
 10
5.3339840988
 20
3.9097321715
 30
0.0
 10
5.33360437
 20
3.8990988539
 30
0.0
 10
5.3334702766
 20
3.8849135489
 30
0.0
 10
5.3340000886
 20
3.8671828016
 30
0.0
 10
5.3351670405
 20
3.8530394071
 30
0.0
 10
5.3359358372
 20
3.8459892481
 30
0.0
 11
5.7389469396
 21
4.2955228279
 31
0.0
 11
5.7176788404
 21
4.2949479083
 31
0.0
 11
5.6964701676
 21
4.2932583033
 31
0.0
 11
5.6753790196
 21
4.2904601933
 31
0.0
 11
5.6648956459
 21
4.2886479061
 31
0.0
 11
5.6544634076
 21
4.2865614412
 31
0.0
 11
5.6337811139
 21
4.2815709634
 31
0.0
 11
5.6133886006
 21
4.2755037404
 31
0.0
 11
5.6033185087
 21
4.2720717074
 31
0.0
 11
5.5933418584
 21
4.2683769181
 31
0.0
 11
5.5834656356
 21
4.2644215485
 31
0.0
 11
5.5736966005
 21
4.2602083457
 31
0.0
 11
5.5545063585
 21
4.251021387
 31
0.0
 11
5.5358236325
 21
4.2408420142
 31
0.0
 11
5.5266889875
 21
4.2353883018
 31
0.0
 11
5.5177006584
 21
4.2296966462
 31
0.0
 11
5.500186832
 21
4.217616448
 31
0.0
 11
5.4833297911
 21
4.2046355228
 31
0.0
 11
5.4751624431
 21
4.1978179592
 31
0.0
 11
5.4671769435
 21
4.1907882584
 31
0.0
 11
5.4517724467
 21
4.176112889
 31
0.0
 11
5.4371578463
 21
4.1606507389
 31
0.0
 11
5.4301597172
 21
4.1526375623
 31
0.0
 11
5.423374476
 21
4.1444433378
 31
0.0
 11
5.4104602673
 21
4.1275351199
 31
0.0
 11
5.3984496192
 21
4.1099735346
 31
0.0
 11
5.3927938288
 21
4.100962601
 31
0.0
 11
5.3873766875
 21
4.0918062196
 31
0.0
 11
5.3772723167
 21
4.0730828158
 31
0.0
 11
5.3681629094
 21
4.0538556515
 31
0.0
 11
5.3639894706
 21
4.0440695707
 31
0.0
 11
5.3600745207
 21
4.034177258
 31
0.0
 11
5.3564207023
 21
4.0241855263
 31
0.0
 11
5.3530301857
 21
4.0141013779
 31
0.0
 11
5.3470476855
 21
3.9936838618
 31
0.0
 11
5.3444600156
 21
3.9833645095
 31
0.0
 11
5.3421442639
 21
3.9729807737
 31
0.0
 11
5.3401021044
 21
3.9625397697
 31
0.0
 11
5.3383345765
 21
3.9520487541
 31
0.0
 11
5.3356273953
 21
3.9309457537
 31
0.0
 11
5.3346897317
 21
3.920348302
 31
0.0
 11
5.3340306777
 21
3.9097299047
 31
0.0
 11
5.333650896
 21
3.899097847
 31
0.0
 11
5.3335502965
 21
3.8884594569
 31
0.0
 11
5.3341858675
 21
3.8671930146
 31
0.0
 11
5.3359358372
 21
3.8459892481
 31
0.0
  0
SPLINE
  5
25D
100
AcDbEntity
  8
0
100
AcDbSpline
 62
6
  6
CONTINUOUS
 70
0
 71
3
 72
89
 73
85
 74
83
 42
0.0000001
 43
0.0000001
 44
0.0000000001
 12
-1.2664800695
 22
-0.001112947
 32
0.0
 13
1.2664800722
 23
0.0011098829
 33
0.0
 40
0.0
 40
0.0
 40
0.0
 40
0.0
 40
0.0156148459
 40
0.0312411163
 40
0.0390569682
 40
0.0468730961
 40
0.0546886694
 40
0.0625032256
 40
0.0781288204
 40
0.09375268
 40
0.1015650485
 40
0.1093775926
 40
0.1250022812
 40
0.1406275821
 40
0.1562528746
 40
0.1640659572
 40
0.1718789362
 40
0.1875035028
 40
0.2031278416
 40
0.2109405413
 40
0.2187532398
 40
0.2343775329
 40
0.2500018963
 40
0.2656262677
 40
0.28125075
 40
0.2968753729
 40
0.3125000242
 40
0.3203129433
 40
0.3281258857
 40
0.343750648
 40
0.3593753436
 40
0.3671882077
 40
0.3750010268
 40
0.3906254516
 40
0.4062498736
 40
0.421874298
 40
0.4374988647
 40
0.4531235981
 40
0.4687483519
 40
0.4765613023
 40
0.4843742603
 40
0.499999031
 40
0.5156237303
 40
0.5234365976
 40
0.5312494195
 40
0.5468738356
 40
0.5624982044
 40
0.578122479
 40
0.5937467642
 40
0.6093711861
 40
0.624995715
 40
0.6328086159
 40
0.640621578
 40
0.6562465225
 40
0.6718716102
 40
0.6796847468
 40
0.6874978836
 40
0.7031230409
 40
0.7187482408
 40
0.7343733389
 40
0.742186426
 40
0.7499994997
 40
0.7656244195
 40
0.7812491367
 40
0.789061963
 40
0.7968747172
 40
0.804687437
 40
0.8125001504
 40
0.8281244474
 40
0.8437489128
 40
0.8515618646
 40
0.8593748791
 40
0.8749996763
 40
0.8906239123
 40
0.8984362548
 40
0.9062484311
 40
0.9218719443
 40
0.9374972456
 40
0.9453116728
 40
0.9531271322
 40
0.9609431671
 40
0.9687589477
 40
0.9843851461
 40
1.0
 40
1.0
 40
1.0
 40
1.0
 10
5.7389356503
 20
3.4869694046
 30
0.0
 10
5.7323436866
 20
3.4869636117
 30
0.0
 10
5.7191525255
 20
3.487277398
 30
0.0
 10
5.7027011313
 20
3.488478267
 30
0.0
 10
5.6895832574
 20
3.4899223376
 30
0.0
 10
5.67977261
 20
3.4912468064
 30
0.0
 10
5.6699980451
 20
3.4928121467
 30
0.0
 10
5.6570234097
 20
3.4952192763
 30
0.0
 10
5.6409238909
 20
3.4988249742
 30
0.0
 10
5.6250217581
 20
3.5032165279
 30
0.0
 10
5.6124426515
 20
3.5071946572
 30
0.0
 10
5.5999649136
 20
3.511481135
 30
0.0
 10
5.5845703535
 20
3.5174131219
 30
0.0
 10
5.5664692128
 20
3.5254285782
 30
0.0
 10
5.5517295377
 20
3.5328406666
 30
0.0
 10
5.5401686421
 20
3.539199368
 30
0.0
 10
5.5287679069
 20
3.545840401
 30
0.0
 10
5.5148281763
 20
3.5546635705
 30
0.0
 10
5.5013381407
 20
3.5641598649
 30
0.0
 10
5.4908367521
 20
3.572146792
 30
0.0
 10
5.4805351372
 20
3.5803897104
 30
0.0
 10
5.4680424305
 20
3.5911644449
 30
0.0
 10
5.4537040889
 20
3.6048129213
 30
0.0
 10
5.4400526889
 20
3.6191489531
 30
0.0
 10
5.4271230279
 20
3.6341392947
 30
0.0
 10
5.4149441746
 20
3.6497455853
 30
0.0
 10
5.4054445437
 20
3.6632337896
 30
0.0
 10
5.3982503397
 20
3.6742936973
 30
0.0
 10
5.3913302278
 20
3.6855272195
 30
0.0
 10
5.3832002657
 20
3.6998825351
 30
0.0
 10
5.3757838956
 20
3.7146191504
 30
0.0
 10
5.3702906995
 20
3.7266150697
 30
0.0
 10
5.3650943232
 20
3.7387423643
 30
0.0
 10
5.3591599067
 20
3.7541355315
 30
0.0
 10
5.3529530773
 20
3.772933083
 30
0.0
 10
5.347675671
 20
3.7920127697
 30
0.0
 10
5.3433429219
 20
3.8113290254
 30
0.0
 10
5.3399624338
 20
3.8308343533
 30
0.0
 10
5.3379453547
 20
3.8472083907
 30
0.0
 10
5.3368159253
 20
3.8603538904
 30
0.0
 10
5.3360100488
 20
3.8735232164
 30
0.0
 10
5.3356090708
 20
3.8900159673
 30
0.0
 10
5.336016832
 20
3.9065085129
 30
0.0
 10
5.3368280806
 20
3.9196773859
 30
0.0
 10
5.3379628176
 20
3.932822192
 30
0.0
 10
5.3399863111
 20
3.9491950801
 30
0.0
 10
5.3433741642
 20
3.9686987005
 30
0.0
 10
5.3477140001
 20
3.9880130159
 30
0.0
 10
5.3529980001
 20
4.0070906782
 30
0.0
 10
5.359210732
 20
4.0258862531
 30
0.0
 10
5.3651495817
 20
4.041277787
 30
0.0
 10
5.3703492635
 20
4.0534037936
 30
0.0
 10
5.37584552
 20
4.0653985077
 30
0.0
 10
5.3832652025
 20
4.0801337599
 30
0.0
 10
5.3913978239
 20
4.0944879276
 30
0.0
 10
5.3983197032
 20
4.1057207258
 30
0.0
 10
5.4055154646
 20
4.1167800733
 30
0.0
 10
5.4150165708
 20
4.130267947
 30
0.0
 10
5.4271961706
 20
4.1458743019
 30
0.0
 10
5.4379715192
 20
4.1583676662
 30
0.0
 10
5.4469512274
 20
4.1680346749
 30
0.0
 10
5.4561655908
 20
4.1774782202
 30
0.0
 10
5.4681134125
 20
4.1888547051
 30
0.0
 10
5.4806039543
 20
4.1996324182
 30
0.0
 10
5.4909033371
 20
4.2078784803
 30
0.0
 10
5.4987778555
 20
4.2138716204
 30
0.0
 10
5.5067970278
 20
4.2196696914
 30
0.0
 10
5.5176748792
 20
4.2271356597
 30
0.0
 10
5.5316103426
 20
4.2359652445
 30
0.0
 10
5.5459618946
 20
4.244101277
 30
0.0
 10
5.5576716527
 20
4.2501806889
 30
0.0
 10
5.5695270589
 20
4.255971246
 30
0.0
 10
5.584606725
 20
4.2626622296
 30
0.0
 10
5.5999955676
 20
4.2686070019
 30
0.0
 10
5.6124689739
 20
4.2729050389
 30
0.0
 10
5.6250438321
 20
4.2768955055
 30
0.0
 10
5.6409408845
 20
4.2813039916
 30
0.0
 10
5.6570357655
 20
4.2849286996
 30
0.0
 10
5.6700070909
 20
4.2873523395
 30
0.0
 10
5.6797794084
 20
4.2889307278
 30
0.0
 10
5.689588072
 20
4.2902689015
 30
0.0
 10
5.7027037173
 20
4.2917321251
 30
0.0
 10
5.7191531307
 20
4.2929585806
 30
0.0
 10
5.7323436832
 20
4.2932946155
 30
0.0
 10
5.7389356503
 20
4.2933003923
 30
0.0
 11
5.7389356503
 21
3.4869694046
 31
0.0
 11
5.7191653244
 21
3.487438858
 31
0.0
 11
5.6994274519
 21
3.488879358
 31
0.0
 11
5.6895882698
 21
3.4899625304
 31
0.0
 11
5.6797783021
 21
3.4912870002
 31
0.0
 11
5.6700045775
 21
3.4928522764
 31
0.0
 11
5.6602736329
 21
3.4946575463
 31
0.0
 11
5.640962477
 21
3.4989823633
 31
0.0
 11
5.6218891248
 21
3.5042497201
 31
0.0
 11
5.6124554348
 21
3.5072331646
 31
0.0
 11
5.6030977678
 21
3.5104478059
 31
0.0
 11
5.5846326631
 21
3.517562528
 31
0.0
 11
5.5665382033
 21
3.5255750542
 31
0.0
 11
5.5488587977
 21
3.5344659625
 31
0.0
 11
5.5401885914
 21
3.5392347012
 31
0.0
 11
5.5316384152
 21
3.5442151865
 31
0.0
 11
5.5149180143
 21
3.5547982599
 31
0.0
 11
5.4987372957
 21
3.5661888778
 31
0.0
 11
5.4908617224
 21
3.5721787938
 31
0.0
 11
5.4831358746
 21
3.5783606216
 31
0.0
 11
5.4681512383
 21
3.5912842515
 31
0.0
 11
5.4538185909
 21
3.604927502
 31
0.0
 11
5.4401730223
 21
3.6192579564
 31
0.0
 11
5.4272482127
 21
3.6342418918
 31
0.0
 11
5.4150741004
 21
3.649842118
 31
0.0
 11
5.403680009
 21
3.666020875
 31
0.0
 11
5.3982846109
 21
3.6743153867
 31
0.0
 11
5.3930947399
 21
3.682740057
 31
0.0
 11
5.3833429657
 21
3.6999588246
 31
0.0
 11
5.3744474002
 21
3.7176350412
 31
0.0
 11
5.3703277899
 21
3.7266315226
 31
0.0
 11
5.3664306612
 21
3.7357265283
 31
0.0
 11
5.3593122996
 21
3.7541898722
 31
0.0
 11
5.3531079841
 21
3.772980095
 31
0.0
 11
5.3478331335
 21
3.7920521183
 31
0.0
 11
5.3435016505
 21
3.8113604457
 31
0.0
 11
5.340122442
 21
3.8308582034
 31
0.0
 11
5.3377033878
 21
3.8504982343
 31
0.0
 11
5.3368563712
 21
3.8603568647
 31
0.0
 11
5.3362519232
 21
3.8702333451
 31
0.0
 11
5.3357708164
 21
3.8900159641
 31
0.0
 11
5.336260047
 21
3.9097982933
 31
0.0
 11
5.3368685207
 21
3.9196744115
 31
0.0
 11
5.3377195125
 21
3.9295325362
 31
0.0
 11
5.3401462654
 21
3.9491711863
 31
0.0
 11
5.3435328375
 21
3.9686671977
 31
0.0
 11
5.3478713584
 21
3.9879735658
 31
0.0
 11
5.3531527666
 21
4.0070435913
 31
0.0
 11
5.359363007
 21
4.0258318566
 31
0.0
 11
5.3664867162
 21
4.0442932792
 31
0.0
 11
5.3703863173
 21
4.0533873377
 31
0.0
 11
5.3745082158
 21
4.0623829076
 31
0.0
 11
5.3834077528
 21
4.0800574777
 31
0.0
 11
5.393162734
 21
4.0972749024
 31
0.0
 11
5.3983539377
 21
4.1056990405
 31
0.0
 11
5.403750493
 21
4.1139931284
 31
0.0
 11
5.4151463023
 21
4.1301714592
 31
0.0
 11
5.4273213063
 21
4.1457719165
 31
0.0
 11
5.4402461575
 21
4.160756846
 31
0.0
 11
5.4469805708
 21
4.1680067519
 31
0.0
 11
5.4538909561
 21
4.1750891029
 31
0.0
 11
5.4682220339
 21
4.1887350239
 31
0.0
 11
5.483204147
 21
4.2016624012
 31
0.0
 11
5.4909283264
 21
4.2078465725
 31
0.0
 11
5.4988019825
 21
4.2138391223
 31
0.0
 11
5.5068202842
 21
4.2196366293
 31
0.0
 11
5.5149782734
 21
4.225235853
 31
0.0
 11
5.5316934807
 21
4.2358264894
 31
0.0
 11
5.5489079366
 21
4.2455851104
 31
0.0
 11
5.5576898202
 21
4.2501445607
 31
0.0
 11
5.5665809502
 21
4.2544873068
 31
0.0
 11
5.5846688309
 21
4.2625131015
 31
0.0
 11
5.6031273409
 21
4.2696433251
 31
0.0
 11
5.6124817585
 21
4.2728666258
 31
0.0
 11
5.6219122611
 21
4.2758593254
 31
0.0
 11
5.6409795325
 21
4.2811470102
 31
0.0
 11
5.6602851796
 21
4.285494661
 31
0.0
 11
5.6700136518
 21
4.2873123177
 31
0.0
 11
5.6797851317
 21
4.2888906411
 31
0.0
 11
5.6895931203
 21
4.2902288173
 31
0.0
 11
5.6994306194
 21
4.291326356
 31
0.0
 11
5.7191661348
 21
4.292797572
 31
0.0
 11
5.7389356503
 21
4.2933003923
 31
0.0
  0
SPLINE
  5
25E
100
AcDbEntity
  8
0
100
AcDbSpline
 62
6
  6
CONTINUOUS
 70
0
 71
3
 72
88
 73
84
 74
82
 42
0.0000001
 43
0.0000001
 44
0.0000000001
 12
-1.2594953787
 22
-0.0011129542
 32
0.0
 13
1.2594953814
 23
0.0011098731
 33
0.0
 40
0.0
 40
0.0
 40
0.0
 40
0.0
 40
0.015614846
 40
0.0312410728
 40
0.0390568832
 40
0.0468729548
 40
0.0546884565
 40
0.0625029372
 40
0.0781283859
 40
0.0937521126
 40
0.1015644231
 40
0.1093769157
 40
0.1250014905
 40
0.1406266434
 40
0.1484398241
 40
0.1562529202
 40
0.1718775692
 40
0.1875019404
 40
0.1953146661
 40
0.2031273849
 40
0.2109401268
 40
0.2187529326
 40
0.2343775963
 40
0.2500024636
 40
0.2656273941
 40
0.2812524344
 40
0.2968775831
 40
0.3125026954
 40
0.3203158091
 40
0.3281289205
 40
0.3437539559
 40
0.3593788504
 40
0.3671917869
 40
0.3750046585
 40
0.3906291264
 40
0.40625351
 40
0.4218778001
 40
0.4375021228
 40
0.4531265322
 40
0.468750908
 40
0.4765636536
 40
0.4843764011
 40
0.5000007743
 40
0.5156251795
 40
0.5234379666
 40
0.5312507665
 40
0.546875284
 40
0.5624998486
 40
0.5781242973
 40
0.593748647
 40
0.6093730355
 40
0.6249974689
 40
0.6328103091
 40
0.6406232057
 40
0.656248003
 40
0.6718729206
 40
0.679685964
 40
0.6874990031
 40
0.7031239442
 40
0.7187488805
 40
0.7343736504
 40
0.7499982402
 40
0.7656227529
 40
0.7812471348
 40
0.7890598531
 40
0.7968725569
 40
0.8124968748
 40
0.8281213993
 40
0.835934353
 40
0.843747411
 40
0.8593726632
 40
0.874997934
 40
0.8906226008
 40
0.8984351313
 40
0.9062474855
 40
0.9218713216
 40
0.9374968902
 40
0.9453114263
 40
0.9531269734
 40
0.9609430704
 40
0.968758892
 40
0.9843851297
 40
1.0
 40
1.0
 40
1.0
 40
1.0
 10
5.7389356503
 20
3.4891924086
 30
0.0
 10
5.7323800415
 20
3.4891866158
 30
0.0
 10
5.7192616469
 20
3.4894986038
 30
0.0
 10
5.7029010121
 20
3.490692764
 30
0.0
 10
5.6898555361
 20
3.4921288041
 30
0.0
 10
5.6800990598
 20
3.4934459178
 30
0.0
 10
5.6703784813
 20
3.4950025806
 30
0.0
 10
5.6574755127
 20
3.497396359
 30
0.0
 10
5.6414649106
 20
3.5009820536
 30
0.0
 10
5.6256505894
 20
3.5053492698
 30
0.0
 10
5.6131409437
 20
3.5093053744
 30
0.0
 10
5.6007320734
 20
3.5135681598
 30
0.0
 10
5.5854226922
 20
3.5194671977
 30
0.0
 10
5.5704208247
 20
3.526110134
 30
0.0
 10
5.5586266187
 20
3.5318608324
 30
0.0
 10
5.5469774006
 20
3.5378993885
 30
0.0
 10
5.5327002455
 20
3.5459825609
 30
0.0
 10
5.5188373891
 20
3.5547570025
 30
0.0
 10
5.50801647
 20
3.5621774065
 30
0.0
 10
5.5000394043
 20
3.5679405713
 30
0.0
 10
5.4922063493
 20
3.573898065
 30
0.0
 10
5.481961422
 20
3.5820956331
 30
0.0
 10
5.4695372188
 20
3.5928111545
 30
0.0
 10
5.4552774183
 20
3.6063846592
 30
0.0
 10
5.4417007836
 20
3.6206420752
 30
0.0
 10
5.4288420088
 20
3.6355502928
 30
0.0
 10
5.4167299641
 20
3.6510710577
 30
0.0
 10
5.4072824631
 20
3.6644852961
 30
0.0
 10
5.4001277366
 20
3.6754844921
 30
0.0
 10
5.3932456987
 20
3.6866563196
 30
0.0
 10
5.3851605649
 20
3.7009327708
 30
0.0
 10
5.3777851246
 20
3.7155883819
 30
0.0
 10
5.3723222107
 20
3.7275182863
 30
0.0
 10
5.3671544742
 20
3.7395787675
 30
0.0
 10
5.3612529209
 20
3.7548871213
 30
0.0
 10
5.3550805557
 20
3.7735810216
 30
0.0
 10
5.3498323689
 20
3.7925553311
 30
0.0
 10
5.345523637
 20
3.8117647835
 30
0.0
 10
5.3421620297
 20
3.8311621777
 30
0.0
 10
5.3401562277
 20
3.8474455448
 30
0.0
 10
5.3390330626
 20
3.860518215
 30
0.0
 10
5.3382316486
 20
3.8736145708
 30
0.0
 10
5.3378328916
 20
3.8900159851
 30
0.0
 10
5.3382384232
 20
3.9064172495
 30
0.0
 10
5.3390452306
 20
3.9195133271
 30
0.0
 10
5.3401737648
 20
3.9325856339
 30
0.0
 10
5.3421861377
 20
3.9488683355
 30
0.0
 10
5.3455553209
 20
3.9682645906
 30
0.0
 10
5.3498712243
 20
3.9874725736
 30
0.0
 10
5.3551261003
 20
4.0064451071
 30
0.0
 10
5.3613045775
 20
4.0251369925
 30
0.0
 10
5.3672106678
 20
4.0404435587
 30
0.0
 10
5.3723816527
 20
4.0525025974
 30
0.0
 10
5.3778475478
 20
4.0644310564
 30
0.0
 10
5.3852262119
 20
4.0790849122
 30
0.0
 10
5.3933138686
 20
4.0933597829
 30
0.0
 10
5.400197483
 20
4.104530508
 30
0.0
 10
5.4073534784
 20
4.1155287185
 30
0.0
 10
5.4168019594
 20
4.1289420117
 30
0.0
 10
5.4289142226
 20
4.1444622348
 30
0.0
 10
5.4417722681
 20
4.1593705992
 30
0.0
 10
5.4553471949
 20
4.1736290468
 30
0.0
 10
5.4696043586
 20
4.1872047047
 30
0.0
 10
5.4820257105
 20
4.197922997
 30
0.0
 10
5.4922681445
 20
4.2061234826
 30
0.0
 10
5.5027089753
 20
4.2140698301
 30
0.0
 10
5.5161208646
 20
4.2235189911
 30
0.0
 10
5.5299794782
 20
4.2323000784
 30
0.0
 10
5.541313708
 20
4.2389106279
 30
0.0
 10
5.5528070775
 20
4.2452410185
 30
0.0
 10
5.5674605308
 20
4.2526218771
 30
0.0
 10
5.5854557332
 20
4.2606067409
 30
0.0
 10
5.6007602617
 20
4.2665191476
 30
0.0
 10
5.6131651508
 20
4.2707936291
 30
0.0
 10
5.6256709208
 20
4.2747622384
 30
0.0
 10
5.6414805862
 20
4.279146576
 30
0.0
 10
5.657486973
 20
4.282751437
 30
0.0
 10
5.6703869427
 20
4.2851617993
 30
0.0
 10
5.6801054671
 20
4.2867315351
 30
0.0
 10
5.6898601093
 20
4.2880623806
 30
0.0
 10
5.7029034743
 20
4.2895175982
 30
0.0
 10
5.7192622034
 20
4.290737368
 30
0.0
 10
5.7323800313
 20
4.2910716114
 30
0.0
 10
5.7389356503
 20
4.2910773883
 30
0.0
 11
5.7389356503
 21
3.4891924086
 31
0.0
 11
5.719274356
 21
3.4896591742
 31
0.0
 11
5.6996453862
 21
3.4910916282
 31
0.0
 11
5.6898605146
 21
3.4921687764
 31
0.0
 11
5.6801047141
 21
3.4934858923
 31
0.0
 11
5.6703849757
 21
3.4950424874
 31
0.0
 11
5.6607077836
 21
3.4968377441
 31
0.0
 11
5.6415032874
 21
3.501138573
 31
0.0
 11
5.6225352608
 21
3.5063767414
 31
0.0
 11
5.6131536558
 21
3.5093436724
 31
0.0
 11
5.6038476474
 21
3.5125405327
 31
0.0
 11
5.585484472
 21
3.5196158609
 31
0.0
 11
5.5674899182
 21
3.5275839959
 31
0.0
 11
5.5586446876
 21
3.531896844
 31
0.0
 11
5.5499081882
 21
3.5364256676
 31
0.0
 11
5.5327829771
 21
3.5461208883
 31
0.0
 11
5.5161549006
 21
3.5566453106
 31
0.0
 11
5.5080396191
 21
3.5622103525
 31
0.0
 11
5.5000634183
 21
3.5679729503
 31
0.0
 11
5.4922312305
 21
3.5739298555
 31
0.0
 11
5.4845478825
 21
3.5800776709
 31
0.0
 11
5.4696454708
 21
3.5929302589
 31
0.0
 11
5.4553913168
 21
3.6064986071
 31
0.0
 11
5.4418204711
 21
3.6207504933
 31
0.0
 11
5.428966501
 21
3.6356523392
 31
0.0
 11
5.4168591593
 21
3.6511670808
 31
0.0
 11
5.4055275947
 21
3.6672571017
 31
0.0
 11
5.4001618213
 21
3.6755060761
 31
0.0
 11
5.395000495
 21
3.6838844861
 31
0.0
 11
5.3853024669
 21
3.7010086668
 31
0.0
 11
5.376455984
 21
3.7185876905
 31
0.0
 11
5.3723590891
 21
3.7275346543
 31
0.0
 11
5.3684834474
 21
3.7365795702
 31
0.0
 11
5.3614044692
 21
3.7549411946
 31
0.0
 11
5.3552345709
 21
3.7736278038
 31
0.0
 11
5.3499889482
 21
3.7925945065
 31
0.0
 11
5.3456814995
 21
3.8117960655
 31
0.0
 11
5.3423211416
 21
3.8311859154
 31
0.0
 11
5.3399155957
 21
3.8507171716
 31
0.0
 11
5.339073283
 21
3.8605211751
 31
0.0
 11
5.338472184
 21
3.8703429216
 31
0.0
 11
5.337993747
 21
3.8900159383
 31
0.0
 11
5.3384803037
 21
3.9096887963
 31
0.0
 11
5.3390854471
 21
3.9195103444
 31
0.0
 11
5.33993178
 21
3.9293140705
 31
0.0
 11
5.3423451973
 21
3.9488445353
 31
0.0
 11
5.3457131196
 21
3.9682332711
 31
0.0
 11
5.3500277326
 21
3.9874333843
 31
0.0
 11
5.3552800292
 21
4.0063983179
 31
0.0
 11
5.3614560225
 21
4.02508292
 31
0.0
 11
5.3685404257
 21
4.0434424053
 31
0.0
 11
5.3724185004
 21
4.0524862353
 31
0.0
 11
5.3765176317
 21
4.0614321195
 31
0.0
 11
5.3853679788
 21
4.0790090608
 31
0.0
 11
5.395069026
 21
4.0961313608
 31
0.0
 11
5.4002315322
 21
4.1045089434
 31
0.0
 11
5.4055982576
 21
4.1127571862
 31
0.0
 11
5.4169310098
 21
4.128846107
 31
0.0
 11
5.4290385798
 21
4.1443603311
 31
0.0
 11
5.4418918189
 21
4.1592623578
 31
0.0
 11
5.4554609431
 21
4.1735152907
 31
0.0
 11
5.4697124515
 21
4.1870857701
 31
0.0
 11
5.4846114954
 21
4.1999417186
 31
0.0
 11
5.4922929524
 21
4.20609172
 31
0.0
 11
5.5001231149
 21
4.2120512079
 31
0.0
 11
5.5162101185
 21
4.2233853186
 31
0.0
 11
5.5328332311
 21
4.2339179401
 31
0.0
 11
5.5413335299
 21
4.2388755664
 31
0.0
 11
5.5499530937
 21
4.2436230754
 31
0.0
 11
5.5675291036
 21
4.2524765457
 31
0.0
 11
5.5855176873
 21
4.2604585154
 31
0.0
 11
5.6038748372
 21
4.2675497839
 31
0.0
 11
5.6131778729
 21
4.2707554313
 31
0.0
 11
5.6225565655
 21
4.2737317378
 31
0.0
 11
5.6415190461
 21
4.2789904632
 31
0.0
 11
5.6607185298
 21
4.2833143013
 31
0.0
 11
5.6703934765
 21
4.2851219985
 31
0.0
 11
5.6801111696
 21
4.2866916717
 31
0.0
 11
5.6898651387
 21
4.2880225186
 31
0.0
 11
5.6996484301
 21
4.2891140526
 31
0.0
 11
5.7192751461
 21
4.2905772478
 31
0.0
 11
5.7389356503
 21
4.2910773883
 31
0.0
  0
SPLINE
  5
25F
100
AcDbEntity
  8
0
100
AcDbSpline
 62
6
  6
CONTINUOUS
 70
0
 71
3
 72
87
 73
83
 74
81
 42
0.0000001
 43
0.0000001
 44
0.0000000001
 12
-1.2525107012
 22
-0.0011129615
 32
0.0
 13
1.2525107039
 23
0.0011098632
 33
0.0
 40
0.0
 40
0.0
 40
0.0
 40
0.0
 40
0.0156148644
 40
0.0312410712
 40
0.0390568388
 40
0.0468728362
 40
0.0546882258
 40
0.0625025654
 40
0.0781276692
 40
0.0937509901
 40
0.1015630839
 40
0.1093753526
 40
0.1249994332
 40
0.1406240901
 40
0.1562487905
 40
0.1718732568
 40
0.1874976302
 40
0.2031219908
 40
0.2109347929
 40
0.2187476571
 40
0.2343724179
 40
0.249997357
 40
0.2578104394
 40
0.2656235377
 40
0.2812486655
 40
0.2968739015
 40
0.312499099
 40
0.3203122602
 40
0.3281254224
 40
0.3437505536
 40
0.3593755227
 40
0.3671884885
 40
0.3750013872
 40
0.3906259092
 40
0.4062503505
 40
0.4218747233
 40
0.4374991848
 40
0.4531238101
 40
0.4687485178
 40
0.4765614904
 40
0.4843745072
 40
0.4999994952
 40
0.5156245302
 40
0.5234376068
 40
0.5312506644
 40
0.5468756007
 40
0.5625004788
 40
0.5781251544
 40
0.5937496511
 40
0.6093741151
 40
0.6249985543
 40
0.6328113684
 40
0.6406242183
 40
0.6562488598
 40
0.6718735273
 40
0.6796864028
 40
0.6874992404
 40
0.7031237041
 40
0.7187481563
 40
0.7343725504
 40
0.7499969654
 40
0.7656214655
 40
0.7812459205
 40
0.7890586865
 40
0.7968714376
 40
0.8124958468
 40
0.8281204589
 40
0.835933457
 40
0.8437465608
 40
0.8593719026
 40
0.8749972545
 40
0.8906219924
 40
0.898434557
 40
0.9062469498
 40
0.9218708774
 40
0.937496556
 40
0.9453111541
 40
0.9531267647
 40
0.9609429176
 40
0.9687587867
 40
0.9843850941
 40
1.0
 40
1.0
 40
1.0
 40
1.0
 10
5.7389356503
 20
3.4914154127
 30
0.0
 10
5.7324163887
 20
3.4914096198
 30
0.0
 10
5.7193707428
 20
3.4917198147
 30
0.0
 10
5.7031008504
 20
3.4929072712
 30
0.0
 10
5.6901277697
 20
3.494335281
 30
0.0
 10
5.6804254879
 20
3.4956450348
 30
0.0
 10
5.6707589456
 20
3.4971930095
 30
0.0
 10
5.657927767
 20
3.49957341
 30
0.0
 10
5.6420062961
 20
3.5031390469
 30
0.0
 10
5.6262800402
 20
3.5074818393
 30
0.0
 10
5.6138400773
 20
3.5114158285
 30
0.0
 10
5.6015003888
 20
3.5156547743
 30
0.0
 10
5.5862761478
 20
3.5215207603
 30
0.0
 10
5.5683750175
 20
3.5294471718
 30
0.0
 10
5.5508839652
 20
3.5382425236
 30
0.0
 10
5.5338471362
 20
3.5478881
 30
0.0
 10
5.5173046552
 20
3.558358112
 30
0.0
 10
5.5039630554
 20
3.5677493947
 30
0.0
 10
5.4935773896
 20
3.5756482415
 30
0.0
 10
5.4833890952
 20
3.583800388
 30
0.0
 10
5.4710336821
 20
3.5944562118
 30
0.0
 10
5.4592156546
 20
3.6057052069
 30
0.0
 10
5.4501018128
 20
3.6150435295
 30
0.0
 10
5.4412203865
 20
3.6246032327
 30
0.0
 10
5.4305633786
 20
3.6369584155
 30
0.0
 10
5.4185183423
 20
3.6523928826
 30
0.0
 10
5.4091230069
 20
3.6657327431
 30
0.0
 10
5.4020079372
 20
3.6766710128
 30
0.0
 10
5.3951639471
 20
3.6877809094
 30
0.0
 10
5.3871234322
 20
3.7019781693
 30
0.0
 10
5.3797886792
 20
3.7165524941
 30
0.0
 10
5.3743559898
 20
3.7284162683
 30
0.0
 10
5.3692168974
 20
3.7404099108
 30
0.0
 10
5.3633479042
 20
3.7556333646
 30
0.0
 10
5.3572095184
 20
3.774223601
 30
0.0
 10
5.3519903593
 20
3.7930927881
 30
0.0
 10
5.347705408
 20
3.8121958716
 30
0.0
 10
5.3443621835
 20
3.8314859405
 30
0.0
 10
5.3423673582
 20
3.8476793177
 30
0.0
 10
5.3412504349
 20
3.8606798404
 30
0.0
 10
5.3404534547
 20
3.8737040328
 30
0.0
 10
5.3400568716
 20
3.890015122
 30
0.0
 10
5.3404601205
 20
3.9063260732
 30
0.0
 10
5.3412624561
 20
3.9193500173
 30
0.0
 10
5.3423847632
 20
3.9323502326
 30
0.0
 10
5.3443860984
 20
3.9485430399
 30
0.0
 10
5.3477367968
 20
3.9678321023
 30
0.0
 10
5.352028883
 20
3.986933832
 30
0.0
 10
5.3572547269
 20
4.0058013171
 30
0.0
 10
5.3633991344
 20
4.0243895823
 30
0.0
 10
5.3692725876
 20
4.0396112421
 30
0.0
 10
5.3744148941
 20
4.0516033764
 30
0.0
 10
5.3798504757
 20
4.0634655811
 30
0.0
 10
5.3871882397
 20
4.0780379519
 30
0.0
 10
5.3952310186
 20
4.0922333982
 30
0.0
 10
5.4020763515
 20
4.1033419369
 30
0.0
 10
5.4091924482
 20
4.1142788729
 30
0.0
 10
5.418588227
 20
4.1276174019
 30
0.0
 10
5.4306329669
 20
4.143051124
 30
0.0
 10
5.4434194597
 20
4.1578764555
 30
0.0
 10
5.4569189537
 20
4.1720556484
 30
0.0
 10
5.4710969416
 20
4.1855560663
 30
0.0
 10
5.4834493772
 20
4.1962150271
 30
0.0
 10
5.4936350431
 20
4.204370108
 30
0.0
 10
5.5040180144
 20
4.2122724621
 30
0.0
 10
5.5173555577
 20
4.2216693408
 30
0.0
 10
5.5311373552
 20
4.230401846
 30
0.0
 10
5.5424087726
 20
4.2369758103
 30
0.0
 10
5.5538384636
 20
4.2432711429
 30
0.0
 10
5.5684107075
 20
4.2506111643
 30
0.0
 10
5.5863061656
 20
4.2585518829
 30
0.0
 10
5.6015258652
 20
4.2644316046
 30
0.0
 10
5.613862006
 20
4.2686824373
 30
0.0
 10
5.6262984736
 20
4.2726291074
 30
0.0
 10
5.6420205416
 20
4.2769892289
 30
0.0
 10
5.6579382547
 20
4.2805741948
 30
0.0
 10
5.6707667739
 20
4.2829712558
 30
0.0
 10
5.680431473
 20
4.284532329
 30
0.0
 10
5.6901320834
 20
4.285855843
 30
0.0
 10
5.7031031802
 20
4.2873030568
 30
0.0
 10
5.7193712475
 20
4.2885161491
 30
0.0
 10
5.7324163714
 20
4.2888486074
 30
0.0
 10
5.7389356503
 20
4.2888543842
 30
0.0
 11
5.7389356503
 21
3.4914154127
 31
0.0
 11
5.7193833646
 21
3.4918794951
 31
0.0
 11
5.6998632677
 21
3.4933039094
 31
0.0
 11
5.6901327074
 21
3.4943750333
 31
0.0
 11
5.6804310953
 21
3.4956847909
 31
0.0
 11
5.6707653915
 21
3.4972326949
 31
0.0
 11
5.6611420313
 21
3.4990179209
 31
0.0
 11
5.6420444338
 21
3.5032946995
 31
0.0
 11
5.6231820553
 21
3.5085035713
 31
0.0
 11
5.6138527189
 21
3.5114539136
 31
0.0
 11
5.6045985631
 21
3.5146328956
 31
0.0
 11
5.5863377112
 21
3.5216685329
 31
0.0
 11
5.5684434051
 21
3.5295919772
 31
0.0
 11
5.5509595656
 21
3.5383842832
 31
0.0
 11
5.5339294737
 21
3.5480255377
 31
0.0
 11
5.5173934474
 21
3.5584913434
 31
0.0
 11
5.5013909468
 21
3.5697560054
 31
0.0
 11
5.4936020988
 21
3.5756798762
 31
0.0
 11
5.4859612596
 21
3.5817935902
 31
0.0
 11
5.4711412264
 21
3.5945747822
 31
0.0
 11
5.4569658702
 21
3.6080677533
 31
0.0
 11
5.4501308772
 21
3.6150711911
 31
0.0
 11
5.4434701582
 21
3.6222406042
 31
0.0
 11
5.4306872758
 21
3.6370597864
 31
0.0
 11
5.4186468021
 21
3.6524884138
 31
0.0
 11
5.4073778806
 21
3.6684891971
 31
0.0
 11
5.4020418217
 21
3.6766924696
 31
0.0
 11
5.3969090354
 21
3.68502444
 31
0.0
 11
5.387264543
 21
3.7020536554
 31
0.0
 11
5.3784668975
 21
3.7195351856
 31
0.0
 11
5.37439267
 21
3.7284325493
 31
0.0
 11
5.3705384941
 21
3.7374273311
 31
0.0
 11
5.363498605
 21
3.7556871368
 31
0.0
 11
5.357362713
 21
3.7742701241
 31
0.0
 11
5.3521460723
 21
3.7931317224
 31
0.0
 11
5.3478623803
 21
3.8122269459
 31
0.0
 11
5.3445204365
 21
3.8315095033
 31
0.0
 11
5.3421280796
 21
3.850932847
 31
0.0
 11
5.3412904317
 21
3.8606827662
 31
0.0
 11
5.3406926589
 21
3.8704503827
 31
0.0
 11
5.3402168358
 21
3.8900150698
 31
0.0
 11
5.3407006638
 21
3.9095796195
 31
0.0
 11
5.341302455
 21
3.9193470641
 31
0.0
 11
5.3421441219
 21
3.9290967442
 31
0.0
 11
5.3445442936
 21
3.9485194122
 31
0.0
 11
5.3478937174
 21
3.9678009931
 31
0.0
 11
5.3521845342
 21
3.9868948917
 31
0.0
 11
5.3574078293
 21
4.0057548093
 31
0.0
 11
5.3635497439
 21
4.0243358369
 31
0.0
 11
5.3705949721
 21
4.0425934722
 31
0.0
 11
5.3744515445
 21
4.0515871112
 31
0.0
 11
5.3785279479
 21
4.0604833187
 31
0.0
 11
5.3873292346
 21
4.0779625566
 31
0.0
 11
5.396976427
 21
4.0949895749
 31
0.0
 11
5.4021102124
 21
4.1033205081
 31
0.0
 11
5.4074470288
 21
4.1115228042
 31
0.0
 11
5.4187165628
 21
4.1275220321
 31
0.0
 11
5.4307566099
 21
4.142949747
 31
0.0
 11
5.443538285
 21
4.1577687569
 31
0.0
 11
5.457032008
 21
4.171942491
 31
0.0
 11
5.4712044082
 21
4.1854377697
 31
0.0
 11
5.4860208278
 21
4.1982225642
 31
0.0
 11
5.4936597139
 21
4.2043385214
 31
0.0
 11
5.5014464835
 21
4.2102650185
 31
0.0
 11
5.5174443195
 21
4.2215364096
 31
0.0
 11
5.5339752937
 21
4.2320107526
 31
0.0
 11
5.542428486
 21
4.2369409395
 31
0.0
 11
5.5510002913
 21
4.2416621629
 31
0.0
 11
5.5684789021
 21
4.2504666447
 31
0.0
 11
5.5863677815
 21
4.2584044794
 31
0.0
 11
5.604623181
 21
4.2654565374
 31
0.0
 11
5.6138746553
 21
4.268644452
 31
0.0
 11
5.6232013722
 21
4.2716043033
 31
0.0
 11
5.6420587818
 21
4.2768339792
 31
0.0
 11
5.6611519083
 21
4.281133952
 31
0.0
 11
5.6707732713
 21
4.2829316745
 31
0.0
 11
5.680437147
 21
4.2844926883
 31
0.0
 11
5.6901370884
 21
4.285816203
 31
0.0
 11
5.6998661798
 21
4.2869017339
 31
0.0
 11
5.7193841336
 21
4.2883569175
 31
0.0
 11
5.7389356503
 21
4.2888543842
 31
0.0
  0
SPLINE
  5
260
100
AcDbEntity
  8
0
100
AcDbSpline
 62
6
  6
CONTINUOUS
 70
0
 71
3
 72
66
 73
62
 74
60
 42
0.0000001
 43
0.0000001
 44
0.0000000001
 12
-0.5235989077
 22
0.698429743
 32
0.0
 13
0.8729028068
 23
0.0007821985
 33
0.0
 40
0.0
 40
0.0
 40
0.0
 40
0.0
 40
0.0312334938
 40
0.0468624028
 40
0.0624932427
 40
0.078122692
 40
0.093749468
 40
0.1093743854
 40
0.1249983025
 40
0.1406220691
 40
0.1562464497
 40
0.1718715116
 40
0.1874970213
 40
0.2031227281
 40
0.218748434
 40
0.234374107
 40
0.2499997864
 40
0.2656254542
 40
0.281251092
 40
0.2968767424
 40
0.312502449
 40
0.3281281562
 40
0.3437537677
 40
0.3593792154
 40
0.3750045326
 40
0.3906297904
 40
0.4062549944
 40
0.421880138
 40
0.4375052678
 40
0.4531304792
 40
0.4687557919
 40
0.5000019592
 40
0.5312486063
 40
0.5468744356
 40
0.5625002754
 40
0.5781260907
 40
0.5937519251
 40
0.609377773
 40
0.625003565
 40
0.640629235
 40
0.6562547871
 40
0.6718802799
 40
0.6875057
 40
0.7031309943
 40
0.718756138
 40
0.7500016124
 40
0.7656267281
 40
0.7812519091
 40
0.7968772299
 40
0.8125026628
 40
0.8281279961
 40
0.8437529643
 40
0.8593773185
 40
0.8750011247
 40
0.8906251373
 40
0.9062501826
 40
0.9218770933
 40
0.9375066509
 40
0.9531375415
 40
0.968766466
 40
1.0
 40
1.0
 40
1.0
 40
1.0
 10
5.4234381976
 20
3.6534991574
 30
0.0
 10
5.4179869232
 20
3.6607706244
 30
0.0
 10
5.4101832776
 20
3.6719698009
 30
0.0
 10
5.4005727369
 20
3.6874088671
 30
0.0
 10
5.3937656866
 20
3.6992360863
 30
0.0
 10
5.3873728887
 20
3.7112912165
 30
0.0
 10
5.3814026809
 20
3.7235592927
 30
0.0
 10
5.3758611513
 20
3.7360250751
 30
0.0
 10
5.3707543591
 20
3.748674234
 30
0.0
 10
5.3660882563
 20
3.7614923443
 30
0.0
 10
5.3618690259
 20
3.7744647635
 30
0.0
 10
5.3581008394
 20
3.7875758222
 30
0.0
 10
5.354787805
 20
3.8008096186
 30
0.0
 10
5.3519340298
 20
3.814150189
 30
0.0
 10
5.3495438697
 20
3.8275816298
 30
0.0
 10
5.3476206068
 20
3.841087818
 30
0.0
 10
5.3461654103
 20
3.8546524003
 30
0.0
 10
5.3451798269
 20
3.8682591573
 30
0.0
 10
5.3446652235
 20
3.8818918545
 30
0.0
 10
5.3446233199
 20
3.8955342126
 30
0.0
 10
5.3450535535
 20
3.9091698576
 30
0.0
 10
5.3459546495
 20
3.9227824807
 30
0.0
 10
5.3473254943
 20
3.9363557739
 30
0.0
 10
5.3491650193
 20
3.9498734248
 30
0.0
 10
5.3514718289
 20
3.9633191111
 30
0.0
 10
5.3542420474
 20
3.9766769369
 30
0.0
 10
5.3574720518
 20
3.9899310384
 30
0.0
 10
5.3611580846
 20
4.0030656034
 30
0.0
 10
5.365296701
 20
4.0160646274
 30
0.0
 10
5.36988282
 20
4.0289128013
 30
0.0
 10
5.376584995
 20
4.0458204026
 30
0.0
 10
5.3860520308
 20
4.0665061713
 30
0.0
 10
5.3969286828
 20
4.0864869329
 30
0.0
 10
5.4064398882
 20
4.101989844
 30
0.0
 10
5.4139715207
 20
4.1133651277
 30
0.0
 10
5.4218922015
 20
4.1244728495
 30
0.0
 10
5.4301927359
 20
4.1352997041
 30
0.0
 10
5.4388622762
 20
4.1458333638
 30
0.0
 10
5.4478903361
 20
4.1560613558
 30
0.0
 10
5.4572662892
 20
4.1659713073
 30
0.0
 10
5.4669797247
 20
4.1755505787
 30
0.0
 10
5.4770185635
 20
4.1847881716
 30
0.0
 10
5.4873702502
 20
4.1936735599
 30
0.0
 10
5.4980226458
 20
4.2021963341
 30
0.0
 10
5.5126080005
 20
4.2130607122
 30
0.0
 10
5.527749775
 20
4.2231615142
 30
0.0
 10
5.5433814223
 20
4.2324575531
 30
0.0
 10
5.5553406571
 20
4.2390215629
 30
0.0
 10
5.567519818
 20
4.2451676047
 30
0.0
 10
5.5799043145
 20
4.250888849
 30
0.0
 10
5.5924787763
 20
4.2561792052
 30
0.0
 10
5.6052280095
 20
4.2610324127
 30
0.0
 10
5.6181368566
 20
4.2654422182
 30
0.0
 10
5.6311902971
 20
4.2694026223
 30
0.0
 10
5.6443729323
 20
4.2729098343
 30
0.0
 10
5.6576696809
 20
4.2759599765
 30
0.0
 10
5.6710654664
 20
4.2785493217
 30
0.0
 10
5.6845444684
 20
4.2806736154
 30
0.0
 10
5.6980897452
 20
4.2823306054
 30
0.0
 10
5.7162065134
 20
4.2839151543
 30
0.0
 10
5.7298477038
 20
4.2844002324
 30
0.0
 10
5.7389356503
 20
4.284408376
 30
0.0
 11
5.4234381976
 21
3.6534991574
 31
0.0
 11
5.4078499131
 21
3.6758670141
 31
0.0
 11
5.4006403292
 21
3.6874489121
 31
0.0
 11
5.3938344863
 21
3.699274518
 31
0.0
 11
5.3874428381
 21
3.7113276572
 31
0.0
 11
5.3814737846
 21
3.7235929767
 31
0.0
 11
5.3759334356
 21
3.7360560397
 31
0.0
 11
5.3708277811
 21
3.7487024573
 31
0.0
 11
5.3661628107
 21
3.7615178408
 31
0.0
 11
5.3619442828
 21
3.7744875997
 31
0.0
 11
5.358176749
 21
3.7875960906
 31
0.0
 11
5.3548643686
 21
3.8008273281
 31
0.0
 11
5.3520113007
 21
3.8141653266
 31
0.0
 11
5.3496216842
 21
3.8275940984
 31
0.0
 11
5.3476986178
 21
3.8410975504
 31
0.0
 11
5.3462436787
 21
3.8546594345
 31
0.0
 11
5.345258323
 21
3.8682634908
 31
0.0
 11
5.3447440068
 21
3.8818934591
 31
0.0
 11
5.3447020091
 21
3.895533074
 31
0.0
 11
5.3451320308
 21
3.9091660224
 31
0.0
 11
5.3460329444
 21
3.9227759659
 31
0.0
 11
5.3474036155
 21
3.9363465663
 31
0.0
 11
5.3492429084
 21
3.9498614852
 31
0.0
 11
5.3515490691
 21
3.9633044963
 31
0.0
 11
5.3543186837
 21
3.976659673
 31
0.0
 11
5.3575480626
 21
3.9899111387
 31
0.0
 11
5.3612335162
 21
4.0030430167
 31
0.0
 11
5.3653712745
 21
4.0160394555
 31
0.0
 11
5.3699562846
 21
4.0288850028
 31
0.0
 11
5.3749824626
 21
4.0415645278
 31
0.0
 11
5.3863338695
 21
4.0663650224
 31
0.0
 11
5.3993733752
 21
4.0903215061
 31
0.0
 11
5.4065061629
 21
4.1019477032
 31
0.0
 11
5.414036366
 21
4.1133205397
 31
0.0
 11
5.4219555069
 21
4.1244260335
 31
0.0
 11
5.4302542352
 21
4.135250836
 31
0.0
 11
5.4389220452
 21
4.1457824375
 31
0.0
 11
5.447948352
 21
4.1560083858
 31
0.0
 11
5.4573225704
 21
4.1659162289
 31
0.0
 11
5.4670339798
 21
4.1754936526
 31
0.0
 11
5.4770707301
 21
4.1847294932
 31
0.0
 11
5.4874204096
 21
4.1936131583
 31
0.0
 11
5.498070603
 21
4.2021340597
 31
0.0
 11
5.5090088932
 21
4.2102816115
 31
0.0
 11
5.5316976196
 21
4.2254179149
 31
0.0
 11
5.5434204976
 21
4.2323894467
 31
0.0
 11
5.5553772618
 21
4.2389518755
 31
0.0
 11
5.5675540047
 21
4.2450967875
 31
0.0
 11
5.5799360177
 21
4.2508170525
 31
0.0
 11
5.5925080522
 21
4.2561064056
 31
0.0
 11
5.6052548496
 21
4.2609585981
 31
0.0
 11
5.6181611512
 21
4.2653673818
 31
0.0
 11
5.6312117392
 21
4.2693270659
 31
0.0
 11
5.644391513
 21
4.2728335489
 31
0.0
 11
5.6576853926
 21
4.2758830105
 31
0.0
 11
5.6710782981
 21
4.2784716306
 31
0.0
 11
5.6845550338
 21
4.2805956603
 31
0.0
 11
5.6980982996
 21
4.2822526499
 31
0.0
 11
5.7116889574
 21
4.2834412839
 31
0.0
 11
5.7389356503
 21
4.284408376
 31
0.0
  0
SPLINE
  5
261
100
AcDbEntity
  8
0
100
AcDbSpline
 62
6
  6
CONTINUOUS
 70
0
 71
3
 72
89
 73
85
 74
83
 42
0.0000001
 43
0.0000001
 44
0.0000000001
 12
-1.2455304297
 22
-0.0011129728
 32
0.0
 13
1.2455304324
 23
0.0011098572
 33
0.0
 40
0.0
 40
0.0
 40
0.0
 40
0.0
 40
0.0156148201
 40
0.0312409423
 40
0.0390566414
 40
0.0468725465
 40
0.0546878164
 40
0.0625020227
 40
0.0781268765
 40
0.0937500551
 40
0.1015621517
 40
0.1093744885
 40
0.1249988555
 40
0.140623899
 40
0.1562489688
 40
0.1718736892
 40
0.1874982013
 40
0.203122611
 40
0.2109354091
 40
0.2187482531
 40
0.2343729331
 40
0.2499977437
 40
0.2578107441
 40
0.2656237477
 40
0.2812486435
 40
0.2968735812
 40
0.3124983963
 40
0.3203113282
 40
0.3281242397
 40
0.343748848
 40
0.3593733405
 40
0.3671861154
 40
0.3749988701
 40
0.3906232418
 40
0.4062476984
 40
0.4218722459
 40
0.4374970286
 40
0.4531220513
 40
0.4687471594
 40
0.4765603126
 40
0.4843734914
 40
0.4999987567
 40
0.5156240206
 40
0.5234371974
 40
0.5312503474
 40
0.5468754481
 40
0.5625004667
 40
0.5781252537
 40
0.5937498182
 40
0.6093742952
 40
0.6249986737
 40
0.63281142
 40
0.6406241763
 40
0.6562486095
 40
0.6718731397
 40
0.6796860085
 40
0.6874988979
 40
0.7031236328
 40
0.7187484966
 40
0.7343733298
 40
0.7421863064
 40
0.7499992839
 40
0.7656240631
 40
0.7812487256
 40
0.7890615641
 40
0.7968743606
 40
0.8046871509
 40
0.8124999595
 40
0.8281245062
 40
0.8437492797
 40
0.8515623999
 40
0.8593755843
 40
0.8750006906
 40
0.8906251302
 40
0.8984375067
 40
0.906249654
 40
0.9218729617
 40
0.9374979428
 40
0.9453121951
 40
0.9531274909
 40
0.9609433978
 40
0.9687590832
 40
0.9843851733
 40
1.0
 40
1.0
 40
1.0
 40
1.0
 10
5.7389356503
 20
3.4936384168
 30
0.0
 10
5.7324527391
 20
3.4936326238
 30
0.0
 10
5.7194798488
 20
3.4939410282
 30
0.0
 10
5.7033007052
 20
3.4951217863
 30
0.0
 10
5.6904000184
 20
3.4965417663
 30
0.0
 10
5.6807519168
 20
3.4978441589
 30
0.0
 10
5.6711393809
 20
3.4993834406
 30
0.0
 10
5.6583799019
 20
3.5017504598
 30
0.0
 10
5.64254735
 20
3.5052960675
 30
0.0
 10
5.6269088707
 20
3.5096145381
 30
0.0
 10
5.6145382565
 20
3.5135265706
 30
0.0
 10
5.6022671992
 20
3.5177419475
 30
0.0
 10
5.5871275092
 20
3.5235753336
 30
0.0
 10
5.5693257228
 20
3.5314576914
 30
0.0
 10
5.5519317287
 20
3.5402041258
 30
0.0
 10
5.5349895559
 20
3.5497960806
 30
0.0
 10
5.5185391488
 20
3.5602079024
 30
0.0
 10
5.5052718756
 20
3.5695469405
 30
0.0
 10
5.4949440771
 20
3.5774017677
 30
0.0
 10
5.484812604
 20
3.585508465
 30
0.0
 10
5.4725261647
 20
3.5961048945
 30
0.0
 10
5.4607741377
 20
3.6072911678
 30
0.0
 10
5.4517111984
 20
3.6165773785
 30
0.0
 10
5.4428793778
 20
3.6260836752
 30
0.0
 10
5.432281958
 20
3.6383698299
 30
0.0
 10
5.4203043286
 20
3.6537180176
 30
0.0
 10
5.4109615912
 20
3.6669832389
 30
0.0
 10
5.4038863524
 20
3.6778602382
 30
0.0
 10
5.3970806869
 20
3.6889078426
 30
0.0
 10
5.3890851812
 20
3.7030254968
 30
0.0
 10
5.3817914927
 20
3.7175181408
 30
0.0
 10
5.3763892371
 20
3.7293154996
 30
0.0
 10
5.3712788761
 20
3.7412421208
 30
0.0
 10
5.3654425331
 20
3.756380585
 30
0.0
 10
5.3593381912
 20
3.7748671822
 30
0.0
 10
5.3541480505
 20
3.7936314145
 30
0.0
 10
5.349886909
 20
3.8126283997
 30
0.0
 10
5.3465621691
 20
3.8318114099
 30
0.0
 10
5.3445783636
 20
3.8479149395
 30
0.0
 10
5.3434676377
 20
3.8608433175
 30
0.0
 10
5.3426751038
 20
3.8737951842
 30
0.0
 10
5.3422807753
 20
3.8900156505
 30
0.0
 10
5.3426818404
 20
3.9062359505
 30
0.0
 10
5.3434797444
 20
3.9191874847
 30
0.0
 10
5.3445958234
 20
3.9321153962
 30
0.0
 10
5.3465861183
 20
3.9482181144
 30
0.0
 10
5.3499183153
 20
3.9673998233
 30
0.0
 10
5.3541865769
 20
3.9863952123
 30
0.0
 10
5.3593833842
 20
4.0051576088
 30
0.0
 10
5.3654937319
 20
4.0236422308
 30
0.0
 10
5.3713345442
 20
4.0387789706
 30
0.0
 10
5.3764481549
 20
4.050704188
 30
0.0
 10
5.3818533879
 20
4.0625001415
 30
0.0
 10
5.3891502522
 20
4.0769911007
 30
0.0
 10
5.397148239
 20
4.0911072494
 30
0.0
 10
5.4039554727
 20
4.1021538055
 30
0.0
 10
5.4110320171
 20
4.1130298707
 30
0.0
 10
5.4203757571
 20
4.126294265
 30
0.0
 10
5.4323536587
 20
4.141642104
 30
0.0
 10
5.442950582
 20
4.1539285754
 30
0.0
 10
5.4517816092
 20
4.1634355408
 30
0.0
 10
5.4608434313
 20
4.1727227909
 30
0.0
 10
5.4725934934
 20
4.183911044
 30
0.0
 10
5.4848773298
 20
4.1945104666
 30
0.0
 10
5.4950063264
 20
4.2026201477
 30
0.0
 10
5.502750617
 20
4.2085141984
 30
0.0
 10
5.5106371896
 20
4.2142164376
 30
0.0
 10
5.5213352152
 20
4.2215590492
 30
0.0
 10
5.5350403496
 20
4.2302427907
 30
0.0
 10
5.5491547239
 20
4.2382444645
 30
0.0
 10
5.5606710056
 20
4.2442234687
 30
0.0
 10
5.5723305387
 20
4.2499183734
 30
0.0
 10
5.5871610143
 20
4.256498809
 30
0.0
 10
5.602295485
 20
4.262345393
 30
0.0
 10
5.6145626006
 20
4.2665724844
 30
0.0
 10
5.6269293417
 20
4.2704970101
 30
0.0
 10
5.6425631867
 20
4.2748325946
 30
0.0
 10
5.6583915291
 20
4.2783973626
 30
0.0
 10
5.6711479988
 20
4.2807809681
 30
0.0
 10
5.6807584575
 20
4.2823333257
 30
0.0
 10
5.6904046967
 20
4.2836494465
 30
0.0
 10
5.7033032349
 20
4.2850885963
 30
0.0
 10
5.7194804381
 20
4.2862949509
 30
0.0
 10
5.7324527363
 20
4.2866256034
 30
0.0
 10
5.7389356503
 20
4.2866313801
 30
0.0
 11
5.7389356503
 21
3.4936384168
 31
0.0
 11
5.7194923829
 21
3.4940998191
 31
0.0
 11
5.7000811703
 21
3.4955161977
 31
0.0
 11
5.6904049185
 21
3.4965812976
 31
0.0
 11
5.6807574814
 21
3.4978836951
 31
0.0
 11
5.6711457845
 21
3.4994229028
 31
0.0
 11
5.6615762084
 21
3.5011980929
 31
0.0
 11
5.6425853185
 21
3.5054508467
 31
0.0
 11
5.6238282074
 21
3.5106305552
 31
0.0
 11
5.6145508546
 21
3.5135644389
 31
0.0
 11
5.6053481919
 21
3.5167257309
 31
0.0
 11
5.5871887667
 21
3.5237222646
 31
0.0
 11
5.5693937209
 21
3.5316016906
 31
0.0
 11
5.552006872
 21
3.5403451319
 31
0.0
 11
5.5350714032
 21
3.5499327926
 31
0.0
 11
5.5186274167
 21
3.5603404125
 31
0.0
 11
5.50271408
 21
3.5715423764
 31
0.0
 11
5.4949686447
 21
3.5774332322
 31
0.0
 11
5.4873704143
 21
3.583512867
 31
0.0
 11
5.4726330955
 21
3.5962228165
 31
0.0
 11
5.4585369087
 21
3.6096405372
 31
0.0
 11
5.4517400933
 21
3.6166048861
 31
0.0
 11
5.4451165762
 21
3.6237342587
 31
0.0
 11
5.4324051475
 21
3.6384706567
 31
0.0
 11
5.4204320451
 21
3.653813039
 31
0.0
 11
5.4092262172
 21
3.6697242725
 31
0.0
 11
5.40392004
 21
3.6778815809
 31
0.0
 11
5.3988159976
 21
3.6861668358
 31
0.0
 11
5.3892255146
 21
3.7031005461
 31
0.0
 11
5.3804771339
 21
3.7204841053
 31
0.0
 11
5.3764257193
 21
3.7293316714
 31
0.0
 11
5.3725930951
 21
3.7382761607
 31
0.0
 11
5.3655924098
 21
3.7564339922
 31
0.0
 11
5.359490577
 21
3.7749133913
 31
0.0
 11
5.3543029166
 21
3.7936700739
 31
0.0
 11
5.3500430032
 21
3.8126592682
 31
0.0
 11
5.3467195462
 21
3.831834842
 31
0.0
 11
5.3443404145
 21
3.8511504281
 31
0.0
 11
5.3435074145
 21
3.8608462349
 31
0.0
 11
5.3429129753
 21
3.8705596186
 31
0.0
 11
5.3424398518
 21
3.890015618
 31
0.0
 11
5.3429210528
 21
3.9094714175
 31
0.0
 11
5.3435195192
 21
3.9191845513
 31
0.0
 11
5.3443565227
 21
3.9288800093
 31
0.0
 11
5.34674344
 21
3.9481946257
 31
0.0
 11
5.3500743523
 21
3.9673689006
 31
0.0
 11
5.3543413658
 21
3.9863565063
 31
0.0
 11
5.3595356595
 21
4.005111375
 31
0.0
 11
5.3656435039
 21
4.0235888146
 31
0.0
 11
5.3726495521
 21
4.0417445867
 31
0.0
 11
5.3764846061
 21
4.050688023
 31
0.0
 11
5.3805382524
 21
4.0595345415
 31
0.0
 11
5.3892904513
 21
4.076916096
 31
0.0
 11
5.3988839084
 21
4.0938480097
 31
0.0
 11
5.4039891275
 21
4.1021324771
 31
0.0
 11
5.4092962737
 21
4.1102890918
 31
0.0
 11
5.4205033162
 21
4.1261993478
 31
0.0
 11
5.4324766997
 21
4.1415413939
 31
0.0
 11
5.4451875465
 21
4.1562781909
 31
0.0
 11
5.4518104613
 21
4.1634080771
 31
0.0
 11
5.4586064395
 21
4.170373203
 31
0.0
 11
5.4727002912
 21
4.1837933198
 31
0.0
 11
5.4874344859
 21
4.1965068576
 31
0.0
 11
5.4950308928
 21
4.2025887597
 31
0.0
 11
5.5027743344
 21
4.2084822326
 31
0.0
 11
5.5106600527
 21
4.2141839173
 31
0.0
 11
5.5186831703
 21
4.2196906212
 31
0.0
 11
5.5351220933
 21
4.2301063176
 31
0.0
 11
5.5520520829
 21
4.2397037844
 31
0.0
 11
5.5606888736
 21
4.244187935
 31
0.0
 11
5.5694331138
 21
4.2484589509
 31
0.0
 11
5.5872221304
 21
4.2563521719
 31
0.0
 11
5.605375508
 21
4.2633646332
 31
0.0
 11
5.6145752001
 21
4.2665347113
 31
0.0
 11
5.6238496501
 21
4.2694779667
 31
0.0
 11
5.6426012416
 21
4.274678224
 31
0.0
 11
5.6615871277
 21
4.278953982
 31
0.0
 11
5.671154446
 21
4.2807416133
 31
0.0
 11
5.6807640721
 21
4.2822938998
 31
0.0
 11
5.6904096483
 21
4.2836100251
 31
0.0
 11
5.7000842891
 21
4.2846895049
 31
0.0
 11
5.7194931951
 21
4.2861366104
 31
0.0
 11
5.7389356503
 21
4.2866313801
 31
0.0
  0
SPLINE
  5
262
100
AcDbEntity
  8
0
100
AcDbSpline
 62
6
  6
CONTINUOUS
 70
0
 71
3
 72
66
 73
62
 74
60
 42
0.0000001
 43
0.0000001
 44
0.0000000001
 12
-0.4073740929
 22
0.7113259331
 32
0.0
 13
0.8197180546
 23
0.0007386993
 33
0.0
 40
0.0
 40
0.0
 40
0.0
 40
0.0
 40
0.0312325565
 40
0.0468610624
 40
0.0624921544
 40
0.0781227425
 40
0.0937506535
 40
0.1093762934
 40
0.1250005011
 40
0.1406240801
 40
0.1562478464
 40
0.1874933862
 40
0.2031189354
 40
0.2187445769
 40
0.2343700777
 40
0.2499953762
 40
0.265620546
 40
0.2812456129
 40
0.2968705887
 40
0.3124955243
 40
0.3281205096
 40
0.3437455586
 40
0.359370627
 40
0.374995667
 40
0.3906206818
 40
0.406245748
 40
0.4218709017
 40
0.4374961288
 40
0.453121418
 40
0.4687468111
 40
0.4843723693
 40
0.4999980664
 40
0.5156238281
 40
0.5312495864
 40
0.5468753333
 40
0.5625011168
 40
0.5781269237
 40
0.5937526933
 40
0.6093783711
 40
0.6250039611
 40
0.6406295122
 40
0.6562550036
 40
0.6875013789
 40
0.7031263639
 40
0.7187512828
 40
0.7343762372
 40
0.7500012928
 40
0.765626531
 40
0.7812520682
 40
0.796877832
 40
0.8125035851
 40
0.8437497937
 40
0.8593740472
 40
0.8749982129
 40
0.8906230212
 40
0.9062491866
 40
0.9218774561
 40
0.937508171
 40
0.9531392169
 40
0.9687675939
 40
1.0
 40
1.0
 40
1.0
 40
1.0
 10
5.3987102469
 20
3.6951408588
 30
0.0
 10
5.3944691355
 20
3.7025463679
 30
0.0
 10
5.3884678801
 20
3.713870852
 30
0.0
 10
5.3812187122
 20
3.729333213
 30
0.0
 10
5.3761602323
 20
3.7411072971
 30
0.0
 10
5.3714892675
 20
3.7530399802
 30
0.0
 10
5.3672122685
 20
3.7651179628
 30
0.0
 10
5.3633329874
 20
3.7773276509
 30
0.0
 10
5.3598549089
 20
3.7896563447
 30
0.0
 10
5.3567813836
 20
3.8020917396
 30
0.0
 10
5.3532277986
 20
3.8187957307
 30
0.0
 10
5.3504958658
 20
3.8356666168
 30
0.0
 10
5.3485937154
 20
3.8526391867
 30
0.0
 10
5.3475830594
 20
3.8654102545
 30
0.0
 10
5.3469904772
 20
3.8782072813
 30
0.0
 10
5.3468170775
 20
3.8910167668
 30
0.0
 10
5.3470620343
 20
3.9038249419
 30
0.0
 10
5.3477248172
 20
3.9166182172
 30
0.0
 10
5.3488047635
 20
3.9293829867
 30
0.0
 10
5.3503014554
 20
3.9421056114
 30
0.0
 10
5.3522135001
 20
3.9547724858
 30
0.0
 10
5.3545379336
 20
3.9673702384
 30
0.0
 10
5.3572721059
 20
3.9798854707
 30
0.0
 10
5.3604132202
 20
3.9923048129
 30
0.0
 10
5.3639587697
 20
4.0046148052
 30
0.0
 10
5.367904944
 20
4.0168023045
 30
0.0
 10
5.3722467139
 20
4.0288545986
 30
0.0
 10
5.3769793412
 20
4.040758907
 30
0.0
 10
5.3820979475
 20
4.0525025034
 30
0.0
 10
5.387597934
 20
4.0640724992
 30
0.0
 10
5.3934732021
 20
4.0754566334
 30
0.0
 10
5.3997167631
 20
4.0866431286
 30
0.0
 10
5.4063218615
 20
4.0976200957
 30
0.0
 10
5.4132816213
 20
4.1083757189
 30
0.0
 10
5.4205894228
 20
4.1188979822
 30
0.0
 10
5.4282372007
 20
4.129175802
 30
0.0
 10
5.436216155
 20
4.1391986972
 30
0.0
 10
5.4445176873
 20
4.1489560464
 30
0.0
 10
5.4531331128
 20
4.158437333
 30
0.0
 10
5.462053897
 20
4.1676317455
 30
0.0
 10
5.4712704471
 20
4.1765298533
 30
0.0
 10
5.4839378246
 20
4.1879854275
 30
0.0
 10
5.4971594292
 20
4.1988158182
 30
0.0
 10
5.5108860048
 20
4.2089777062
 30
0.0
 10
5.5214255282
 20
4.2162596744
 30
0.0
 10
5.5321967592
 20
4.223193982
 30
0.0
 10
5.5431884717
 20
4.2297734795
 30
0.0
 10
5.5543891595
 20
4.2359909109
 30
0.0
 10
5.5657873158
 20
4.241838787
 30
0.0
 10
5.5773706043
 20
4.2473115734
 30
0.0
 10
5.5930424312
 20
4.2541004803
 30
0.0
 10
5.6090383643
 20
4.260119784
 30
0.0
 10
5.6252979426
 20
4.2653440993
 30
0.0
 10
5.6376152919
 20
4.2688626287
 30
0.0
 10
5.6500411483
 20
4.2719776952
 30
0.0
 10
5.66256313
 20
4.2746861072
 30
0.0
 10
5.6751684574
 20
4.276984585
 30
0.0
 10
5.6878434844
 20
4.2788696385
 30
0.0
 10
5.700573526
 20
4.2803402747
 30
0.0
 10
5.7175927383
 20
4.2817467625
 30
0.0
 10
5.7304017279
 20
4.2821776815
 30
0.0
 10
5.7389356503
 20
4.282185372
 30
0.0
 11
5.3987102469
 21
3.6951408588
 31
0.0
 11
5.3867206689
 21
3.7177618081
 31
0.0
 11
5.381282474
 21
3.7293612512
 31
0.0
 11
5.3762247592
 21
3.7411338842
 31
0.0
 11
5.3715545876
 21
3.7530651154
 31
0.0
 11
5.3672782639
 21
3.7651407771
 31
0.0
 11
5.3633996843
 21
3.7773480487
 31
0.0
 11
5.3599222675
 21
3.7896743765
 31
0.0
 11
5.3568494325
 21
3.8021072068
 31
0.0
 11
5.354184596
 21
3.8146339846
 31
0.0
 11
5.3500896254
 21
3.839917054
 31
0.0
 11
5.3486630651
 21
3.8526459141
 31
0.0
 11
5.3476527355
 21
3.8654146308
 31
0.0
 11
5.3470603387
 21
3.8782094345
 31
0.0
 11
5.3468868037
 21
3.8910166033
 31
0.0
 11
5.3471316735
 21
3.9038225014
 31
0.0
 11
5.3477943468
 21
3.9166135017
 31
0.0
 11
5.3488742225
 21
3.9293759772
 31
0.0
 11
5.3503706786
 21
3.9420963029
 31
0.0
 11
5.3522822277
 21
3.9547609424
 31
0.0
 11
5.3546062219
 21
3.9673564773
 31
0.0
 11
5.3573399317
 21
3.9798694981
 31
0.0
 11
5.3604806278
 21
3.9922865947
 31
0.0
 11
5.3640255348
 21
4.0045943713
 31
0.0
 11
5.3679708658
 21
4.0167797386
 31
0.0
 11
5.3723118461
 21
4.0288299061
 31
0.0
 11
5.3770436603
 21
4.040732096
 31
0.0
 11
5.3821614927
 21
4.0524735304
 31
0.0
 11
5.3876604527
 21
4.0640414653
 31
0.0
 11
5.3935345584
 21
4.0754236453
 31
0.0
 11
5.399777006
 21
4.086608184
 31
0.0
 11
5.4063809711
 21
4.0975832039
 31
0.0
 11
5.4133396294
 21
4.1083368274
 31
0.0
 11
5.4206460784
 21
4.1188572317
 31
0.0
 11
5.4282923923
 21
4.1291333086
 31
0.0
 11
5.4362699276
 21
4.1391544511
 31
0.0
 11
5.4445700259
 21
4.1489100622
 31
0.0
 11
5.4531840291
 21
4.1583895454
 31
0.0
 11
5.4621032048
 21
4.1675823749
 31
0.0
 11
5.47131791
 21
4.1764789024
 31
0.0
 11
5.4808178872
 21
4.1850700708
 31
0.0
 11
5.5006325813
 21
4.2013001467
 31
0.0
 11
5.5109266878
 21
4.2089210703
 31
0.0
 11
5.5214641353
 21
4.2162017239
 31
0.0
 11
5.5322334702
 21
4.2231348248
 31
0.0
 11
5.5432232346
 21
4.2297130971
 31
0.0
 11
5.5544219704
 21
4.2359292647
 31
0.0
 11
5.5658180947
 21
4.2417762341
 31
0.0
 11
5.5773991946
 21
4.2472481247
 31
0.0
 11
5.5891525179
 21
4.2523395513
 31
0.0
 11
5.6131248223
 21
4.2613594785
 31
0.0
 11
5.6253183117
 21
4.2652774578
 31
0.0
 11
5.6376331225
 21
4.2687953179
 31
0.0
 11
5.6500566258
 21
4.2719097938
 31
0.0
 11
5.6625761931
 21
4.2746176207
 31
0.0
 11
5.6751791958
 21
4.2769155343
 31
0.0
 11
5.6878525595
 21
4.2788005527
 31
0.0
 11
5.7005809448
 21
4.2802711328
 31
0.0
 11
5.7133482937
 21
4.2813261873
 31
0.0
 11
5.7389356503
 21
4.282185372
 31
0.0
  0
SPLINE
  5
263
100
AcDbEntity
  8
0
100
AcDbSpline
 62
6
  6
CONTINUOUS
 70
0
 71
3
 72
19
 73
15
 74
13
 42
0.0000001
 43
0.0000001
 44
0.0000000001
 12
0.1497493297
 22
-0.0687682281
 32
0.0
 13
0.1647040117
 23
0.0051497062
 33
0.0
 40
0.0
 40
0.0
 40
0.0
 40
0.0
 40
0.1249394163
 40
0.1874526538
 40
0.2499763216
 40
0.3124995234
 40
0.3750123294
 40
0.4999992819
 40
0.624987774
 40
0.6875014435
 40
0.7500242972
 40
0.8125471652
 40
0.8750598629
 40
1.0
 40
1.0
 40
1.0
 40
1.0
 10
5.6093935559
 20
3.5612423881
 30
0.0
 10
5.6156300872
 20
3.558378434
 30
0.0
 10
5.6251161333
 20
3.5543546661
 30
0.0
 10
5.6379796099
 20
3.5495484916
 30
0.0
 10
5.6477323667
 20
3.546223746
 30
0.0
 10
5.6575773292
 20
3.5431832417
 30
0.0
 10
5.6708127791
 20
3.5395129429
 30
0.0
 10
5.6875466436
 20
3.5356470866
 30
0.0
 10
5.7044756134
 20
3.5327529671
 30
0.0
 10
5.7181015432
 20
3.53102539
 30
0.0
 10
5.7283564905
 20
3.5300238573
 30
0.0
 10
5.7386359281
 20
3.5293164011
 30
0.0
 10
5.7523568177
 20
3.5287653201
 30
0.0
 10
5.762660626
 20
3.5287926842
 30
0.0
 10
5.7695200066
 20
3.5290071525
 30
0.0
 11
5.6093935559
 21
3.5612423881
 31
0.0
 11
5.6283463069
 21
3.5532011053
 31
0.0
 11
5.637995927
 21
3.5495955802
 31
0.0
 11
5.6477477632
 21
3.5462711131
 31
0.0
 11
5.6575918555
 21
3.5432309392
 31
0.0
 11
5.6675183744
 21
3.5404781703
 31
0.0
 11
5.68758557
 21
3.5358414404
 31
0.0
 11
5.707887129
 21
3.5323703085
 31
0.0
 11
5.7181065893
 21
3.5310745168
 31
0.0
 11
5.7283605805
 21
3.5300728719
 31
0.0
 11
5.7386390586
 21
3.5293653655
 31
0.0
 11
5.7489318828
 21
3.5289519451
 31
0.0
 11
5.7695200066
 21
3.5290071525
 31
0.0
  0
SPLINE
  5
264
100
AcDbEntity
  8
0
100
AcDbSpline
 62
6
  6
CONTINUOUS
 70
0
 71
3
 72
46
 73
42
 74
40
 42
0.0000001
 43
0.0000001
 44
0.0000000001
 12
0.0642431248
 22
-0.5891339532
 32
0.0
 13
0.5926261264
 23
0.0005179234
 33
0.0
 40
0.0
 40
0.0
 40
0.0
 40
0.0
 40
0.0312495167
 40
0.0624991496
 40
0.0781249774
 40
0.093750773
 40
0.1093765355
 40
0.1250022944
 40
0.1562518672
 40
0.1875014985
 40
0.2187510196
 40
0.2500005172
 40
0.2812501378
 40
0.3124997315
 40
0.3281254961
 40
0.3437512467
 40
0.3750007912
 40
0.4062504185
 40
0.437499965
 40
0.4531257349
 40
0.4687515324
 40
0.5000011787
 40
0.5312507755
 40
0.5468765115
 40
0.5625021959
 40
0.5937515418
 40
0.6250010654
 40
0.6562507946
 40
0.6718768142
 40
0.6875029578
 40
0.7187532706
 40
0.7500028946
 40
0.7812508554
 40
0.8124973194
 40
0.843744955
 40
0.874996744
 40
0.8906262033
 40
0.9062575143
 40
0.9375185119
 40
0.9687700514
 40
1.0
 40
1.0
 40
1.0
 40
1.0
 10
5.3359358372
 20
3.8459892481
 30
0.0
 10
5.3366050261
 20
3.839852531
 30
0.0
 10
5.3382246189
 20
3.8276080011
 30
0.0
 10
5.3409456655
 20
3.812411143
 30
0.0
 10
5.3435365862
 20
3.8003384865
 30
0.0
 10
5.3456860997
 20
3.7913303077
 30
0.0
 10
5.3480409361
 20
3.7823736112
 30
0.0
 10
5.3514531357
 20
3.7705069669
 30
0.0
 10
5.3562258888
 20
3.7558243826
 30
0.0
 10
5.362750899
 20
3.7384859325
 30
0.0
 10
5.3700605823
 20
3.7214631915
 30
0.0
 10
5.3781418857
 20
3.7047929248
 30
0.0
 10
5.3869760656
 20
3.6885093355
 30
0.0
 10
5.3949498685
 20
3.6752890787
 30
0.0
 10
5.4016857494
 20
3.664940674
 30
0.0
 10
5.4086567772
 20
3.6547492071
 30
0.0
 10
5.4178052094
 20
3.642312807
 30
0.0
 10
5.4294523907
 20
3.6279067184
 30
0.0
 10
5.4396969896
 20
3.6163565503
 30
0.0
 10
5.4482026281
 20
3.6074058234
 30
0.0
 10
5.4569109552
 20
3.5986521082
 30
0.0
 10
5.4681680683
 20
3.5880865769
 30
0.0
 10
5.479895745
 20
3.5780459457
 30
0.0
 10
5.4895450129
 20
3.5703418453
 30
0.0
 10
5.499368045
 20
3.5628606861
 30
0.0
 10
5.5119643307
 20
3.5539337904
 30
0.0
 10
5.5275523751
 20
3.5439235766
 30
0.0
 10
5.5409107312
 20
3.5361831307
 30
0.0
 10
5.551800681
 20
3.5303629666
 30
0.0
 10
5.5628212115
 20
3.5247937497
 30
0.0
 10
5.5768313732
 20
3.5183069196
 30
0.0
 10
5.5939800976
 20
3.511298823
 30
0.0
 10
5.6114305527
 20
3.5050816408
 30
0.0
 10
5.6291470365
 20
3.499670226
 30
0.0
 10
5.6470928412
 20
3.4950739337
 30
0.0
 10
5.6622091282
 20
3.4919308246
 30
0.0
 10
5.6743795392
 20
3.4898335252
 30
0.0
 10
5.6865966303
 20
3.4880155973
 30
0.0
 10
5.7019400449
 20
3.4862680136
 30
0.0
 10
5.720421569
 20
3.4850136196
 30
0.0
 10
5.7327664225
 20
3.4847410089
 30
0.0
 10
5.7389356503
 20
3.4847464005
 30
0.0
 11
5.3359358372
 21
3.8459892481
 31
0.0
 11
5.3383639193
 21
3.8276298251
 31
0.0
 11
5.341627839
 21
3.8094003607
 31
0.0
 11
5.3435709649
 21
3.8003462457
 31
0.0
 11
5.3457203223
 21
3.7913388795
 31
0.0
 11
5.3480750021
 21
3.7823830154
 31
0.0
 11
5.3506340072
 21
3.7734833821
 31
0.0
 11
5.3563588487
 21
3.7558711302
 31
0.0
 11
5.362881687
 21
3.7385385282
 31
0.0
 11
5.3701891876
 21
3.7215219326
 31
0.0
 11
5.3782673529
 21
3.7048573948
 31
0.0
 11
5.3870984442
 21
3.6885792467
 31
0.0
 11
5.3966634118
 21
3.6727212179
 31
0.0
 11
5.4017151459
 21
3.6649602885
 31
0.0
 11
5.4069431739
 21
3.6573170161
 31
0.0
 11
5.4179167331
 21
3.6423990537
 31
0.0
 11
5.4295600974
 21
3.6279977173
 31
0.0
 11
5.441849014
 21
3.614143217
 31
0.0
 11
5.4482279594
 21
3.6074304563
 31
0.0
 11
5.4547588723
 21
3.6008654293
 31
0.0
 11
5.468262189
 21
3.5881915475
 31
0.0
 11
5.482330096
 21
3.5761474724
 31
0.0
 11
5.489566747
 21
3.5703697037
 31
0.0
 11
5.4969337105
 21
3.5647590877
 31
0.0
 11
5.5120430749
 21
3.5540508033
 31
0.0
 11
5.5276259553
 21
3.5440439064
 31
0.0
 11
5.5436498277
 21
3.5347592864
 31
0.0
 11
5.5518169696
 21
3.530394354
 31
0.0
 11
5.560081993
 21
3.5262175621
 31
0.0
 11
5.5768876891
 21
3.518436171
 31
0.0
 11
5.5940308116
 21
3.5114304801
 31
0.0
 11
5.6114752331
 21
3.5052158199
 31
0.0
 11
5.6291849113
 21
3.4998061722
 31
0.0
 11
5.64712405
 21
3.4952116095
 31
0.0
 11
5.6652568973
 21
3.4914415002
 31
0.0
 11
5.6743847889
 21
3.4898685431
 31
0.0
 11
5.6835474184
 21
3.4885050364
 31
0.0
 11
5.7019544665
 21
3.4864082227
 31
0.0
 11
5.7204324551
 21
3.4851542959
 31
0.0
 11
5.7389356503
 21
3.4847464005
 31
0.0
  0
SPLINE
  5
265
100
AcDbEntity
  8
0
100
AcDbSpline
 62
6
  6
CONTINUOUS
 70
0
 71
3
 72
87
 73
83
 74
81
 42
0.0000001
 43
0.0000001
 44
0.0000000001
 12
1.2699686919
 22
0.0011129401
 32
0.0
 13
-1.2699686945
 23
-0.0011098845
 33
0.0
 40
0.0
 40
0.0
 40
0.0
 40
0.0
 40
0.0156148675
 40
0.0312410923
 40
0.0390568791
 40
0.0468729048
 40
0.0546883334
 40
0.0625027187
 40
0.0781279221
 40
0.0937513399
 40
0.1015634758
 40
0.1093757804
 40
0.124999924
 40
0.1406246318
 40
0.1562493637
 40
0.1718738313
 40
0.1874981848
 40
0.2031225218
 40
0.2109353146
 40
0.2187481732
 40
0.2343729333
 40
0.2499978812
 40
0.257810969
 40
0.2656240715
 40
0.2812492036
 40
0.2968744417
 40
0.3124996391
 40
0.3203127983
 40
0.3281259575
 40
0.3437510855
 40
0.3593760612
 40
0.3671890355
 40
0.3750019462
 40
0.3906264935
 40
0.4062509445
 40
0.4218752853
 40
0.4374996559
 40
0.4531241532
 40
0.4687487221
 40
0.4765616284
 40
0.4843745833
 40
0.4999994603
 40
0.5156244009
 40
0.5234374366
 40
0.5312504577
 40
0.546875333
 40
0.5625001646
 40
0.5781248087
 40
0.5937492915
 40
0.6093737583
 40
0.6249982165
 40
0.6328110469
 40
0.6406239179
 40
0.6562486134
 40
0.671873348
 40
0.6796862619
 40
0.687499141
 40
0.7031236918
 40
0.7187482191
 40
0.7343726544
 40
0.7499970605
 40
0.7656215181
 40
0.7812459242
 40
0.7890586717
 40
0.7968714115
 40
0.8124958154
 40
0.8281204354
 40
0.8359334386
 40
0.8437465468
 40
0.859371893
 40
0.8749972452
 40
0.8906219822
 40
0.8984345466
 40
0.9062469397
 40
0.9218708689
 40
0.9374965499
 40
0.9453111495
 40
0.9531267616
 40
0.9609429158
 40
0.9687587859
 40
0.9843850944
 40
1.0
 40
1.0
 40
1.0
 40
1.0
 10
5.7389356503
 20
4.2933003923
 30
0.0
 10
5.7455457812
 20
4.2933061851
 30
0.0
 10
5.7587732674
 20
4.2929915102
 30
0.0
 10
5.7752699393
 20
4.2917873192
 30
0.0
 10
5.7884238563
 20
4.2903392656
 30
0.0
 10
5.7982613952
 20
4.2890111532
 30
0.0
 10
5.8080627063
 20
4.2874415037
 30
0.0
 10
5.821072785
 20
4.2850277884
 30
0.0
 10
5.837216242
 20
4.2814122808
 30
0.0
 10
5.8531617565
 20
4.2770087957
 30
0.0
 10
5.8657751531
 20
4.2730198564
 30
0.0
 10
5.8782868645
 20
4.2687217228
 30
0.0
 10
5.8937233169
 20
4.2627738229
 30
0.0
 10
5.9118739495
 20
4.2547367558
 30
0.0
 10
5.9296087814
 20
4.2458186995
 30
0.0
 10
5.946883041
 20
4.2360386053
 30
0.0
 10
5.9636560174
 20
4.2254225641
 30
0.0
 10
5.9771835082
 20
4.2159003238
 30
0.0
 10
5.9877138981
 20
4.2078913605
 30
0.0
 10
5.9980441695
 20
4.1996255574
 30
0.0
 10
6.0105717527
 20
4.1888211553
 30
0.0
 10
6.0225544678
 20
4.1774153213
 30
0.0
 10
6.0317953279
 20
4.1679468133
 30
0.0
 10
6.0408005486
 20
4.1582538568
 30
0.0
 10
6.0516060732
 20
4.1457264347
 30
0.0
 10
6.0638189574
 20
4.1300768013
 30
0.0
 10
6.0733452308
 20
4.1165509931
 30
0.0
 10
6.0805594849
 20
4.1054602718
 30
0.0
 10
6.0874988632
 20
4.0941955214
 30
0.0
 10
6.0956514324
 20
4.0798003643
 30
0.0
 10
6.1030884062
 20
4.0650228848
 30
0.0
 10
6.1085968309
 20
4.052993742
 30
0.0
 10
6.1138075769
 20
4.0408329161
 30
0.0
 10
6.1197583688
 20
4.0253972478
 30
0.0
 10
6.125982299
 20
4.0065478881
 30
0.0
 10
6.1312742362
 20
3.9874157542
 30
0.0
 10
6.1356189355
 20
3.9680465179
 30
0.0
 10
6.1390087436
 20
3.9484877274
 30
0.0
 10
6.1410313706
 20
3.9320687829
 30
0.0
 10
6.1421638842
 20
3.9188871693
 30
0.0
 10
6.1429720028
 20
3.905681544
 30
0.0
 10
6.1433741608
 20
3.889143219
 30
0.0
 10
6.1429653452
 20
3.8726050224
 30
0.0
 10
6.1421518692
 20
3.8593996157
 30
0.0
 10
6.1410139608
 20
3.8462182537
 30
0.0
 10
6.138984802
 20
3.8297997978
 30
0.0
 10
6.135587493
 20
3.8102419204
 30
0.0
 10
6.1312356489
 20
3.7908739678
 30
0.0
 10
6.1259370239
 20
3.7717435032
 30
0.0
 10
6.1197070501
 20
3.752896119
 30
0.0
 10
6.1137517791
 20
3.7374622572
 30
0.0
 10
6.1085378107
 20
3.7253029401
 30
0.0
 10
6.1030264754
 20
3.7132753486
 30
0.0
 10
6.0955864483
 20
3.6984997884
 30
0.0
 10
6.0874315675
 20
3.6841064017
 30
0.0
 10
6.080490806
 20
3.6728429644
 30
0.0
 10
6.0732754895
 20
3.6617535221
 30
0.0
 10
6.0637487008
 20
3.6482290037
 30
0.0
 10
6.0515360235
 20
3.6325800927
 30
0.0
 10
6.0385712817
 20
3.6175480824
 30
0.0
 10
6.0248836291
 20
3.6031712575
 30
0.0
 10
6.0105080345
 20
3.5894827146
 30
0.0
 10
5.9979834363
 20
3.5786752438
 30
0.0
 10
5.9876558028
 20
3.5704065422
 30
0.0
 10
5.9771281001
 20
3.5623940791
 30
0.0
 10
5.9636046299
 20
3.5528662623
 30
0.0
 10
5.9496307069
 20
3.5440120804
 30
0.0
 10
5.9382021547
 20
3.5373465213
 30
0.0
 10
5.9266131224
 20
3.5309634839
 30
0.0
 10
5.9118377282
 20
3.5235212185
 30
0.0
 10
5.8936927925
 20
3.5154699133
 30
0.0
 10
5.8782609191
 20
3.5095083305
 30
0.0
 10
5.8657528044
 20
3.5051983303
 30
0.0
 10
5.8531429642
 20
3.5011967367
 30
0.0
 10
5.8372017212
 20
3.4967759598
 30
0.0
 10
5.8210621087
 20
3.4931411566
 30
0.0
 10
5.8080547569
 20
3.4907107987
 30
0.0
 10
5.798255331
 20
3.4891280573
 30
0.0
 10
5.7884194952
 20
3.4877861907
 30
0.0
 10
5.7752675859
 20
3.4863189381
 30
0.0
 10
5.7587727537
 20
3.485089115
 30
0.0
 10
5.7455457974
 20
3.4847521774
 30
0.0
 10
5.7389356503
 20
3.4847464005
 30
0.0
 11
5.7389356503
 21
4.2933003923
 31
0.0
 11
5.7587604616
 21
4.292829607
 31
0.0
 11
5.7785526441
 21
4.2913851191
 31
0.0
 11
5.7884188455
 21
4.2902989604
 31
0.0
 11
5.798255705
 21
4.2889708446
 31
0.0
 11
5.8080561673
 21
4.2874012653
 31
0.0
 11
5.8178137018
 21
4.2855910547
 31
0.0
 11
5.8371775728
 21
4.2812544603
 31
0.0
 11
5.8563029369
 21
4.2759727928
 31
0.0
 11
5.8657623379
 21
4.2729812407
 31
0.0
 11
5.875145502
 21
4.2697578679
 31
0.0
 11
5.8936608986
 21
4.2626239889
 31
0.0
 11
5.9118046188
 21
4.2545899371
 31
0.0
 11
5.92953214
 21
4.2456749618
 31
0.0
 11
5.9467995594
 21
4.235899242
 31
0.0
 11
5.9635659897
 21
4.225287478
 31
0.0
 11
5.9797914589
 21
4.2138657429
 31
0.0
 11
5.9876888428
 21
4.2078592853
 31
0.0
 11
5.9954361575
 21
4.2016603355
 31
0.0
 11
6.0104627073
 21
4.188700937
 31
0.0
 11
6.0248356078
 21
4.1750198404
 31
0.0
 11
6.0317658608
 21
4.1679187678
 31
0.0
 11
6.0385194176
 21
4.1606494156
 31
0.0
 11
6.0514804482
 21
4.1456236495
 31
0.0
 11
6.0636887111
 21
4.1299799409
 31
0.0
 11
6.0751146873
 21
4.1137561215
 31
0.0
 11
6.0805251261
 21
4.1054385142
 31
0.0
 11
6.0857294514
 21
4.0969904117
 31
0.0
 11
6.0955083531
 21
4.0797238302
 31
0.0
 11
6.1044286146
 21
4.0619986218
 31
0.0
 11
6.1085596398
 21
4.0529772357
 31
0.0
 11
6.112467551
 21
4.0438570709
 31
0.0
 11
6.1196055695
 21
4.0253427202
 31
0.0
 11
6.1258269842
 21
4.0065007026
 31
0.0
 11
6.1311163598
 21
3.9873762526
 31
0.0
 11
6.1354597734
 21
3.9680149939
 31
0.0
 11
6.138848288
 21
3.948463832
 31
0.0
 11
6.1412739917
 21
3.9287699361
 31
0.0
 11
6.1421233306
 21
3.9188842046
 31
0.0
 11
6.1427294574
 21
3.9089805234
 31
0.0
 11
6.1432119683
 21
3.8891432785
 31
0.0
 11
6.1427214601
 21
3.8693061488
 31
0.0
 11
6.142111313
 21
3.8594026118
 31
0.0
 11
6.1412579476
 21
3.8495170807
 31
0.0
 11
6.1388244041
 21
3.8298237599
 31
0.0
 11
6.1354283827
 21
3.8102734695
 31
0.0
 11
6.1310778295
 21
3.7909134579
 31
0.0
 11
6.1257817936
 21
3.7717906642
 31
0.0
 11
6.1195543415
 21
3.7529506199
 31
0.0
 11
6.1124109662
 21
3.7344384568
 31
0.0
 11
6.1085006505
 21
3.7253194336
 31
0.0
 11
6.1043674369
 21
3.7162991941
 31
0.0
 11
6.095443489
 21
3.6985762399
 31
0.0
 11
6.0856618277
 21
3.6813117958
 31
0.0
 11
6.0804564723
 21
3.6728646939
 31
0.0
 11
6.0750452458
 21
3.6645480234
 31
0.0
 11
6.0636185721
 21
3.6483256995
 31
0.0
 11
6.0514106482
 21
3.6326828715
 31
0.0
 11
6.0384507851
 21
3.617657267
 31
0.0
 11
6.024768986
 21
3.6032859851
 31
0.0
 11
6.0103990666
 21
3.5896026603
 31
0.0
 11
5.9953761483
 21
3.57663974
 31
0.0
 11
5.9876307907
 21
3.5704385711
 31
0.0
 11
5.9797354814
 21
3.5644294978
 31
0.0
 11
5.9635146353
 21
3.5530010504
 31
0.0
 11
5.9467532053
 21
3.542380758
 31
0.0
 11
5.938182166
 21
3.5373818787
 31
0.0
 11
5.9294908603
 21
3.53259488
 31
0.0
 11
5.9117685811
 21
3.5236677544
 31
0.0
 11
5.893630317
 21
3.5156193738
 31
0.0
 11
5.875120425
 21
3.5084691331
 31
0.0
 11
5.865739979
 21
3.5052368457
 31
0.0
 11
5.8562832418
 21
3.502235804
 31
0.0
 11
5.837162949
 21
3.4969333763
 31
0.0
 11
5.8178036563
 21
3.4925736266
 31
0.0
 11
5.8080481692
 21
3.4907509326
 31
0.0
 11
5.7982495781
 21
3.4891682512
 31
0.0
 11
5.7884144206
 21
3.487826384
 31
0.0
 11
5.7785497089
 21
3.4867258223
 31
0.0
 11
5.7587596891
 21
3.4852505692
 31
0.0
 11
5.7389356503
 21
3.4847464005
 31
0.0
  0
SPLINE
  5
266
100
AcDbEntity
  8
0
100
AcDbSpline
 62
6
  6
CONTINUOUS
 70
0
 71
3
 72
85
 73
81
 74
79
 42
0.0000001
 43
0.0000001
 44
0.0000000001
 12
1.127442916
 22
0.0009990393
 32
0.0
 13
-1.0694680446
 23
-0.3568846151
 33
0.0
 40
0.0
 40
0.0
 40
0.0
 40
0.0
 40
0.0156141113
 40
0.0312390543
 40
0.0390543284
 40
0.0468702299
 40
0.0546860765
 40
0.0625012248
 40
0.0781280131
 40
0.0937525369
 40
0.1093761015
 40
0.1171884094
 40
0.1250009554
 40
0.1406257742
 40
0.1562511078
 40
0.1718764463
 40
0.1796894629
 40
0.1875023787
 40
0.2031270664
 40
0.2187515838
 40
0.2343760099
 40
0.2500005156
 40
0.2656251595
 40
0.281249821
 40
0.2968743913
 40
0.3124989301
 40
0.3281234897
 40
0.3437480119
 40
0.3515607262
 40
0.3593734437
 40
0.3749979858
 40
0.3906225588
 40
0.4062470545
 40
0.4140597388
 40
0.4218724202
 40
0.4374968861
 40
0.4531214254
 40
0.468746033
 40
0.4843708202
 40
0.4999958343
 40
0.5078088666
 40
0.5156219121
 40
0.5234349615
 40
0.5312480176
 40
0.5468732542
 40
0.5624985737
 40
0.5781238547
 40
0.5859369263
 40
0.593749976
 40
0.6093751075
 40
0.6250001689
 40
0.6406250326
 40
0.6484378428
 40
0.656250607
 40
0.6718751469
 40
0.6874996962
 40
0.7031242996
 40
0.7187490995
 40
0.7343741543
 40
0.7499993258
 40
0.7656244667
 40
0.7812495988
 40
0.7968748084
 40
0.8125000659
 40
0.8203131811
 40
0.828126321
 40
0.8437517023
 40
0.8593768671
 40
0.8750013613
 40
0.8828136953
 40
0.8906257541
 40
0.9062487403
 40
0.921872681
 40
0.9374990035
 40
0.9453139954
 40
0.9531297422
 40
0.9609455906
 40
0.9687608482
 40
0.9843858306
 40
1.0
 40
1.0
 40
1.0
 40
1.0
 10
5.7389356503
 20
4.2888543842
 30
0.0
 10
5.7448036567
 20
4.2888595839
 30
0.0
 10
5.756545497
 20
4.2886100144
 30
0.0
 10
5.7711962893
 20
4.2876515856
 30
0.0
 10
5.7828868502
 20
4.286498278
 30
0.0
 10
5.7916355581
 20
4.2854401705
 30
0.0
 10
5.8003587744
 20
4.2841894263
 30
0.0
 10
5.8119480617
 20
4.2822654237
 30
0.0
 10
5.826349019
 20
4.279381008
 30
0.0
 10
5.8434581303
 20
4.2751617484
 30
0.0
 10
5.8575468468
 20
4.2710207848
 30
0.0
 10
5.8686988697
 20
4.2673378535
 30
0.0
 10
5.8797672454
 20
4.2634092735
 30
0.0
 10
5.8934367578
 20
4.2580418595
 30
0.0
 10
5.9095400211
 20
4.2508852773
 30
0.0
 10
5.9226846261
 20
4.2443358336
 30
0.0
 10
5.9330181808
 20
4.2387524256
 30
0.0
 10
5.9432256314
 20
4.2329421689
 30
0.0
 10
5.9557408698
 20
4.2252593186
 30
0.0
 10
5.9703377496
 20
4.2153879935
 30
0.0
 10
5.9844856811
 20
4.2048831136
 30
0.0
 10
5.9981557831
 20
4.1937635382
 30
0.0
 10
6.011322715
 20
4.1820523922
 30
0.0
 10
6.0239614201
 20
4.1697730125
 30
0.0
 10
6.0360465556
 20
4.1569484736
 30
0.0
 10
6.047553532
 20
4.1436027375
 30
0.0
 10
6.0584615887
 20
4.1297634482
 30
0.0
 10
6.0670355145
 20
4.1178411366
 30
0.0
 10
6.0735737332
 20
4.1080842447
 30
0.0
 10
6.0798948531
 20
4.0981853179
 30
0.0
 10
6.0873846196
 20
4.0855536716
 30
0.0
 10
6.0956959235
 20
4.0700156875
 30
0.0
 10
6.1020456579
 20
4.0567742677
 30
0.0
 10
6.106770772
 20
4.0460217044
 30
0.0
 10
6.1112573768
 20
4.0351674656
 30
0.0
 10
6.1164155215
 20
4.0214180674
 30
0.0
 10
6.1218729552
 20
4.0046631412
 30
0.0
 10
6.1265874083
 20
3.9876838019
 30
0.0
 10
6.1305476056
 20
3.9705129143
 30
0.0
 10
6.133214644
 20
3.9560715741
 30
0.0
 10
6.1349653793
 20
3.9444573971
 30
0.0
 10
6.1360864232
 20
3.9357195168
 30
0.0
 10
6.1370146952
 20
3.9269590482
 30
0.0
 10
6.1379943039
 20
3.9152544846
 30
0.0
 10
6.1387340475
 20
3.9005872351
 30
0.0
 10
6.1388462535
 20
3.8829655648
 30
0.0
 10
6.1382935826
 20
3.8682900831
 30
0.0
 10
6.1374638973
 20
3.8565738754
 30
0.0
 10
6.1363757795
 20
3.8448788929
 30
0.0
 10
6.134532401
 20
3.8303093184
 30
0.0
 10
6.1315534941
 20
3.8129411933
 30
0.0
 10
6.1284366112
 20
3.7985902373
 30
0.0
 10
6.1255656598
 20
3.7872013382
 30
0.0
 10
6.1224440912
 20
3.7758786869
 30
0.0
 10
6.1180754744
 20
3.7618583708
 30
0.0
 10
6.1120984446
 20
3.7452816588
 30
0.0
 10
6.1053977809
 20
3.728983692
 30
0.0
 10
6.0979844741
 20
3.712997109
 30
0.0
 10
6.0898744809
 20
3.6973522127
 30
0.0
 10
6.0810844328
 20
3.6820788945
 30
0.0
 10
6.0716306912
 20
3.6672071861
 30
0.0
 10
6.061529974
 20
3.6527670195
 30
0.0
 10
6.0508038466
 20
3.6387853295
 30
0.0
 10
6.0413612355
 20
3.6275376575
 30
0.0
 10
6.033516159
 20
3.6187961638
 30
0.0
 10
6.0254801496
 20
3.6102298041
 30
0.0
 10
6.0150837533
 20
3.5998572281
 30
0.0
 10
6.0020738565
 20
3.5879716185
 30
0.0
 10
5.9908070884
 20
3.5785526882
 30
0.0
 10
5.9815526318
 20
3.5713214576
 30
0.0
 10
5.9721414433
 20
3.5642963686
 30
0.0
 10
5.9600904657
 20
3.5559060597
 30
0.0
 10
5.9452003536
 20
3.5464834239
 30
0.0
 10
5.9324564498
 20
3.5391836728
 30
0.0
 10
5.9220750984
 20
3.5336850868
 30
0.0
 10
5.9141986223
 20
3.5297331405
 30
0.0
 10
5.9062370384
 20
3.525955379
 30
0.0
 10
5.8955158223
 20
3.5211538684
 30
0.0
 10
5.8819258089
 20
3.5155972469
 30
0.0
 10
5.8708700351
 20
3.5116345053
 30
0.0
 10
5.86530375
 20
3.5097770197
 30
0.0
 11
5.7389356503
 21
4.2888543842
 31
0.0
 11
5.7565357145
 21
4.2884809242
 31
0.0
 11
5.7741143956
 21
4.287331219
 31
0.0
 11
5.7828831062
 21
4.2864661466
 31
0.0
 11
5.7916313376
 21
4.2854080598
 31
0.0
 11
5.8003540453
 21
4.2841573072
 31
0.0
 11
5.8090462105
 21
4.2827142547
 31
0.0
 11
5.826321475
 21
4.27925443
 31
0.0
 11
5.8434248494
 21
4.2750366365
 31
0.0
 11
5.8603246336
 21
4.2700693039
 31
0.0
 11
5.8686882732
 21
4.2673071949
 31
0.0
 11
5.8769891246
 21
4.264360959
 31
0.0
 11
5.8933865396
 21
4.2579226597
 31
0.0
 11
5.9094850101
 21
4.2507681779
 31
0.0
 11
5.9252526636
 21
4.2429114186
 31
0.0
 11
5.9330024772
 21
4.2387240354
 31
0.0
 11
5.9406578089
 21
4.2343665495
 31
0.0
 11
5.9556707377
 21
4.2251506028
 31
0.0
 11
5.9702629624
 21
4.2152823749
 31
0.0
 11
5.9844060132
 21
4.2047806878
 31
0.0
 11
5.9980718706
 21
4.1936649862
 31
0.0
 11
6.0112346692
 21
4.1819576936
 31
0.0
 11
6.0238691871
 21
4.1696821235
 31
0.0
 11
6.0359502081
 21
4.156861594
 31
0.0
 11
6.047453709
 21
4.1435204823
 31
0.0
 11
6.0583583533
 21
4.12968555
 31
0.0
 11
6.068643172
 21
4.1153838845
 31
0.0
 11
6.0735465939
 21
4.1080664916
 31
0.0
 11
6.0782872725
 21
4.1006426237
 31
0.0
 11
6.0872718966
 21
4.0854903152
 31
0.0
 11
6.0955806529
 21
4.0699570694
 31
0.0
 11
6.1031972733
 21
4.0540730784
 31
0.0
 11
6.1067409585
 21
4.0460089923
 31
0.0
 11
6.1101058182
 21
4.0378686697
 31
0.0
 11
6.1162934651
 21
4.0213754613
 31
0.0
 11
6.121749112
 21
4.0046257829
 31
0.0
 11
6.1264616753
 21
3.9876519715
 31
0.0
 11
6.130420951
 21
3.9704866054
 31
0.0
 11
6.1336203684
 21
3.9531632568
 31
0.0
 11
6.1349333698
 21
3.9444529108
 31
0.0
 11
6.1360542942
 21
3.935715755
 31
0.0
 11
6.1369824374
 21
3.9269560182
 31
0.0
 11
6.137717103
 21
3.9181779295
 31
0.0
 11
6.1386048005
 21
3.9005837399
 31
0.0
 11
6.1387170192
 21
3.8829674347
 31
0.0
 11
6.138053881
 21
3.865363301
 31
0.0
 11
6.137431591
 21
3.8565765134
 31
0.0
 11
6.1366155631
 21
3.8478056214
 31
0.0
 11
6.1344045812
 21
3.8303284679
 31
0.0
 11
6.1314265913
 21
3.8129656304
 31
0.0
 11
6.1276874705
 21
3.7957508787
 31
0.0
 11
6.1255343235
 21
3.787209588
 31
0.0
 11
6.1231932896
 21
3.7787179253
 31
0.0
 11
6.1179530175
 21
3.7618996202
 31
0.0
 11
6.1119778524
 21
3.7453281504
 31
0.0
 11
6.1052790496
 21
3.7290356859
 31
0.0
 11
6.0978684175
 21
3.7130541748
 31
0.0
 11
6.0897611694
 21
3.6974141998
 31
0.0
 11
6.0809738137
 21
3.6821458238
 31
0.0
 11
6.0715228616
 21
3.6672791088
 31
0.0
 11
6.0614257605
 21
3.6528434616
 31
0.0
 11
6.0507030515
 21
3.6388661246
 31
0.0
 11
6.0393759134
 21
3.625373894
 31
0.0
 11
6.0334923019
 21
3.6188180673
 31
0.0
 11
6.0274655378
 21
3.6123935556
 31
0.0
 11
6.0149945948
 21
3.5999506925
 31
0.0
 11
6.001988599
 21
3.5880685742
 31
0.0
 11
5.9884733882
 21
3.5767702073
 31
0.0
 11
5.9815329014
 21
3.5713471201
 31
0.0
 11
5.974474825
 21
3.5660785033
 31
0.0
 11
5.9600194059
 21
3.5560139624
 31
0.0
 11
5.9451342968
 21
3.5465945375
 31
0.0
 11
5.9298466958
 21
3.5378380599
 31
0.0
 11
5.9220604836
 21
3.5337139929
 31
0.0
 11
5.9141844865
 21
3.5297621961
 31
0.0
 11
5.9062233419
 21
3.5259846013
 31
0.0
 11
5.8981817168
 21
3.5223831331
 31
0.0
 11
5.8818756927
 21
3.5157162751
 31
0.0
 11
5.86530375
 21
3.5097770197
 31
0.0
  0
SPLINE
  5
267
100
AcDbEntity
  8
0
100
AcDbSpline
 62
6
  6
CONTINUOUS
 70
0
 71
3
 72
90
 73
86
 74
84
 42
0.0000001
 43
0.0000001
 44
0.0000000001
 12
1.2629899428
 22
0.0011129525
 32
0.0
 13
-1.2629899455
 23
-0.0011098799
 33
0.0
 40
0.0
 40
0.0
 40
0.0
 40
0.0
 40
0.0156148133
 40
0.0312409383
 40
0.0390566361
 40
0.0468725347
 40
0.0546877901
 40
0.0625019709
 40
0.0781267475
 40
0.0937498284
 40
0.101561874
 40
0.1093741606
 40
0.1249984271
 40
0.1406233725
 40
0.1562483534
 40
0.1718730053
 40
0.1874974703
 40
0.2031218514
 40
0.2109346422
 40
0.2187474836
 40
0.2343721688
 40
0.2499969967
 40
0.2578100106
 40
0.2656230315
 40
0.2812479746
 40
0.2968729781
 40
0.3124978824
 40
0.3203108699
 40
0.3281238425
 40
0.3437485743
 40
0.3593731641
 40
0.3671859671
 40
0.3749987315
 40
0.3906230785
 40
0.4062474788
 40
0.4218719685
 40
0.4374967117
 40
0.4531217096
 40
0.4687467986
 40
0.4765599413
 40
0.4843731082
 40
0.4999983463
 40
0.5156235805
 40
0.5234367418
 40
0.5312498756
 40
0.5468749439
 40
0.5624999334
 40
0.5781246985
 40
0.5937492493
 40
0.6093737145
 40
0.6249980735
 40
0.6328108038
 40
0.6406235386
 40
0.6562479122
 40
0.6718723613
 40
0.6796851814
 40
0.6874980167
 40
0.7031226303
 40
0.7187473662
 40
0.7343720807
 40
0.7421850065
 40
0.7499979397
 40
0.765622646
 40
0.7812472526
 40
0.7890600693
 40
0.7968728484
 40
0.8046856259
 40
0.8124984254
 40
0.8281229642
 40
0.8437477438
 40
0.8515608719
 40
0.8593740665
 40
0.874999204
 40
0.8828121566
 40
0.8906248705
 40
0.8984372875
 40
0.9062494877
 40
0.9218729182
 40
0.9374980059
 40
0.9453122908
 40
0.9531275989
 40
0.9609435012
 40
0.9687591699
 40
0.9843852111
 40
1.0
 40
1.0
 40
1.0
 40
1.0
 10
5.7389356503
 20
4.2910773883
 30
0.0
 10
5.7455094343
 20
4.2910831811
 30
0.0
 10
5.7586641693
 20
4.2907702933
 30
0.0
 10
5.7750700916
 20
4.2895727987
 30
0.0
 10
5.7881515995
 20
4.2881327782
 30
0.0
 10
5.7979349233
 20
4.2868120351
 30
0.0
 10
5.8076821717
 20
4.2852510915
 30
0.0
 10
5.8206204402
 20
4.2828507891
 30
0.0
 10
5.8366748165
 20
4.2792553671
 30
0.0
 10
5.8525323865
 20
4.2748762665
 30
0.0
 10
5.8650763009
 20
4.2709093339
 30
0.0
 10
5.8775192626
 20
4.2666348145
 30
0.0
 10
5.8928710511
 20
4.2607196252
 30
0.0
 10
5.9109222396
 20
4.2527267612
 30
0.0
 10
5.9285599242
 20
4.243857695
 30
0.0
 10
5.9457394775
 20
4.2341312645
 30
0.0
 10
5.9624204219
 20
4.2235735128
 30
0.0
 10
5.9758736383
 20
4.2141035746
 30
0.0
 10
5.9863461783
 20
4.2061386269
 30
0.0
 10
5.9966196589
 20
4.1979182799
 30
0.0
 10
6.0090783386
 20
4.1871733151
 30
0.0
 10
6.0209951268
 20
4.1758302393
 30
0.0
 10
6.030185127
 20
4.1664138474
 30
0.0
 10
6.0391407653
 20
4.1567742637
 30
0.0
 10
6.0498867851
 20
4.1443158548
 30
0.0
 10
6.0620323945
 20
4.1287524756
 30
0.0
 10
6.0715061658
 20
4.1153012465
 30
0.0
 10
6.0786806319
 20
4.1042717046
 30
0.0
 10
6.0855817522
 20
4.0930691531
 30
0.0
 10
6.0936894015
 20
4.0787535019
 30
0.0
 10
6.1010853985
 20
4.0640576212
 30
0.0
 10
6.1065634349
 20
4.0520948522
 30
0.0
 10
6.1117454643
 20
4.040001055
 30
0.0
 10
6.1176636275
 20
4.0246504187
 30
0.0
 10
6.1238535302
 20
4.0059047406
 30
0.0
 10
6.1291164362
 20
3.986877547
 30
0.0
 10
6.1334373333
 20
3.9676143255
 30
0.0
 10
6.1368087061
 20
3.9481624537
 30
0.0
 10
6.1388203548
 20
3.931833217
 30
0.0
 10
6.1399466896
 20
3.9187236334
 30
0.0
 10
6.140750365
 20
3.9055902339
 30
0.0
 10
6.1411502539
 20
3.8891424233
 30
0.0
 10
6.1407436001
 20
3.8726947813
 30
0.0
 10
6.1399345447
 20
3.85956172
 30
0.0
 10
6.1388028612
 20
3.8464526123
 30
0.0
 10
6.1367847088
 20
3.8301241982
 30
0.0
 10
6.1334058473
 20
3.8106736332
 30
0.0
 10
6.1290778026
 20
3.7914119893
 30
0.0
 10
6.1238081939
 20
3.7723865946
 30
0.0
 10
6.1176122276
 20
3.7536428687
 30
0.0
 10
6.111689572
 20
3.7382939556
 30
0.0
 10
6.1065043135
 20
3.7262015856
 30
0.0
 10
6.1010233495
 20
3.7142403072
 30
0.0
 10
6.093624248
 20
3.6995462698
 30
0.0
 10
6.0855141997
 20
3.685232307
 30
0.0
 10
6.0786115949
 20
3.674030963
 30
0.0
 10
6.0714359161
 20
3.6630025119
 30
0.0
 10
6.0619612935
 20
3.6495522702
 30
0.0
 10
6.0498156059
 20
3.6339893947
 30
0.0
 10
6.0390702228
 20
3.6215307865
 30
0.0
 10
6.0301154574
 20
3.6118906292
 30
0.0
 10
6.020926664
 20
3.6024732384
 30
0.0
 10
6.0090119609
 20
3.5911281859
 30
0.0
 10
5.9965559897
 20
3.5803802142
 30
0.0
 10
5.9862850271
 20
3.5721568934
 30
0.0
 10
5.9784321843
 20
3.566180251
 30
0.0
 10
5.9704350692
 20
3.5603980946
 30
0.0
 10
5.9595870888
 20
3.5529525692
 30
0.0
 10
5.9456898359
 20
3.5441471073
 30
0.0
 10
5.9313775925
 20
3.5360333213
 30
0.0
 10
5.9196998209
 20
3.5299705336
 30
0.0
 10
5.9078769201
 20
3.5241958657
 30
0.0
 10
5.8958451373
 20
3.518857299
 30
0.0
 10
5.8836305601
 20
3.5139661542
 30
0.0
 10
5.8743822352
 20
3.5105232125
 30
0.0
 10
5.8650525246
 20
3.5073083877
 30
0.0
 10
5.8525123608
 20
3.5033289274
 30
0.0
 10
5.8366591951
 20
3.498932645
 30
0.0
 10
5.8206088471
 20
3.4953180054
 30
0.0
 10
5.8076734779
 20
3.4929010783
 30
0.0
 10
5.7979282724
 20
3.4913270405
 30
0.0
 10
5.7881468059
 20
3.489992564
 30
0.0
 10
5.7750674739
 20
3.4885333787
 30
0.0
 10
5.7586635321
 20
3.4873103051
 30
0.0
 10
5.7455094241
 20
3.4869751814
 30
0.0
 10
5.7389356503
 20
3.4869694046
 30
0.0
 11
5.7389356503
 21
4.2910773883
 31
0.0
 11
5.7586514537
 21
4.2906092799
 31
0.0
 11
5.7783347547
 21
4.2891728254
 31
0.0
 11
5.7881466326
 21
4.2880926936
 31
0.0
 11
5.7979292838
 21
4.2867719455
 31
0.0
 11
5.8076756826
 21
4.2852110761
 31
0.0
 11
5.8173793553
 21
4.2834109236
 31
0.0
 11
5.8366363235
 21
4.2790984193
 31
0.0
 11
5.855656208
 21
4.2738459922
 31
0.0
 11
5.865063526
 21
4.2708709361
 31
0.0
 11
5.8743951088
 21
4.2676652915
 31
0.0
 11
5.8928089353
 21
4.2605706395
 31
0.0
 11
5.9108532836
 21
4.2525807439
 31
0.0
 11
5.9284837208
 21
4.2437147195
 31
0.0
 11
5.9456564798
 21
4.2339926493
 31
0.0
 11
5.9623309108
 21
4.2234391503
 31
0.0
 11
5.9784672756
 21
4.2120801654
 31
0.0
 11
5.9863212656
 21
4.2061067238
 31
0.0
 11
5.9940259954
 21
4.1999418588
 31
0.0
 11
6.0089699065
 21
4.1870537447
 31
0.0
 11
6.0232637185
 21
4.1734479365
 31
0.0
 11
6.0301558245
 21
4.1663859539
 31
0.0
 11
6.0368722009
 21
4.1591566257
 31
0.0
 11
6.0497618656
 21
4.1442136218
 31
0.0
 11
6.0619028802
 21
4.1286561285
 31
0.0
 11
6.0732658724
 21
4.1125217772
 31
0.0
 11
6.0786464706
 21
4.1042500647
 31
0.0
 11
6.0838221022
 21
4.0958486046
 31
0.0
 11
6.093547108
 21
4.0786773918
 31
0.0
 11
6.1024182023
 21
4.061050058
 31
0.0
 11
6.1065264445
 21
4.0520784466
 31
0.0
 11
6.1104128196
 21
4.0430085738
 31
0.0
 11
6.1175116527
 21
4.0245962498
 31
0.0
 11
6.1236990121
 21
4.0058578841
 31
0.0
 11
6.1289593989
 21
3.9868383533
 31
0.0
 11
6.1332790499
 21
3.9675830301
 31
0.0
 11
6.1366491248
 21
3.9481386956
 31
0.0
 11
6.1390616502
 21
3.9285523786
 31
0.0
 11
6.1399063543
 21
3.9187206743
 31
0.0
 11
6.1405091506
 21
3.9088711477
 31
0.0
 11
6.1409889476
 21
3.8891424548
 31
0.0
 11
6.1405010434
 21
3.8694139658
 31
0.0
 11
6.1398942132
 21
3.8595646941
 31
0.0
 11
6.1390455057
 21
3.8497333458
 31
0.0
 11
6.1366251813
 21
3.8301480174
 31
0.0
 11
6.1332476244
 21
3.8107049918
 31
0.0
 11
6.1289208446
 21
3.791451241
 31
0.0
 11
6.1236537824
 21
3.7724334776
 31
0.0
 11
6.1174603553
 21
3.7536970303
 31
0.0
 11
6.1103561377
 21
3.7352867669
 31
0.0
 11
6.1064673501
 21
3.7262179751
 31
0.0
 11
6.1023569078
 21
3.7172474662
 31
0.0
 11
6.0934820791
 21
3.699622318
 31
0.0
 11
6.0837542101
 21
3.6824531374
 31
0.0
 11
6.0785774675
 21
3.6740525881
 31
0.0
 11
6.0731959732
 21
3.6657816879
 31
0.0
 11
6.061831945
 21
3.6496485153
 31
0.0
 11
6.0496908406
 21
3.6340915208
 31
0.0
 11
6.0368019177
 21
3.6191482585
 31
0.0
 11
6.0300862047
 21
3.611918478
 31
0.0
 11
6.0231950043
 21
3.6048557541
 31
0.0
 11
6.0089036704
 21
3.5912475656
 31
0.0
 11
5.9939629948
 21
3.5783558528
 31
0.0
 11
5.9862601173
 21
3.5721887234
 31
0.0
 11
5.9784081374
 21
3.5662126641
 31
0.0
 11
5.9704118873
 21
3.5604310715
 31
0.0
 11
5.9622763103
 21
3.5548471868
 31
0.0
 11
5.9456069499
 21
3.5442855066
 31
0.0
 11
5.9284396045
 21
3.5345535529
 31
0.0
 11
5.9196817208
 21
3.5300065712
 31
0.0
 11
5.9108148823
 21
3.525675705
 31
0.0
 11
5.8927764455
 21
3.5176718743
 31
0.0
 11
5.8836158996
 21
3.5140036877
 31
0.0
 11
5.8743685035
 21
3.510561172
 31
0.0
 11
5.8650397828
 21
3.5073467025
 31
0.0
 11
5.8556352411
 21
3.5043622366
 31
0.0
 11
5.8366206067
 21
3.4990891818
 31
0.0
 11
5.8173684175
 21
3.494753604
 31
0.0
 11
5.8076669322
 21
3.4929409844
 31
0.0
 11
5.7979225721
 21
3.4913670196
 31
0.0
 11
5.7881417802
 21
3.4900325387
 31
0.0
 11
5.7783315324
 21
3.4889380305
 31
0.0
 11
5.7586506028
 21
3.4874708682
 31
0.0
 11
5.7389356503
 21
3.4869694046
 31
0.0
  0
SPLINE
  5
268
100
AcDbEntity
  8
0
100
AcDbSpline
 62
6
  6
CONTINUOUS
 70
0
 71
3
 72
89
 73
85
 74
83
 42
0.0000001
 43
0.0000001
 44
0.0000000001
 12
1.2490220376
 22
0.0011129684
 32
0.0
 13
-1.2490220403
 23
-0.0011098615
 33
0.0
 40
0.0
 40
0.0
 40
0.0
 40
0.0
 40
0.0156148418
 40
0.0312411006
 40
0.0390569439
 40
0.0468730615
 40
0.0546886227
 40
0.0625031671
 40
0.0781287415
 40
0.0937525848
 40
0.1015649467
 40
0.1093774852
 40
0.1250021616
 40
0.1406274484
 40
0.1562527254
 40
0.1640658004
 40
0.1718787721
 40
0.1875033242
 40
0.203127646
 40
0.2109403357
 40
0.2187530234
 40
0.2343772983
 40
0.2500016628
 40
0.265626074
 40
0.2812506437
 40
0.2968753783
 40
0.3125001379
 40
0.3203131014
 40
0.3281260798
 40
0.3437508937
 40
0.3593756197
 40
0.3671884927
 40
0.3750013171
 40
0.3906257419
 40
0.4062501514
 40
0.4218745499
 40
0.4374990752
 40
0.4531237489
 40
0.4687484202
 40
0.4765613185
 40
0.4843742174
 40
0.4999988598
 40
0.5156234365
 40
0.5234362524
 40
0.5312490334
 40
0.5468733971
 40
0.5624977392
 40
0.578122
 40
0.5937462765
 40
0.6093706895
 40
0.6249952081
 40
0.6328081038
 40
0.6406210607
 40
0.6562459929
 40
0.6718710646
 40
0.6796841925
 40
0.687497321
 40
0.7031224631
 40
0.7187476479
 40
0.7343727327
 40
0.7421858159
 40
0.7499988868
 40
0.7656237988
 40
0.7812484971
 40
0.7890613081
 40
0.7968740433
 40
0.8046867433
 40
0.8124994391
 40
0.8281237202
 40
0.8437482215
 40
0.8515612167
 40
0.8593742863
 40
0.8749992119
 40
0.8906235741
 40
0.8984359706
 40
0.906248196
 40
0.9218717939
 40
0.9374971623
 40
0.9453116166
 40
0.9531270978
 40
0.9609431481
 40
0.9687589384
 40
0.9843851449
 40
1.0
 40
1.0
 40
1.0
 40
1.0
 10
5.7389356503
 20
4.2866313801
 30
0.0
 10
5.7454367441
 20
4.2866371731
 30
0.0
 10
5.7584460667
 20
4.2863278675
 30
0.0
 10
5.774670687
 20
4.2851437322
 30
0.0
 10
5.7876077374
 20
4.2837197027
 30
0.0
 10
5.7972831482
 20
4.2824135883
 30
0.0
 10
5.8069229742
 20
4.280869917
 30
0.0
 10
5.8197187616
 20
4.2784960871
 30
0.0
 10
5.8355963648
 20
4.2749402333
 30
0.0
 10
5.8512793087
 20
4.2706093438
 30
0.0
 10
5.8636850333
 20
4.2666861446
 30
0.0
 10
5.8759907882
 20
4.2624588397
 30
0.0
 10
5.8911731654
 20
4.2566087281
 30
0.0
 10
5.9090248197
 20
4.2487038766
 30
0.0
 10
5.9235613363
 20
4.2413940411
 30
0.0
 10
5.9349628826
 20
4.2351230437
 30
0.0
 10
5.946206479
 20
4.2285736083
 30
0.0
 10
5.9599540767
 20
4.2198721279
 30
0.0
 10
5.9732581764
 20
4.2105067947
 30
0.0
 10
5.9836148157
 20
4.2026300026
 30
0.0
 10
5.9937744345
 20
4.1945007466
 30
0.0
 10
6.0060949563
 20
4.1838745827
 30
0.0
 10
6.020235687
 20
4.1704142721
 30
0.0
 10
6.0336989486
 20
4.1562758232
 30
0.0
 10
6.0464504394
 20
4.14149204
 30
0.0
 10
6.0584614914
 20
4.1261007774
 30
0.0
 10
6.067830237
 20
4.1127984139
 30
0.0
 10
6.0749253111
 20
4.1018908955
 30
0.0
 10
6.0817500451
 20
4.0908121675
 30
0.0
 10
6.0897679286
 20
4.076654673
 30
0.0
 10
6.097082042
 20
4.0621211426
 30
0.0
 10
6.1024994977
 20
4.0502905544
 30
0.0
 10
6.1076242229
 20
4.0383304152
 30
0.0
 10
6.113476785
 20
4.0231494213
 30
0.0
 10
6.1195979812
 20
4.0046109805
 30
0.0
 10
6.1248025791
 20
3.985794319
 30
0.0
 10
6.1290755344
 20
3.9667443702
 30
0.0
 10
6.1324093383
 20
3.9475079797
 30
0.0
 10
6.134398549
 20
3.931359727
 30
0.0
 10
6.135512371
 20
3.9183955115
 30
0.0
 10
6.1363071061
 20
3.9054078184
 30
0.0
 10
6.1367025235
 20
3.889142543
 30
0.0
 10
6.1363003494
 20
3.8728774684
 30
0.0
 10
6.1355002507
 20
3.8598902156
 30
0.0
 10
6.1343811178
 20
3.8469266703
 30
0.0
 10
6.1323855042
 20
3.8307795299
 30
0.0
 10
6.1290443544
 20
3.8115447991
 30
0.0
 10
6.1247643164
 20
3.7924967517
 30
0.0
 10
6.1195531295
 20
3.7736820898
 30
0.0
 10
6.113426048
 20
3.7551456152
 30
0.0
 10
6.1075690662
 20
3.7399662579
 30
0.0
 10
6.1024410406
 20
3.7280074222
 30
0.0
 10
6.0970205437
 20
3.7161780639
 30
0.0
 10
6.08970316
 20
3.7016459379
 30
0.0
 10
6.0816826704
 20
3.6874896405
 30
0.0
 10
6.0748562183
 20
3.6764116918
 30
0.0
 10
6.0677596445
 20
3.6655048122
 30
0.0
 10
6.0583895407
 20
3.6522028621
 30
0.0
 10
6.0463778885
 20
3.6368116154
 30
0.0
 10
6.0357511086
 20
3.6244904556
 30
0.0
 10
6.02689519
 20
3.6149567082
 30
0.0
 10
6.0178078704
 20
3.6056433217
 30
0.0
 10
6.0060247998
 20
3.5944236194
 30
0.0
 10
5.9937064993
 20
3.5837944268
 30
0.0
 10
5.9835491342
 20
3.5756620143
 30
0.0
 10
5.9757832008
 20
3.5697514762
 30
0.0
 10
5.9678746206
 20
3.5640333002
 30
0.0
 10
5.9571467809
 20
3.5566701941
 30
0.0
 10
5.9434034723
 20
3.5479622265
 30
0.0
 10
5.9292497585
 20
3.5399382803
 30
0.0
 10
5.9177013918
 20
3.5339425959
 30
0.0
 10
5.9060093603
 20
3.5282317434
 30
0.0
 10
5.8911374986
 20
3.5216328201
 30
0.0
 10
5.8759607175
 20
3.5157698152
 30
0.0
 10
5.8636591937
 20
3.5115309043
 30
0.0
 10
5.8512576316
 20
3.5075953263
 30
0.0
 10
5.8355796696
 20
3.5032474605
 30
0.0
 10
5.8197066096
 20
3.4996725648
 30
0.0
 10
5.8069140636
 20
3.4972822109
 30
0.0
 10
5.7972764422
 20
3.4957254873
 30
0.0
 10
5.7876029815
 20
3.4944056623
 30
0.0
 10
5.7746681324
 20
3.492962474
 30
0.0
 10
5.7584454744
 20
3.4917527459
 30
0.0
 10
5.7454367497
 20
3.4914211895
 30
0.0
 10
5.7389356503
 20
3.4914154127
 30
0.0
 11
5.7389356503
 21
4.2866313801
 31
0.0
 11
5.7584334491
 21
4.2861686302
 31
0.0
 11
5.7778992426
 21
4.2847482029
 31
0.0
 11
5.7876027951
 21
4.2836800631
 31
0.0
 11
5.7972775356
 21
4.2823739474
 31
0.0
 11
5.8069165319
 21
4.28083034
 31
0.0
 11
5.8165133402
 21
4.2790500441
 31
0.0
 11
5.8355583097
 21
4.2747850117
 31
0.0
 11
5.854368763
 21
4.2695904166
 31
0.0
 11
5.8636724258
 21
4.2666481672
 31
0.0
 11
5.8729011151
 21
4.2634779032
 31
0.0
 11
5.8911117158
 21
4.2564613792
 31
0.0
 11
5.9089567802
 21
4.2485594163
 31
0.0
 11
5.926392507
 21
4.2397911612
 31
0.0
 11
5.9349432084
 21
4.2350881979
 31
0.0
 11
5.9433755356
 21
4.2301764064
 31
0.0
 11
5.9598654778
 21
4.2197392932
 31
0.0
 11
5.9758231722
 21
4.2085057591
 31
0.0
 11
5.9835901899
 21
4.2025984415
 31
0.0
 11
5.991209545
 21
4.1965018569
 31
0.0
 11
6.0059876414
 21
4.1837564311
 31
0.0
 11
6.0201227473
 21
4.1703012774
 31
0.0
 11
6.0335802587
 21
4.1561683356
 31
0.0
 11
6.0463269738
 21
4.1413908651
 31
0.0
 11
6.0583333564
 21
4.1260055734
 31
0.0
 11
6.0695704615
 21
4.1100497245
 31
0.0
 11
6.0748915125
 21
4.1018695012
 31
0.0
 11
6.0800098555
 21
4.0935609171
 31
0.0
 11
6.0896271979
 21
4.0765794269
 31
0.0
 11
6.098400112
 21
4.0591468142
 31
0.0
 11
6.1024629196
 21
4.0502743271
 31
0.0
 11
6.1063063111
 21
4.0413046789
 31
0.0
 11
6.113326493
 21
4.0230958248
 31
0.0
 11
6.1194452144
 21
4.0045646127
 31
0.0
 11
6.1246472883
 21
3.9857555068
 31
0.0
 11
6.1289189932
 21
3.9667133757
 31
0.0
 11
6.1322515391
 21
3.9474844497
 31
0.0
 11
6.1346371726
 21
3.9281152451
 31
0.0
 11
6.1354724838
 21
3.9183925755
 31
0.0
 11
6.1360685748
 21
3.9086523116
 31
0.0
 11
6.1365430074
 21
3.8891425489
 31
0.0
 11
6.1360604787
 21
3.8696330668
 31
0.0
 11
6.1354603681
 21
3.8598931536
 31
0.0
 11
6.1346210819
 21
3.8501709734
 31
0.0
 11
6.13222776
 21
3.8308031043
 31
0.0
 11
6.1288878653
 21
3.8115758739
 31
0.0
 11
6.124609128
 21
3.7925356603
 31
0.0
 11
6.1194005023
 21
3.7737285258
 31
0.0
 11
6.1132758707
 21
3.7551992616
 31
0.0
 11
6.1062503569
 21
3.7369923385
 31
0.0
 11
6.1024044994
 21
3.7280236504
 31
0.0
 11
6.0983394162
 21
3.7191520904
 31
0.0
 11
6.0895625749
 21
3.7017211664
 31
0.0
 11
6.0799420907
 21
3.6847410856
 31
0.0
 11
6.074822454
 21
3.6764330795
 31
0.0
 11
6.0695002902
 21
3.6682533341
 31
0.0
 11
6.0582616004
 21
3.6522980171
 31
0.0
 11
6.0462544759
 21
3.6369125912
 31
0.0
 11
6.0335078269
 21
3.6221342138
 31
0.0
 11
6.0268662541
 21
3.6149842441
 31
0.0
 11
6.020051144
 21
3.6079995085
 31
0.0
 11
6.0059176734
 21
3.5945416455
 31
0.0
 11
5.9911421563
 21
3.58179242
 31
0.0
 11
5.9835244882
 21
3.5756934813
 31
0.0
 11
5.9757594081
 21
3.569783523
 31
0.0
 11
5.967851686
 21
3.5640659059
 31
0.0
 11
5.9598062042
 21
3.5585438286
 31
0.0
 11
5.9433214927
 21
3.5480990885
 31
0.0
 11
5.9263443359
 21
3.5384748898
 31
0.0
 11
5.9176834803
 21
3.5339782253
 31
0.0
 11
5.9089148765
 21
3.5296952575
 31
0.0
 11
5.8910762469
 21
3.5217798909
 31
0.0
 11
5.8728720931
 21
3.5147477468
 31
0.0
 11
5.8636465833
 21
3.5115687868
 31
0.0
 11
5.8543460412
 21
3.508617251
 31
0.0
 11
5.8355415461
 21
3.5034022749
 31
0.0
 11
5.8165019763
 21
3.4991143731
 31
0.0
 11
5.8069075907
 21
3.4973216802
 31
0.0
 11
5.7972707948
 21
3.49576502
 31
0.0
 11
5.7875980002
 21
3.4944451929
 31
0.0
 11
5.7778961069
 21
3.4933626823
 31
0.0
 11
5.758432645
 21
3.4919115322
 31
0.0
 11
5.7389356503
 21
3.4914154127
 31
0.0
  0
SPLINE
  5
269
100
AcDbEntity
  8
0
100
AcDbSpline
 62
6
  6
CONTINUOUS
 70
0
 71
3
 72
89
 73
85
 74
83
 42
0.0000001
 43
0.0000001
 44
0.0000000001
 12
1.2420388345
 22
0.0011129772
 32
0.0
 13
-1.2420388373
 23
-0.0011098528
 33
0.0
 40
0.0
 40
0.0
 40
0.0
 40
0.0
 40
0.0156148309
 40
0.0312410426
 40
0.0390568417
 40
0.0468728978
 40
0.054688378
 40
0.0625028313
 40
0.0781282092
 40
0.0937518472
 40
0.101564108
 40
0.1093765476
 40
0.1250010023
 40
0.1406260232
 40
0.1484391372
 40
0.1562521685
 40
0.1718767041
 40
0.1875009894
 40
0.1953136829
 40
0.2031263777
 40
0.2109391052
 40
0.2187519058
 40
0.2343765772
 40
0.2500014631
 40
0.2578145227
 40
0.2656275938
 40
0.2812526498
 40
0.2968778079
 40
0.3125029257
 40
0.3203160425
 40
0.3281291579
 40
0.3437542021
 40
0.3593791067
 40
0.3671920497
 40
0.3750049299
 40
0.3906294165
 40
0.4062538071
 40
0.4218780782
 40
0.4375023509
 40
0.4531267044
 40
0.4687510541
 40
0.4765638102
 40
0.4843765867
 40
0.5000010562
 40
0.5156255787
 40
0.5234384218
 40
0.531251271
 40
0.5468758654
 40
0.5625004836
 40
0.5781249682
 40
0.5937493396
 40
0.6093737365
 40
0.6249981638
 40
0.6328109947
 40
0.6406238776
 40
0.656248635
 40
0.6718734957
 40
0.6796865038
 40
0.6874995022
 40
0.703124348
 40
0.7187491758
 40
0.7343738309
 40
0.7499983064
 40
0.7656227158
 40
0.7812470193
 40
0.7890597129
 40
0.7968724038
 40
0.8124967236
 40
0.8281212704
 40
0.8359342378
 40
0.8437473085
 40
0.8593725776
 40
0.8749978553
 40
0.8906225228
 40
0.8984350536
 40
0.9062474106
 40
0.9218712598
 40
0.9374968504
 40
0.9453114004
 40
0.953126962
 40
0.9609430699
 40
0.9687588987
 40
0.9843851401
 40
1.0
 40
1.0
 40
1.0
 40
1.0
 10
5.7389356503
 20
4.284408376
 30
0.0
 10
5.7454003924
 20
4.284414169
 30
0.0
 10
5.7583369582
 20
4.284106659
 30
0.0
 10
5.7744708316
 20
4.2829292284
 30
0.0
 10
5.7873354955
 20
4.2815132271
 30
0.0
 10
5.7969567409
 20
4.2802144672
 30
0.0
 10
5.8065425812
 20
4.2786794755
 30
0.0
 10
5.8192666884
 20
4.2763190006
 30
0.0
 10
5.8350553397
 20
4.272783157
 30
0.0
 10
5.850650426
 20
4.2684766165
 30
0.0
 10
5.8629866422
 20
4.2645754584
 30
0.0
 10
5.8752234684
 20
4.2603718705
 30
0.0
 10
5.8903205907
 20
4.2545547584
 30
0.0
 10
5.9051144617
 20
4.2480040566
 30
0.0
 10
5.9167451384
 20
4.2423331836
 30
0.0
 10
5.9282328377
 20
4.236378423
 30
0.0
 10
5.9423120533
 20
4.2284074018
 30
0.0
 10
5.9559827515
 20
4.2197547217
 30
0.0
 10
5.9666536884
 20
4.2124372613
 30
0.0
 10
5.9745201984
 20
4.2067540295
 30
0.0
 10
5.9822446859
 20
4.2008791404
 30
0.0
 10
5.9923476514
 20
4.1927952053
 30
0.0
 10
6.0045996115
 20
4.1822283808
 30
0.0
 10
6.0163186609
 20
4.1710733677
 30
0.0
 10
6.0253562251
 20
4.1618131017
 30
0.0
 10
6.0341633794
 20
4.1523333775
 30
0.0
 10
6.0447311467
 20
4.1400814641
 30
0.0
 10
6.056675235
 20
4.1247759705
 30
0.0
 10
6.0659918551
 20
4.1115476307
 30
0.0
 10
6.0730474045
 20
4.1007008752
 30
0.0
 10
6.0798340667
 20
4.0896838847
 30
0.0
 10
6.0878071646
 20
4.0756053078
 30
0.0
 10
6.095080401
 20
4.0611528197
 30
0.0
 10
6.1004675933
 20
4.0493882489
 30
0.0
 10
6.1055636847
 20
4.037494901
 30
0.0
 10
6.1113834384
 20
4.0223987038
 30
0.0
 10
6.1174702543
 20
4.0039638964
 30
0.0
 10
6.1226456701
 20
3.9852525875
 30
0.0
 10
6.1268946535
 20
3.9663094236
 30
0.0
 10
6.1302096574
 20
3.9471809296
 30
0.0
 10
6.1321876311
 20
3.9311232745
 30
0.0
 10
6.1332951793
 20
3.9182317809
 30
0.0
 10
6.1340854507
 20
3.9053168814
 30
0.0
 10
6.1344786556
 20
3.889142689
 30
0.0
 10
6.1340787245
 20
3.8729686338
 30
0.0
 10
6.133283073
 20
3.8600539763
 30
0.0
 10
6.1321701427
 20
3.8471627784
 30
0.0
 10
6.1301856054
 20
3.8311056857
 30
0.0
 10
6.1268630442
 20
3.8119782046
 30
0.0
 10
6.1226068961
 20
3.7930364101
 30
0.0
 10
6.1174247906
 20
3.7743268234
 30
0.0
 10
6.1113318794
 20
3.7558940181
 30
0.0
 10
6.1055076036
 20
3.7407996203
 30
0.0
 10
6.1004082725
 20
3.7289077391
 30
0.0
 10
6.0950181202
 20
3.7171446429
 30
0.0
 10
6.0877417061
 20
3.7026939488
 30
0.0
 10
6.0797661378
 20
3.6886169936
 30
0.0
 10
6.0729779422
 20
3.6776011511
 30
0.0
 10
6.0659211607
 20
3.6667554388
 30
0.0
 10
6.0566036854
 20
3.6535281415
 30
0.0
 10
6.0446593742
 20
3.6382231354
 30
0.0
 10
6.0319796325
 20
3.6235215056
 30
0.0
 10
6.0185929677
 20
3.6094607612
 30
0.0
 10
6.0045335338
 20
3.5960733067
 30
0.0
 10
5.9922844359
 20
3.5855035898
 30
0.0
 10
5.9821840138
 20
3.5774167738
 30
0.0
 10
5.9718879228
 20
3.5695805467
 30
0.0
 10
5.9586619576
 20
3.5602622919
 30
0.0
 10
5.9449954553
 20
3.5516028307
 30
0.0
 10
5.9338183329
 20
3.545083836
 30
0.0
 10
5.9224842721
 20
3.5388411269
 30
0.0
 10
5.9080339423
 20
3.5315624792
 30
0.0
 10
5.8902881953
 20
3.5236881635
 30
0.0
 10
5.8751958241
 20
3.5178575964
 30
0.0
 10
5.8629628925
 20
3.5136422774
 30
0.0
 10
5.8506304745
 20
3.5097285794
 30
0.0
 10
5.8350399507
 20
3.505404876
 30
0.0
 10
5.8192554235
 20
3.5018498324
 30
0.0
 10
5.806534248
 20
3.4994727577
 30
0.0
 10
5.7969504199
 20
3.4979246875
 30
0.0
 10
5.7873309762
 20
3.49661219
 30
0.0
 10
5.7744683976
 20
3.4951770058
 30
0.0
 10
5.7583364131
 20
3.4939739604
 30
0.0
 10
5.7454004044
 20
3.4936441935
 30
0.0
 10
5.7389356503
 20
3.4936384168
 30
0.0
 11
5.7389356503
 21
4.284408376
 31
0.0
 11
5.758324427
 21
4.2839483113
 31
0.0
 11
5.7776813371
 21
4.2825359253
 31
0.0
 11
5.7873305882
 21
4.281473808
 31
0.0
 11
5.7969511676
 21
4.2801750458
 31
0.0
 11
5.8065361796
 21
4.2786401208
 31
0.0
 11
5.816079229
 21
4.2768698401
 31
0.0
 11
5.8350175028
 21
4.2726288033
 31
0.0
 11
5.8537225684
 21
4.2674634129
 31
0.0
 11
5.8629741077
 21
4.2645376903
 31
0.0
 11
5.8721510957
 21
4.2613852255
 31
0.0
 11
5.8902596728
 21
4.254408153
 31
0.0
 11
5.9080047305
 21
4.2465506516
 31
0.0
 11
5.9167273185
 21
4.2422976694
 31
0.0
 11
5.9253426815
 21
4.2378316953
 31
0.0
 11
5.9422304641
 21
4.2282710047
 31
0.0
 11
5.958628053
 21
4.217892613
 31
0.0
 11
5.9666308569
 21
4.2124047725
 31
0.0
 11
5.9744965112
 21
4.2067220991
 31
0.0
 11
5.9822201489
 21
4.2008477905
 31
0.0
 11
5.9897970195
 21
4.1947852104
 31
0.0
 11
6.0044929491
 21
4.1821108187
 31
0.0
 11
6.0185496183
 21
4.1687305743
 31
0.0
 11
6.0253274135
 21
4.1617856782
 31
0.0
 11
6.0319324181
 21
4.1546762283
 31
0.0
 11
6.0446082753
 21
4.139980932
 31
0.0
 11
6.056547858
 21
4.1246812463
 31
0.0
 11
6.0677223926
 21
4.1088142413
 31
0.0
 11
6.0730137947
 21
4.1006795913
 31
0.0
 11
6.0781035902
 21
4.0924173026
 31
0.0
 11
6.0876672282
 21
4.075530463
 31
0.0
 11
6.096391116
 21
4.058195078
 31
0.0
 11
6.1004312237
 21
4.0493721076
 31
0.0
 11
6.1042531373
 21
4.0404525371
 31
0.0
 11
6.1112339937
 21
4.0223453759
 31
0.0
 11
6.1173183731
 21
4.0039177513
 31
0.0
 11
6.1224912655
 21
3.9852139433
 31
0.0
 11
6.1267389827
 21
3.9662785733
 31
0.0
 11
6.1300527449
 21
3.9471575325
 31
0.0
 11
6.1324249114
 21
3.9278970062
 31
0.0
 11
6.1332555172
 21
3.9182288697
 31
0.0
 11
6.1338482583
 21
3.9085432143
 31
0.0
 11
6.1343200307
 21
3.8891427439
 31
0.0
 11
6.1338401889
 21
3.8697424055
 31
0.0
 11
6.1332434122
 21
3.8600569151
 31
0.0
 11
6.1324087816
 21
3.850389009
 31
0.0
 11
6.1300287472
 21
3.8311291473
 31
0.0
 11
6.1267074324
 21
3.8120090831
 31
0.0
 11
6.122452555
 21
3.793075051
 31
0.0
 11
6.1172729918
 21
3.7743729598
 31
0.0
 11
6.1111825332
 21
3.7559473356
 31
0.0
 11
6.1041962717
 21
3.7378423381
 31
0.0
 11
6.1003719342
 21
3.728923873
 31
0.0
 11
6.0963296051
 21
3.7201020023
 31
0.0
 11
6.0876019023
 21
3.7027687424
 31
0.0
 11
6.0780353083
 21
3.6858838391
 31
0.0
 11
6.0729443652
 21
3.6776224141
 31
0.0
 11
6.0676520436
 21
3.6694885377
 31
0.0
 11
6.0564764221
 21
3.6536227115
 31
0.0
 11
6.0445367407
 21
3.6383236233
 31
0.0
 11
6.0318617428
 21
3.6236282433
 31
0.0
 11
6.0184808031
 21
3.6095729395
 31
0.0
 11
6.0044269471
 21
3.5961905985
 31
0.0
 11
5.9897345102
 21
3.5835128576
 31
0.0
 11
5.9821595542
 21
3.5774480983
 31
0.0
 11
5.9744379447
 21
3.5715711989
 31
0.0
 11
5.9585739488
 21
3.5603941135
 31
0.0
 11
5.9421812601
 21
3.5500073765
 31
0.0
 11
5.9337987847
 21
3.5451184125
 31
0.0
 11
5.9252986951
 21
3.5404366572
 31
0.0
 11
5.9079663166
 21
3.5317057912
 31
0.0
 11
5.8902270969
 21
3.5238343322
 31
0.0
 11
5.8721244229
 21
3.5168412245
 31
0.0
 11
5.8629503479
 21
3.5136799448
 31
0.0
 11
5.8537016617
 21
3.5107448205
 31
0.0
 11
5.8350020266
 21
3.5055588235
 31
0.0
 11
5.8160686578
 21
3.5012947397
 31
0.0
 11
5.8065278045
 21
3.4995120068
 31
0.0
 11
5.7969447949
 21
3.4979639971
 31
0.0
 11
5.7873260147
 21
3.4966514984
 31
0.0
 11
5.7776783215
 21
3.4955749909
 31
0.0
 11
5.7583236422
 21
3.4941318582
 31
0.0
 11
5.7389356503
 21
3.4936384168
 31
0.0
  0
SPLINE
  5
26A
100
AcDbEntity
  8
0
100
AcDbSpline
 62
6
  6
CONTINUOUS
 70
0
 71
3
 72
74
 73
70
 74
68
 42
0.0000001
 43
0.0000001
 44
0.0000000001
 12
0.9986745901
 22
0.0008999683
 32
0.0
 13
-0.823401887
 23
-0.5651204114
 33
0.0
 40
0.0
 40
0.0
 40
0.0
 40
0.0
 40
0.0156139962
 40
0.0312382226
 40
0.0468681236
 40
0.0624991494
 40
0.0781275028
 40
0.0937530879
 40
0.1093770437
 40
0.1250004576
 40
0.1406243831
 40
0.1562490764
 40
0.171874213
 40
0.1874994315
 40
0.1953123662
 40
0.203125245
 40
0.2187501452
 40
0.2343750004
 40
0.2499998481
 40
0.2578126788
 40
0.2656255513
 40
0.2812506942
 40
0.2968760281
 40
0.3125014563
 40
0.3281269273
 40
0.343752507
 40
0.3593781971
 40
0.3750039028
 40
0.3906295476
 40
0.40625517
 40
0.4218807841
 40
0.4375062857
 40
0.4531315612
 40
0.4687566147
 40
0.4843815763
 40
0.5000064939
 40
0.5156313883
 40
0.5312563608
 40
0.5468815154
 40
0.5625068112
 40
0.5781321653
 40
0.5859452417
 40
0.5937583414
 40
0.6093838675
 40
0.6250094741
 40
0.6406350528
 40
0.6484481941
 40
0.6562613185
 40
0.6718867884
 40
0.6875122271
 40
0.7031375372
 40
0.7187626463
 40
0.7343876224
 40
0.7500125609
 40
0.7812561948
 40
0.8125000728
 40
0.828125151
 40
0.8437501354
 40
0.8593750327
 40
0.8749999336
 40
0.8906248329
 40
0.9062497011
 40
0.9218745938
 40
0.937499582
 40
0.9531245994
 40
0.9687495372
 40
0.9765623449
 40
0.9843751376
 40
1.0
 40
1.0
 40
1.0
 40
1.0
 10
5.7389356503
 20
4.282185372
 30
0.0
 10
5.7441334174
 20
4.282190056
 30
0.0
 10
5.7545337227
 20
4.2819919802
 30
0.0
 10
5.7701126891
 20
4.2810755381
 30
0.0
 10
5.7856489709
 20
4.279541632
 30
0.0
 10
5.8011134814
 20
4.2773923373
 30
0.0
 10
5.8164787173
 20
4.2746289768
 30
0.0
 10
5.8317195836
 20
4.2712572826
 30
0.0
 10
5.8468129529
 20
4.2672834965
 30
0.0
 10
5.8617361215
 20
4.2627137023
 30
0.0
 10
5.8764658947
 20
4.2575537302
 30
0.0
 10
5.8909795983
 20
4.2518124531
 30
0.0
 10
5.9052544549
 20
4.2454999413
 30
0.0
 10
5.916932638
 20
4.2397713528
 30
0.0
 10
5.9261323549
 20
4.234912926
 30
0.0
 10
5.9352334274
 20
4.2298723619
 30
0.0
 10
5.9464192459
 20
4.223233911
 30
0.0
 10
5.959514907
 20
4.2147418316
 30
0.0
 10
5.9701390678
 20
4.2072373072
 30
0.0
 10
5.9784538859
 20
4.2009843501
 30
0.0
 10
5.9866426872
 20
4.1945670814
 30
0.0
 10
5.9966372336
 20
4.1862420481
 30
0.0
 10
6.0082245355
 20
4.1757843882
 30
0.0
 10
6.0193881398
 20
4.1648752375
 30
0.0
 10
6.0301095259
 20
4.1535310904
 30
0.0
 10
6.0403711687
 20
4.1417693233
 30
0.0
 10
6.0501581561
 20
4.1296096706
 30
0.0
 10
6.059455251
 20
4.1170714445
 30
0.0
 10
6.0682472554
 20
4.1041740151
 30
0.0
 10
6.076519066
 20
4.0909369783
 30
0.0
 10
6.0842590561
 20
4.0773821858
 30
0.0
 10
6.0914554677
 20
4.0635312704
 30
0.0
 10
6.0980966646
 20
4.0494059216
 30
0.0
 10
6.1041706488
 20
4.0350277364
 30
0.0
 10
6.1096690174
 20
4.0204198928
 30
0.0
 10
6.1145838936
 20
4.005605599
 30
0.0
 10
6.1189074011
 20
3.990608022
 30
0.0
 10
6.1226311717
 20
3.9754503172
 30
0.0
 10
6.1257501649
 20
3.9601565626
 30
0.0
 10
6.1282605068
 20
3.9447511994
 30
0.0
 10
6.1298418496
 20
3.9318399774
 30
0.0
 10
6.1307983957
 20
3.9214800765
 30
0.0
 10
6.1315486919
 20
3.9111031458
 30
0.0
 10
6.1320999215
 20
3.8981069395
 30
0.0
 10
6.1321426463
 20
3.882498237
 30
0.0
 10
6.1316626213
 20
3.8694991763
 30
0.0
 10
6.1309692861
 20
3.8591182373
 30
0.0
 10
6.1300696683
 20
3.8487531692
 30
0.0
 10
6.1285592106
 20
3.8358333589
 30
0.0
 10
6.1261335566
 20
3.8204143002
 30
0.0
 10
6.1230988375
 20
3.8051034444
 30
0.0
 10
6.1194590617
 20
3.7899252781
 30
0.0
 10
6.1152187399
 20
3.7749036977
 30
0.0
 10
6.1087765144
 20
3.7551179685
 30
0.0
 10
6.0992610162
 20
3.730887285
 30
0.0
 10
6.0878510076
 20
3.7074889038
 30
0.0
 10
6.0776362657
 20
3.6893604252
 30
0.0
 10
6.0694411021
 20
3.6760763466
 30
0.0
 10
6.0607246139
 20
3.6631287109
 30
0.0
 10
6.0515014885
 20
3.6505369347
 30
0.0
 10
6.0417868519
 20
3.6383204001
 30
0.0
 10
6.0315957657
 20
3.6264983734
 30
0.0
 10
6.0209430267
 20
3.6150905438
 30
0.0
 10
6.009846088
 20
3.6041142387
 30
0.0
 10
5.9983232646
 20
3.5935860618
 30
0.0
 10
5.9883805358
 20
3.585199548
 30
0.0
 10
5.9802318903
 20
3.5787314946
 30
0.0
 10
5.9719564719
 20
3.5724267025
 30
0.0
 10
5.9656101265
 20
3.5678835493
 30
0.0
 10
5.9613216128
 20
3.5649402397
 30
0.0
 11
5.7389356503
 21
4.282185372
 31
0.0
 11
5.7545261398
 21
4.2818889264
 31
0.0
 11
5.7701027489
 21
4.2809728399
 31
0.0
 11
5.7856364087
 21
4.2794391293
 31
0.0
 11
5.8010980501
 21
4.2772898111
 31
0.0
 11
5.8164592775
 21
4.2745273308
 31
0.0
 11
5.8316957949
 21
4.2711567442
 31
0.0
 11
5.8467848488
 21
4.2671840895
 31
0.0
 11
5.8617036887
 21
4.2626154066
 31
0.0
 11
5.876429554
 21
4.2574569686
 31
0.0
 11
5.8909395879
 21
4.2517173313
 31
0.0
 11
5.9052108788
 21
4.2454063414
 31
0.0
 11
5.9192205146
 21
4.2385338606
 31
0.0
 11
5.9261200521
 21
4.2348901431
 31
0.0
 11
5.9329456628
 21
4.2311098706
 31
0.0
 11
5.9463647317
 21
4.2231462308
 31
0.0
 11
5.9594571113
 21
4.214656286
 31
0.0
 11
5.9722022185
 21
4.2056534211
 31
0.0
 11
5.9784381127
 21
4.2009638266
 31
0.0
 11
5.9845795083
 21
4.1961510743
 31
0.0
 11
5.9965694984
 21
4.1861641494
 31
0.0
 11
6.0081538829
 21
4.1757091735
 31
0.0
 11
6.0193144172
 21
4.164802758
 31
0.0
 11
6.0300328679
 21
4.1534615247
 31
0.0
 11
6.0402920274
 21
4.1417030472
 31
0.0
 11
6.0500765018
 21
4.1295465819
 31
0.0
 11
6.0593710831
 21
4.1170115577
 31
0.0
 11
6.0681605633
 21
4.1041174035
 31
0.0
 11
6.0764304347
 21
4.0908840098
 31
0.0
 11
6.0841684866
 21
4.0773327821
 31
0.0
 11
6.091362979
 21
4.0634854361
 31
0.0
 11
6.0980021716
 21
4.0493636874
 31
0.0
 11
6.1040747317
 21
4.0349894132
 31
0.0
 11
6.1095717766
 21
4.0203854624
 31
0.0
 11
6.1144853344
 21
4.005575045
 31
0.0
 11
6.118807435
 21
3.9905813719
 31
0.0
 11
6.1225303573
 21
3.9754277231
 31
0.0
 11
6.1256487106
 21
3.9601380282
 31
0.0
 11
6.1281583774
 21
3.9447365714
 31
0.0
 11
6.1300552536
 21
3.9292476407
 31
0.0
 11
6.1307726126
 21
3.9214779626
 31
0.0
 11
6.1313353528
 21
3.9136955343
 31
0.0
 11
6.1319967966
 21
3.8981047368
 31
0.0
 11
6.1320395212
 21
3.8824998927
 31
0.0
 11
6.1314635219
 21
3.866905652
 31
0.0
 11
6.1309434994
 21
3.8591202111
 31
0.0
 11
6.1302688237
 21
3.8513466622
 31
0.0
 11
6.1284570207
 21
3.8358474334
 31
0.0
 11
6.1260320346
 21
3.8204322722
 31
0.0
 11
6.1229979749
 21
3.8051254689
 31
0.0
 11
6.1193589545
 21
3.7899513129
 31
0.0
 11
6.1151200952
 21
3.7749338096
 31
0.0
 11
6.1102890136
 21
3.7600962623
 31
0.0
 11
6.0988821658
 21
3.7310538217
 31
0.0
 11
6.0852075524
 21
3.703007437
 31
0.0
 11
6.0775473544
 21
3.689412663
 31
0.0
 11
6.0693541937
 21
3.6761323877
 31
0.0
 11
6.0606401724
 21
3.6631880179
 31
0.0
 11
6.0514195686
 21
3.6505994733
 31
0.0
 11
6.0417074368
 21
3.638386143
 31
0.0
 11
6.0315188324
 21
3.6265674159
 31
0.0
 11
6.0208690214
 21
3.6151624933
 31
0.0
 11
6.0097751159
 21
3.6041889353
 31
0.0
 11
5.9982551853
 21
3.593663451
 31
0.0
 11
5.9863273069
 21
3.5836027424
 31
0.0
 11
5.9802160369
 21
3.5787518977
 31
0.0
 11
5.9740096441
 21
3.5740233919
 31
0.0
 11
5.9613216128
 21
3.5649402397
 31
0.0
  0
SPLINE
  5
26B
100
AcDbEntity
  8
0
100
AcDbSpline
 62
6
  6
CONTINUOUS
 70
0
 71
3
 72
33
 73
29
 74
27
 42
0.0000001
 43
0.0000001
 44
0.0000000001
 12
0.2375334032
 22
-0.357481601
 32
0.0
 13
0.4238935895
 23
0.067301096
 33
0.0
 40
0.0
 40
0.0
 40
0.0
 40
0.0
 40
0.0312411026
 40
0.0624969275
 40
0.0937605277
 40
0.1250252279
 40
0.1562857191
 40
0.1875418793
 40
0.2187952958
 40
0.2500477783
 40
0.2813011525
 40
0.3125553918
 40
0.375054103
 40
0.4063076821
 40
0.4375607032
 40
0.4688130396
 40
0.5000648152
 40
0.531316449
 40
0.5625679341
 40
0.6250598694
 40
0.6563108355
 40
0.6875615204
 40
0.7500492134
 40
0.8125325643
 40
0.8750222471
 40
0.9062788114
 40
0.9375343459
 40
1.0
 40
1.0
 40
1.0
 40
1.0
 10
5.3987102469
 20
3.6951408588
 30
0.0
 10
5.4011838487
 20
3.6914181523
 30
0.0
 10
5.4062607608
 20
3.6840554839
 30
0.0
 10
5.4142520861
 20
3.6732784599
 30
0.0
 10
5.4226117083
 20
3.6627800054
 30
0.0
 10
5.4313291072
 20
3.6525758286
 30
0.0
 10
5.4403945912
 20
3.6426810061
 30
0.0
 10
5.4497970849
 20
3.6331081201
 30
0.0
 10
5.4595259897
 20
3.6238687773
 30
0.0
 10
5.4695707585
 20
3.6149745226
 30
0.0
 10
5.4799209662
 20
3.6064370545
 30
0.0
 10
5.4941097224
 20
3.5955454683
 30
0.0
 10
5.5088641638
 20
3.5854067686
 30
0.0
 10
5.5241223158
 20
3.5760721854
 30
0.0
 10
5.5358078874
 20
3.569479802
 30
0.0
 10
5.5477193378
 20
3.5633059094
 30
0.0
 10
5.5598424847
 20
3.5575592474
 30
0.0
 10
5.5721631449
 20
3.5522489227
 30
0.0
 10
5.5888305226
 20
3.5457610307
 30
0.0
 10
5.6058367014
 20
3.5401719911
 30
0.0
 10
5.6231053261
 20
3.5355146298
 30
0.0
 10
5.6405304664
 20
3.5314836238
 30
0.0
 10
5.6625677482
 20
3.5276299553
 30
0.0
 10
5.6892751765
 20
3.524942529
 30
0.0
 10
5.7116401836
 20
3.5243343231
 30
0.0
 10
5.729520504
 20
3.5248362591
 30
0.0
 10
5.7473659929
 20
3.5259959454
 30
0.0
 10
5.7606937431
 20
3.5276058168
 30
0.0
 10
5.7695200066
 20
3.5290071525
 30
0.0
 11
5.3987102469
 21
3.6951408588
 31
0.0
 11
5.4063219799
 21
3.6841019836
 31
0.0
 11
5.4143124526
 21
3.6733262198
 31
0.0
 11
5.4226711706
 21
3.6628292621
 31
0.0
 11
5.4313876396
 21
3.6526268053
 31
0.0
 11
5.4404513707
 21
3.642734017
 31
0.0
 11
5.4498519018
 21
3.6331633005
 31
0.0
 11
5.4595787801
 21
3.6239261557
 31
0.0
 11
5.4696215526
 21
3.6150340821
 31
0.0
 11
5.4799695312
 21
3.6064985178
 31
0.0
 11
5.4906104877
 21
3.5983304992
 31
0.0
 11
5.5127199402
 21
3.5831405978
 31
0.0
 11
5.5241626106
 21
3.5761402996
 31
0.0
 11
5.5358456579
 21
3.5695494834
 31
0.0
 11
5.547754722
 21
3.5633770639
 31
0.0
 11
5.5598754405
 21
3.5576319534
 31
0.0
 11
5.5721933345
 21
3.5523229077
 31
0.0
 11
5.5846930335
 21
3.5474574894
 31
0.0
 11
5.6101747151
 21
3.5390855791
 31
0.0
 11
5.623125005
 21
3.5355929034
 31
0.0
 11
5.6361928232
 21
3.5325700436
 31
0.0
 11
5.6626122702
 21
3.5279526708
 31
0.0
 11
5.6892956825
 21
3.5252688575
 31
0.0
 11
5.716106595
 21
3.5245421552
 31
0.0
 11
5.7295167254
 21
3.5249185273
 31
0.0
 11
5.7429034445
 21
3.5257886686
 31
0.0
 11
5.7695200066
 21
3.5290071525
 31
0.0
  0
SPLINE
  5
26C
100
AcDbEntity
  8
0
100
AcDbSpline
 62
6
  6
CONTINUOUS
 70
0
 71
3
 72
47
 73
43
 74
41
 42
0.0000001
 43
0.0000001
 44
0.0000000001
 12
-0.0333274398
 22
-0.0139006071
 32
0.0
 13
-0.024124329
 23
-0.0268693489
 33
0.0
 40
0.0
 40
0.0
 40
0.0
 40
0.0
 40
0.1155032121
 40
0.2248635224
 40
0.3278480011
 40
0.4242223837
 40
0.5137573474
 40
0.596261488
 40
0.6715577834
 40
0.7394685607
 40
0.7998200364
 40
0.8271151923
 40
0.8524678932
 40
0.8758615807
 40
0.8972796812
 40
0.916705606
 40
0.934122753
 40
0.9495153685
 40
0.9628744523
 40
0.9687896034
 40
0.9741941953
 40
0.9790875039
 40
0.983468805
 40
0.9873373743
 40
0.9906924874
 40
0.9935334196
 40
0.9947608414
 40
0.9958594463
 40
0.9968291436
 40
0.9976698426
 40
0.9983814529
 40
0.9989638838
 40
0.9992066286
 40
0.9994170445
 40
0.9995951203
 40
0.9997408446
 40
0.999854206
 40
0.9999351933
 40
0.9999635431
 40
0.9999837951
 40
0.9999959478
 40
1.0
 40
1.0
 40
1.0
 40
1.0
 10
5.5573942322
 20
4.5143240079
 30
0.0
 10
5.5561110901
 20
4.5137888196
 30
0.0
 10
5.5536162559
 20
4.5127391964
 30
0.0
 10
5.5499880024
 20
4.511187241
 30
0.0
 10
5.5465796048
 20
4.50970691
 30
0.0
 10
5.5433972126
 20
4.508305361
 30
0.0
 10
5.5404464344
 20
4.5069896208
 30
0.0
 10
5.5377325648
 20
4.5057656368
 30
0.0
 10
5.5352603628
 20
4.5046389666
 30
0.0
 10
5.533034379
 20
4.5036150566
 30
0.0
 10
5.5313355968
 20
4.5028276317
 30
0.0
 10
5.5301027494
 20
4.5022531105
 30
0.0
 10
5.5292736116
 20
4.5018654392
 30
0.0
 10
5.528508983
 20
4.5015068175
 30
0.0
 10
5.5278093052
 20
4.5011777162
 30
0.0
 10
5.5271750182
 20
4.5008786091
 30
0.0
 10
5.5266065563
 20
4.5006099577
 30
0.0
 10
5.5261042611
 20
4.5003722053
 30
0.0
 10
5.5257271989
 20
4.5001934794
 30
0.0
 10
5.5254588292
 20
4.5000661306
 30
0.0
 10
5.5252825435
 20
4.4999824185
 30
0.0
 10
5.5251229565
 20
4.499906582
 30
0.0
 10
5.5249800873
 20
4.4998386416
 30
0.0
 10
5.5248539551
 20
4.4997786178
 30
0.0
 10
5.5247445791
 20
4.4997265312
 30
0.0
 10
5.524663916
 20
4.4996880911
 30
0.0
 10
5.5246077778
 20
4.4996613235
 30
0.0
 10
5.5245719726
 20
4.499644245
 30
0.0
 10
5.5245403709
 20
4.4996291662
 30
0.0
 10
5.524512975
 20
4.4996160896
 30
0.0
 10
5.5244897875
 20
4.4996050178
 30
0.0
 10
5.5244730959
 20
4.4995970451
 30
0.0
 10
5.5244618487
 20
4.4995916712
 30
0.0
 10
5.5244549931
 20
4.4995883953
 30
0.0
 10
5.5244491919
 20
4.4995856218
 30
0.0
 10
5.5244444432
 20
4.4995833541
 30
0.0
 10
5.5244407536
 20
4.4995815839
 30
0.0
 10
5.5244383284
 20
4.4995804367
 30
0.0
 10
5.5244369305
 20
4.4995797513
 30
0.0
 10
5.5244362556
 20
4.499579456
 30
0.0
 10
5.5244358866
 20
4.4995792308
 30
0.0
 10
5.5244356829
 20
4.4995791837
 30
0.0
 10
5.5244356503
 20
4.4995791474
 30
0.0
 11
5.5573942322
 21
4.5143240079
 31
0.0
 11
5.5535497626
 21
4.5127066102
 31
0.0
 11
5.5499189305
 21
4.5111536063
 31
0.0
 11
5.5465079384
 21
4.5096722158
 31
0.0
 11
5.5433229891
 21
4.5082696579
 31
0.0
 11
5.5403701192
 21
4.5069529772
 31
0.0
 11
5.5376543177
 21
4.5057281142
 31
0.0
 11
5.5351801662
 21
4.5046005802
 31
0.0
 11
5.5329522453
 21
4.5035758857
 31
0.0
 11
5.5309750335
 21
4.502659374
 31
0.0
 11
5.5300816484
 21
4.5022430383
 31
0.0
 11
5.5292523313
 21
4.5018552804
 31
0.0
 11
5.5284875227
 21
4.5014965732
 31
0.0
 11
5.5277876631
 21
4.5011673895
 31
0.0
 11
5.527153193
 21
4.5008682024
 31
0.0
 11
5.5265845528
 21
4.5005994847
 31
0.0
 11
5.5260821602
 21
4.5003616847
 31
0.0
 11
5.525646254
 21
4.5001550583
 31
0.0
 11
5.5254532815
 21
4.5000634867
 31
0.0
 11
5.5252769884
 21
4.4999797701
 31
0.0
 11
5.5251173938
 21
4.4999039291
 31
0.0
 11
5.5249745171
 21
4.4998359842
 31
0.0
 11
5.5248483774
 21
4.4997759559
 31
0.0
 11
5.5247389939
 21
4.4997238648
 31
0.0
 11
5.5246463859
 21
4.4996797314
 31
0.0
 11
5.5246063787
 21
4.4996606552
 31
0.0
 11
5.5245705725
 21
4.4996435761
 31
0.0
 11
5.5245389699
 21
4.4996284968
 31
0.0
 11
5.5245115731
 21
4.4996154196
 31
0.0
 11
5.5244883846
 21
4.4996043473
 31
0.0
 11
5.5244694068
 21
4.4995952823
 31
0.0
 11
5.5244614976
 21
4.4995915034
 31
0.0
 11
5.524454642
 21
4.4995882273
 31
0.0
 11
5.5244488403
 21
4.4995854543
 31
0.0
 11
5.5244440928
 21
4.4995831847
 31
0.0
 11
5.5244403997
 21
4.499581419
 31
0.0
 11
5.5244377614
 21
4.4995801573
 31
0.0
 11
5.5244368379
 21
4.4995797156
 31
0.0
 11
5.5244361781
 21
4.4995794
 31
0.0
 11
5.5244357823
 21
4.4995792106
 31
0.0
 11
5.5244356503
 21
4.4995791474
 31
0.0
  0
ELLIPSE
  5
26D
100
AcDbEntity
  8
0
100
AcDbEllipse
 62
6
  6
CONTINUOUS
 10
5.7389356503
 20
4.4843347847
 30
0.0
 11
0.2145
 21
0.0
 31
0.0
 40
0.2624887254
 41
0.5617073843
 42
2.5798852693
  0
ELLIPSE
  5
26E
100
AcDbEntity
  8
0
100
AcDbEllipse
 62
6
  6
CONTINUOUS
 10
5.5639356503
 20
4.4843347847
 30
0.0
 11
0.4
 21
-0.0
 31
0.0
 40
0.2624887254
 41
0.2896574031
 42
0.456708626
  0
ELLIPSE
  5
26F
100
AcDbEntity
  8
0
100
AcDbEllipse
 62
6
  6
CONTINUOUS
 10
5.9139356503
 20
4.4843347847
 30
0.0
 11
0.4
 21
-0.0
 31
0.0
 40
0.2624887254
 41
2.6848840275
 42
2.8519352505
  0
ENDSEC
  0
SECTION
  2
OBJECTS
  0
DICTIONARY
  5
C
100
AcDbDictionary
280
0
281
1
  3
ACAD_GROUP
350
D
  3
ACAD_MLINESTYLE
350
17
  3
ACAD_LAYOUT
350
1A
  3
ACAD_PLOTSETTINGS
350
19
  3
ACAD_PLOTSTYLENAME
350
E
  0
DICTIONARY
  5
D
102
{ACAD_REACTORS
330
C
102
}
100
AcDbDictionary
280
0
281
1
  0
ACDBDICTIONARYWDFLT
  5
E
102
{ACAD_REACTORS
330
C
102
}
100
AcDbDictionary
281
1
  3
Normal
350
F
100
AcDbDictionaryWithDefault
340
F
  0
DICTIONARY
  5
17
102
{ACAD_REACTORS
330
C
102
}
100
AcDbDictionary
280
0
281
1
  3
Standard
350
18
  0
DICTIONARY
  5
19
102
{ACAD_REACTORS
330
C
102
}
100
AcDbDictionary
281
1
  0
DICTIONARY
  5
1A
102
{ACAD_REACTORS
330
C
102
}
100
AcDbDictionary
281
1
  3
Model
350
270
  3
Layout1
350
271
  0
ACDBPLACEHOLDER
  5
F
102
{ACAD_REACTORS
330
E
102
}
  0
MLINESTYLE
  5
18
102
{ACAD_REACTORS
330
17
102
}
100
AcDbMlineStyle
  2
STANDARD
 70
0
  3

 62
256
 51
90.0
 52
90.0
 71
2
 49
0.5
 62
256
  6
BYLAYER
 49
-0.5
 62
256
  6
BYLAYER
  0
LAYOUT
  5
270
102
{ACAD_REACTORS
330
1A
102
}
100
AcDbPlotSettings
  1

  2
none_device
  4
ISO_A4_(297.00_x_210.00_MM)
  6

 40
0.0
 41
0.0
 42
0.0
 43
0.0
 44
297.0
 45
210.0
 46
0.0
 47
0.0
 48
0.0
 49
0.0
140
0.0
141
0.0
142
1.0
143
1.0
 70
1024
 72
0
 73
0
 74
0
  7

 75
0
147
1.0
148
0.0
149
0.0
100
AcDbLayout
  1
Model
 70
0
 71
0
 10
0.0
 20
0.0
 11
11.6929133858
 21
8.2677165354
 12
0.0
 22
0.0
 32
0.0
 14
0.0
 24
0.0
 34
0.0
 15
0.0
 25
0.0
 35
0.0
146
0.0
 13
0.0
 23
0.0
 33
0.0
 16
1.0
 26
0.0
 36
0.0
 17
0.0
 27
1.0
 37
0.0
 76
0
330
203
345
0
346
0
  0
LAYOUT
  5
271
102
{ACAD_REACTORS
330
1A
102
}
100
AcDbPlotSettings
  1

  2
none_device
  4
ISO_A4_(297.00_x_210.00_MM)
  6

 40
0.0
 41
0.0
 42
0.0
 43
0.0
 44
297.0
 45
210.0
 46
0.0
 47
0.0
 48
0.0
 49
0.0
140
0.0
141
0.0
142
1.0
143
1.0
 70
0
 72
0
 73
0
 74
0
  7

 75
0
147
1.0
148
0.0
149
0.0
100
AcDbLayout
  1
Layout1
 70
0
 71
1
 10
0.0
 20
0.0
 11
11.6929133858
 21
8.2677165354
 12
0.0
 22
0.0
 32
0.0
 14
0.0
 24
0.0
 34
0.0
 15
0.0
 25
0.0
 35
0.0
146
0.0
 13
0.0
 23
0.0
 33
0.0
 16
1.0
 26
0.0
 36
0.0
 17
0.0
 27
1.0
 37
0.0
 76
0
330
204
345
0
346
0
  0
ENDSEC
  0
EOF
