999
DXF file: E:\BT Custom\CADOUTPUT\_FRONT.dxf
999
Pro/ENGINEER 2018400 by Parametric Technology Corporation
  0
SECTION
  2
HEADER
  9
$ACADVER
  1
AC1018
  9
$DWGCODEPAGE
  3
ANSI_1252
  9
$EXTMAX
 10
22.0
 20
17.0
 30
0.0
  9
$EXTMIN
 10
0.0
 20
0.0
 30
0.0
  9
$LIMMIN
 10
0.0
 20
0.0
  9
$LIMMAX
 10
22.0
 20
17.0
  9
$VIEWCTR
 10
11.0
 20
8.5
  9
$VIEWSIZE
 40
17.0
  9
$CLAYER
  8
0
  9
$LTSCALE
 40
1.21
  9
$CELTYPE
  6
BYLAYER
  9
$DIMSCALE
 40
1.0
  9
$DIMASZ
 40
0.1
  9
$DIMEXO
 40
0.0625
  9
$DIMDLI
 40
0.836
  9
$DIMEXE
 40
0.125
  9
$DIMCEN
 40
0.198
  9
$DIMLFAC
 40
1.0
  9
$DIMBLK
  1
_FILLED
  9
$DIMALT
 70
1
  9
$DIMALTD
 70
2
  9
$DIMALTTD
 70
2
  9
$DIMALTF
 40
25.4
  9
$DIMTXT
 40
0.08
  9
$DIMTOL
 70
1
  9
$DIMLIM
 70
0
  9
$DIMTFAC
 40
1.0
  9
$DIMTP
 40
0.001
  9
$DIMTM
 40
0.001
  9
$DIMGAP
 40
0.09
  9
$DIMDSEP
 70
46
  9
$AUNITS
 70
0
  9
$PDMODE
 70
3
  9
$PDSIZE
 40
0.06
  9
$HANDSEED
  5
303
  9
$TILEMODE
 70
1
  9
$MEASUREMENT
 70
0
  9
$INSUNITS
 70
1
  0
ENDSEC
  0
SECTION
  2
CLASSES
  0
CLASS
  1
ACDBDICTIONARYWDFLT
  2
AcDbDictionaryWithDefault
  3
AutoCAD 2000
 90
0
 91
1
280
0
281
0
  0
CLASS
  1
ACDBPLACEHOLDER
  2
AcDbPlaceHolder
  3
AutoCAD 2000
 90
0
 91
1
280
0
281
0
  0
CLASS
  1
LAYOUT
  2
AcDbLayout
  3
AutoCAD 2000
 90
0
 91
0
280
0
281
0
  0
ENDSEC
  0
SECTION
  2
TABLES
  0
TABLE
  2
VPORT
  5
8
100
AcDbSymbolTable
 70
2
  0
VPORT
  5
1F4
100
AcDbSymbolTableRecord
100
AcDbViewportTableRecord
  2
*ACTIVE
 70
0
 10
0.0
 20
0.0
 11
1.0
 21
1.0
 12
11.0
 22
8.5
 13
0.0
 23
0.0
 14
1.0
 24
1.0
 15
0.0
 25
0.0
 16
0.0
 26
0.0
 36
1.0
 17
0.0
 27
0.0
 37
0.0
 40
17.0
 41
1.2941176471
 42
50.0
 43
0.0
 44
0.0
 50
0.0
 51
0.0
 71
0
 72
100
 73
1
 74
1
 75
0
 76
0
 77
0
 78
0
  0
ENDTAB
  0
TABLE
  2
LTYPE
  5
5
100
AcDbSymbolTable
 70
6
  0
LTYPE
  5
14
100
AcDbSymbolTableRecord
100
AcDbLinetypeTableRecord
  2
BYBLOCK
 70
0
  3

 72
65
 73
0
 40
0.0
  0
LTYPE
  5
15
100
AcDbSymbolTableRecord
100
AcDbLinetypeTableRecord
  2
BYLAYER
 70
0
  3

 72
65
 73
0
 40
0.0
  0
LTYPE
  5
16
100
AcDbSymbolTableRecord
100
AcDbLinetypeTableRecord
  2
CONTINUOUS
 70
64
  3
Solid line
 72
65
 73
0
 40
0.0
  0
LTYPE
  5
1F5
100
AcDbSymbolTableRecord
100
AcDbLinetypeTableRecord
  2
CENTER
 70
64
  3
____ _ ____ _ ____ _ ____ _ ____ _ ____ _ ____
 72
65
 73
4
 40
0.6
 49
0.375
 74
0
 49
-0.075
 74
0
 49
0.075
 74
0
 49
-0.075
 74
0
  0
LTYPE
  5
1F6
100
AcDbSymbolTableRecord
100
AcDbLinetypeTableRecord
  2
HIDDEN
 70
64
  3
- - - - - - - - - - - - - - - - - - - -
 72
65
 73
2
 40
0.2
 49
0.1
 74
0
 49
-0.1
 74
0
  0
LTYPE
  5
1F7
100
AcDbSymbolTableRecord
100
AcDbLinetypeTableRecord
  2
PHANTOM
 70
64
  3
_____ _ _ _____ _ _ _____ _ _ _____
 72
65
 73
6
 40
0.8
 49
0.45
 74
0
 49
-0.05
 74
0
 49
0.1
 74
0
 49
-0.05
 74
0
 49
0.1
 74
0
 49
-0.05
 74
0
  0
LTYPE
  5
1F8
100
AcDbSymbolTableRecord
100
AcDbLinetypeTableRecord
  2
DOT
 70
64
  3
. . . . . . . . . . . . . . . . . . . .
 72
65
 73
2
 40
0.2
 49
0.1
 74
0
 49
-0.1
 74
0
  0
LTYPE
  5
1F9
100
AcDbSymbolTableRecord
100
AcDbLinetypeTableRecord
  2
DASHED
 70
64
  3
- - - - - - - - - - - - - - - - - - - -
 72
65
 73
2
 40
0.2
 49
0.1
 74
0
 49
-0.1
 74
0
  0
ENDTAB
  0
TABLE
  2
LAYER
  5
2
100
AcDbSymbolTable
 70
36
  0
LAYER
  5
10
100
AcDbSymbolTableRecord
100
AcDbLayerTableRecord
  2
0
 70
0
 62
7
  6
CONTINUOUS
370
-3
390
F
  0
LAYER
  5
1FA
100
AcDbSymbolTableRecord
100
AcDbLayerTableRecord
  2
DEFAULT_1
 70
0
 62
7
  6
CENTER
370
-3
390
F
  0
LAYER
  5
1FB
100
AcDbSymbolTableRecord
100
AcDbLayerTableRecord
  2
DEFAULT_2
 70
0
 62
8
  6
HIDDEN
370
-3
390
F
  0
LAYER
  5
1FC
100
AcDbSymbolTableRecord
100
AcDbLayerTableRecord
  2
DEFAULT_3
 70
0
 62
7
  6
PHANTOM
370
-3
390
F
  0
LAYER
  5
1FD
100
AcDbSymbolTableRecord
100
AcDbLayerTableRecord
  2
ALL_FEATURES
 70
0
 62
7
  6
CONTINUOUS
370
-3
390
F
  0
LAYER
  5
1FE
100
AcDbSymbolTableRecord
100
AcDbLayerTableRecord
  2
AXES_FEATURES
 70
0
 62
7
  6
CONTINUOUS
370
-3
390
F
  0
LAYER
  5
1FF
100
AcDbSymbolTableRecord
100
AcDbLayerTableRecord
  2
DIMENSIONS
 70
0
 62
7
  6
CONTINUOUS
370
-3
390
F
  0
ENDTAB
  0
TABLE
  2
STYLE
  5
3
100
AcDbSymbolTable
 70
1
  0
STYLE
  5
11
100
AcDbSymbolTableRecord
100
AcDbTextStyleTableRecord
  2
STANDARD
 70
0
 40
0.0
 41
0.8
 50
0.0
 71
0
 42
0.2
  3
txt
  4

  0
STYLE
  5
200
100
AcDbSymbolTableRecord
100
AcDbTextStyleTableRecord
  2
TEXTSTYLE_1
 70
0
 40
0.0
 41
0.8
 50
0.0
 71
0
 42
0.2
  3
gdt
  4

  0
ENDTAB
  0
TABLE
  2
VIEW
  5
6
100
AcDbSymbolTable
 70
0
  0
ENDTAB
  0
TABLE
  2
UCS
  5
7
100
AcDbSymbolTable
 70
0
  0
ENDTAB
  0
TABLE
  2
APPID
  5
9
100
AcDbSymbolTable
 70
1
  0
APPID
  5
201
100
AcDbSymbolTableRecord
100
AcDbRegAppTableRecord
  2
ACAD
 70
0
  0
ENDTAB
  0
TABLE
  2
BLOCK_RECORD
  5
1
100
AcDbSymbolTable
 70
0
  0
BLOCK_RECORD
  5
202
100
AcDbSymbolTableRecord
100
AcDbBlockTableRecord
  2
*Model_Space
  0
BLOCK_RECORD
  5
203
100
AcDbSymbolTableRecord
100
AcDbBlockTableRecord
  2
*Paper_Space
  0
BLOCK_RECORD
  5
204
100
AcDbSymbolTableRecord
100
AcDbBlockTableRecord
  2
_FILLED
  0
ENDTAB
  0
TABLE
  2
DIMSTYLE
  5
A
100
AcDbSymbolTable
 70
1
100
AcDbDimStyleTable
 71
0
  0
DIMSTYLE
105
205
100
AcDbSymbolTableRecord
100
AcDbDimStyleTableRecord
  2
STANDARD
 70
0
  3

  4

 40
1.0
 41
0.1
 42
0.0625
 43
0.38
 44
0.125
 45
0.0
 46
0.0
 47
0.001
 48
0.001
140
0.08
141
0.09
142
0.0
143
25.4
144
1.0
145
0.0
146
1.0
147
0.09
 71
1.0
 72
0.0
 73
1
 74
1
 75
0
 76
0
 77
0
 78
4
 79
1
170
1
171
2
172
0
173
0
174
0
175
0
176
0
177
0
178
0
270
2
179
3
271
3
272
3
273
2
274
2
275
0
280
0
281
0
282
0
283
1
284
4
285
0
286
0
287
3
288
0
340
11
278
46
341
204
342
204
343
204
344
204
  0
ENDTAB
  0
ENDSEC
  0
SECTION
  2
BLOCKS
  0
BLOCK
  5
20
100
AcDbEntity
  8
0
100
AcDbBlockBegin
  2
*Model_Space
 70
0
 10
0.0
 20
0.0
 30
0.0
  3
*Model_Space
  1

  0
ENDBLK
  5
21
100
AcDbEntity
  8
0
100
AcDbBlockEnd
  0
BLOCK
  5
1C
100
AcDbEntity
  8
0
100
AcDbBlockBegin
  2
*Paper_Space
 70
0
 10
0.0
 20
0.0
 30
0.0
  3
*Paper_Space
  1

  0
ENDBLK
  5
1D
100
AcDbEntity
  8
0
100
AcDbBlockEnd
  0
BLOCK
  5
206
100
AcDbEntity
  8
0
100
AcDbBlockBegin
  2
_FILLED
 70
64
 10
0.0
 20
0.0
  3
_FILLED
  1

  0
SOLID
  5
207
100
AcDbEntity
  8
0
  6
BYBLOCK
 62
0
100
AcDbTrace
 10
0.0
 20
0.0
 11
-1.0
 21
0.2
 12
-1.0
 22
-0.2
 13
-1.0
 23
-0.2
  0
ENDBLK
  5
208
100
AcDbEntity
  8
0
  6
BYBLOCK
 62
0
100
AcDbBlockEnd
  0
ENDSEC
  0
SECTION
  2
ENTITIES
  0
LINE
  5
209
100
AcDbEntity
  8
0
100
AcDbLine
 62
9
  6
CONTINUOUS
 10
11.329899913
 20
9.9469929346
 11
11.3234991538
 21
9.935906496
  0
LINE
  5
20A
100
AcDbEntity
  8
0
100
AcDbLine
 62
9
  6
CONTINUOUS
 10
11.3734380575
 20
10.0224032159
 11
11.3789423266
 21
10.0319368884
  0
LINE
  5
20B
100
AcDbEntity
  8
0
100
AcDbLine
 62
9
  6
CONTINUOUS
 10
10.5019466334
 20
8.5129357884
 11
10.4964423643
 21
8.5034021159
  0
LINE
  5
20C
100
AcDbEntity
  8
0
100
AcDbLine
 62
9
  6
CONTINUOUS
 10
10.5454847779
 20
8.5883460697
 11
10.5518855371
 21
8.5994325082
  0
LINE
  5
20D
100
AcDbEntity
  8
0
100
AcDbLine
 62
9
  6
CONTINUOUS
 10
10.1532772118
 20
9.267669503
 11
10.1660787288
 21
9.2676695022
  0
LINE
  5
20E
100
AcDbEntity
  8
0
100
AcDbLine
 62
9
  6
CONTINUOUS
 10
10.0662009203
 20
9.2676695015
 11
10.0551923831
 21
9.2676695021
  0
LINE
  5
20F
100
AcDbEntity
  8
0
100
AcDbLine
 62
9
  6
CONTINUOUS
 10
11.8091837706
 20
9.2676695028
 11
11.8201923078
 21
9.2676695022
  0
LINE
  5
210
100
AcDbEntity
  8
0
100
AcDbLine
 62
9
  6
CONTINUOUS
 10
11.7221074791
 20
9.2676695013
 11
11.7093059621
 21
9.2676695021
  0
LINE
  5
211
100
AcDbEntity
  8
0
100
AcDbLine
 62
9
  6
CONTINUOUS
 10
10.5454847794
 20
9.9469929354
 11
10.5518855372
 21
9.9359064961
  0
LINE
  5
212
100
AcDbEntity
  8
0
100
AcDbLine
 62
9
  6
CONTINUOUS
 10
10.5019466323
 20
10.0224032152
 11
10.4964423643
 21
10.0319368883
  0
LINE
  5
213
100
AcDbEntity
  8
0
100
AcDbLine
 62
9
  6
CONTINUOUS
 10
11.3734380586
 20
8.5129357891
 11
11.3789423267
 21
8.5034021159
  0
LINE
  5
214
100
AcDbEntity
  8
0
100
AcDbLine
 62
9
  6
CONTINUOUS
 10
11.3298999115
 20
8.5883460689
 11
11.3234991538
 21
8.5994325082
  0
CIRCLE
  5
215
100
AcDbEntity
  8
0
100
AcDbCircle
 62
7
  6
CONTINUOUS
 10
10.323281183
 20
8.7144511885
 40
0.0905511811
  0
CIRCLE
  5
216
100
AcDbEntity
  8
0
100
AcDbCircle
 62
7
  6
CONTINUOUS
 10
10.3229613668
 20
8.7141650089
 40
0.0648523321
  0
CIRCLE
  5
217
100
AcDbEntity
  8
0
100
AcDbCircle
 62
9
  6
CONTINUOUS
 10
10.3230688922
 20
8.7142610938
 40
0.0554447509
  0
CIRCLE
  5
218
100
AcDbEntity
  8
0
100
AcDbCircle
 62
9
  6
CONTINUOUS
 10
10.3223994205
 20
8.7136654361
 40
0.0435408511
  0
CIRCLE
  5
219
100
AcDbEntity
  8
0
100
AcDbCircle
 62
7
  6
CONTINUOUS
 10
10.323281183
 20
8.7144511885
 40
0.0196850394
  0
CIRCLE
  5
21A
100
AcDbEntity
  8
0
100
AcDbCircle
 62
7
  6
CONTINUOUS
 10
10.1109206057
 20
9.2676694064
 40
0.0905511811
  0
CIRCLE
  5
21B
100
AcDbEntity
  8
0
100
AcDbCircle
 62
7
  6
CONTINUOUS
 10
10.1513856906
 20
9.0121829149
 40
0.0905511811
  0
CIRCLE
  5
21C
100
AcDbEntity
  8
0
100
AcDbCircle
 62
7
  6
CONTINUOUS
 10
10.412433746
 20
9.1367077503
 40
0.0905511811
  0
ARC
  5
21D
100
AcDbEntity
  8
0
100
AcDbCircle
 62
7
  6
CONTINUOUS
 10
10.1104913211
 20
9.2676679627
 40
0.0648524129
100
AcDbArc
 50
0.0013602707
 51
179.9986399246
  0
CIRCLE
  5
21E
100
AcDbEntity
  8
0
100
AcDbCircle
 62
7
  6
CONTINUOUS
 10
10.1509770973
 20
9.0120515174
 40
0.0648522943
  0
CIRCLE
  5
21F
100
AcDbEntity
  8
0
100
AcDbCircle
 62
7
  6
CONTINUOUS
 10
10.4121679134
 20
9.1366419219
 40
0.0632885109
  0
CIRCLE
  5
220
100
AcDbEntity
  8
0
100
AcDbCircle
 62
9
  6
CONTINUOUS
 10
10.1511149748
 20
9.0120939552
 40
0.0554460667
  0
ARC
  5
221
100
AcDbEntity
  8
0
100
AcDbCircle
 62
9
  6
CONTINUOUS
 10
10.1106355504
 20
9.2676685655
 40
0.0554445168
100
AcDbArc
 50
0.0009680606
 51
179.999032135
  0
CIRCLE
  5
222
100
AcDbEntity
  8
0
100
AcDbCircle
 62
9
  6
CONTINUOUS
 10
10.4122593445
 20
9.1366642591
 40
0.0538974244
  0
CIRCLE
  5
223
100
AcDbEntity
  8
0
100
AcDbCircle
 62
9
  6
CONTINUOUS
 10
10.1502649715
 20
9.011812255
 40
0.043542167
  0
ARC
  5
224
100
AcDbEntity
  8
0
100
AcDbCircle
 62
9
  6
CONTINUOUS
 10
10.1097393763
 20
9.2676632621
 40
0.0435405967
100
AcDbArc
 50
0.0082120079
 51
179.9917881093
  0
CIRCLE
  5
225
100
AcDbEntity
  8
0
100
AcDbCircle
 62
7
  6
CONTINUOUS
 10
10.1109206057
 20
9.2676694064
 40
0.0196850394
  0
CIRCLE
  5
226
100
AcDbEntity
  8
0
100
AcDbCircle
 62
7
  6
CONTINUOUS
 10
10.1513856906
 20
9.0121829149
 40
0.0196850394
  0
CIRCLE
  5
227
100
AcDbEntity
  8
0
100
AcDbCircle
 62
7
  6
CONTINUOUS
 10
10.412433746
 20
9.1367077503
 40
0.0196850394
  0
CIRCLE
  5
228
100
AcDbEntity
  8
0
100
AcDbCircle
 62
7
  6
CONTINUOUS
 10
10.5243064324
 20
8.5516641513
 40
0.0905511811
  0
CIRCLE
  5
229
100
AcDbEntity
  8
0
100
AcDbCircle
 62
7
  6
CONTINUOUS
 10
10.7657967668
 20
8.4589646971
 40
0.0905511811
  0
ARC
  5
22A
100
AcDbEntity
  8
0
100
AcDbCircle
 62
7
  6
CONTINUOUS
 10
10.7884791237
 20
8.7473013623
 40
0.0905511811
100
AcDbArc
 50
269.9999189697
 51
90.0000254752
  0
CIRCLE
  5
22B
100
AcDbEntity
  8
0
100
AcDbCircle
 62
7
  6
CONTINUOUS
 10
10.5240905529
 20
8.5512931402
 40
0.0648523778
  0
CIRCLE
  5
22C
100
AcDbEntity
  8
0
100
AcDbCircle
 62
7
  6
CONTINUOUS
 10
10.7657063872
 20
8.4585451131
 40
0.0648522978
  0
CIRCLE
  5
22D
100
AcDbEntity
  8
0
100
AcDbCircle
 62
7
  6
CONTINUOUS
 10
10.7884033457
 20
8.7470382105
 40
0.0632885085
  0
CIRCLE
  5
22E
100
AcDbEntity
  8
0
100
AcDbCircle
 62
9
  6
CONTINUOUS
 10
10.7657385768
 20
8.4586857379
 40
0.0554460599
  0
CIRCLE
  5
22F
100
AcDbEntity
  8
0
100
AcDbCircle
 62
9
  6
CONTINUOUS
 10
10.5241647419
 20
8.5514168492
 40
0.0554444907
  0
CIRCLE
  5
230
100
AcDbEntity
  8
0
100
AcDbCircle
 62
9
  6
CONTINUOUS
 10
10.7884297148
 20
8.7471285558
 40
0.0538974197
  0
CIRCLE
  5
231
100
AcDbEntity
  8
0
100
AcDbCircle
 62
9
  6
CONTINUOUS
 10
10.7655575364
 20
8.4578087643
 40
0.0435421679
  0
ARC
  5
232
100
AcDbEntity
  8
0
100
AcDbCircle
 62
9
  6
CONTINUOUS
 10
10.5237212645
 20
8.5506380762
 40
0.0435405967
100
AcDbArc
 50
60.0082125132
 51
329.979433839
  0
CIRCLE
  5
233
100
AcDbEntity
  8
0
100
AcDbCircle
 62
7
  6
CONTINUOUS
 10
10.5243064324
 20
8.5516641513
 40
0.0196850394
  0
CIRCLE
  5
234
100
AcDbEntity
  8
0
100
AcDbCircle
 62
7
  6
CONTINUOUS
 10
10.7657967668
 20
8.4589646971
 40
0.0196850394
  0
CIRCLE
  5
235
100
AcDbEntity
  8
0
100
AcDbCircle
 62
7
  6
CONTINUOUS
 10
10.7884791237
 20
8.7473013623
 40
0.0196850394
  0
CIRCLE
  5
236
100
AcDbEntity
  8
0
100
AcDbCircle
 62
7
  6
CONTINUOUS
 10
10.6817867474
 20
9.2676694064
 40
0.0905511811
  0
CIRCLE
  5
237
100
AcDbEntity
  8
0
100
AcDbCircle
 62
7
  6
CONTINUOUS
 10
10.5616468815
 20
8.8782630184
 40
0.0905511811
  0
CIRCLE
  5
238
100
AcDbEntity
  8
0
100
AcDbCircle
 62
7
  6
CONTINUOUS
 10
10.8097395033
 20
9.0460487321
 40
0.0905511811
  0
CIRCLE
  5
239
100
AcDbEntity
  8
0
100
AcDbCircle
 62
7
  6
CONTINUOUS
 10
10.5614562887
 20
8.8780664048
 40
0.0632885653
  0
CIRCLE
  5
23A
100
AcDbEntity
  8
0
100
AcDbCircle
 62
7
  6
CONTINUOUS
 10
10.8096761087
 20
9.0459385323
 40
0.0623788805
  0
ARC
  5
23B
100
AcDbEntity
  8
0
100
AcDbCircle
 62
7
  6
CONTINUOUS
 10
10.6816595745
 20
9.2676693347
 40
0.0623788748
100
AcDbArc
 50
0.0002664461
 51
179.9997337455
  0
CIRCLE
  5
23C
100
AcDbEntity
  8
0
100
AcDbCircle
 62
9
  6
CONTINUOUS
 10
10.5615220223
 20
8.8781337608
 40
0.05389835
  0
CIRCLE
  5
23D
100
AcDbEntity
  8
0
100
AcDbCircle
 62
9
  6
CONTINUOUS
 10
10.8096980175
 20
9.0459768765
 40
0.0529968021
  0
CIRCLE
  5
23E
100
AcDbEntity
  8
0
100
AcDbCircle
 62
7
  6
CONTINUOUS
 10
10.5611196716
 20
8.8777080669
 40
0.0419844317
  0
ARC
  5
23F
100
AcDbEntity
  8
0
100
AcDbCircle
 62
9
  6
CONTINUOUS
 10
10.6814262625
 20
9.2676694535
 40
0.0410866077
100
AcDbArc
 50
0.0001233938
 51
179.9996437908
  0
CIRCLE
  5
240
100
AcDbEntity
  8
0
100
AcDbCircle
 62
9
  6
CONTINUOUS
 10
10.8095590558
 20
9.0457367229
 40
0.0410866076
  0
CIRCLE
  5
241
100
AcDbEntity
  8
0
100
AcDbCircle
 62
7
  6
CONTINUOUS
 10
10.6817867474
 20
9.2676694064
 40
0.0196850394
  0
CIRCLE
  5
242
100
AcDbEntity
  8
0
100
AcDbCircle
 62
7
  6
CONTINUOUS
 10
10.5616468815
 20
8.8782630184
 40
0.0196850394
  0
CIRCLE
  5
243
100
AcDbEntity
  8
0
100
AcDbCircle
 62
7
  6
CONTINUOUS
 10
10.8097395033
 20
9.0460487321
 40
0.0196850394
  0
CIRCLE
  5
244
100
AcDbEntity
  8
0
100
AcDbCircle
 62
7
  6
CONTINUOUS
 10
10.1513856906
 20
9.5231558978
 40
0.0905511811
  0
CIRCLE
  5
245
100
AcDbEntity
  8
0
100
AcDbCircle
 62
7
  6
CONTINUOUS
 10
10.412433746
 20
9.3986310624
 40
0.0905511811
  0
ARC
  5
246
100
AcDbEntity
  8
0
100
AcDbCircle
 62
7
  6
CONTINUOUS
 10
10.1104913211
 20
9.2676709735
 40
0.0648523703
100
AcDbArc
 50
180.0012998774
 51
359.9987003179
  0
CIRCLE
  5
247
100
AcDbEntity
  8
0
100
AcDbCircle
 62
7
  6
CONTINUOUS
 10
10.1509779017
 20
9.5232898972
 40
0.0648523315
  0
CIRCLE
  5
248
100
AcDbEntity
  8
0
100
AcDbCircle
 62
7
  6
CONTINUOUS
 10
10.4121681373
 20
9.3986979363
 40
0.0632885648
  0
CIRCLE
  5
249
100
AcDbEntity
  8
0
100
AcDbCircle
 62
9
  6
CONTINUOUS
 10
10.1511148785
 20
9.5232448223
 40
0.0554447509
  0
ARC
  5
24A
100
AcDbEntity
  8
0
100
AcDbCircle
 62
9
  6
CONTINUOUS
 10
10.1106355618
 20
9.2676704349
 40
0.0554445151
100
AcDbArc
 50
180.0009639245
 51
359.9990362706
  0
CIRCLE
  5
24B
100
AcDbEntity
  8
0
100
AcDbCircle
 62
9
  6
CONTINUOUS
 10
10.4122593362
 20
9.3986746875
 40
0.05389835
  0
ARC
  5
24C
100
AcDbEntity
  8
0
100
AcDbCircle
 62
9
  6
CONTINUOUS
 10
10.1097418491
 20
9.2676773402
 40
0.0435438907
100
AcDbArc
 50
180.0103140932
 51
269.9794287708
  0
CIRCLE
  5
24D
100
AcDbEntity
  8
0
100
AcDbCircle
 62
9
  6
CONTINUOUS
 10
10.150264288
 20
9.5235267729
 40
0.0435408511
  0
CIRCLE
  5
24E
100
AcDbEntity
  8
0
100
AcDbCircle
 62
7
  6
CONTINUOUS
 10
10.4116894991
 20
9.3988102864
 40
0.0419844317
  0
CIRCLE
  5
24F
100
AcDbEntity
  8
0
100
AcDbCircle
 62
7
  6
CONTINUOUS
 10
10.412433746
 20
9.3986310624
 40
0.0196850394
  0
CIRCLE
  5
250
100
AcDbEntity
  8
0
100
AcDbCircle
 62
7
  6
CONTINUOUS
 10
10.1513856906
 20
9.5231558978
 40
0.0196850394
  0
CIRCLE
  5
251
100
AcDbEntity
  8
0
100
AcDbCircle
 62
7
  6
CONTINUOUS
 10
10.323281183
 20
9.8208876242
 40
0.0905511811
  0
CIRCLE
  5
252
100
AcDbEntity
  8
0
100
AcDbCircle
 62
7
  6
CONTINUOUS
 10
10.322963053
 20
9.8211759002
 40
0.0648522943
  0
CIRCLE
  5
253
100
AcDbEntity
  8
0
100
AcDbCircle
 62
9
  6
CONTINUOUS
 10
10.3230687439
 20
9.8210777137
 40
0.0554460667
  0
CIRCLE
  5
254
100
AcDbEntity
  8
0
100
AcDbCircle
 62
9
  6
CONTINUOUS
 10
10.3223997827
 20
9.8216729881
 40
0.043542167
  0
CIRCLE
  5
255
100
AcDbEntity
  8
0
100
AcDbCircle
 62
7
  6
CONTINUOUS
 10
10.323281183
 20
9.8208876242
 40
0.0196850394
  0
CIRCLE
  5
256
100
AcDbEntity
  8
0
100
AcDbCircle
 62
7
  6
CONTINUOUS
 10
10.5616468815
 20
9.6570757943
 40
0.0905511811
  0
CIRCLE
  5
257
100
AcDbEntity
  8
0
100
AcDbCircle
 62
7
  6
CONTINUOUS
 10
10.8097395033
 20
9.4892900806
 40
0.0905511811
  0
CIRCLE
  5
258
100
AcDbEntity
  8
0
100
AcDbCircle
 62
7
  6
CONTINUOUS
 10
10.5614569164
 20
9.6572732205
 40
0.0632885109
  0
ARC
  5
259
100
AcDbEntity
  8
0
100
AcDbCircle
 62
7
  6
CONTINUOUS
 10
10.681659561
 20
9.2676699315
 40
0.0623788849
100
AcDbArc
 50
180.0002819625
 51
359.9997182247
  0
CIRCLE
  5
25A
100
AcDbEntity
  8
0
100
AcDbCircle
 62
7
  6
CONTINUOUS
 10
10.8096758152
 20
9.4894003021
 40
0.0623788748
  0
CIRCLE
  5
25B
100
AcDbEntity
  8
0
100
AcDbCircle
 62
9
  6
CONTINUOUS
 10
10.5615219765
 20
9.6572052075
 40
0.0538974244
  0
CIRCLE
  5
25C
100
AcDbEntity
  8
0
100
AcDbCircle
 62
9
  6
CONTINUOUS
 10
10.8096982311
 20
9.4893622467
 40
0.0529968024
  0
CIRCLE
  5
25D
100
AcDbEntity
  8
0
100
AcDbCircle
 62
9
  6
CONTINUOUS
 10
10.6817037396
 20
9.2676697198
 40
0.0529968024
  0
ARC
  5
25E
100
AcDbEntity
  8
0
100
AcDbCircle
 62
9
  6
CONTINUOUS
 10
10.6814262759
 20
9.2676697993
 40
0.0410866079
100
AcDbArc
 50
180.0001260075
 51
359.9996411774
  0
CIRCLE
  5
25F
100
AcDbEntity
  8
0
100
AcDbCircle
 62
9
  6
CONTINUOUS
 10
10.8095592625
 20
9.4896024146
 40
0.0410866077
  0
CIRCLE
  5
260
100
AcDbEntity
  8
0
100
AcDbCircle
 62
7
  6
CONTINUOUS
 10
10.8097395033
 20
9.4892900806
 40
0.0196850394
  0
CIRCLE
  5
261
100
AcDbEntity
  8
0
100
AcDbCircle
 62
7
  6
CONTINUOUS
 10
10.5616468815
 20
9.6570757943
 40
0.0196850394
  0
CIRCLE
  5
262
100
AcDbEntity
  8
0
100
AcDbCircle
 62
7
  6
CONTINUOUS
 10
10.5243064324
 20
9.9836746614
 40
0.0905511811
  0
CIRCLE
  5
263
100
AcDbEntity
  8
0
100
AcDbCircle
 62
7
  6
CONTINUOUS
 10
10.7657967668
 20
10.0763741156
 40
0.0905511811
  0
ARC
  5
264
100
AcDbEntity
  8
0
100
AcDbCircle
 62
7
  6
CONTINUOUS
 10
10.7884791237
 20
9.7880374504
 40
0.0905511811
100
AcDbArc
 50
269.9998705408
 51
89.9999346619
  0
CIRCLE
  5
265
100
AcDbEntity
  8
0
100
AcDbCircle
 62
7
  6
CONTINUOUS
 10
10.5240931075
 20
9.9840473389
 40
0.0648523703
  0
CIRCLE
  5
266
100
AcDbEntity
  8
0
100
AcDbCircle
 62
7
  6
CONTINUOUS
 10
10.7657088837
 20
10.0767943867
 40
0.0648523409
  0
CIRCLE
  5
267
100
AcDbEntity
  8
0
100
AcDbCircle
 62
7
  6
CONTINUOUS
 10
10.788404194
 20
9.7883010235
 40
0.0632885627
  0
CIRCLE
  5
268
100
AcDbEntity
  8
0
100
AcDbCircle
 62
9
  6
CONTINUOUS
 10
10.765738336
 20
10.0766532398
 40
0.0554447503
  0
CIRCLE
  5
269
100
AcDbEntity
  8
0
100
AcDbCircle
 62
9
  6
CONTINUOUS
 10
10.5241647608
 20
9.983922154
 40
0.0554445147
  0
CIRCLE
  5
26A
100
AcDbEntity
  8
0
100
AcDbCircle
 62
9
  6
CONTINUOUS
 10
10.7884296587
 20
9.7882104307
 40
0.0538983356
  0
CIRCLE
  5
26B
100
AcDbEntity
  8
0
100
AcDbCircle
 62
9
  6
CONTINUOUS
 10
10.7655572117
 20
10.0775308397
 40
0.0435408509
  0
ARC
  5
26C
100
AcDbEntity
  8
0
100
AcDbCircle
 62
9
  6
CONTINUOUS
 10
10.5237104559
 20
9.9846946875
 40
0.0435405967
100
AcDbArc
 50
300.0082124935
 51
209.9794287643
  0
CIRCLE
  5
26D
100
AcDbEntity
  8
0
100
AcDbCircle
 62
7
  6
CONTINUOUS
 10
10.7882621753
 20
9.7887717167
 40
0.0419844354
  0
CIRCLE
  5
26E
100
AcDbEntity
  8
0
100
AcDbCircle
 62
7
  6
CONTINUOUS
 10
10.7884791701
 20
9.7880376688
 40
0.0196850394
  0
CIRCLE
  5
26F
100
AcDbEntity
  8
0
100
AcDbCircle
 62
7
  6
CONTINUOUS
 10
10.7657967668
 20
10.0763741156
 40
0.0196850394
  0
CIRCLE
  5
270
100
AcDbEntity
  8
0
100
AcDbCircle
 62
7
  6
CONTINUOUS
 10
10.5243064324
 20
9.9836746614
 40
0.0196850394
  0
CIRCLE
  5
271
100
AcDbEntity
  8
0
100
AcDbCircle
 62
7
  6
CONTINUOUS
 10
11.351078086
 20
8.5516641513
 40
0.0905511811
  0
CIRCLE
  5
272
100
AcDbEntity
  8
0
100
AcDbCircle
 62
7
  6
CONTINUOUS
 10
11.1095877516
 20
8.4589646971
 40
0.0905511811
  0
ARC
  5
273
100
AcDbEntity
  8
0
100
AcDbCircle
 62
7
  6
CONTINUOUS
 10
11.0869053947
 20
8.7473013623
 40
0.0905511811
100
AcDbArc
 50
89.9999776399
 51
270.0000881415
  0
CIRCLE
  5
274
100
AcDbEntity
  8
0
100
AcDbCircle
 62
7
  6
CONTINUOUS
 10
11.3512915773
 20
8.5512916618
 40
0.0648523778
  0
CIRCLE
  5
275
100
AcDbEntity
  8
0
100
AcDbCircle
 62
7
  6
CONTINUOUS
 10
11.1096758072
 20
8.4585446176
 40
0.0648523409
  0
CIRCLE
  5
276
100
AcDbEntity
  8
0
100
AcDbCircle
 62
7
  6
CONTINUOUS
 10
11.0869804998
 20
8.7470379686
 40
0.0632885673
  0
CIRCLE
  5
277
100
AcDbEntity
  8
0
100
AcDbCircle
 62
9
  6
CONTINUOUS
 10
11.1096463542
 20
8.4586857647
 40
0.055444752
  0
CIRCLE
  5
278
100
AcDbEntity
  8
0
100
AcDbCircle
 62
9
  6
CONTINUOUS
 10
11.3512215366
 20
8.5514177659
 40
0.0554444907
  0
CIRCLE
  5
279
100
AcDbEntity
  8
0
100
AcDbCircle
 62
9
  6
CONTINUOUS
 10
11.0869550334
 20
8.7471285756
 40
0.0538983458
  0
CIRCLE
  5
27A
100
AcDbEntity
  8
0
100
AcDbCircle
 62
9
  6
CONTINUOUS
 10
11.1098274792
 20
8.4578081645
 40
0.0435408508
  0
ARC
  5
27B
100
AcDbEntity
  8
0
100
AcDbCircle
 62
9
  6
CONTINUOUS
 10
11.3516742351
 20
8.5506443167
 40
0.0435405967
100
AcDbArc
 50
120.0082125132
 51
29.9794296931
  0
CIRCLE
  5
27C
100
AcDbEntity
  8
0
100
AcDbCircle
 62
7
  6
CONTINUOUS
 10
11.0871225181
 20
8.7465672816
 40
0.0419844334
  0
CIRCLE
  5
27D
100
AcDbEntity
  8
0
100
AcDbCircle
 62
7
  6
CONTINUOUS
 10
11.351078086
 20
8.5516641513
 40
0.0196850394
  0
CIRCLE
  5
27E
100
AcDbEntity
  8
0
100
AcDbCircle
 62
7
  6
CONTINUOUS
 10
11.1095877516
 20
8.4589646971
 40
0.0196850394
  0
CIRCLE
  5
27F
100
AcDbEntity
  8
0
100
AcDbCircle
 62
7
  6
CONTINUOUS
 10
11.0869055208
 20
8.7473013355
 40
0.0196850394
  0
CIRCLE
  5
280
100
AcDbEntity
  8
0
100
AcDbCircle
 62
7
  6
CONTINUOUS
 10
11.193597771
 20
9.2676694064
 40
0.0905511811
  0
CIRCLE
  5
281
100
AcDbEntity
  8
0
100
AcDbCircle
 62
7
  6
CONTINUOUS
 10
11.3137376369
 20
8.8782630184
 40
0.0905511811
  0
ARC
  5
282
100
AcDbEntity
  8
0
100
AcDbCircle
 62
7
  6
CONTINUOUS
 10
11.0656450151
 20
9.0460487321
 40
0.0905511811
100
AcDbArc
 50
90.0000472144
 51
269.999859238
  0
CIRCLE
  5
283
100
AcDbEntity
  8
0
100
AcDbCircle
 62
7
  6
CONTINUOUS
 10
11.3139277131
 20
8.8780657287
 40
0.0632885635
  0
ARC
  5
284
100
AcDbEntity
  8
0
100
AcDbCircle
 62
7
  6
CONTINUOUS
 10
11.1937251348
 20
9.2676690802
 40
0.0623788865
100
AcDbArc
 50
0.0002751457
 51
179.9997250416
  0
CIRCLE
  5
285
100
AcDbEntity
  8
0
100
AcDbCircle
 62
7
  6
CONTINUOUS
 10
11.0657088798
 20
9.0459387041
 40
0.0623788805
  0
CIRCLE
  5
286
100
AcDbEntity
  8
0
100
AcDbCircle
 62
9
  6
CONTINUOUS
 10
11.3138627114
 20
8.8781338006
 40
0.0538974208
  0
CIRCLE
  5
287
100
AcDbEntity
  8
0
100
AcDbCircle
 62
9
  6
CONTINUOUS
 10
11.1936809551
 20
9.2676694754
 40
0.0529968021
  0
CIRCLE
  5
288
100
AcDbEntity
  8
0
100
AcDbCircle
 62
9
  6
CONTINUOUS
 10
11.0656866271
 20
9.0459768497
 40
0.0529968021
  0
CIRCLE
  5
289
100
AcDbEntity
  8
0
100
AcDbCircle
 62
9
  6
CONTINUOUS
 10
11.0658251254
 20
9.0457364287
 40
0.0410866076
  0
ARC
  5
28A
100
AcDbEntity
  8
0
100
AcDbCircle
 62
9
  6
CONTINUOUS
 10
11.1939584016
 20
9.2676692079
 40
0.0410866075
100
AcDbArc
 50
0.0001251948
 51
179.9996419899
  0
CIRCLE
  5
28B
100
AcDbEntity
  8
0
100
AcDbCircle
 62
7
  6
CONTINUOUS
 10
11.193597771
 20
9.2676694064
 40
0.0196850394
  0
CIRCLE
  5
28C
100
AcDbEntity
  8
0
100
AcDbCircle
 62
7
  6
CONTINUOUS
 10
11.3137376369
 20
8.8782630184
 40
0.0196850394
  0
CIRCLE
  5
28D
100
AcDbEntity
  8
0
100
AcDbCircle
 62
7
  6
CONTINUOUS
 10
11.0656450151
 20
9.0460487321
 40
0.0196850394
  0
CIRCLE
  5
28E
100
AcDbEntity
  8
0
100
AcDbCircle
 62
7
  6
CONTINUOUS
 10
11.5521033354
 20
8.7144511885
 40
0.0905511811
  0
CIRCLE
  5
28F
100
AcDbEntity
  8
0
100
AcDbCircle
 62
7
  6
CONTINUOUS
 10
11.5524216438
 20
8.7141630897
 40
0.0648522988
  0
CIRCLE
  5
290
100
AcDbEntity
  8
0
100
AcDbCircle
 62
9
  6
CONTINUOUS
 10
11.5523159471
 20
8.7142612907
 40
0.0554460595
  0
CIRCLE
  5
291
100
AcDbEntity
  8
0
100
AcDbCircle
 62
9
  6
CONTINUOUS
 10
11.552984908
 20
8.7136660162
 40
0.043542167
  0
CIRCLE
  5
292
100
AcDbEntity
  8
0
100
AcDbCircle
 62
7
  6
CONTINUOUS
 10
11.5521033354
 20
8.7144511885
 40
0.0196850394
  0
CIRCLE
  5
293
100
AcDbEntity
  8
0
100
AcDbCircle
 62
7
  6
CONTINUOUS
 10
11.7644639128
 20
9.2676694064
 40
0.0905511811
  0
CIRCLE
  5
294
100
AcDbEntity
  8
0
100
AcDbCircle
 62
7
  6
CONTINUOUS
 10
11.7239988278
 20
9.0121829149
 40
0.0905511811
  0
CIRCLE
  5
295
100
AcDbEntity
  8
0
100
AcDbCircle
 62
7
  6
CONTINUOUS
 10
11.4629507724
 20
9.1367077503
 40
0.0905511811
  0
ARC
  5
296
100
AcDbEntity
  8
0
100
AcDbCircle
 62
7
  6
CONTINUOUS
 10
11.7648933698
 20
9.2676680237
 40
0.0648523778
100
AcDbArc
 50
0.0013061711
 51
179.9986940241
  0
CIRCLE
  5
297
100
AcDbEntity
  8
0
100
AcDbCircle
 62
7
  6
CONTINUOUS
 10
11.724406784
 20
9.0120491021
 40
0.0648523404
  0
CIRCLE
  5
298
100
AcDbEntity
  8
0
100
AcDbCircle
 62
7
  6
CONTINUOUS
 10
11.4632165405
 20
9.1366410766
 40
0.0632885648
  0
CIRCLE
  5
299
100
AcDbEntity
  8
0
100
AcDbCircle
 62
9
  6
CONTINUOUS
 10
11.7242703871
 20
9.012095862
 40
0.0554447469
  0
ARC
  5
29A
100
AcDbEntity
  8
0
100
AcDbCircle
 62
9
  6
CONTINUOUS
 10
11.7647491286
 20
9.2676685748
 40
0.0554444977
100
AcDbArc
 50
0.0009582772
 51
179.9990419179
  0
CIRCLE
  5
29B
100
AcDbEntity
  8
0
100
AcDbCircle
 62
9
  6
CONTINUOUS
 10
11.4631253547
 20
9.1366643187
 40
0.0538983435
  0
ARC
  5
29C
100
AcDbEntity
  8
0
100
AcDbCircle
 62
9
  6
CONTINUOUS
 10
11.7656428425
 20
9.2676616629
 40
0.043543888
100
AcDbArc
 50
0.010315634
 51
89.979429694
  0
CIRCLE
  5
29D
100
AcDbEntity
  8
0
100
AcDbCircle
 62
9
  6
CONTINUOUS
 10
11.7251204029
 20
9.0118122314
 40
0.0435408511
  0
CIRCLE
  5
29E
100
AcDbEntity
  8
0
100
AcDbCircle
 62
7
  6
CONTINUOUS
 10
11.463695185
 20
9.136528718
 40
0.0419844334
  0
CIRCLE
  5
29F
100
AcDbEntity
  8
0
100
AcDbCircle
 62
7
  6
CONTINUOUS
 10
11.7644639128
 20
9.2676694064
 40
0.0196850394
  0
CIRCLE
  5
2A0
100
AcDbEntity
  8
0
100
AcDbCircle
 62
7
  6
CONTINUOUS
 10
11.7239988278
 20
9.0121829149
 40
0.0196850394
  0
CIRCLE
  5
2A1
100
AcDbEntity
  8
0
100
AcDbCircle
 62
7
  6
CONTINUOUS
 10
11.4629507724
 20
9.1367077503
 40
0.0196850394
  0
CIRCLE
  5
2A2
100
AcDbEntity
  8
0
100
AcDbCircle
 62
7
  6
CONTINUOUS
 10
10.9376923455
 20
9.2676695021
 40
1.25
  0
CIRCLE
  5
2A3
100
AcDbEntity
  8
0
100
AcDbCircle
 62
7
  6
CONTINUOUS
 10
10.9376923455
 20
9.2676695021
 40
1.011
  0
CIRCLE
  5
2A4
100
AcDbEntity
  8
0
100
AcDbCircle
 62
7
  6
CONTINUOUS
 10
10.9376923455
 20
9.2676695021
 40
0.9960630784
  0
CIRCLE
  5
2A5
100
AcDbEntity
  8
0
100
AcDbCircle
 62
9
  6
CONTINUOUS
 10
10.9376923455
 20
9.2676695021
 40
0.9781246901
  0
CIRCLE
  5
2A6
100
AcDbEntity
  8
0
100
AcDbCircle
 62
7
  6
CONTINUOUS
 10
11.3137376369
 20
9.6570757943
 40
0.0905511811
  0
CIRCLE
  5
2A7
100
AcDbEntity
  8
0
100
AcDbCircle
 62
7
  6
CONTINUOUS
 10
11.0656450151
 20
9.4892900806
 40
0.0905511811
  0
CIRCLE
  5
2A8
100
AcDbEntity
  8
0
100
AcDbCircle
 62
7
  6
CONTINUOUS
 10
11.3139283883
 20
9.6572725927
 40
0.0632885647
  0
ARC
  5
2A9
100
AcDbEntity
  8
0
100
AcDbCircle
 62
7
  6
CONTINUOUS
 10
11.1937251162
 20
9.2676696741
 40
0.0623788808
100
AcDbArc
 50
180.0002705729
 51
359.9997296187
  0
CIRCLE
  5
2AA
100
AcDbEntity
  8
0
100
AcDbCircle
 62
7
  6
CONTINUOUS
 10
11.0657085859
 20
9.4894004694
 40
0.0623788748
  0
CIRCLE
  5
2AB
100
AcDbEntity
  8
0
100
AcDbCircle
 62
9
  6
CONTINUOUS
 10
11.313862667
 20
9.6572052444
 40
0.0538983435
  0
CIRCLE
  5
2AC
100
AcDbEntity
  8
0
100
AcDbCircle
 62
9
  6
CONTINUOUS
 10
11.0656868369
 20
9.489362029
 40
0.0529968024
  0
CIRCLE
  5
2AD
100
AcDbEntity
  8
0
100
AcDbCircle
 62
7
  6
CONTINUOUS
 10
11.3142650158
 20
9.6576309316
 40
0.0419844334
  0
ARC
  5
2AE
100
AcDbEntity
  8
0
100
AcDbCircle
 62
9
  6
CONTINUOUS
 10
11.1939584271
 20
9.2676695537
 40
0.041086608
100
AcDbArc
 50
180.0001241979
 51
359.9996429868
  0
CIRCLE
  5
2AF
100
AcDbEntity
  8
0
100
AcDbCircle
 62
9
  6
CONTINUOUS
 10
11.0658253442
 20
9.4896024633
 40
0.0410866077
  0
CIRCLE
  5
2B0
100
AcDbEntity
  8
0
100
AcDbCircle
 62
7
  6
CONTINUOUS
 10
11.0656450151
 20
9.4892900806
 40
0.0196850394
  0
CIRCLE
  5
2B1
100
AcDbEntity
  8
0
100
AcDbCircle
 62
7
  6
CONTINUOUS
 10
11.3137376369
 20
9.6570757943
 40
0.0196850394
  0
CIRCLE
  5
2B2
100
AcDbEntity
  8
0
100
AcDbCircle
 62
7
  6
CONTINUOUS
 10
11.1095877516
 20
10.0763741156
 40
0.0905511811
  0
CIRCLE
  5
2B3
100
AcDbEntity
  8
0
100
AcDbCircle
 62
7
  6
CONTINUOUS
 10
11.351078086
 20
9.9836746614
 40
0.0905511811
  0
ARC
  5
2B4
100
AcDbEntity
  8
0
100
AcDbCircle
 62
7
  6
CONTINUOUS
 10
11.0869053947
 20
9.7880374504
 40
0.0905511811
100
AcDbArc
 50
90.0000602218
 51
270.0001416245
  0
CIRCLE
  5
2B5
100
AcDbEntity
  8
0
100
AcDbCircle
 62
7
  6
CONTINUOUS
 10
11.3512941318
 20
9.9840458676
 40
0.0648523703
  0
CIRCLE
  5
2B6
100
AcDbEntity
  8
0
100
AcDbCircle
 62
7
  6
CONTINUOUS
 10
11.1096783031
 20
10.0767938906
 40
0.0648522896
  0
CIRCLE
  5
2B7
100
AcDbEntity
  8
0
100
AcDbCircle
 62
7
  6
CONTINUOUS
 10
11.0869813437
 20
9.7883007919
 40
0.0632885072
  0
CIRCLE
  5
2B8
100
AcDbEntity
  8
0
100
AcDbCircle
 62
9
  6
CONTINUOUS
 10
11.1096461145
 20
10.0766532593
 40
0.0554460666
  0
CIRCLE
  5
2B9
100
AcDbEntity
  8
0
100
AcDbCircle
 62
9
  6
CONTINUOUS
 10
11.3512215452
 20
9.9839212216
 40
0.0554445147
  0
CIRCLE
  5
2BA
100
AcDbEntity
  8
0
100
AcDbCircle
 62
9
  6
CONTINUOUS
 10
11.0869549794
 20
9.7882104508
 40
0.0538974162
  0
CIRCLE
  5
2BB
100
AcDbEntity
  8
0
100
AcDbCircle
 62
9
  6
CONTINUOUS
 10
11.1098271545
 20
10.0775302398
 40
0.0435421679
  0
ARC
  5
2BC
100
AcDbEntity
  8
0
100
AcDbCircle
 62
9
  6
CONTINUOUS
 10
11.3516634263
 20
9.9847009279
 40
0.0435405967
100
AcDbArc
 50
240.0082124935
 51
59.9917876233
  0
CIRCLE
  5
2BD
100
AcDbEntity
  8
0
100
AcDbCircle
 62
7
  6
CONTINUOUS
 10
11.0869053947
 20
9.7880374504
 40
0.0196850394
  0
CIRCLE
  5
2BE
100
AcDbEntity
  8
0
100
AcDbCircle
 62
7
  6
CONTINUOUS
 10
11.351078086
 20
9.9836746614
 40
0.0196850394
  0
CIRCLE
  5
2BF
100
AcDbEntity
  8
0
100
AcDbCircle
 62
7
  6
CONTINUOUS
 10
11.1095877516
 20
10.0763741156
 40
0.0196850394
  0
CIRCLE
  5
2C0
100
AcDbEntity
  8
0
100
AcDbCircle
 62
7
  6
CONTINUOUS
 10
11.7239988278
 20
9.5231558978
 40
0.0905511811
  0
CIRCLE
  5
2C1
100
AcDbEntity
  8
0
100
AcDbCircle
 62
7
  6
CONTINUOUS
 10
11.4629507724
 20
9.3986310624
 40
0.0905511811
  0
ARC
  5
2C2
100
AcDbEntity
  8
0
100
AcDbCircle
 62
7
  6
CONTINUOUS
 10
11.7648933698
 20
9.2676710409
 40
0.0648524122
100
AcDbArc
 50
180.0013596084
 51
359.9986405868
  0
CIRCLE
  5
2C3
100
AcDbEntity
  8
0
100
AcDbCircle
 62
7
  6
CONTINUOUS
 10
11.724407609
 20
9.5232874847
 40
0.0648522988
  0
CIRCLE
  5
2C4
100
AcDbEntity
  8
0
100
AcDbCircle
 62
7
  6
CONTINUOUS
 10
11.4632167675
 20
9.3986970821
 40
0.0632885072
  0
CIRCLE
  5
2C5
100
AcDbEntity
  8
0
100
AcDbCircle
 62
9
  6
CONTINUOUS
 10
11.724269716
 20
9.5232450492
 40
0.0554460595
  0
ARC
  5
2C6
100
AcDbEntity
  8
0
100
AcDbCircle
 62
9
  6
CONTINUOUS
 10
11.7647491402
 20
9.2676704189
 40
0.0554444908
100
AcDbArc
 50
180.0009475157
 51
359.9990526799
  0
CIRCLE
  5
2C7
100
AcDbEntity
  8
0
100
AcDbCircle
 62
9
  6
CONTINUOUS
 10
11.4631253416
 20
9.3986747444
 40
0.0538974208
  0
CIRCLE
  5
2C8
100
AcDbEntity
  8
0
100
AcDbCircle
 62
9
  6
CONTINUOUS
 10
11.7251197193
 20
9.5235267491
 40
0.043542167
  0
ARC
  5
2C9
100
AcDbEntity
  8
0
100
AcDbCircle
 62
9
  6
CONTINUOUS
 10
11.7656453146
 20
9.2676757421
 40
0.0435405967
100
AcDbArc
 50
180.0082119268
 51
359.9917881905
  0
CIRCLE
  5
2CA
100
AcDbEntity
  8
0
100
AcDbCircle
 62
7
  6
CONTINUOUS
 10
11.4629507724
 20
9.3986310624
 40
0.0196850394
  0
CIRCLE
  5
2CB
100
AcDbEntity
  8
0
100
AcDbCircle
 62
7
  6
CONTINUOUS
 10
11.7239988278
 20
9.5231558978
 40
0.0196850394
  0
CIRCLE
  5
2CC
100
AcDbEntity
  8
0
100
AcDbCircle
 62
7
  6
CONTINUOUS
 10
11.5521033354
 20
9.8208876242
 40
0.0905511811
  0
CIRCLE
  5
2CD
100
AcDbEntity
  8
0
100
AcDbCircle
 62
7
  6
CONTINUOUS
 10
11.5524233249
 20
9.8211739914
 40
0.0648523404
  0
CIRCLE
  5
2CE
100
AcDbEntity
  8
0
100
AcDbCircle
 62
9
  6
CONTINUOUS
 10
11.5523146311
 20
9.8210792482
 40
0.0554447469
  0
ARC
  5
2CF
100
AcDbEntity
  8
0
100
AcDbCircle
 62
9
  6
CONTINUOUS
 10
11.3516743872
 20
9.9846917472
 40
0.0435438893
100
AcDbArc
 50
60.0103196152
 51
149.9794338422
  0
CIRCLE
  5
2D0
100
AcDbEntity
  8
0
100
AcDbCircle
 62
9
  6
CONTINUOUS
 10
11.5529852704
 20
9.8216735682
 40
0.0435408511
  0
CIRCLE
  5
2D1
100
AcDbEntity
  8
0
100
AcDbCircle
 62
7
  6
CONTINUOUS
 10
11.5521033354
 20
9.8208876242
 40
0.0196850394
  0
SPLINE
  5
2D2
100
AcDbEntity
  8
0
100
AcDbSpline
 62
7
  6
CONTINUOUS
 70
0
 71
3
 72
19
 73
15
 74
0
 42
0.0000001
 43
0.0000001
 44
0.0000000001
 40
0.0
 40
0.0
 40
0.0
 40
0.0
 40
0.0831963038
 40
0.1665679756
 40
0.2499175646
 40
0.3333049625
 40
0.4166985624
 40
0.5000875945
 40
0.5834593296
 40
0.6668044452
 40
0.7501242766
 40
0.8334136801
 40
0.9167176423
 40
1.0
 40
1.0
 40
1.0
 40
1.0
 10
11.0869056185
 20
9.6974862693
 30
0.0
 10
11.0947721112
 20
9.6975167547
 30
0.0
 10
11.1105985688
 20
9.6995496541
 30
0.0
 10
11.1326725569
 20
9.7087046022
 30
0.0
 10
11.1516575821
 20
9.723256727
 30
0.0
 10
11.1662230234
 20
9.7422350046
 30
0.0
 10
11.1753793761
 20
9.7643401588
 30
0.0
 10
11.1784982259
 20
9.788061324
 30
0.0
 10
11.1753674308
 20
9.8117761401
 30
0.0
 10
11.1662066335
 20
9.8338652553
 30
0.0
 10
11.151647169
 20
9.8528264387
 30
0.0
 10
11.1326766451
 20
9.867365597
 30
0.0
 10
11.110608383
 20
9.8765245397
 30
0.0
 10
11.0947799131
 20
9.8785545443
 30
0.0
 10
11.0869052995
 20
9.8785886315
 30
0.0
  0
SPLINE
  5
2D3
100
AcDbEntity
  8
0
100
AcDbSpline
 62
7
  6
CONTINUOUS
 70
0
 71
3
 72
19
 73
15
 74
0
 42
0.0000001
 43
0.0000001
 44
0.0000000001
 40
0.0
 40
0.0
 40
0.0
 40
0.0
 40
0.0831734351
 40
0.166496799
 40
0.2497899593
 40
0.3331273817
 40
0.4164906126
 40
0.4998736959
 40
0.5832688319
 40
0.6666577832
 40
0.7500315248
 40
0.8333711442
 40
0.916709438
 40
1.0
 40
1.0
 40
1.0
 40
1.0
 10
10.788479227
 20
9.8785886315
 30
0.0
 10
10.7806148989
 20
9.8785576664
 30
0.0
 10
10.7647952307
 20
9.8765270078
 30
0.0
 10
10.7427313986
 20
9.8673799555
 30
0.0
 10
10.7237538196
 20
9.8528431306
 30
0.0
 10
10.709187311
 20
9.8338825647
 30
0.0
 10
10.7000206783
 20
9.8117908249
 30
0.0
 10
10.6968860749
 20
9.7880730257
 30
0.0
 10
10.7000023872
 20
9.7643502249
 30
0.0
 10
10.7091559142
 20
9.7422452311
 30
0.0
 10
10.7237169595
 20
9.7232669883
 30
0.0
 10
10.7426951154
 20
9.7087153829
 30
0.0
 10
10.7647710154
 20
9.6995514162
 30
0.0
 10
10.7806035257
 20
9.6975198418
 30
0.0
 10
10.7884789191
 20
9.6974862693
 30
0.0
  0
SPLINE
  5
2D4
100
AcDbEntity
  8
0
100
AcDbSpline
 62
7
  6
CONTINUOUS
 70
0
 71
3
 72
19
 73
15
 74
0
 42
0.0000001
 43
0.0000001
 44
0.0000000001
 40
0.0
 40
0.0
 40
0.0
 40
0.0
 40
0.0831968849
 40
0.1665685642
 40
0.2499181517
 40
0.3333055522
 40
0.4166991141
 40
0.5000881433
 40
0.583459877
 40
0.666805057
 40
0.7501249546
 40
0.8334144128
 40
0.9167184422
 40
1.0
 40
1.0
 40
1.0
 40
1.0
 10
10.7884790835
 20
8.8378525434
 30
0.0
 10
10.7806125375
 20
8.8378220753
 30
0.0
 10
10.7647860223
 20
8.8357891844
 30
0.0
 10
10.7427119814
 20
8.8266342256
 30
0.0
 10
10.7237269572
 20
8.8120821034
 30
0.0
 10
10.7091615123
 20
8.7931038376
 30
0.0
 10
10.7000051558
 20
8.7709986929
 30
0.0
 10
10.6968862921
 20
8.7472775372
 30
0.0
 10
10.7000170753
 20
8.7235627169
 30
0.0
 10
10.7091778652
 20
8.7014735886
 30
0.0
 10
10.7237373319
 20
8.6825123884
 30
0.0
 10
10.7427078654
 20
8.6679732174
 30
0.0
 10
10.764776066
 20
8.6588143045
 30
0.0
 10
10.7806044581
 20
8.6567842859
 30
0.0
 10
10.7884789957
 20
8.6567501812
 30
0.0
  0
SPLINE
  5
2D5
100
AcDbEntity
  8
0
100
AcDbSpline
 62
7
  6
CONTINUOUS
 70
0
 71
3
 72
19
 73
15
 74
0
 42
0.0000001
 43
0.0000001
 44
0.0000000001
 40
0.0
 40
0.0
 40
0.0
 40
0.0
 40
0.0831725914
 40
0.1664959964
 40
0.2497891806
 40
0.3331266544
 40
0.4164899666
 40
0.4998730819
 40
0.5832682513
 40
0.6666571885
 40
0.7500309149
 40
0.8333705012
 40
0.9167087887
 40
1.0
 40
1.0
 40
1.0
 40
1.0
 10
11.086905534
 20
8.6567501812
 30
0.0
 10
11.094769781
 20
8.6567811663
 30
0.0
 10
11.1105893631
 20
8.6588118369
 30
0.0
 10
11.1326531198
 20
8.6679588589
 30
0.0
 10
11.1516307057
 20
8.6824956836
 30
0.0
 10
11.1661972125
 20
8.7014562622
 30
0.0
 10
11.1753638475
 20
8.7235480112
 30
0.0
 10
11.1784984437
 20
8.7472658196
 30
0.0
 10
11.1753821226
 20
8.7709886179
 30
0.0
 10
11.1662285904
 20
8.7930936031
 30
0.0
 10
11.1516675475
 20
8.8120718318
 30
0.0
 10
11.1326894016
 20
8.8266234305
 30
0.0
 10
11.1106134535
 20
8.835787418
 30
0.0
 10
11.0947808822
 20
8.8378189835
 30
0.0
 10
11.08690543
 20
8.8378525434
 30
0.0
  0
SPLINE
  5
2D6
100
AcDbEntity
  8
0
100
AcDbSpline
 62
7
  6
CONTINUOUS
 70
0
 71
3
 72
19
 73
15
 74
0
 42
0.0000001
 43
0.0000001
 44
0.0000000001
 40
0.0
 40
0.0
 40
0.0
 40
0.0
 40
0.0831242167
 40
0.1664871956
 40
0.2498020378
 40
0.3331351084
 40
0.4164706372
 40
0.4998098235
 40
0.5831554435
 40
0.6665025078
 40
0.7498519223
 40
0.8331918571
 40
0.9165529703
 40
1.0
 40
1.0
 40
1.0
 40
1.0
 10
11.0656720596
 20
8.9554976631
 30
0.0
 10
11.0735319928
 20
8.9555311029
 30
0.0
 10
11.0893505472
 20
8.9575649195
 30
0.0
 10
11.1114141747
 20
8.9667176739
 30
0.0
 10
11.1303919551
 20
8.9812642773
 30
0.0
 10
11.1449514375
 20
9.0002296333
 30
0.0
 10
11.1541086032
 20
9.0223178119
 30
0.0
 10
11.1572369296
 20
9.0460250016
 30
0.0
 10
11.1541208638
 20
9.0697349895
 30
0.0
 10
11.1449732167
 20
9.0918307112
 30
0.0
 10
11.1304191636
 20
9.1108068593
 30
0.0
 10
11.1114437298
 20
9.1253626483
 30
0.0
 10
11.0893528845
 20
9.1345374205
 30
0.0
 10
11.0735021183
 20
9.1365687687
 30
0.0
 10
11.0656118694
 20
9.1366000501
 30
0.0
  0
SPLINE
  5
2D7
100
AcDbEntity
  8
0
100
AcDbSpline
 62
9
  6
CONTINUOUS
 70
0
 71
3
 72
17
 73
13
 74
0
 42
0.0000001
 43
0.0000001
 44
0.0000000001
 40
0.0
 40
0.0
 40
0.0
 40
0.0
 40
0.1246944157
 40
0.1872312506
 40
0.2497547956
 40
0.3746243819
 40
0.4995348467
 40
0.624554226
 40
0.7496103181
 40
0.8122571759
 40
0.8749609087
 40
1.0
 40
1.0
 40
1.0
 40
1.0
 10
11.7656584761
 20
9.3112070507
 30
0.0
 10
11.7628192955
 20
9.3111893843
 30
0.0
 10
11.7585442472
 20
9.3107649257
 30
0.0
 10
11.7530163223
 20
9.3094014438
 30
0.0
 10
11.7476455664
 20
9.307494951
 30
0.0
 10
11.7413237803
 20
9.304129443
 30
0.0
 10
11.7346925826
 20
9.2986709812
 30
0.0
 10
11.7292408552
 20
9.2920319361
 30
0.0
 10
11.7258431894
 20
9.2857183216
 30
0.0
 10
11.7239111482
 20
9.2803446923
 30
0.0
 10
11.7225290667
 20
9.2748064762
 30
0.0
 10
11.7221074643
 20
9.2705165858
 30
0.0
 10
11.7221074796
 20
9.2676695021
 30
0.0
  0
SPLINE
  5
2D8
100
AcDbEntity
  8
0
100
AcDbSpline
 62
7
  6
CONTINUOUS
 70
0
 71
3
 72
23
 73
19
 74
0
 42
0.0000001
 43
0.0000001
 44
0.0000000001
 40
0.0
 40
0.0
 40
0.0
 40
0.0
 40
0.0624799268
 40
0.1250648787
 40
0.1875637681
 40
0.250046403
 40
0.3125249187
 40
0.3749932086
 40
0.4374527583
 40
0.4999144759
 40
0.5623815621
 40
0.624856766
 40
0.6873502297
 40
0.7498609928
 40
0.8123769002
 40
0.8749065414
 40
0.9375129131
 40
1.0
 40
1.0
 40
1.0
 40
1.0
 10
10.5956995181
 20
9.6338158968
 30
0.0
 10
10.5972538412
 20
9.6360775505
 30
0.0
 10
10.5999244664
 20
9.6409251598
 30
0.0
 10
10.6024425883
 20
9.6488219177
 30
0.0
 10
10.6033680557
 20
9.657062665
 30
0.0
 10
10.6026664558
 20
9.6653192449
 30
0.0
 10
10.600373012
 20
9.6732809174
 30
0.0
 10
10.5965661993
 20
9.6806392618
 30
0.0
 10
10.5913965502
 20
9.687111605
 30
0.0
 10
10.5850643788
 20
9.6924524619
 30
0.0
 10
10.5778084402
 20
9.6964504969
 30
0.0
 10
10.5699115448
 20
9.6989580979
 30
0.0
 10
10.5616747996
 20
9.6998774662
 30
0.0
 10
10.5534158878
 20
9.699167729
 30
0.0
 10
10.5454510106
 20
9.6968672098
 30
0.0
 10
10.5380831571
 20
9.6930536581
 30
0.0
 10
10.531607393
 20
9.6878760418
 30
0.0
 10
10.5280349035
 20
9.6836471973
 30
0.0
 10
10.5264787925
 20
9.6813863915
 30
0.0
  0
SPLINE
  5
2D9
100
AcDbEntity
  8
0
100
AcDbSpline
 62
7
  6
CONTINUOUS
 70
0
 71
3
 72
23
 73
19
 74
0
 42
0.0000001
 43
0.0000001
 44
0.0000000001
 40
0.0
 40
0.0
 40
0.0
 40
0.0
 40
0.0624808362
 40
0.1250661203
 40
0.1875640864
 40
0.2500485545
 40
0.3125300965
 40
0.3749998974
 40
0.4374606269
 40
0.4999241181
 40
0.5623933472
 40
0.6248704188
 40
0.6873646565
 40
0.7498749278
 40
0.8123884022
 40
0.8749110844
 40
0.9375130178
 40
1.0
 40
1.0
 40
1.0
 40
1.0
 10
10.5264883773
 20
9.6813798016
 30
0.0
 10
10.5249395702
 20
9.6791179219
 30
0.0
 10
10.5222796869
 20
9.6742712941
 30
0.0
 10
10.5197751429
 20
9.6663797528
 30
0.0
 10
10.5188603709
 20
9.6581468935
 30
0.0
 10
10.5195693733
 20
9.6498999125
 30
0.0
 10
10.5218662093
 20
9.641948386
 30
0.0
 10
10.5256731698
 20
9.6346000589
 30
0.0
 10
10.5308394285
 20
9.6281364088
 30
0.0
 10
10.5371655601
 20
9.6228021107
 30
0.0
 10
10.5444135296
 20
9.6188079576
 30
0.0
 10
10.5523011847
 20
9.6163005848
 30
0.0
 10
10.5605285693
 20
9.6153783929
 30
0.0
 10
10.5687788054
 20
9.616081467
 30
0.0
 10
10.5767366544
 20
9.6183719515
 30
0.0
 10
10.5841002494
 20
9.6221725623
 30
0.0
 10
10.5905755846
 20
9.6273353105
 30
0.0
 10
10.5941507934
 20
9.6315536092
 30
0.0
 10
10.5957090743
 20
9.6338093003
 30
0.0
  0
SPLINE
  5
2DA
100
AcDbEntity
  8
0
100
AcDbSpline
 62
9
  6
CONTINUOUS
 70
0
 71
3
 72
17
 73
13
 74
0
 42
0.0000001
 43
0.0000001
 44
0.0000000001
 40
0.0
 40
0.0
 40
0.0
 40
0.0
 40
0.1246944157
 40
0.1872312506
 40
0.2497547956
 40
0.3746243819
 40
0.4995348467
 40
0.624554226
 40
0.7496103181
 40
0.8122571759
 40
0.8749609087
 40
1.0
 40
1.0
 40
1.0
 40
1.0
 10
10.5614139032
 20
8.5288610252
 30
0.0
 10
10.5628181939
 20
8.531328661
 30
0.0
 10
10.5645881261
 20
8.5352431907
 30
0.0
 10
10.5661712787
 20
8.5407122551
 30
0.0
 10
10.5672055854
 20
8.5463167125
 30
0.0
 10
10.567451863
 20
8.5534742939
 30
0.0
 10
10.5660402953
 20
8.5619463105
 30
0.0
 10
10.5630165773
 20
8.5699871674
 30
0.0
 10
10.5592476597
 20
8.5760864395
 30
0.0
 10
10.5555599808
 20
8.5804464509
 30
0.0
 10
10.5514547856
 20
8.5844124767
 30
0.0
 10
10.5479504328
 20
8.5869225403
 30
0.0
 10
10.5454847783
 20
8.5883460689
 30
0.0
  0
SPLINE
  5
2DB
100
AcDbEntity
  8
0
100
AcDbSpline
 62
7
  6
CONTINUOUS
 70
0
 71
3
 72
23
 73
19
 74
0
 42
0.0000001
 43
0.0000001
 44
0.0000000001
 40
0.0
 40
0.0
 40
0.0
 40
0.0
 40
0.0624799275
 40
0.1250648794
 40
0.1875637693
 40
0.2500464048
 40
0.3125249199
 40
0.3749932097
 40
0.4374527594
 40
0.4999144765
 40
0.5623815625
 40
0.624856766
 40
0.6873502294
 40
0.7498609924
 40
0.8123768998
 40
0.8749065411
 40
0.9375129129
 40
1.0
 40
1.0
 40
1.0
 40
1.0
 10
11.0837880112
 20
9.7469171764
 30
0.0
 10
11.0865238221
 20
9.746701918
 30
0.0
 10
11.0920572875
 20
9.7468128902
 30
0.0
 10
11.1001551418
 20
9.74858051
 30
0.0
 10
11.1077545714
 20
9.7518994062
 30
0.0
 10
11.114554179
 20
9.7566352996
 30
0.0
 10
11.1203024676
 20
9.7626023162
 30
0.0
 10
11.1247715742
 20
9.7695782847
 30
0.0
 10
11.127791963
 20
9.7772915036
 30
0.0
 10
11.129251195
 20
9.7854457531
 30
0.0
 10
11.1290856255
 20
9.7937285973
 30
0.0
 10
11.1273088239
 20
9.8018213095
 30
0.0
 10
11.1239866476
 20
9.8094142239
 30
0.0
 10
11.1192425413
 20
9.8162117825
 30
0.0
 10
11.1132677948
 20
9.8219593087
 30
0.0
 10
11.1062812356
 20
9.826433281
 30
0.0
 10
11.0985594065
 20
9.8294526489
 30
0.0
 10
11.0931108751
 20
9.8304320933
 30
0.0
 10
11.0903749045
 20
9.8306493219
 30
0.0
  0
SPLINE
  5
2DC
100
AcDbEntity
  8
0
100
AcDbSpline
 62
7
  6
CONTINUOUS
 70
0
 71
3
 72
23
 73
19
 74
0
 42
0.0000001
 43
0.0000001
 44
0.0000000001
 40
0.0
 40
0.0
 40
0.0
 40
0.0
 40
0.0624808347
 40
0.1250661185
 40
0.1875640838
 40
0.2500485509
 40
0.3125300938
 40
0.3749998951
 40
0.4374606249
 40
0.4999241167
 40
0.5623933464
 40
0.6248704186
 40
0.6873646567
 40
0.7498749283
 40
0.8123884028
 40
0.874911085
 40
0.9375130181
 40
1.0
 40
1.0
 40
1.0
 40
1.0
 10
11.0903739908
 20
9.8306377354
 30
0.0
 10
11.0876407418
 20
9.8308480989
 30
0.0
 10
11.0821134979
 20
9.8307283067
 30
0.0
 10
11.0740269518
 20
9.8289515324
 30
0.0
 10
11.0664397002
 20
9.8256273203
 30
0.0
 10
11.0596521061
 20
9.8208898162
 30
0.0
 10
11.0539143003
 20
9.8149249347
 30
0.0
 10
11.0494539423
 20
9.8079538469
 30
0.0
 10
11.0464393865
 20
9.8002479108
 30
0.0
 10
11.0449828143
 20
9.7921021712
 30
0.0
 10
11.0451477609
 20
9.783828169
 30
0.0
 10
11.0469201397
 20
9.775743573
 30
0.0
 10
11.0502351902
 20
9.768157353
 30
0.0
 10
11.0549691882
 20
9.7613639761
 30
0.0
 10
11.0609317303
 20
9.755617519
 30
0.0
 10
11.0679049531
 20
9.7511407641
 30
0.0
 10
11.0756136916
 20
9.7481143336
 30
0.0
 10
11.0810544498
 20
9.7471272614
 30
0.0
 10
11.083787076
 20
9.7469055961
 30
0.0
  0
LINE
  5
2DD
100
AcDbEntity
  8
0
100
AcDbLine
 62
9
  6
CONTINUOUS
 10
10.2865001513
 20
8.6890321109
 11
10.2773549126
 21
8.6828892061
  0
LINE
  5
2DE
100
AcDbEntity
  8
0
100
AcDbLine
 62
9
  6
CONTINUOUS
 10
10.3582641507
 20
8.7383504134
 11
10.3687418753
 21
8.7456929854
  0
LINE
  5
2DF
100
AcDbEntity
  8
0
100
AcDbLine
 62
9
  6
CONTINUOUS
 10
10.1109804993
 20
8.9930384254
 11
10.101087974
 21
8.9881898725
  0
LINE
  5
2E0
100
AcDbEntity
  8
0
100
AcDbLine
 62
9
  6
CONTINUOUS
 10
10.1895757747
 20
9.0305298558
 11
10.2011734952
 21
9.0359325456
  0
LINE
  5
2E1
100
AcDbEntity
  8
0
100
AcDbLine
 62
9
  6
CONTINUOUS
 10
11.6858089162
 20
9.5048091485
 11
11.6742111957
 21
9.4994064586
  0
LINE
  5
2E2
100
AcDbEntity
  8
0
100
AcDbLine
 62
9
  6
CONTINUOUS
 10
11.7644031229
 20
8.9930392149
 11
11.7742956539
 21
8.9881906582
  0
LINE
  5
2E3
100
AcDbEntity
  8
0
100
AcDbLine
 62
9
  6
CONTINUOUS
 10
11.6858102204
 20
9.0305295102
 11
11.6742125042
 21
9.0359321999
  0
LINE
  5
2E4
100
AcDbEntity
  8
0
100
AcDbLine
 62
9
  6
CONTINUOUS
 10
11.7644041916
 20
9.5423005789
 11
11.7742967169
 21
9.5471491317
  0
LINE
  5
2E5
100
AcDbEntity
  8
0
100
AcDbLine
 62
9
  6
CONTINUOUS
 10
11.5888857577
 20
8.6890315802
 11
11.5980309903
 21
8.6828886783
  0
LINE
  5
2E6
100
AcDbEntity
  8
0
100
AcDbLine
 62
9
  6
CONTINUOUS
 10
11.5171195888
 20
8.7383513701
 11
11.5066418619
 21
8.7456939457
  0
LINE
  5
2E7
100
AcDbEntity
  8
0
100
AcDbLine
 62
9
  6
CONTINUOUS
 10
11.5171205402
 20
9.7969885909
 11
11.5066428156
 21
9.7896460189
  0
LINE
  5
2E8
100
AcDbEntity
  8
0
100
AcDbLine
 62
9
  6
CONTINUOUS
 10
11.5888845396
 20
9.8463068934
 11
11.5980297783
 21
9.8524497982
  0
SPLINE
  5
2E9
100
AcDbEntity
  8
0
100
AcDbSpline
 62
9
  6
CONTINUOUS
 70
0
 71
3
 72
17
 73
13
 74
0
 42
0.0000001
 43
0.0000001
 44
0.0000000001
 40
0.0
 40
0.0
 40
0.0
 40
0.0
 40
0.1246944157
 40
0.1872312506
 40
0.2497547956
 40
0.3746243819
 40
0.4995348467
 40
0.624554226
 40
0.7496103181
 40
0.8122571759
 40
0.8749609087
 40
1.0
 40
1.0
 40
1.0
 40
1.0
 10
11.3893800339
 20
8.5723985738
 30
0.0
 10
11.387945144
 20
8.5748485431
 30
0.0
 10
11.3854400279
 20
8.5783386142
 30
0.0
 10
11.3814952555
 20
8.5824441967
 30
0.0
 10
11.3771588063
 20
8.5861421614
 30
0.0
 10
11.3710832979
 20
8.5899342347
 30
0.0
 10
11.3630405324
 20
8.5929477895
 30
0.0
 10
11.354565087
 20
8.5943496014
 30
0.0
 10
11.3473985036
 20
8.594135259
 30
0.0
 10
11.3417787835
 20
8.5931216411
 30
0.0
 10
11.3362915069
 20
8.5915494507
 30
0.0
 10
11.3323655516
 20
8.589769624
 30
0.0
 10
11.3298999125
 20
8.5883460688
 30
0.0
  0
SPLINE
  5
2EA
100
AcDbEntity
  8
0
100
AcDbSpline
 62
9
  6
CONTINUOUS
 70
0
 71
3
 72
17
 73
13
 74
0
 42
0.0000001
 43
0.0000001
 44
0.0000000001
 40
0.0
 40
0.0
 40
0.0
 40
0.0
 40
0.1246944157
 40
0.1872312506
 40
0.2497547956
 40
0.3746243819
 40
0.4995348467
 40
0.624554226
 40
0.7496103181
 40
0.8122571759
 40
0.8749609087
 40
1.0
 40
1.0
 40
1.0
 40
1.0
 10
10.1097262148
 20
9.2241319536
 30
0.0
 10
10.1125653954
 20
9.22414962
 30
0.0
 10
10.1168404437
 20
9.2245740786
 30
0.0
 10
10.1223683686
 20
9.2259375605
 30
0.0
 10
10.1277391246
 20
9.2278440533
 30
0.0
 10
10.1340609106
 20
9.2312095613
 30
0.0
 10
10.1406921084
 20
9.2366680231
 30
0.0
 10
10.1461438358
 20
9.2433070682
 30
0.0
 10
10.1495415015
 20
9.2496206826
 30
0.0
 10
10.1514735427
 20
9.254994312
 30
0.0
 10
10.1528556242
 20
9.2605325281
 30
0.0
 10
10.1532772266
 20
9.2648224185
 30
0.0
 10
10.1532772113
 20
9.2676695022
 30
0.0
  0
SPLINE
  5
2EB
100
AcDbEntity
  8
0
100
AcDbSpline
 62
9
  6
CONTINUOUS
 70
0
 71
3
 72
17
 73
13
 74
0
 42
0.0000001
 43
0.0000001
 44
0.0000000001
 40
0.0
 40
0.0
 40
0.0
 40
0.0
 40
0.1246944157
 40
0.1872312506
 40
0.2497547956
 40
0.3746243819
 40
0.4995348467
 40
0.624554226
 40
0.7496103181
 40
0.8122571759
 40
0.8749609087
 40
1.0
 40
1.0
 40
1.0
 40
1.0
 10
11.3139707877
 20
10.0064779791
 30
0.0
 10
11.312566497
 20
10.0040103433
 30
0.0
 10
11.3107965648
 20
10.0000958136
 30
0.0
 10
11.3092134122
 20
9.9946267492
 30
0.0
 10
11.3081791055
 20
9.9890222918
 30
0.0
 10
11.3079328279
 20
9.9818647104
 30
0.0
 10
11.3093443956
 20
9.9733926938
 30
0.0
 10
11.3123681136
 20
9.9653518369
 30
0.0
 10
11.3161370312
 20
9.9592525648
 30
0.0
 10
11.3198247102
 20
9.9548925534
 30
0.0
 10
11.3239299053
 20
9.9509265276
 30
0.0
 10
11.3274342581
 20
9.948416464
 30
0.0
 10
11.3298999126
 20
9.9469929354
 30
0.0
  0
LINE
  5
2EC
100
AcDbEntity
  8
0
100
AcDbLine
 62
9
  6
CONTINUOUS
 10
11.1132109288
 20
8.4144018236
 11
11.113958221
 21
8.4034103625
  0
LINE
  5
2ED
100
AcDbEntity
  8
0
100
AcDbLine
 62
9
  6
CONTINUOUS
 10
11.1063820256
 20
8.5012104214
 11
11.1052620341
 21
8.5139556829
  0
LINE
  5
2EE
100
AcDbEntity
  8
0
100
AcDbLine
 62
9
  6
CONTINUOUS
 10
11.1063816729
 20
10.0341272805
 11
11.1052616792
 21
10.0213820151
  0
LINE
  5
2EF
100
AcDbEntity
  8
0
100
AcDbLine
 62
9
  6
CONTINUOUS
 10
10.7621739115
 20
8.4144005034
 11
10.7614266188
 21
8.4034090487
  0
LINE
  5
2F0
100
AcDbEntity
  8
0
100
AcDbLine
 62
9
  6
CONTINUOUS
 10
10.7690030181
 20
8.5012117238
 11
10.7701230117
 21
8.5139569892
  0
LINE
  5
2F1
100
AcDbEntity
  8
0
100
AcDbLine
 62
9
  6
CONTINUOUS
 10
11.1132107794
 20
10.1209385009
 11
11.1139580721
 21
10.1319299556
  0
SPLINE
  5
2F2
100
AcDbEntity
  8
0
100
AcDbSpline
 62
7
  6
CONTINUOUS
 70
0
 71
3
 72
23
 73
19
 74
0
 42
0.0000001
 43
0.0000001
 44
0.0000000001
 40
0.0
 40
0.0
 40
0.0
 40
0.0
 40
0.0624808362
 40
0.1250661203
 40
0.1875640864
 40
0.2500485545
 40
0.3125300965
 40
0.3749998974
 40
0.4374606269
 40
0.4999241181
 40
0.5623933472
 40
0.6248704188
 40
0.6873646565
 40
0.7498749278
 40
0.8123884022
 40
0.8749110844
 40
0.9375130178
 40
1.0
 40
1.0
 40
1.0
 40
1.0
 10
10.3738067322
 20
9.1184115693
 30
0.0
 10
10.374991174
 20
9.1159393231
 30
0.0
 10
10.3778585351
 20
9.1112124827
 30
0.0
 10
10.3834405384
 20
9.1050977134
 30
0.0
 10
10.3901130176
 20
9.100189068
 30
0.0
 10
10.3976096139
 20
9.0966795916
 30
0.0
 10
10.4056442559
 20
9.0946929466
 30
0.0
 10
10.4139115741
 20
9.0943157075
 30
0.0
 10
10.4220923886
 20
9.0955579938
 30
0.0
 10
10.4298750921
 20
9.0983694354
 30
0.0
 10
10.4369581148
 20
9.1026492846
 30
0.0
 10
10.443073391
 20
9.1082265079
 30
0.0
 10
10.4479857249
 20
9.114890536
 30
0.0
 10
10.4515019628
 20
9.1223869871
 30
0.0
 10
10.4534972696
 20
9.1304239288
 30
0.0
 10
10.4538876416
 20
9.1387012944
 30
0.0
 10
10.4526542381
 20
9.1468904733
 30
0.0
 10
10.4507886886
 20
9.1520958443
 30
0.0
 10
10.4496143433
 20
9.1545732008
 30
0.0
  0
SPLINE
  5
2F3
100
AcDbEntity
  8
0
100
AcDbSpline
 62
7
  6
CONTINUOUS
 70
0
 71
3
 72
23
 73
19
 74
0
 42
0.0000001
 43
0.0000001
 44
0.0000000001
 40
0.0
 40
0.0
 40
0.0
 40
0.0
 40
0.0624799268
 40
0.1250648787
 40
0.1875637681
 40
0.250046403
 40
0.3125249187
 40
0.3749932086
 40
0.4374527583
 40
0.4999144759
 40
0.5623815621
 40
0.624856766
 40
0.6873502296
 40
0.7498609928
 40
0.8123769001
 40
0.8749065414
 40
0.9375129131
 40
1.0
 40
1.0
 40
1.0
 40
1.0
 10
10.4496038525
 20
9.154568223
 30
0.0
 10
10.4484223645
 20
9.1570451332
 30
0.0
 10
10.4455595243
 20
9.1617817671
 30
0.0
 10
10.4399797923
 20
9.1679109036
 30
0.0
 10
10.4333058295
 20
9.1728327555
 30
0.0
 10
10.4258046216
 20
9.1763534421
 30
0.0
 10
10.417762889
 20
9.1783480978
 30
0.0
 10
10.4094869695
 20
9.1787304735
 30
0.0
 10
10.4012969313
 20
9.1774895976
 30
0.0
 10
10.3935055278
 20
9.1746762048
 30
0.0
 10
10.3864151587
 20
9.1703913952
 30
0.0
 10
10.3802950648
 20
9.1648062837
 30
0.0
 10
10.375380496
 20
9.1581327372
 30
0.0
 10
10.3718656905
 20
9.1506254412
 30
0.0
 10
10.3698755599
 20
9.1425773955
 30
0.0
 10
10.3694942658
 20
9.1342898714
 30
0.0
 10
10.370740331
 20
9.1260928871
 30
0.0
 10
10.3726163731
 20
9.1208845981
 30
0.0
 10
10.3737962329
 20
9.1184065636
 30
0.0
  0
SPLINE
  5
2F4
100
AcDbEntity
  8
0
100
AcDbSpline
 62
7
  6
CONTINUOUS
 70
0
 71
3
 72
23
 73
19
 74
0
 42
0.0000001
 43
0.0000001
 44
0.0000000001
 40
0.0
 40
0.0
 40
0.0
 40
0.0
 40
0.0624799277
 40
0.1250648796
 40
0.1875637695
 40
0.2500464051
 40
0.31252492
 40
0.3749932097
 40
0.4374527593
 40
0.4999144764
 40
0.5623815624
 40
0.624856766
 40
0.6873502294
 40
0.7498609925
 40
0.8123768998
 40
0.8749065411
 40
0.9375129129
 40
1.0
 40
1.0
 40
1.0
 40
1.0
 10
11.4257808389
 20
9.3807707814
 30
0.0
 10
11.4269623249
 20
9.3782938702
 30
0.0
 10
11.4298251621
 20
9.3735572343
 30
0.0
 10
11.4354048928
 20
9.3674280963
 30
0.0
 10
11.4420788563
 20
9.3625062454
 30
0.0
 10
11.4495800643
 20
9.3589855592
 30
0.0
 10
11.4576217967
 20
9.3569909035
 30
0.0
 10
11.4658977161
 20
9.356608528
 30
0.0
 10
11.4740877541
 20
9.357849404
 30
0.0
 10
11.4818791575
 20
9.3606627969
 30
0.0
 10
11.4889695264
 20
9.3649476065
 30
0.0
 10
11.4950896201
 20
9.3705327181
 30
0.0
 10
11.5000041889
 20
9.3772062645
 30
0.0
 10
11.5035189942
 20
9.3847135605
 30
0.0
 10
11.5055091247
 20
9.392761606
 30
0.0
 10
11.5058904188
 20
9.4010491301
 30
0.0
 10
11.5046443536
 20
9.4092461143
 30
0.0
 10
11.5027683116
 20
9.4144544033
 30
0.0
 10
11.5015884518
 20
9.4169324377
 30
0.0
  0
LINE
  5
2F5
100
AcDbEntity
  8
0
100
AcDbLine
 62
9
  6
CONTINUOUS
 10
10.7690026653
 20
10.0341285829
 11
10.7701226568
 21
10.0213833214
  0
LINE
  5
2F6
100
AcDbEntity
  8
0
100
AcDbLine
 62
9
  6
CONTINUOUS
 10
10.7621737622
 20
10.1209371806
 11
10.7614264699
 21
10.1319286418
  0
SPLINE
  5
2F7
100
AcDbEntity
  8
0
100
AcDbSpline
 62
7
  6
CONTINUOUS
 70
0
 71
3
 72
23
 73
19
 74
0
 42
0.0000001
 43
0.0000001
 44
0.0000000001
 40
0.0
 40
0.0
 40
0.0
 40
0.0
 40
0.0624808371
 40
0.1250661226
 40
0.1875640889
 40
0.2500485562
 40
0.3125300981
 40
0.3749998977
 40
0.4374606253
 40
0.4999241148
 40
0.5623933423
 40
0.6248704127
 40
0.68736465
 40
0.7498749215
 40
0.8123883968
 40
0.8749110806
 40
0.9375130158
 40
1.0
 40
1.0
 40
1.0
 40
1.0
 10
11.5015779548
 20
9.416927434
 30
0.0
 10
11.500393511
 20
9.4193996791
 30
0.0
 10
11.4975261467
 20
9.4241265173
 30
0.0
 10
11.4919441423
 20
9.4302412851
 30
0.0
 10
11.4852716641
 20
9.4351499317
 30
0.0
 10
11.4777750682
 20
9.4386594086
 30
0.0
 10
11.4697404266
 20
9.4406460536
 30
0.0
 10
11.4614731087
 20
9.4410232931
 30
0.0
 10
11.4532922946
 20
9.4397810071
 30
0.0
 10
11.4455095915
 20
9.4369695657
 30
0.0
 10
11.4384265691
 20
9.4326897167
 30
0.0
 10
11.4323112933
 20
9.4271124935
 30
0.0
 10
11.4273989597
 20
9.4204484655
 30
0.0
 10
11.423882722
 20
9.4129520144
 30
0.0
 10
11.4218874155
 20
9.4049150728
 30
0.0
 10
11.4214970438
 20
9.3966377071
 30
0.0
 10
11.4227304474
 20
9.3884485282
 30
0.0
 10
11.424595997
 20
9.3832431571
 30
0.0
 10
11.4257703423
 20
9.3807658007
 30
0.0
  0
SPLINE
  5
2F8
100
AcDbEntity
  8
0
100
AcDbSpline
 62
9
  6
CONTINUOUS
 70
0
 71
3
 72
17
 73
13
 74
0
 42
0.0000001
 43
0.0000001
 44
0.0000000001
 40
0.0
 40
0.0
 40
0.0
 40
0.0
 40
0.1246944157
 40
0.1872312506
 40
0.2497547956
 40
0.3746243819
 40
0.4995348467
 40
0.624554226
 40
0.7496103181
 40
0.8122571759
 40
0.8749609087
 40
1.0
 40
1.0
 40
1.0
 40
1.0
 10
10.486004657
 20
9.9629404305
 30
0.0
 10
10.4874395469
 20
9.9604904612
 30
0.0
 10
10.489944663
 20
9.9570003901
 30
0.0
 10
10.4938894354
 20
9.9528948075
 30
0.0
 10
10.4982258846
 20
9.9491968429
 30
0.0
 10
10.5043013931
 20
9.9454047696
 30
0.0
 10
10.5123441585
 20
9.9423912148
 30
0.0
 10
10.5208196039
 20
9.9409894029
 30
0.0
 10
10.5279861873
 20
9.9412037453
 30
0.0
 10
10.5336059074
 20
9.9422173632
 30
0.0
 10
10.539093184
 20
9.9437895536
 30
0.0
 10
10.5430191393
 20
9.9455693803
 30
0.0
 10
10.5454847785
 20
9.9469929354
 30
0.0
  0
SPLINE
  5
2F9
100
AcDbEntity
  8
0
100
AcDbSpline
 62
7
  6
CONTINUOUS
 70
0
 71
3
 72
23
 73
19
 74
0
 42
0.0000001
 43
0.0000001
 44
0.0000000001
 40
0.0
 40
0.0
 40
0.0
 40
0.0
 40
0.0624808353
 40
0.1250661186
 40
0.1875640842
 40
0.250048552
 40
0.3125300941
 40
0.3749998954
 40
0.4374606255
 40
0.4999241174
 40
0.5623933472
 40
0.6248704195
 40
0.6873646577
 40
0.7498749293
 40
0.8123884037
 40
0.8749110856
 40
0.9375130184
 40
1.0
 40
1.0
 40
1.0
 40
1.0
 10
10.7850107
 20
8.7047012683
 30
0.0
 10
10.7877439488
 20
8.7044909021
 30
0.0
 10
10.7932711931
 20
8.70461069
 30
0.0
 10
10.80135774
 20
8.7063874622
 30
0.0
 10
10.8089449912
 20
8.7097116758
 30
0.0
 10
10.815732585
 20
8.7144491803
 30
0.0
 10
10.8214703909
 20
8.7204140618
 30
0.0
 10
10.8259307486
 20
8.7273851498
 30
0.0
 10
10.8289453043
 20
8.7350910861
 30
0.0
 10
10.8304018764
 20
8.7432368258
 30
0.0
 10
10.8302369297
 20
8.751510828
 30
0.0
 10
10.8284645508
 20
8.7595954242
 30
0.0
 10
10.8251495002
 20
8.7671816442
 30
0.0
 10
10.8204155022
 20
8.7739750212
 30
0.0
 10
10.8144529601
 20
8.7797214784
 30
0.0
 10
10.8074797373
 20
8.7841982333
 30
0.0
 10
10.7997709988
 20
8.787224664
 30
0.0
 10
10.7943302406
 20
8.7882117363
 30
0.0
 10
10.7915976144
 20
8.7884334016
 30
0.0
  0
SPLINE
  5
2FA
100
AcDbEntity
  8
0
100
AcDbSpline
 62
7
  6
CONTINUOUS
 70
0
 71
3
 72
23
 73
19
 74
0
 42
0.0000001
 43
0.0000001
 44
0.0000000001
 40
0.0
 40
0.0
 40
0.0
 40
0.0
 40
0.0624799263
 40
0.125064878
 40
0.1875637673
 40
0.2500464022
 40
0.3125249182
 40
0.3749932085
 40
0.4374527585
 40
0.4999144764
 40
0.5623815629
 40
0.6248567668
 40
0.6873502305
 40
0.7498609936
 40
0.8123769008
 40
0.8749065419
 40
0.9375129133
 40
1.0
 40
1.0
 40
1.0
 40
1.0
 10
10.7915966801
 20
8.788421829
 30
0.0
 10
10.788860869
 20
8.7886370848
 30
0.0
 10
10.7833274039
 20
8.7885261084
 30
0.0
 10
10.7752295504
 20
8.7867584867
 30
0.0
 10
10.7676301204
 20
8.7834395917
 30
0.0
 10
10.7608305124
 20
8.7787036986
 30
0.0
 10
10.7550822239
 20
8.7727366819
 30
0.0
 10
10.750613117
 20
8.7657607134
 30
0.0
 10
10.7475927281
 20
8.7580474946
 30
0.0
 10
10.746133496
 20
8.749893245
 30
0.0
 10
10.7462990653
 20
8.7416104007
 30
0.0
 10
10.7480758668
 20
8.7335176884
 30
0.0
 10
10.751398043
 20
8.7259247738
 30
0.0
 10
10.7561421491
 20
8.7191272152
 30
0.0
 10
10.7621168957
 20
8.713379689
 30
0.0
 10
10.7691034548
 20
8.7089057167
 30
0.0
 10
10.7768252839
 20
8.7058863488
 30
0.0
 10
10.7822738153
 20
8.7049069045
 30
0.0
 10
10.7850097859
 20
8.7046896758
 30
0.0
  0
LINE
  5
2FB
100
AcDbEntity
  8
0
100
AcDbLine
 62
9
  6
CONTINUOUS
 10
10.3582651022
 20
9.7969876342
 11
10.368742829
 21
9.7896450586
  0
LINE
  5
2FC
100
AcDbEntity
  8
0
100
AcDbLine
 62
9
  6
CONTINUOUS
 10
10.2864989333
 20
9.8463074241
 11
10.2773537006
 21
9.852450326
  0
SPLINE
  5
2FD
100
AcDbEntity
  8
0
100
AcDbSpline
 62
7
  6
CONTINUOUS
 70
0
 71
3
 72
23
 73
19
 74
0
 42
0.0000001
 43
0.0000001
 44
0.0000000001
 40
0.0
 40
0.0
 40
0.0
 40
0.0
 40
0.0624808371
 40
0.1250661226
 40
0.1875640889
 40
0.2500485562
 40
0.3125300981
 40
0.3749998977
 40
0.4374606253
 40
0.4999241148
 40
0.5623933423
 40
0.6248704127
 40
0.68736465
 40
0.7498749215
 40
0.8123883968
 40
0.8749110806
 40
0.9375130158
 40
1.0
 40
1.0
 40
1.0
 40
1.0
 10
11.3488963108
 20
8.8539592055
 30
0.0
 10
11.350445116
 20
8.8562210865
 30
0.0
 10
11.3531049958
 20
8.861067716
 30
0.0
 10
11.3556095379
 20
8.8689592575
 30
0.0
 10
11.3565243114
 20
8.8771921164
 30
0.0
 10
11.3558153096
 20
8.8854390973
 30
0.0
 10
11.3535184739
 20
8.8933906236
 30
0.0
 10
11.3497115139
 20
8.9007389506
 30
0.0
 10
11.3445452556
 20
8.9072026004
 30
0.0
 10
11.3382191244
 20
8.9125368984
 30
0.0
 10
11.3309711552
 20
8.9165310512
 30
0.0
 10
11.3230835004
 20
8.9190384238
 30
0.0
 10
11.314856116
 20
8.9199606155
 30
0.0
 10
11.3066058801
 20
8.9192575411
 30
0.0
 10
11.2986480312
 20
8.9169670564
 30
0.0
 10
11.2912844364
 20
8.9131664454
 30
0.0
 10
11.2848091012
 20
8.908003697
 30
0.0
 10
11.2812338925
 20
8.9037853982
 30
0.0
 10
11.2796756115
 20
8.9015297071
 30
0.0
  0
SPLINE
  5
2FE
100
AcDbEntity
  8
0
100
AcDbSpline
 62
7
  6
CONTINUOUS
 70
0
 71
3
 72
23
 73
19
 74
0
 42
0.0000001
 43
0.0000001
 44
0.0000000001
 40
0.0
 40
0.0
 40
0.0
 40
0.0
 40
0.0624799277
 40
0.1250648796
 40
0.1875637695
 40
0.2500464051
 40
0.31252492
 40
0.3749932097
 40
0.4374527593
 40
0.4999144764
 40
0.5623815624
 40
0.624856766
 40
0.6873502294
 40
0.7498609925
 40
0.8123768998
 40
0.8749065411
 40
0.9375129129
 40
1.0
 40
1.0
 40
1.0
 40
1.0
 10
11.2796851732
 20
8.9015231071
 30
0.0
 10
11.2781308482
 20
8.8992614547
 30
0.0
 10
11.2754602198
 20
8.894413847
 30
0.0
 10
11.2729420959
 20
8.8865170895
 30
0.0
 10
11.2720166298
 20
8.8782763421
 30
0.0
 10
11.27271823
 20
8.8700197623
 30
0.0
 10
11.2750116738
 20
8.8620580899
 30
0.0
 10
11.2788184865
 20
8.8546997456
 30
0.0
 10
11.2839881357
 20
8.8482274027
 30
0.0
 10
11.2903203071
 20
8.8428865459
 30
0.0
 10
11.2975762456
 20
8.8388885111
 30
0.0
 10
11.3054731409
 20
8.8363809102
 30
0.0
 10
11.313709886
 20
8.8354615421
 30
0.0
 10
11.3219687977
 20
8.8361712793
 30
0.0
 10
11.3299336748
 20
8.8384717986
 30
0.0
 10
11.3373015283
 20
8.8422853502
 30
0.0
 10
11.3437772923
 20
8.8474629665
 30
0.0
 10
11.3473497818
 20
8.851691811
 30
0.0
 10
11.3489058927
 20
8.8539526167
 30
0.0
  0
LINE
  5
2FF
100
AcDbEntity
  8
0
100
AcDbLine
 62
9
  6
CONTINUOUS
 10
10.1895744705
 20
9.5048094941
 11
10.2011721867
 21
9.4994068044
  0
LINE
  5
300
100
AcDbEntity
  8
0
100
AcDbLine
 62
9
  6
CONTINUOUS
 10
10.110981568
 20
9.5422997894
 11
10.1010890371
 21
9.5471483461
  0
ENDSEC
  0
SECTION
  2
OBJECTS
  0
DICTIONARY
  5
C
100
AcDbDictionary
280
0
281
1
  3
ACAD_GROUP
350
D
  3
ACAD_MLINESTYLE
350
17
  3
ACAD_LAYOUT
350
1A
  3
ACAD_PLOTSETTINGS
350
19
  3
ACAD_PLOTSTYLENAME
350
E
  0
DICTIONARY
  5
D
102
{ACAD_REACTORS
330
C
102
}
100
AcDbDictionary
280
0
281
1
  0
ACDBDICTIONARYWDFLT
  5
E
102
{ACAD_REACTORS
330
C
102
}
100
AcDbDictionary
281
1
  3
Normal
350
F
100
AcDbDictionaryWithDefault
340
F
  0
DICTIONARY
  5
17
102
{ACAD_REACTORS
330
C
102
}
100
AcDbDictionary
280
0
281
1
  3
Standard
350
18
  0
DICTIONARY
  5
19
102
{ACAD_REACTORS
330
C
102
}
100
AcDbDictionary
281
1
  0
DICTIONARY
  5
1A
102
{ACAD_REACTORS
330
C
102
}
100
AcDbDictionary
281
1
  3
Model
350
301
  3
Layout1
350
302
  0
ACDBPLACEHOLDER
  5
F
102
{ACAD_REACTORS
330
E
102
}
  0
MLINESTYLE
  5
18
102
{ACAD_REACTORS
330
17
102
}
100
AcDbMlineStyle
  2
STANDARD
 70
0
  3

 62
256
 51
90.0
 52
90.0
 71
2
 49
0.5
 62
256
  6
BYLAYER
 49
-0.5
 62
256
  6
BYLAYER
  0
LAYOUT
  5
301
102
{ACAD_REACTORS
330
1A
102
}
100
AcDbPlotSettings
  1

  2
none_device
  4
ANSI_C_(22.00_x_17.00_Inches)
  6

 40
0.0
 41
0.0
 42
0.0
 43
0.0
 44
558.8
 45
431.8
 46
0.0
 47
0.0
 48
0.0
 49
0.0
140
0.0
141
0.0
142
1.0
143
1.0
 70
1024
 72
0
 73
0
 74
0
  7

 75
0
147
1.0
148
0.0
149
0.0
100
AcDbLayout
  1
Model
 70
0
 71
0
 10
0.0
 20
0.0
 11
22.0
 21
17.0
 12
0.0
 22
0.0
 32
0.0
 14
0.0
 24
0.0
 34
0.0
 15
0.0
 25
0.0
 35
0.0
146
0.0
 13
0.0
 23
0.0
 33
0.0
 16
1.0
 26
0.0
 36
0.0
 17
0.0
 27
1.0
 37
0.0
 76
0
330
202
345
0
346
0
  0
LAYOUT
  5
302
102
{ACAD_REACTORS
330
1A
102
}
100
AcDbPlotSettings
  1

  2
none_device
  4
ANSI_C_(22.00_x_17.00_Inches)
  6

 40
0.0
 41
0.0
 42
0.0
 43
0.0
 44
558.8
 45
431.8
 46
0.0
 47
0.0
 48
0.0
 49
0.0
140
0.0
141
0.0
142
1.0
143
1.0
 70
0
 72
0
 73
0
 74
0
  7

 75
0
147
1.0
148
0.0
149
0.0
100
AcDbLayout
  1
Layout1
 70
0
 71
1
 10
0.0
 20
0.0
 11
22.0
 21
17.0
 12
0.0
 22
0.0
 32
0.0
 14
0.0
 24
0.0
 34
0.0
 15
0.0
 25
0.0
 35
0.0
146
0.0
 13
0.0
 23
0.0
 33
0.0
 16
1.0
 26
0.0
 36
0.0
 17
0.0
 27
1.0
 37
0.0
 76
0
330
203
345
0
346
0
  0
ENDSEC
  0
EOF
