999
DXF file: E:\BT Custom\CADOUTPUT\_FRONT.dxf
999
Pro/ENGINEER 2018400 by Parametric Technology Corporation
  0
SECTION
  2
HEADER
  9
$ACADVER
  1
AC1018
  9
$DWGCODEPAGE
  3
ANSI_1252
  9
$EXTMAX
 10
22.0
 20
17.0
 30
0.0
  9
$EXTMIN
 10
0.0
 20
0.0
 30
0.0
  9
$LIMMIN
 10
0.0
 20
0.0
  9
$LIMMAX
 10
22.0
 20
17.0
  9
$VIEWCTR
 10
11.0
 20
8.5
  9
$VIEWSIZE
 40
17.0
  9
$CLAYER
  8
0
  9
$LTSCALE
 40
1.21
  9
$CELTYPE
  6
BYLAYER
  9
$DIMSCALE
 40
1.0
  9
$DIMASZ
 40
0.1
  9
$DIMEXO
 40
0.0625
  9
$DIMDLI
 40
0.836
  9
$DIMEXE
 40
0.125
  9
$DIMCEN
 40
0.198
  9
$DIMLFAC
 40
1.0
  9
$DIMBLK
  1
_FILLED
  9
$DIMALT
 70
1
  9
$DIMALTD
 70
2
  9
$DIMALTTD
 70
2
  9
$DIMALTF
 40
25.4
  9
$DIMTXT
 40
0.08
  9
$DIMTOL
 70
1
  9
$DIMLIM
 70
0
  9
$DIMTFAC
 40
1.0
  9
$DIMTP
 40
0.001
  9
$DIMTM
 40
0.001
  9
$DIMGAP
 40
0.09
  9
$DIMDSEP
 70
46
  9
$AUNITS
 70
0
  9
$PDMODE
 70
3
  9
$PDSIZE
 40
0.06
  9
$HANDSEED
  5
2FC
  9
$TILEMODE
 70
1
  9
$MEASUREMENT
 70
0
  9
$INSUNITS
 70
1
  0
ENDSEC
  0
SECTION
  2
CLASSES
  0
CLASS
  1
ACDBDICTIONARYWDFLT
  2
AcDbDictionaryWithDefault
  3
AutoCAD 2000
 90
0
 91
1
280
0
281
0
  0
CLASS
  1
ACDBPLACEHOLDER
  2
AcDbPlaceHolder
  3
AutoCAD 2000
 90
0
 91
1
280
0
281
0
  0
CLASS
  1
LAYOUT
  2
AcDbLayout
  3
AutoCAD 2000
 90
0
 91
0
280
0
281
0
  0
ENDSEC
  0
SECTION
  2
TABLES
  0
TABLE
  2
VPORT
  5
8
100
AcDbSymbolTable
 70
2
  0
VPORT
  5
1F4
100
AcDbSymbolTableRecord
100
AcDbViewportTableRecord
  2
*ACTIVE
 70
0
 10
0.0
 20
0.0
 11
1.0
 21
1.0
 12
11.0
 22
8.5
 13
0.0
 23
0.0
 14
1.0
 24
1.0
 15
0.0
 25
0.0
 16
0.0
 26
0.0
 36
1.0
 17
0.0
 27
0.0
 37
0.0
 40
17.0
 41
1.2941176471
 42
50.0
 43
0.0
 44
0.0
 50
0.0
 51
0.0
 71
0
 72
100
 73
1
 74
1
 75
0
 76
0
 77
0
 78
0
  0
ENDTAB
  0
TABLE
  2
LTYPE
  5
5
100
AcDbSymbolTable
 70
6
  0
LTYPE
  5
14
100
AcDbSymbolTableRecord
100
AcDbLinetypeTableRecord
  2
BYBLOCK
 70
0
  3

 72
65
 73
0
 40
0.0
  0
LTYPE
  5
15
100
AcDbSymbolTableRecord
100
AcDbLinetypeTableRecord
  2
BYLAYER
 70
0
  3

 72
65
 73
0
 40
0.0
  0
LTYPE
  5
16
100
AcDbSymbolTableRecord
100
AcDbLinetypeTableRecord
  2
CONTINUOUS
 70
64
  3
Solid line
 72
65
 73
0
 40
0.0
  0
LTYPE
  5
1F5
100
AcDbSymbolTableRecord
100
AcDbLinetypeTableRecord
  2
CENTER
 70
64
  3
____ _ ____ _ ____ _ ____ _ ____ _ ____ _ ____
 72
65
 73
4
 40
0.6
 49
0.375
 74
0
 49
-0.075
 74
0
 49
0.075
 74
0
 49
-0.075
 74
0
  0
LTYPE
  5
1F6
100
AcDbSymbolTableRecord
100
AcDbLinetypeTableRecord
  2
HIDDEN
 70
64
  3
- - - - - - - - - - - - - - - - - - - -
 72
65
 73
2
 40
0.2
 49
0.1
 74
0
 49
-0.1
 74
0
  0
LTYPE
  5
1F7
100
AcDbSymbolTableRecord
100
AcDbLinetypeTableRecord
  2
PHANTOM
 70
64
  3
_____ _ _ _____ _ _ _____ _ _ _____
 72
65
 73
6
 40
0.8
 49
0.45
 74
0
 49
-0.05
 74
0
 49
0.1
 74
0
 49
-0.05
 74
0
 49
0.1
 74
0
 49
-0.05
 74
0
  0
LTYPE
  5
1F8
100
AcDbSymbolTableRecord
100
AcDbLinetypeTableRecord
  2
DOT
 70
64
  3
. . . . . . . . . . . . . . . . . . . .
 72
65
 73
2
 40
0.2
 49
0.1
 74
0
 49
-0.1
 74
0
  0
LTYPE
  5
1F9
100
AcDbSymbolTableRecord
100
AcDbLinetypeTableRecord
  2
DASHED
 70
64
  3
- - - - - - - - - - - - - - - - - - - -
 72
65
 73
2
 40
0.2
 49
0.1
 74
0
 49
-0.1
 74
0
  0
ENDTAB
  0
TABLE
  2
LAYER
  5
2
100
AcDbSymbolTable
 70
36
  0
LAYER
  5
10
100
AcDbSymbolTableRecord
100
AcDbLayerTableRecord
  2
0
 70
0
 62
7
  6
CONTINUOUS
370
-3
390
F
  0
LAYER
  5
1FA
100
AcDbSymbolTableRecord
100
AcDbLayerTableRecord
  2
DEFAULT_1
 70
0
 62
7
  6
CENTER
370
-3
390
F
  0
LAYER
  5
1FB
100
AcDbSymbolTableRecord
100
AcDbLayerTableRecord
  2
DEFAULT_2
 70
0
 62
8
  6
HIDDEN
370
-3
390
F
  0
LAYER
  5
1FC
100
AcDbSymbolTableRecord
100
AcDbLayerTableRecord
  2
DEFAULT_3
 70
0
 62
7
  6
PHANTOM
370
-3
390
F
  0
LAYER
  5
1FD
100
AcDbSymbolTableRecord
100
AcDbLayerTableRecord
  2
ALL_FEATURES
 70
0
 62
7
  6
CONTINUOUS
370
-3
390
F
  0
LAYER
  5
1FE
100
AcDbSymbolTableRecord
100
AcDbLayerTableRecord
  2
AXES_FEATURES
 70
0
 62
7
  6
CONTINUOUS
370
-3
390
F
  0
LAYER
  5
1FF
100
AcDbSymbolTableRecord
100
AcDbLayerTableRecord
  2
DIMENSIONS
 70
0
 62
7
  6
CONTINUOUS
370
-3
390
F
  0
ENDTAB
  0
TABLE
  2
STYLE
  5
3
100
AcDbSymbolTable
 70
1
  0
STYLE
  5
11
100
AcDbSymbolTableRecord
100
AcDbTextStyleTableRecord
  2
STANDARD
 70
0
 40
0.0
 41
0.8
 50
0.0
 71
0
 42
0.2
  3
txt
  4

  0
STYLE
  5
200
100
AcDbSymbolTableRecord
100
AcDbTextStyleTableRecord
  2
TEXTSTYLE_1
 70
0
 40
0.0
 41
0.8
 50
0.0
 71
0
 42
0.2
  3
gdt
  4

  0
ENDTAB
  0
TABLE
  2
VIEW
  5
6
100
AcDbSymbolTable
 70
0
  0
ENDTAB
  0
TABLE
  2
UCS
  5
7
100
AcDbSymbolTable
 70
0
  0
ENDTAB
  0
TABLE
  2
APPID
  5
9
100
AcDbSymbolTable
 70
1
  0
APPID
  5
201
100
AcDbSymbolTableRecord
100
AcDbRegAppTableRecord
  2
ACAD
 70
0
  0
ENDTAB
  0
TABLE
  2
BLOCK_RECORD
  5
1
100
AcDbSymbolTable
 70
0
  0
BLOCK_RECORD
  5
202
100
AcDbSymbolTableRecord
100
AcDbBlockTableRecord
  2
*Model_Space
  0
BLOCK_RECORD
  5
203
100
AcDbSymbolTableRecord
100
AcDbBlockTableRecord
  2
*Paper_Space
  0
BLOCK_RECORD
  5
204
100
AcDbSymbolTableRecord
100
AcDbBlockTableRecord
  2
_FILLED
  0
ENDTAB
  0
TABLE
  2
DIMSTYLE
  5
A
100
AcDbSymbolTable
 70
1
100
AcDbDimStyleTable
 71
0
  0
DIMSTYLE
105
205
100
AcDbSymbolTableRecord
100
AcDbDimStyleTableRecord
  2
STANDARD
 70
0
  3

  4

 40
1.0
 41
0.1
 42
0.0625
 43
0.38
 44
0.125
 45
0.0
 46
0.0
 47
0.001
 48
0.001
140
0.08
141
0.09
142
0.0
143
25.4
144
1.0
145
0.0
146
1.0
147
0.09
 71
1.0
 72
0.0
 73
1
 74
1
 75
0
 76
0
 77
0
 78
4
 79
1
170
1
171
2
172
0
173
0
174
0
175
0
176
0
177
0
178
0
270
2
179
3
271
3
272
3
273
2
274
2
275
0
280
0
281
0
282
0
283
1
284
4
285
0
286
0
287
3
288
0
340
11
278
46
341
204
342
204
343
204
344
204
  0
ENDTAB
  0
ENDSEC
  0
SECTION
  2
BLOCKS
  0
BLOCK
  5
20
100
AcDbEntity
  8
0
100
AcDbBlockBegin
  2
*Model_Space
 70
0
 10
0.0
 20
0.0
 30
0.0
  3
*Model_Space
  1

  0
ENDBLK
  5
21
100
AcDbEntity
  8
0
100
AcDbBlockEnd
  0
BLOCK
  5
1C
100
AcDbEntity
  8
0
100
AcDbBlockBegin
  2
*Paper_Space
 70
0
 10
0.0
 20
0.0
 30
0.0
  3
*Paper_Space
  1

  0
ENDBLK
  5
1D
100
AcDbEntity
  8
0
100
AcDbBlockEnd
  0
BLOCK
  5
206
100
AcDbEntity
  8
0
100
AcDbBlockBegin
  2
_FILLED
 70
64
 10
0.0
 20
0.0
  3
_FILLED
  1

  0
SOLID
  5
207
100
AcDbEntity
  8
0
  6
BYBLOCK
 62
0
100
AcDbTrace
 10
0.0
 20
0.0
 11
-1.0
 21
0.2
 12
-1.0
 22
-0.2
 13
-1.0
 23
-0.2
  0
ENDBLK
  5
208
100
AcDbEntity
  8
0
  6
BYBLOCK
 62
0
100
AcDbBlockEnd
  0
ENDSEC
  0
SECTION
  2
ENTITIES
  0
LINE
  5
209
100
AcDbEntity
  8
0
100
AcDbLine
 62
9
  6
CONTINUOUS
 10
11.3298999103
 20
9.9469929346
 11
11.3234991511
 21
9.935906496
  0
LINE
  5
20A
100
AcDbEntity
  8
0
100
AcDbLine
 62
9
  6
CONTINUOUS
 10
11.3734380548
 20
10.0224032159
 11
11.3789423239
 21
10.0319368884
  0
LINE
  5
20B
100
AcDbEntity
  8
0
100
AcDbLine
 62
9
  6
CONTINUOUS
 10
10.5019466307
 20
8.5129357884
 11
10.4964423616
 21
8.5034021159
  0
LINE
  5
20C
100
AcDbEntity
  8
0
100
AcDbLine
 62
9
  6
CONTINUOUS
 10
10.5454847752
 20
8.5883460697
 11
10.5518855344
 21
8.5994325082
  0
LINE
  5
20D
100
AcDbEntity
  8
0
100
AcDbLine
 62
9
  6
CONTINUOUS
 10
10.1532772091
 20
9.267669503
 11
10.1660787261
 21
9.2676695022
  0
LINE
  5
20E
100
AcDbEntity
  8
0
100
AcDbLine
 62
9
  6
CONTINUOUS
 10
10.0662009175
 20
9.2676695015
 11
10.0551923804
 21
9.2676695021
  0
LINE
  5
20F
100
AcDbEntity
  8
0
100
AcDbLine
 62
9
  6
CONTINUOUS
 10
11.8091837679
 20
9.2676695028
 11
11.8201923051
 21
9.2676695022
  0
LINE
  5
210
100
AcDbEntity
  8
0
100
AcDbLine
 62
9
  6
CONTINUOUS
 10
11.7221074764
 20
9.2676695013
 11
11.7093059594
 21
9.2676695021
  0
LINE
  5
211
100
AcDbEntity
  8
0
100
AcDbLine
 62
9
  6
CONTINUOUS
 10
10.5454847766
 20
9.9469929354
 11
10.5518855344
 21
9.9359064961
  0
LINE
  5
212
100
AcDbEntity
  8
0
100
AcDbLine
 62
9
  6
CONTINUOUS
 10
10.5019466296
 20
10.0224032152
 11
10.4964423615
 21
10.0319368883
  0
LINE
  5
213
100
AcDbEntity
  8
0
100
AcDbLine
 62
9
  6
CONTINUOUS
 10
11.3734380559
 20
8.5129357891
 11
11.3789423239
 21
8.5034021159
  0
LINE
  5
214
100
AcDbEntity
  8
0
100
AcDbLine
 62
9
  6
CONTINUOUS
 10
11.3298999088
 20
8.5883460689
 11
11.323499151
 21
8.5994325082
  0
CIRCLE
  5
215
100
AcDbEntity
  8
0
100
AcDbCircle
 62
7
  6
CONTINUOUS
 10
10.3232811803
 20
8.7144511885
 40
0.0905511811
  0
CIRCLE
  5
216
100
AcDbEntity
  8
0
100
AcDbCircle
 62
7
  6
CONTINUOUS
 10
10.3229613624
 20
8.7141650005
 40
0.0648523338
  0
CIRCLE
  5
217
100
AcDbEntity
  8
0
100
AcDbCircle
 62
9
  6
CONTINUOUS
 10
10.3230688726
 20
8.7142610951
 40
0.0554447523
  0
CIRCLE
  5
218
100
AcDbEntity
  8
0
100
AcDbCircle
 62
9
  6
CONTINUOUS
 10
10.3223979831
 20
8.7136688225
 40
0.0435174759
  0
CIRCLE
  5
219
100
AcDbEntity
  8
0
100
AcDbCircle
 62
7
  6
CONTINUOUS
 10
10.3232811803
 20
8.7144511885
 40
0.0196850394
  0
CIRCLE
  5
21A
100
AcDbEntity
  8
0
100
AcDbCircle
 62
7
  6
CONTINUOUS
 10
10.1109206029
 20
9.2676694064
 40
0.0905511811
  0
CIRCLE
  5
21B
100
AcDbEntity
  8
0
100
AcDbCircle
 62
7
  6
CONTINUOUS
 10
10.1513856879
 20
9.0121829149
 40
0.0905511811
  0
CIRCLE
  5
21C
100
AcDbEntity
  8
0
100
AcDbCircle
 62
7
  6
CONTINUOUS
 10
10.4124337433
 20
9.1367077503
 40
0.0905511811
  0
ARC
  5
21D
100
AcDbEntity
  8
0
100
AcDbCircle
 62
7
  6
CONTINUOUS
 10
10.1104913184
 20
9.2676679708
 40
0.0648524133
100
AcDbArc
 50
0.0013531299
 51
179.9986470653
  0
CIRCLE
  5
21E
100
AcDbEntity
  8
0
100
AcDbCircle
 62
7
  6
CONTINUOUS
 10
10.1509770905
 20
9.0120515091
 40
0.0648522965
  0
CIRCLE
  5
21F
100
AcDbEntity
  8
0
100
AcDbCircle
 62
7
  6
CONTINUOUS
 10
10.4121679039
 20
9.1366419153
 40
0.0632885147
  0
CIRCLE
  5
220
100
AcDbEntity
  8
0
100
AcDbCircle
 62
9
  6
CONTINUOUS
 10
10.1511149816
 20
9.0120939415
 40
0.0554460638
  0
ARC
  5
221
100
AcDbEntity
  8
0
100
AcDbCircle
 62
9
  6
CONTINUOUS
 10
10.1106355464
 20
9.2676685673
 40
0.0554445042
100
AcDbArc
 50
0.0009661957
 51
179.9990339998
  0
CIRCLE
  5
222
100
AcDbEntity
  8
0
100
AcDbCircle
 62
9
  6
CONTINUOUS
 10
10.4122593417
 20
9.1366642591
 40
0.0538974244
  0
CIRCLE
  5
223
100
AcDbEntity
  8
0
100
AcDbCircle
 62
9
  6
CONTINUOUS
 10
10.150266475
 20
9.011809004
 40
0.0435187939
  0
ARC
  5
224
100
AcDbEntity
  8
0
100
AcDbCircle
 62
9
  6
CONTINUOUS
 10
10.1097391521
 20
9.2676597838
 40
0.0435172267
100
AcDbArc
 50
0.012788809
 51
179.9872111542
  0
CIRCLE
  5
225
100
AcDbEntity
  8
0
100
AcDbCircle
 62
7
  6
CONTINUOUS
 10
10.1109206029
 20
9.2676694064
 40
0.0196850394
  0
CIRCLE
  5
226
100
AcDbEntity
  8
0
100
AcDbCircle
 62
7
  6
CONTINUOUS
 10
10.1513856879
 20
9.0121829149
 40
0.0196850394
  0
CIRCLE
  5
227
100
AcDbEntity
  8
0
100
AcDbCircle
 62
7
  6
CONTINUOUS
 10
10.4124337433
 20
9.1367077503
 40
0.0196850394
  0
CIRCLE
  5
228
100
AcDbEntity
  8
0
100
AcDbCircle
 62
7
  6
CONTINUOUS
 10
10.5243064297
 20
8.5516641513
 40
0.0905511811
  0
CIRCLE
  5
229
100
AcDbEntity
  8
0
100
AcDbCircle
 62
7
  6
CONTINUOUS
 10
10.7657967641
 20
8.4589646971
 40
0.0905511811
  0
ARC
  5
22A
100
AcDbEntity
  8
0
100
AcDbCircle
 62
7
  6
CONTINUOUS
 10
10.788479121
 20
8.7473013623
 40
0.0905511811
100
AcDbArc
 50
269.9999189697
 51
90.0000254752
  0
CIRCLE
  5
22B
100
AcDbEntity
  8
0
100
AcDbCircle
 62
7
  6
CONTINUOUS
 10
10.5240905561
 20
8.5512931368
 40
0.0648523788
  0
CIRCLE
  5
22C
100
AcDbEntity
  8
0
100
AcDbCircle
 62
7
  6
CONTINUOUS
 10
10.7657063903
 20
8.4585451077
 40
0.064852299
  0
CIRCLE
  5
22D
100
AcDbEntity
  8
0
100
AcDbCircle
 62
7
  6
CONTINUOUS
 10
10.7884033465
 20
8.7470382033
 40
0.0632885113
  0
CIRCLE
  5
22E
100
AcDbEntity
  8
0
100
AcDbCircle
 62
9
  6
CONTINUOUS
 10
10.7657385923
 20
8.4586857464
 40
0.0554460675
  0
CIRCLE
  5
22F
100
AcDbEntity
  8
0
100
AcDbCircle
 62
9
  6
CONTINUOUS
 10
10.524163137
 20
8.5514177724
 40
0.0554445031
  0
CIRCLE
  5
230
100
AcDbEntity
  8
0
100
AcDbCircle
 62
9
  6
CONTINUOUS
 10
10.7884297121
 20
8.7471285558
 40
0.0538974197
  0
CIRCLE
  5
231
100
AcDbEntity
  8
0
100
AcDbCircle
 62
9
  6
CONTINUOUS
 10
10.7655611
 20
8.457808448
 40
0.0435187938
  0
CIRCLE
  5
232
100
AcDbEntity
  8
0
100
AcDbCircle
 62
9
  6
CONTINUOUS
 10
10.5237074089
 20
8.5506459958
 40
0.0435172239
  0
CIRCLE
  5
233
100
AcDbEntity
  8
0
100
AcDbCircle
 62
7
  6
CONTINUOUS
 10
10.5243064297
 20
8.5516641513
 40
0.0196850394
  0
CIRCLE
  5
234
100
AcDbEntity
  8
0
100
AcDbCircle
 62
7
  6
CONTINUOUS
 10
10.7657967641
 20
8.4589646971
 40
0.0196850394
  0
CIRCLE
  5
235
100
AcDbEntity
  8
0
100
AcDbCircle
 62
7
  6
CONTINUOUS
 10
10.788479121
 20
8.7473013623
 40
0.0196850394
  0
CIRCLE
  5
236
100
AcDbEntity
  8
0
100
AcDbCircle
 62
7
  6
CONTINUOUS
 10
10.6817867447
 20
9.2676694064
 40
0.0905511811
  0
CIRCLE
  5
237
100
AcDbEntity
  8
0
100
AcDbCircle
 62
7
  6
CONTINUOUS
 10
10.5616468788
 20
8.8782630184
 40
0.0905511811
  0
CIRCLE
  5
238
100
AcDbEntity
  8
0
100
AcDbCircle
 62
7
  6
CONTINUOUS
 10
10.8097395006
 20
9.0460487321
 40
0.0905511811
  0
CIRCLE
  5
239
100
AcDbEntity
  8
0
100
AcDbCircle
 62
7
  6
CONTINUOUS
 10
10.5614570876
 20
8.878065856
 40
0.0632885242
  0
CIRCLE
  5
23A
100
AcDbEntity
  8
0
100
AcDbCircle
 62
7
  6
CONTINUOUS
 10
10.8096756428
 20
9.0459385036
 40
0.0623785777
  0
CIRCLE
  5
23B
100
AcDbEntity
  8
0
100
AcDbCircle
 62
9
  6
CONTINUOUS
 10
10.5615220196
 20
8.8781337608
 40
0.05389835
  0
CIRCLE
  5
23C
100
AcDbEntity
  8
0
100
AcDbCircle
 62
9
  6
CONTINUOUS
 10
10.8096980148
 20
9.0459768765
 40
0.0529968021
  0
CIRCLE
  5
23D
100
AcDbEntity
  8
0
100
AcDbCircle
 62
7
  6
CONTINUOUS
 10
10.5611191215
 20
8.8777082983
 40
0.0419846971
  0
ARC
  5
23E
100
AcDbEntity
  8
0
100
AcDbCircle
 62
9
  6
CONTINUOUS
 10
10.681426275
 20
9.2676685462
 40
0.0410868821
100
AcDbArc
 50
0.0016867741
 51
179.9986739761
  0
CIRCLE
  5
23F
100
AcDbEntity
  8
0
100
AcDbCircle
 62
9
  6
CONTINUOUS
 10
10.8095582546
 20
9.045737153
 40
0.0410868819
  0
CIRCLE
  5
240
100
AcDbEntity
  8
0
100
AcDbCircle
 62
7
  6
CONTINUOUS
 10
10.6817867447
 20
9.2676694064
 40
0.0196850394
  0
CIRCLE
  5
241
100
AcDbEntity
  8
0
100
AcDbCircle
 62
7
  6
CONTINUOUS
 10
10.5616468788
 20
8.8782630184
 40
0.0196850394
  0
CIRCLE
  5
242
100
AcDbEntity
  8
0
100
AcDbCircle
 62
7
  6
CONTINUOUS
 10
10.8097395006
 20
9.0460487321
 40
0.0196850394
  0
CIRCLE
  5
243
100
AcDbEntity
  8
0
100
AcDbCircle
 62
7
  6
CONTINUOUS
 10
10.1513856879
 20
9.5231558978
 40
0.0905511811
  0
CIRCLE
  5
244
100
AcDbEntity
  8
0
100
AcDbCircle
 62
7
  6
CONTINUOUS
 10
10.4124337433
 20
9.3986310624
 40
0.0905511811
  0
ARC
  5
245
100
AcDbEntity
  8
0
100
AcDbCircle
 62
7
  6
CONTINUOUS
 10
10.1104913184
 20
9.2676709635
 40
0.0648523679
100
AcDbArc
 50
180.001291065
 51
359.9987091302
  0
CIRCLE
  5
246
100
AcDbEntity
  8
0
100
AcDbCircle
 62
7
  6
CONTINUOUS
 10
10.1509778908
 20
9.5232898948
 40
0.0648523329
  0
CIRCLE
  5
247
100
AcDbEntity
  8
0
100
AcDbCircle
 62
7
  6
CONTINUOUS
 10
10.4121680587
 20
9.3986969684
 40
0.0632885253
  0
CIRCLE
  5
248
100
AcDbEntity
  8
0
100
AcDbCircle
 62
9
  6
CONTINUOUS
 10
10.1511148685
 20
9.5232448375
 40
0.0554447523
  0
ARC
  5
249
100
AcDbEntity
  8
0
100
AcDbCircle
 62
9
  6
CONTINUOUS
 10
10.1106355464
 20
9.2676704346
 40
0.0554445031
100
AcDbArc
 50
180.0009636282
 51
359.9990365673
  0
CIRCLE
  5
24A
100
AcDbEntity
  8
0
100
AcDbCircle
 62
9
  6
CONTINUOUS
 10
10.4122593335
 20
9.3986746874
 40
0.05389835
  0
CIRCLE
  5
24B
100
AcDbEntity
  8
0
100
AcDbCircle
 62
9
  6
CONTINUOUS
 10
10.1502665006
 20
9.5235297085
 40
0.0435174759
  0
ARC
  5
24C
100
AcDbEntity
  8
0
100
AcDbCircle
 62
9
  6
CONTINUOUS
 10
10.1097393103
 20
9.2676792184
 40
0.0435172239
100
AcDbArc
 50
180.0127857903
 51
359.9872139668
  0
CIRCLE
  5
24D
100
AcDbEntity
  8
0
100
AcDbCircle
 62
7
  6
CONTINUOUS
 10
10.411689423
 20
9.3988108762
 40
0.0419846971
  0
CIRCLE
  5
24E
100
AcDbEntity
  8
0
100
AcDbCircle
 62
7
  6
CONTINUOUS
 10
10.4124337433
 20
9.3986310624
 40
0.0196850394
  0
CIRCLE
  5
24F
100
AcDbEntity
  8
0
100
AcDbCircle
 62
7
  6
CONTINUOUS
 10
10.1513856879
 20
9.5231558978
 40
0.0196850394
  0
CIRCLE
  5
250
100
AcDbEntity
  8
0
100
AcDbCircle
 62
7
  6
CONTINUOUS
 10
10.3232811803
 20
9.8208876242
 40
0.0905511811
  0
CIRCLE
  5
251
100
AcDbEntity
  8
0
100
AcDbCircle
 62
7
  6
CONTINUOUS
 10
10.322963041
 20
9.8211758996
 40
0.0648522965
  0
CIRCLE
  5
252
100
AcDbEntity
  8
0
100
AcDbCircle
 62
9
  6
CONTINUOUS
 10
10.323068734
 20
9.8210776986
 40
0.0554460638
  0
CIRCLE
  5
253
100
AcDbEntity
  8
0
100
AcDbCircle
 62
9
  6
CONTINUOUS
 10
10.3223977177
 20
9.8216700581
 40
0.0435187939
  0
CIRCLE
  5
254
100
AcDbEntity
  8
0
100
AcDbCircle
 62
7
  6
CONTINUOUS
 10
10.3232811803
 20
9.8208876242
 40
0.0196850394
  0
CIRCLE
  5
255
100
AcDbEntity
  8
0
100
AcDbCircle
 62
7
  6
CONTINUOUS
 10
10.5616468788
 20
9.6570757943
 40
0.0905511811
  0
CIRCLE
  5
256
100
AcDbEntity
  8
0
100
AcDbCircle
 62
7
  6
CONTINUOUS
 10
10.8097395006
 20
9.4892900806
 40
0.0905511811
  0
CIRCLE
  5
257
100
AcDbEntity
  8
0
100
AcDbCircle
 62
7
  6
CONTINUOUS
 10
10.5614569045
 20
9.6572732231
 40
0.0632885147
  0
CIRCLE
  5
258
100
AcDbEntity
  8
0
100
AcDbCircle
 62
7
  6
CONTINUOUS
 10
10.6816593131
 20
9.2676695325
 40
0.0623785776
  0
CIRCLE
  5
259
100
AcDbEntity
  8
0
100
AcDbCircle
 62
7
  6
CONTINUOUS
 10
10.8096758543
 20
9.4894006253
 40
0.0623785776
  0
CIRCLE
  5
25A
100
AcDbEntity
  8
0
100
AcDbCircle
 62
9
  6
CONTINUOUS
 10
10.5615219737
 20
9.6572052075
 40
0.0538974244
  0
CIRCLE
  5
25B
100
AcDbEntity
  8
0
100
AcDbCircle
 62
9
  6
CONTINUOUS
 10
10.8096982283
 20
9.4893622467
 40
0.0529968024
  0
CIRCLE
  5
25C
100
AcDbEntity
  8
0
100
AcDbCircle
 62
9
  6
CONTINUOUS
 10
10.6817037369
 20
9.2676697198
 40
0.0529968024
  0
ARC
  5
25D
100
AcDbEntity
  8
0
100
AcDbCircle
 62
9
  6
CONTINUOUS
 10
10.6814262464
 20
9.2676706995
 40
0.0410868821
100
AcDbArc
 50
180.0016766073
 51
359.9986841427
  0
CIRCLE
  5
25E
100
AcDbEntity
  8
0
100
AcDbCircle
 62
9
  6
CONTINUOUS
 10
10.8095584801
 20
9.4896019505
 40
0.0410868821
  0
CIRCLE
  5
25F
100
AcDbEntity
  8
0
100
AcDbCircle
 62
7
  6
CONTINUOUS
 10
10.8097395006
 20
9.4892900806
 40
0.0196850394
  0
CIRCLE
  5
260
100
AcDbEntity
  8
0
100
AcDbCircle
 62
7
  6
CONTINUOUS
 10
10.5616468788
 20
9.6570757943
 40
0.0196850394
  0
CIRCLE
  5
261
100
AcDbEntity
  8
0
100
AcDbCircle
 62
7
  6
CONTINUOUS
 10
10.5243064297
 20
9.9836746614
 40
0.0905511811
  0
CIRCLE
  5
262
100
AcDbEntity
  8
0
100
AcDbCircle
 62
7
  6
CONTINUOUS
 10
10.7657967641
 20
10.0763741156
 40
0.0905511811
  0
ARC
  5
263
100
AcDbEntity
  8
0
100
AcDbCircle
 62
7
  6
CONTINUOUS
 10
10.788479121
 20
9.7880374504
 40
0.0905511811
100
AcDbArc
 50
269.9998705408
 51
89.9999346619
  0
CIRCLE
  5
264
100
AcDbEntity
  8
0
100
AcDbCircle
 62
7
  6
CONTINUOUS
 10
10.5240930961
 20
9.984047334
 40
0.0648523679
  0
CIRCLE
  5
265
100
AcDbEntity
  8
0
100
AcDbCircle
 62
7
  6
CONTINUOUS
 10
10.7657088747
 20
10.076794392
 40
0.0648523425
  0
CIRCLE
  5
266
100
AcDbEntity
  8
0
100
AcDbCircle
 62
7
  6
CONTINUOUS
 10
10.7884033153
 20
9.7883006155
 40
0.0632885266
  0
CIRCLE
  5
267
100
AcDbEntity
  8
0
100
AcDbCircle
 62
9
  6
CONTINUOUS
 10
10.7657383397
 20
10.0766532393
 40
0.0554447507
  0
CIRCLE
  5
268
100
AcDbEntity
  8
0
100
AcDbCircle
 62
9
  6
CONTINUOUS
 10
10.5241647521
 20
9.9839221644
 40
0.0554445031
  0
CIRCLE
  5
269
100
AcDbEntity
  8
0
100
AcDbCircle
 62
9
  6
CONTINUOUS
 10
10.788429656
 20
9.7882104307
 40
0.0538983356
  0
CIRCLE
  5
26A
100
AcDbEntity
  8
0
100
AcDbCircle
 62
9
  6
CONTINUOUS
 10
10.7655608597
 20
10.0775303907
 40
0.0435174757
  0
CIRCLE
  5
26B
100
AcDbEntity
  8
0
100
AcDbCircle
 62
9
  6
CONTINUOUS
 10
10.5237242378
 20
9.9847027251
 40
0.0435172239
  0
CIRCLE
  5
26C
100
AcDbEntity
  8
0
100
AcDbCircle
 62
7
  6
CONTINUOUS
 10
10.7882626475
 20
9.7887720714
 40
0.0419846999
  0
CIRCLE
  5
26D
100
AcDbEntity
  8
0
100
AcDbCircle
 62
7
  6
CONTINUOUS
 10
10.7884791674
 20
9.7880376688
 40
0.0196850394
  0
CIRCLE
  5
26E
100
AcDbEntity
  8
0
100
AcDbCircle
 62
7
  6
CONTINUOUS
 10
10.7657967641
 20
10.0763741156
 40
0.0196850394
  0
CIRCLE
  5
26F
100
AcDbEntity
  8
0
100
AcDbCircle
 62
7
  6
CONTINUOUS
 10
10.5243064297
 20
9.9836746614
 40
0.0196850394
  0
CIRCLE
  5
270
100
AcDbEntity
  8
0
100
AcDbCircle
 62
7
  6
CONTINUOUS
 10
11.3510780833
 20
8.5516641513
 40
0.0905511811
  0
CIRCLE
  5
271
100
AcDbEntity
  8
0
100
AcDbCircle
 62
7
  6
CONTINUOUS
 10
11.1095877489
 20
8.4589646971
 40
0.0905511811
  0
ARC
  5
272
100
AcDbEntity
  8
0
100
AcDbCircle
 62
7
  6
CONTINUOUS
 10
11.086905392
 20
8.7473013623
 40
0.0905511811
100
AcDbArc
 50
89.9999776399
 51
270.0000881415
  0
CIRCLE
  5
273
100
AcDbEntity
  8
0
100
AcDbCircle
 62
7
  6
CONTINUOUS
 10
11.3512915805
 20
8.5512916652
 40
0.0648523788
  0
CIRCLE
  5
274
100
AcDbEntity
  8
0
100
AcDbCircle
 62
7
  6
CONTINUOUS
 10
11.1096758108
 20
8.4585446123
 40
0.0648523425
  0
CIRCLE
  5
275
100
AcDbEntity
  8
0
100
AcDbCircle
 62
7
  6
CONTINUOUS
 10
11.086981369
 20
8.7470383912
 40
0.0632885229
  0
CIRCLE
  5
276
100
AcDbEntity
  8
0
100
AcDbCircle
 62
9
  6
CONTINUOUS
 10
11.1096463473
 20
8.4586857601
 40
0.0554447515
  0
CIRCLE
  5
277
100
AcDbEntity
  8
0
100
AcDbCircle
 62
9
  6
CONTINUOUS
 10
11.3512199333
 20
8.5514168399
 40
0.0554445031
  0
CIRCLE
  5
278
100
AcDbEntity
  8
0
100
AcDbCircle
 62
9
  6
CONTINUOUS
 10
11.0869550307
 20
8.7471285756
 40
0.0538983458
  0
CIRCLE
  5
279
100
AcDbEntity
  8
0
100
AcDbCircle
 62
9
  6
CONTINUOUS
 10
11.1098238257
 20
8.457808614
 40
0.0435174757
  0
CIRCLE
  5
27A
100
AcDbEntity
  8
0
100
AcDbCircle
 62
9
  6
CONTINUOUS
 10
11.3516604475
 20
8.5506362795
 40
0.0435172239
  0
CIRCLE
  5
27B
100
AcDbEntity
  8
0
100
AcDbCircle
 62
7
  6
CONTINUOUS
 10
11.0871220397
 20
8.7465669281
 40
0.041984698
  0
CIRCLE
  5
27C
100
AcDbEntity
  8
0
100
AcDbCircle
 62
7
  6
CONTINUOUS
 10
11.3510780833
 20
8.5516641513
 40
0.0196850394
  0
CIRCLE
  5
27D
100
AcDbEntity
  8
0
100
AcDbCircle
 62
7
  6
CONTINUOUS
 10
11.1095877489
 20
8.4589646971
 40
0.0196850394
  0
CIRCLE
  5
27E
100
AcDbEntity
  8
0
100
AcDbCircle
 62
7
  6
CONTINUOUS
 10
11.0869055181
 20
8.7473013355
 40
0.0196850394
  0
CIRCLE
  5
27F
100
AcDbEntity
  8
0
100
AcDbCircle
 62
7
  6
CONTINUOUS
 10
11.1935977683
 20
9.2676694064
 40
0.0905511811
  0
CIRCLE
  5
280
100
AcDbEntity
  8
0
100
AcDbCircle
 62
7
  6
CONTINUOUS
 10
11.3137376342
 20
8.8782630184
 40
0.0905511811
  0
ARC
  5
281
100
AcDbEntity
  8
0
100
AcDbCircle
 62
7
  6
CONTINUOUS
 10
11.0656450124
 20
9.0460487321
 40
0.0905511811
100
AcDbArc
 50
90.0000472144
 51
269.999859238
  0
CIRCLE
  5
282
100
AcDbEntity
  8
0
100
AcDbCircle
 62
7
  6
CONTINUOUS
 10
11.3139277186
 20
8.8780657316
 40
0.0632885657
  0
CIRCLE
  5
283
100
AcDbEntity
  8
0
100
AcDbCircle
 62
7
  6
CONTINUOUS
 10
11.1937253702
 20
9.2676692872
 40
0.0623785777
  0
CIRCLE
  5
284
100
AcDbEntity
  8
0
100
AcDbCircle
 62
7
  6
CONTINUOUS
 10
11.0657086703
 20
9.0459382886
 40
0.0623785777
  0
CIRCLE
  5
285
100
AcDbEntity
  8
0
100
AcDbCircle
 62
9
  6
CONTINUOUS
 10
11.3138627086
 20
8.8781338006
 40
0.0538974208
  0
CIRCLE
  5
286
100
AcDbEntity
  8
0
100
AcDbCircle
 62
9
  6
CONTINUOUS
 10
11.1936809524
 20
9.2676694754
 40
0.0529968021
  0
CIRCLE
  5
287
100
AcDbEntity
  8
0
100
AcDbCircle
 62
9
  6
CONTINUOUS
 10
11.0656866244
 20
9.0459768497
 40
0.0529968021
  0
ARC
  5
288
100
AcDbEntity
  8
0
100
AcDbCircle
 62
9
  6
CONTINUOUS
 10
11.1939584421
 20
9.2676683013
 40
0.0410868819
100
AcDbArc
 50
0.0016861338
 51
179.9986746159
  0
CIRCLE
  5
289
100
AcDbEntity
  8
0
100
AcDbCircle
 62
9
  6
CONTINUOUS
 10
11.065824351
 20
9.0457359522
 40
0.0410868819
  0
CIRCLE
  5
28A
100
AcDbEntity
  8
0
100
AcDbCircle
 62
7
  6
CONTINUOUS
 10
11.1935977683
 20
9.2676694064
 40
0.0196850394
  0
CIRCLE
  5
28B
100
AcDbEntity
  8
0
100
AcDbCircle
 62
7
  6
CONTINUOUS
 10
11.0656450124
 20
9.0460487321
 40
0.0196850394
  0
CIRCLE
  5
28C
100
AcDbEntity
  8
0
100
AcDbCircle
 62
7
  6
CONTINUOUS
 10
11.3137376342
 20
8.8782630184
 40
0.0196850394
  0
CIRCLE
  5
28D
100
AcDbEntity
  8
0
100
AcDbCircle
 62
7
  6
CONTINUOUS
 10
11.5521033327
 20
8.7144511885
 40
0.0905511811
  0
CIRCLE
  5
28E
100
AcDbEntity
  8
0
100
AcDbCircle
 62
7
  6
CONTINUOUS
 10
11.5524216467
 20
8.7141631017
 40
0.0648522989
  0
CIRCLE
  5
28F
100
AcDbEntity
  8
0
100
AcDbCircle
 62
9
  6
CONTINUOUS
 10
11.5523159537
 20
8.7142613061
 40
0.0554460694
  0
CIRCLE
  5
290
100
AcDbEntity
  8
0
100
AcDbCircle
 62
9
  6
CONTINUOUS
 10
11.5529869658
 20
8.7136689475
 40
0.0435187938
  0
CIRCLE
  5
291
100
AcDbEntity
  8
0
100
AcDbCircle
 62
7
  6
CONTINUOUS
 10
11.5521033327
 20
8.7144511885
 40
0.0196850394
  0
CIRCLE
  5
292
100
AcDbEntity
  8
0
100
AcDbCircle
 62
7
  6
CONTINUOUS
 10
11.76446391
 20
9.2676694064
 40
0.0905511811
  0
CIRCLE
  5
293
100
AcDbEntity
  8
0
100
AcDbCircle
 62
7
  6
CONTINUOUS
 10
11.7239988251
 20
9.0121829149
 40
0.0905511811
  0
CIRCLE
  5
294
100
AcDbEntity
  8
0
100
AcDbCircle
 62
7
  6
CONTINUOUS
 10
11.4629507697
 20
9.1367077503
 40
0.0905511811
  0
ARC
  5
295
100
AcDbEntity
  8
0
100
AcDbCircle
 62
7
  6
CONTINUOUS
 10
11.7648933671
 20
9.2676680305
 40
0.0648523788
100
AcDbArc
 50
0.001300123
 51
179.9987000723
  0
CIRCLE
  5
296
100
AcDbEntity
  8
0
100
AcDbCircle
 62
7
  6
CONTINUOUS
 10
11.7244067862
 20
9.0120491095
 40
0.0648523425
  0
CIRCLE
  5
297
100
AcDbEntity
  8
0
100
AcDbCircle
 62
7
  6
CONTINUOUS
 10
11.463216626
 20
9.1366420327
 40
0.0632885274
  0
CIRCLE
  5
298
100
AcDbEntity
  8
0
100
AcDbCircle
 62
9
  6
CONTINUOUS
 10
11.724269814
 20
9.0120941672
 40
0.0554447484
  0
ARC
  5
299
100
AcDbEntity
  8
0
100
AcDbCircle
 62
9
  6
CONTINUOUS
 10
11.7647491391
 20
9.2676685696
 40
0.0554445031
100
AcDbArc
 50
0.0009636282
 51
179.9990365673
  0
CIRCLE
  5
29A
100
AcDbEntity
  8
0
100
AcDbCircle
 62
9
  6
CONTINUOUS
 10
11.4631253519
 20
9.1366643187
 40
0.0538983435
  0
CIRCLE
  5
29B
100
AcDbEntity
  8
0
100
AcDbCircle
 62
9
  6
CONTINUOUS
 10
11.7251181843
 20
9.0118092959
 40
0.043517476
  0
ARC
  5
29C
100
AcDbEntity
  8
0
100
AcDbCircle
 62
9
  6
CONTINUOUS
 10
11.7656453797
 20
9.2676597858
 40
0.0435172239
100
AcDbArc
 50
0.0127858637
 51
179.9872138961
  0
CIRCLE
  5
29D
100
AcDbEntity
  8
0
100
AcDbCircle
 62
7
  6
CONTINUOUS
 10
11.4636952534
 20
9.1365281289
 40
0.0419846986
  0
CIRCLE
  5
29E
100
AcDbEntity
  8
0
100
AcDbCircle
 62
7
  6
CONTINUOUS
 10
11.76446391
 20
9.2676694064
 40
0.0196850394
  0
CIRCLE
  5
29F
100
AcDbEntity
  8
0
100
AcDbCircle
 62
7
  6
CONTINUOUS
 10
11.7239988251
 20
9.0121829149
 40
0.0196850394
  0
CIRCLE
  5
2A0
100
AcDbEntity
  8
0
100
AcDbCircle
 62
7
  6
CONTINUOUS
 10
11.4629507697
 20
9.1367077503
 40
0.0196850394
  0
CIRCLE
  5
2A1
100
AcDbEntity
  8
0
100
AcDbCircle
 62
7
  6
CONTINUOUS
 10
10.9376923427
 20
9.2676695021
 40
1.348
  0
CIRCLE
  5
2A2
100
AcDbEntity
  8
0
100
AcDbCircle
 62
7
  6
CONTINUOUS
 10
10.9376923427
 20
9.2676695021
 40
1.25
  0
CIRCLE
  5
2A3
100
AcDbEntity
  8
0
100
AcDbCircle
 62
7
  6
CONTINUOUS
 10
10.9376923427
 20
9.2676695021
 40
1.011
  0
CIRCLE
  5
2A4
100
AcDbEntity
  8
0
100
AcDbCircle
 62
7
  6
CONTINUOUS
 10
10.9376923427
 20
9.2676695021
 40
0.9960630784
  0
CIRCLE
  5
2A5
100
AcDbEntity
  8
0
100
AcDbCircle
 62
9
  6
CONTINUOUS
 10
10.9376923427
 20
9.2676695021
 40
0.9781246901
  0
CIRCLE
  5
2A6
100
AcDbEntity
  8
0
100
AcDbCircle
 62
7
  6
CONTINUOUS
 10
11.3137376342
 20
9.6570757943
 40
0.0905511811
  0
CIRCLE
  5
2A7
100
AcDbEntity
  8
0
100
AcDbCircle
 62
7
  6
CONTINUOUS
 10
11.0656450124
 20
9.4892900806
 40
0.0905511811
  0
CIRCLE
  5
2A8
100
AcDbEntity
  8
0
100
AcDbCircle
 62
7
  6
CONTINUOUS
 10
11.3139276015
 20
9.657273147
 40
0.0632885274
  0
CIRCLE
  5
2A9
100
AcDbEntity
  8
0
100
AcDbCircle
 62
7
  6
CONTINUOUS
 10
11.0657088839
 20
9.4894005948
 40
0.0623785776
  0
CIRCLE
  5
2AA
100
AcDbEntity
  8
0
100
AcDbCircle
 62
9
  6
CONTINUOUS
 10
11.3138626642
 20
9.6572052444
 40
0.0538983435
  0
CIRCLE
  5
2AB
100
AcDbEntity
  8
0
100
AcDbCircle
 62
9
  6
CONTINUOUS
 10
11.0656868342
 20
9.489362029
 40
0.0529968024
  0
CIRCLE
  5
2AC
100
AcDbEntity
  8
0
100
AcDbCircle
 62
7
  6
CONTINUOUS
 10
11.3142655588
 20
9.6576306986
 40
0.0419846986
  0
ARC
  5
2AD
100
AcDbEntity
  8
0
100
AcDbCircle
 62
9
  6
CONTINUOUS
 10
11.1939584122
 20
9.2676704547
 40
0.0410868823
100
AcDbArc
 50
180.0016772478
 51
359.9986835017
  0
CIRCLE
  5
2AE
100
AcDbEntity
  8
0
100
AcDbCircle
 62
9
  6
CONTINUOUS
 10
11.0658264293
 20
9.4896018557
 40
0.0410868821
  0
CIRCLE
  5
2AF
100
AcDbEntity
  8
0
100
AcDbCircle
 62
7
  6
CONTINUOUS
 10
11.0656450124
 20
9.4892900806
 40
0.0196850394
  0
CIRCLE
  5
2B0
100
AcDbEntity
  8
0
100
AcDbCircle
 62
7
  6
CONTINUOUS
 10
11.3137376342
 20
9.6570757943
 40
0.0196850394
  0
CIRCLE
  5
2B1
100
AcDbEntity
  8
0
100
AcDbCircle
 62
7
  6
CONTINUOUS
 10
11.1095877489
 20
10.0763741156
 40
0.0905511811
  0
CIRCLE
  5
2B2
100
AcDbEntity
  8
0
100
AcDbCircle
 62
7
  6
CONTINUOUS
 10
11.3510780833
 20
9.9836746614
 40
0.0905511811
  0
ARC
  5
2B3
100
AcDbEntity
  8
0
100
AcDbCircle
 62
7
  6
CONTINUOUS
 10
11.086905392
 20
9.7880374504
 40
0.0905511811
100
AcDbArc
 50
90.0000602218
 51
270.0001416245
  0
CIRCLE
  5
2B4
100
AcDbEntity
  8
0
100
AcDbCircle
 62
7
  6
CONTINUOUS
 10
11.3512941205
 20
9.9840458726
 40
0.0648523679
  0
CIRCLE
  5
2B5
100
AcDbEntity
  8
0
100
AcDbCircle
 62
7
  6
CONTINUOUS
 10
11.109678295
 20
10.0767938964
 40
0.0648522918
  0
CIRCLE
  5
2B6
100
AcDbEntity
  8
0
100
AcDbCircle
 62
7
  6
CONTINUOUS
 10
11.0869813357
 20
9.7883007975
 40
0.0632885087
  0
CIRCLE
  5
2B7
100
AcDbEntity
  8
0
100
AcDbCircle
 62
9
  6
CONTINUOUS
 10
11.1096460928
 20
10.0766532562
 40
0.0554460675
  0
CIRCLE
  5
2B8
100
AcDbEntity
  8
0
100
AcDbCircle
 62
9
  6
CONTINUOUS
 10
11.3512215485
 20
9.9839212319
 40
0.0554445031
  0
CIRCLE
  5
2B9
100
AcDbEntity
  8
0
100
AcDbCircle
 62
9
  6
CONTINUOUS
 10
11.0869549767
 20
9.7882104508
 40
0.0538974162
  0
CIRCLE
  5
2BA
100
AcDbEntity
  8
0
100
AcDbCircle
 62
9
  6
CONTINUOUS
 10
11.1098235854
 20
10.0775305539
 40
0.0435187938
  0
ARC
  5
2BB
100
AcDbEntity
  8
0
100
AcDbCircle
 62
9
  6
CONTINUOUS
 10
11.3516605217
 20
9.9847028575
 40
0.0435172267
100
AcDbArc
 50
240.012788809
 51
59.9872111543
  0
CIRCLE
  5
2BC
100
AcDbEntity
  8
0
100
AcDbCircle
 62
7
  6
CONTINUOUS
 10
11.086905392
 20
9.7880374504
 40
0.0196850394
  0
CIRCLE
  5
2BD
100
AcDbEntity
  8
0
100
AcDbCircle
 62
7
  6
CONTINUOUS
 10
11.3510780833
 20
9.9836746614
 40
0.0196850394
  0
CIRCLE
  5
2BE
100
AcDbEntity
  8
0
100
AcDbCircle
 62
7
  6
CONTINUOUS
 10
11.1095877489
 20
10.0763741156
 40
0.0196850394
  0
CIRCLE
  5
2BF
100
AcDbEntity
  8
0
100
AcDbCircle
 62
7
  6
CONTINUOUS
 10
11.7239988251
 20
9.5231558978
 40
0.0905511811
  0
CIRCLE
  5
2C0
100
AcDbEntity
  8
0
100
AcDbCircle
 62
7
  6
CONTINUOUS
 10
11.4629507697
 20
9.3986310624
 40
0.0905511811
  0
ARC
  5
2C1
100
AcDbEntity
  8
0
100
AcDbCircle
 62
7
  6
CONTINUOUS
 10
11.7648933671
 20
9.2676710303
 40
0.0648524101
100
AcDbArc
 50
180.0013503154
 51
359.9986498798
  0
CIRCLE
  5
2C2
100
AcDbEntity
  8
0
100
AcDbCircle
 62
7
  6
CONTINUOUS
 10
11.7244075987
 20
9.5232874956
 40
0.0648522989
  0
CIRCLE
  5
2C3
100
AcDbEntity
  8
0
100
AcDbCircle
 62
7
  6
CONTINUOUS
 10
11.463216767
 20
9.3986970893
 40
0.0632885087
  0
CIRCLE
  5
2C4
100
AcDbEntity
  8
0
100
AcDbCircle
 62
9
  6
CONTINUOUS
 10
11.7242697047
 20
9.523245065
 40
0.0554460694
  0
ARC
  5
2C5
100
AcDbEntity
  8
0
100
AcDbCircle
 62
9
  6
CONTINUOUS
 10
11.7647491391
 20
9.2676704369
 40
0.0554445042
100
AcDbArc
 50
180.0009661957
 51
359.9990339999
  0
CIRCLE
  5
2C6
100
AcDbEntity
  8
0
100
AcDbCircle
 62
9
  6
CONTINUOUS
 10
11.4631253389
 20
9.3986747444
 40
0.0538974208
  0
CIRCLE
  5
2C7
100
AcDbEntity
  8
0
100
AcDbCircle
 62
9
  6
CONTINUOUS
 10
11.7251182083
 20
9.5235299992
 40
0.0435187938
  0
ARC
  5
2C8
100
AcDbEntity
  8
0
100
AcDbCircle
 62
9
  6
CONTINUOUS
 10
11.7656455334
 20
9.2676792205
 40
0.0435172267
100
AcDbArc
 50
180.0127888092
 51
359.987211154
  0
CIRCLE
  5
2C9
100
AcDbEntity
  8
0
100
AcDbCircle
 62
7
  6
CONTINUOUS
 10
11.4629507697
 20
9.3986310624
 40
0.0196850394
  0
CIRCLE
  5
2CA
100
AcDbEntity
  8
0
100
AcDbCircle
 62
7
  6
CONTINUOUS
 10
11.7239988251
 20
9.5231558978
 40
0.0196850394
  0
CIRCLE
  5
2CB
100
AcDbEntity
  8
0
100
AcDbCircle
 62
7
  6
CONTINUOUS
 10
11.5521033327
 20
9.8208876242
 40
0.0905511811
  0
CIRCLE
  5
2CC
100
AcDbEntity
  8
0
100
AcDbCircle
 62
7
  6
CONTINUOUS
 10
11.5524233182
 20
9.8211739994
 40
0.0648523425
  0
CIRCLE
  5
2CD
100
AcDbEntity
  8
0
100
AcDbCircle
 62
9
  6
CONTINUOUS
 10
11.5523158111
 20
9.8210779068
 40
0.0554447484
  0
CIRCLE
  5
2CE
100
AcDbEntity
  8
0
100
AcDbCircle
 62
9
  6
CONTINUOUS
 10
11.5529867019
 20
9.8216701814
 40
0.043517476
  0
ARC
  5
2CF
100
AcDbEntity
  8
0
100
AcDbCircle
 62
9
  6
CONTINUOUS
 10
11.3516772767
 20
9.9846930089
 40
0.0435172239
100
AcDbArc
 50
60.0127857914
 51
239.9872139697
  0
CIRCLE
  5
2D0
100
AcDbEntity
  8
0
100
AcDbCircle
 62
7
  6
CONTINUOUS
 10
11.5521033327
 20
9.8208876242
 40
0.0196850394
  0
SPLINE
  5
2D1
100
AcDbEntity
  8
0
100
AcDbSpline
 62
7
  6
CONTINUOUS
 70
0
 71
3
 72
19
 73
15
 74
0
 42
0.0000001
 43
0.0000001
 44
0.0000000001
 40
0.0
 40
0.0
 40
0.0
 40
0.0
 40
0.0831963038
 40
0.1665679756
 40
0.2499175646
 40
0.3333049625
 40
0.4166985624
 40
0.5000875945
 40
0.5834593296
 40
0.6668044452
 40
0.7501242766
 40
0.8334136801
 40
0.9167176423
 40
1.0
 40
1.0
 40
1.0
 40
1.0
 10
11.0869056158
 20
9.6974862693
 30
0.0
 10
11.0947721085
 20
9.6975167547
 30
0.0
 10
11.110598566
 20
9.6995496541
 30
0.0
 10
11.1326725542
 20
9.7087046022
 30
0.0
 10
11.1516575794
 20
9.723256727
 30
0.0
 10
11.1662230207
 20
9.7422350046
 30
0.0
 10
11.1753793734
 20
9.7643401588
 30
0.0
 10
11.1784982231
 20
9.788061324
 30
0.0
 10
11.1753674281
 20
9.8117761401
 30
0.0
 10
11.1662066307
 20
9.8338652553
 30
0.0
 10
11.1516471663
 20
9.8528264387
 30
0.0
 10
11.1326766424
 20
9.867365597
 30
0.0
 10
11.1106083803
 20
9.8765245397
 30
0.0
 10
11.0947799104
 20
9.8785545443
 30
0.0
 10
11.0869052968
 20
9.8785886315
 30
0.0
  0
SPLINE
  5
2D2
100
AcDbEntity
  8
0
100
AcDbSpline
 62
7
  6
CONTINUOUS
 70
0
 71
3
 72
19
 73
15
 74
0
 42
0.0000001
 43
0.0000001
 44
0.0000000001
 40
0.0
 40
0.0
 40
0.0
 40
0.0
 40
0.0831734351
 40
0.166496799
 40
0.2497899593
 40
0.3331273817
 40
0.4164906126
 40
0.4998736959
 40
0.5832688319
 40
0.6666577832
 40
0.7500315248
 40
0.8333711442
 40
0.916709438
 40
1.0
 40
1.0
 40
1.0
 40
1.0
 10
10.7884792243
 20
9.8785886315
 30
0.0
 10
10.7806148962
 20
9.8785576664
 30
0.0
 10
10.764795228
 20
9.8765270078
 30
0.0
 10
10.7427313959
 20
9.8673799555
 30
0.0
 10
10.7237538169
 20
9.8528431306
 30
0.0
 10
10.7091873083
 20
9.8338825647
 30
0.0
 10
10.7000206756
 20
9.8117908249
 30
0.0
 10
10.6968860721
 20
9.7880730257
 30
0.0
 10
10.7000023845
 20
9.7643502249
 30
0.0
 10
10.7091559114
 20
9.7422452311
 30
0.0
 10
10.7237169568
 20
9.7232669883
 30
0.0
 10
10.7426951127
 20
9.7087153829
 30
0.0
 10
10.7647710127
 20
9.6995514162
 30
0.0
 10
10.780603523
 20
9.6975198418
 30
0.0
 10
10.7884789164
 20
9.6974862693
 30
0.0
  0
SPLINE
  5
2D3
100
AcDbEntity
  8
0
100
AcDbSpline
 62
7
  6
CONTINUOUS
 70
0
 71
3
 72
19
 73
15
 74
0
 42
0.0000001
 43
0.0000001
 44
0.0000000001
 40
0.0
 40
0.0
 40
0.0
 40
0.0
 40
0.0831968849
 40
0.1665685642
 40
0.2499181517
 40
0.3333055522
 40
0.4166991141
 40
0.5000881433
 40
0.583459877
 40
0.666805057
 40
0.7501249546
 40
0.8334144128
 40
0.9167184422
 40
1.0
 40
1.0
 40
1.0
 40
1.0
 10
10.7884790808
 20
8.8378525434
 30
0.0
 10
10.7806125348
 20
8.8378220753
 30
0.0
 10
10.7647860196
 20
8.8357891844
 30
0.0
 10
10.7427119787
 20
8.8266342256
 30
0.0
 10
10.7237269545
 20
8.8120821034
 30
0.0
 10
10.7091615096
 20
8.7931038376
 30
0.0
 10
10.700005153
 20
8.7709986929
 30
0.0
 10
10.6968862894
 20
8.7472775372
 30
0.0
 10
10.7000170726
 20
8.7235627169
 30
0.0
 10
10.7091778625
 20
8.7014735886
 30
0.0
 10
10.7237373292
 20
8.6825123884
 30
0.0
 10
10.7427078627
 20
8.6679732174
 30
0.0
 10
10.7647760632
 20
8.6588143045
 30
0.0
 10
10.7806044554
 20
8.6567842859
 30
0.0
 10
10.788478993
 20
8.6567501812
 30
0.0
  0
SPLINE
  5
2D4
100
AcDbEntity
  8
0
100
AcDbSpline
 62
7
  6
CONTINUOUS
 70
0
 71
3
 72
19
 73
15
 74
0
 42
0.0000001
 43
0.0000001
 44
0.0000000001
 40
0.0
 40
0.0
 40
0.0
 40
0.0
 40
0.0832912113
 40
0.1666294988
 40
0.2499690851
 40
0.3333428115
 40
0.4167317487
 40
0.5001269181
 40
0.5835100334
 40
0.6668733456
 40
0.7502108194
 40
0.8335040036
 40
0.9168274086
 40
1.0
 40
1.0
 40
1.0
 40
1.0
 10
11.0869054273
 20
8.8378525434
 30
0.0
 10
11.0947808795
 20
8.8378189835
 30
0.0
 10
11.1106134508
 20
8.835787418
 30
0.0
 10
11.1326893989
 20
8.8266234305
 30
0.0
 10
11.1516675448
 20
8.8120718318
 30
0.0
 10
11.1662285877
 20
8.7930936031
 30
0.0
 10
11.1753821198
 20
8.7709886179
 30
0.0
 10
11.178498441
 20
8.7472658196
 30
0.0
 10
11.1753638448
 20
8.7235480112
 30
0.0
 10
11.1661972098
 20
8.7014562622
 30
0.0
 10
11.151630703
 20
8.6824956836
 30
0.0
 10
11.1326531171
 20
8.6679588589
 30
0.0
 10
11.1105893603
 20
8.6588118369
 30
0.0
 10
11.0947697783
 20
8.6567811663
 30
0.0
 10
11.0869055312
 20
8.6567501812
 30
0.0
  0
SPLINE
  5
2D5
100
AcDbEntity
  8
0
100
AcDbSpline
 62
7
  6
CONTINUOUS
 70
0
 71
3
 72
19
 73
15
 74
0
 42
0.0000001
 43
0.0000001
 44
0.0000000001
 40
0.0
 40
0.0
 40
0.0
 40
0.0
 40
0.083447771
 40
0.1668087608
 40
0.2501485724
 40
0.3334978635
 40
0.4168448045
 40
0.5001903012
 40
0.5835293642
 40
0.6668647696
 40
0.750197717
 40
0.8335124359
 40
0.9168752914
 40
1.0
 40
1.0
 40
1.0
 40
1.0
 10
11.0656116214
 20
9.1366000511
 30
0.0
 10
11.0735019512
 20
9.1365687897
 30
0.0
 10
11.0893528054
 20
9.1345374522
 30
0.0
 10
11.111443727
 20
9.1253626483
 30
0.0
 10
11.1304191608
 20
9.1108068593
 30
0.0
 10
11.144973214
 20
9.0918307112
 30
0.0
 10
11.1541208611
 20
9.0697349895
 30
0.0
 10
11.1572369268
 20
9.0460250016
 30
0.0
 10
11.1541086005
 20
9.0223178119
 30
0.0
 10
11.1449514347
 20
9.0002296333
 30
0.0
 10
11.1303919523
 20
8.9812642773
 30
0.0
 10
11.111414172
 20
8.9667176739
 30
0.0
 10
11.0893504901
 20
8.957564897
 30
0.0
 10
11.0735318733
 20
8.9555310879
 30
0.0
 10
11.0656718825
 20
8.9554976624
 30
0.0
  0
SPLINE
  5
2D6
100
AcDbEntity
  8
0
100
AcDbSpline
 62
7
  6
CONTINUOUS
 70
0
 71
3
 72
24
 73
20
 74
0
 42
0.0000001
 43
0.0000001
 44
0.0000000001
 40
0.0
 40
0.0
 40
0.0
 40
0.0
 40
0.0624752755
 40
0.1250555042
 40
0.1875497185
 40
0.2500276929
 40
0.3125014702
 40
0.3749650605
 40
0.4374199206
 40
0.4998769339
 40
0.5311439365
 40
0.5624144897
 40
0.6248849943
 40
0.6873737552
 40
0.7498798133
 40
0.812391018
 40
0.8749159556
 40
0.9375176102
 40
1.0
 40
1.0
 40
1.0
 40
1.0
 10
10.5956995154
 20
9.6338158968
 30
0.0
 10
10.5972538694
 20
9.6360775103
 30
0.0
 10
10.5999245372
 20
9.640925065
 30
0.0
 10
10.6024425657
 20
9.6488218142
 30
0.0
 10
10.6033677862
 20
9.6570625365
 30
0.0
 10
10.6026660109
 20
9.6653190581
 30
0.0
 10
10.6003725502
 20
9.6732805944
 30
0.0
 10
10.5965654202
 20
9.6806390486
 30
0.0
 10
10.5913967376
 20
9.6871105591
 30
0.0
 10
10.586115779
 20
9.6915645339
 30
0.0
 10
10.581435868
 20
9.6944502877
 30
0.0
 10
10.5764964554
 20
9.6968662932
 30
0.0
 10
10.569910175
 20
9.6989579433
 30
0.0
 10
10.5616746796
 20
9.6998769426
 30
0.0
 10
10.5534154963
 20
9.6991674343
 30
0.0
 10
10.5454507191
 20
9.6968670335
 30
0.0
 10
10.5380828124
 20
9.6930536705
 30
0.0
 10
10.5316069719
 20
9.687876244
 30
0.0
 10
10.5280343851
 20
9.6836475309
 30
0.0
 10
10.5264782127
 20
9.6813867887
 30
0.0
  0
SPLINE
  5
2D7
100
AcDbEntity
  8
0
100
AcDbSpline
 62
7
  6
CONTINUOUS
 70
0
 71
3
 72
24
 73
20
 74
0
 42
0.0000001
 43
0.0000001
 44
0.0000000001
 40
0.0
 40
0.0
 40
0.0
 40
0.0
 40
0.062476191
 40
0.125056757
 40
0.1875500532
 40
0.250029867
 40
0.3125066759
 40
0.3749717828
 40
0.4374278293
 40
0.468695208
 40
0.499961693
 40
0.562426227
 40
0.6248986054
 40
0.6873881466
 40
0.7498937194
 40
0.8124024977
 40
0.8749204841
 40
0.9375177084
 40
1.0
 40
1.0
 40
1.0
 40
1.0
 10
10.5264883746
 20
9.6813798016
 30
0.0
 10
10.5249395359
 20
9.6791179621
 30
0.0
 10
10.5222796098
 20
9.6742713881
 30
0.0
 10
10.5197751509
 20
9.6663798618
 30
0.0
 10
10.5188606459
 20
9.6581470056
 30
0.0
 10
10.5195697432
 20
9.6499001637
 30
0.0
 10
10.5218668929
 20
9.6419484696
 30
0.0
 10
10.5256730599
 20
9.6346011626
 30
0.0
 10
10.5299819874
 20
9.6292106337
 30
0.0
 10
10.5340031881
 20
9.6254702642
 30
0.0
 10
10.5383701291
 20
9.6221393112
 30
0.0
 10
10.5444148328
 20
9.6188079585
 30
0.0
 10
10.5523013892
 20
9.6163012208
 30
0.0
 10
10.5605289876
 20
9.6153787844
 30
0.0
 10
10.5687791036
 20
9.6160817948
 30
0.0
 10
10.576736958
 20
9.6183721176
 30
0.0
 10
10.5841005779
 20
9.6221725528
 30
0.0
 10
10.590575997
 20
9.627335109
 30
0.0
 10
10.5941513007
 20
9.6315532779
 30
0.0
 10
10.5957096428
 20
9.6338089057
 30
0.0
  0
SPLINE
  5
2D8
100
AcDbEntity
  8
0
100
AcDbSpline
 62
7
  6
CONTINUOUS
 70
0
 71
3
 72
24
 73
20
 74
0
 42
0.0000001
 43
0.0000001
 44
0.0000000001
 40
0.0
 40
0.0
 40
0.0
 40
0.0
 40
0.0624752762
 40
0.1250555048
 40
0.1875497195
 40
0.2500276945
 40
0.3125014713
 40
0.3749650615
 40
0.4374199215
 40
0.4998769345
 40
0.5311439369
 40
0.56241449
 40
0.6248849942
 40
0.6873737549
 40
0.7498798129
 40
0.8123910175
 40
0.8749159553
 40
0.93751761
 40
1.0
 40
1.0
 40
1.0
 40
1.0
 10
11.0837880085
 20
9.7469171764
 30
0.0
 10
11.0865238001
 20
9.7467018715
 30
0.0
 10
11.0920572395
 20
9.7468127801
 30
0.0
 10
11.1001550395
 20
9.7485804766
 30
0.0
 10
11.1077543241
 20
9.751899574
 30
0.0
 10
11.1145537936
 20
9.75663559
 30
0.0
 10
11.1203019558
 20
9.7626025531
 30
0.0
 10
11.1247709988
 20
9.7695788514
 30
0.0
 10
11.1277911499
 20
9.7772908169
 30
0.0
 10
11.1290079258
 20
9.7840912484
 30
0.0
 10
11.1291671063
 20
9.7895870469
 30
0.0
 10
11.1287897221
 20
9.7950727063
 30
0.0
 10
11.127308004
 20
9.8018224172
 30
0.0
 10
11.1239861331
 20
9.8094140648
 30
0.0
 10
11.1192420893
 20
9.816211973
 30
0.0
 10
11.1132674952
 20
9.8219594717
 30
0.0
 10
11.1062810728
 20
9.8264335843
 30
0.0
 10
11.0985593698
 20
9.8294531133
 30
0.0
 10
11.0931109036
 20
9.8304327075
 30
0.0
 10
11.0903749573
 20
9.8306500213
 30
0.0
  0
SPLINE
  5
2D9
100
AcDbEntity
  8
0
100
AcDbSpline
 62
7
  6
CONTINUOUS
 70
0
 71
3
 72
24
 73
20
 74
0
 42
0.0000001
 43
0.0000001
 44
0.0000000001
 40
0.0
 40
0.0
 40
0.0
 40
0.0
 40
0.0624761898
 40
0.1250567554
 40
0.1875500509
 40
0.2500298639
 40
0.3125066735
 40
0.3749717807
 40
0.4374278275
 40
0.4686952065
 40
0.4999616918
 40
0.5624262264
 40
0.6248986053
 40
0.687388147
 40
0.74989372
 40
0.8124024985
 40
0.8749204847
 40
0.9375177087
 40
1.0
 40
1.0
 40
1.0
 40
1.0
 10
11.090373988
 20
9.8306377354
 30
0.0
 10
11.0876407582
 20
9.8308481472
 30
0.0
 10
11.0821135392
 20
9.8307284202
 30
0.0
 10
11.0740270484
 20
9.8289515803
 30
0.0
 10
11.0664399329
 20
9.8256271379
 30
0.0
 10
11.0596525068
 20
9.820889621
 30
0.0
 10
11.0539147127
 20
9.814924384
 30
0.0
 10
11.0494548415
 20
9.8079544932
 30
0.0
 10
11.0469409702
 20
9.8015275882
 30
0.0
 10
11.0457123154
 20
9.7961749415
 30
0.0
 10
11.0450110959
 20
9.7907275831
 30
0.0
 10
11.0451484116
 20
9.7838270398
 30
0.0
 10
11.0469207911
 20
9.7757437128
 30
0.0
 10
11.0502357369
 20
9.7681571853
 30
0.0
 10
11.0549696196
 20
9.7613638804
 30
0.0
 10
11.0609320244
 20
9.7556173377
 30
0.0
 10
11.0679051077
 20
9.7511404734
 30
0.0
 10
11.0756137219
 20
9.7481138741
 30
0.0
 10
11.0810544151
 20
9.7471266546
 30
0.0
 10
11.0837870171
 20
9.7469049048
 30
0.0
  0
LINE
  5
2DA
100
AcDbEntity
  8
0
100
AcDbLine
 62
9
  6
CONTINUOUS
 10
10.2865001486
 20
8.6890321109
 11
10.2773549099
 21
8.6828892061
  0
LINE
  5
2DB
100
AcDbEntity
  8
0
100
AcDbLine
 62
9
  6
CONTINUOUS
 10
10.358264148
 20
8.7383504134
 11
10.3687418726
 21
8.7456929854
  0
LINE
  5
2DC
100
AcDbEntity
  8
0
100
AcDbLine
 62
9
  6
CONTINUOUS
 10
10.1109804966
 20
8.9930384254
 11
10.1010879712
 21
8.9881898725
  0
LINE
  5
2DD
100
AcDbEntity
  8
0
100
AcDbLine
 62
9
  6
CONTINUOUS
 10
10.189575772
 20
9.0305298558
 11
10.2011734925
 21
9.0359325456
  0
LINE
  5
2DE
100
AcDbEntity
  8
0
100
AcDbLine
 62
9
  6
CONTINUOUS
 10
11.6858089134
 20
9.5048091485
 11
11.674211193
 21
9.4994064586
  0
LINE
  5
2DF
100
AcDbEntity
  8
0
100
AcDbLine
 62
9
  6
CONTINUOUS
 10
11.7644041889
 20
9.5423005789
 11
11.7742967142
 21
9.5471491317
  0
LINE
  5
2E0
100
AcDbEntity
  8
0
100
AcDbLine
 62
9
  6
CONTINUOUS
 10
11.7644031202
 20
8.9930392149
 11
11.7742956511
 21
8.9881906582
  0
LINE
  5
2E1
100
AcDbEntity
  8
0
100
AcDbLine
 62
9
  6
CONTINUOUS
 10
11.6858102177
 20
9.0305295102
 11
11.6742125015
 21
9.0359321999
  0
LINE
  5
2E2
100
AcDbEntity
  8
0
100
AcDbLine
 62
9
  6
CONTINUOUS
 10
11.5171205375
 20
9.7969885909
 11
11.5066428129
 21
9.7896460189
  0
LINE
  5
2E3
100
AcDbEntity
  8
0
100
AcDbLine
 62
9
  6
CONTINUOUS
 10
11.5888857549
 20
8.6890315802
 11
11.5980309876
 21
8.6828886783
  0
LINE
  5
2E4
100
AcDbEntity
  8
0
100
AcDbLine
 62
9
  6
CONTINUOUS
 10
11.517119586
 20
8.7383513701
 11
11.5066418592
 21
8.7456939457
  0
LINE
  5
2E5
100
AcDbEntity
  8
0
100
AcDbLine
 62
9
  6
CONTINUOUS
 10
11.5888845369
 20
9.8463068934
 11
11.5980297756
 21
9.8524497982
  0
LINE
  5
2E6
100
AcDbEntity
  8
0
100
AcDbLine
 62
9
  6
CONTINUOUS
 10
11.113210926
 20
8.4144018236
 11
11.1139582183
 21
8.4034103625
  0
LINE
  5
2E7
100
AcDbEntity
  8
0
100
AcDbLine
 62
9
  6
CONTINUOUS
 10
11.1063820229
 20
8.5012104214
 11
11.1052620314
 21
8.5139556829
  0
LINE
  5
2E8
100
AcDbEntity
  8
0
100
AcDbLine
 62
9
  6
CONTINUOUS
 10
11.1063816701
 20
10.0341272805
 11
11.1052616765
 21
10.0213820151
  0
LINE
  5
2E9
100
AcDbEntity
  8
0
100
AcDbLine
 62
9
  6
CONTINUOUS
 10
11.1132107767
 20
10.1209385009
 11
11.1139580694
 21
10.1319299556
  0
LINE
  5
2EA
100
AcDbEntity
  8
0
100
AcDbLine
 62
9
  6
CONTINUOUS
 10
10.7621739088
 20
8.4144005034
 11
10.7614266161
 21
8.4034090487
  0
LINE
  5
2EB
100
AcDbEntity
  8
0
100
AcDbLine
 62
9
  6
CONTINUOUS
 10
10.7690030153
 20
8.5012117238
 11
10.7701230089
 21
8.5139569892
  0
LINE
  5
2EC
100
AcDbEntity
  8
0
100
AcDbLine
 62
9
  6
CONTINUOUS
 10
10.7690026626
 20
10.0341285829
 11
10.7701226541
 21
10.0213833214
  0
LINE
  5
2ED
100
AcDbEntity
  8
0
100
AcDbLine
 62
9
  6
CONTINUOUS
 10
10.7621737594
 20
10.1209371806
 11
10.7614264672
 21
10.1319286418
  0
SPLINE
  5
2EE
100
AcDbEntity
  8
0
100
AcDbSpline
 62
7
  6
CONTINUOUS
 70
0
 71
3
 72
24
 73
20
 74
0
 42
0.0000001
 43
0.0000001
 44
0.0000000001
 40
0.0
 40
0.0
 40
0.0
 40
0.0
 40
0.062476191
 40
0.125056757
 40
0.1875500532
 40
0.250029867
 40
0.3125066759
 40
0.3749717828
 40
0.4374278293
 40
0.468695208
 40
0.499961693
 40
0.562426227
 40
0.6248986054
 40
0.6873881466
 40
0.7498937194
 40
0.8124024977
 40
0.8749204841
 40
0.9375177084
 40
1.0
 40
1.0
 40
1.0
 40
1.0
 10
10.3738067295
 20
9.1184115693
 30
0.0
 10
10.3749911206
 20
9.1159393159
 30
0.0
 10
10.3778584138
 20
9.1112124653
 30
0.0
 10
10.3834404466
 20
9.1050977772
 30
0.0
 10
10.3901130568
 20
9.1001893645
 30
0.0
 10
10.39760958
 20
9.0966800398
 30
0.0
 10
10.4056445239
 20
9.0946935828
 30
0.0
 10
10.4139105619
 20
9.0943161666
 30
0.0
 10
10.4207333606
 20
9.0953525429
 30
0.0
 10
10.425983216
 20
9.09696482
 30
0.0
 10
10.4310513764
 20
9.0990812254
 30
0.0
 10
10.4369587643
 20
9.102650416
 30
0.0
 10
10.4430729411
 20
9.1082270053
 30
0.0
 10
10.4479855936
 20
9.1148910964
 30
0.0
 10
10.4515018267
 20
9.1223874116
 30
0.0
 10
10.4534972762
 20
9.1304242771
 30
0.0
 10
10.4538878127
 20
9.1387015766
 30
0.0
 10
10.4526546174
 20
9.1468907321
 30
0.0
 10
10.4507892279
 20
9.1520961204
 30
0.0
 10
10.449614968
 20
9.1545734981
 30
0.0
  0
SPLINE
  5
2EF
100
AcDbEntity
  8
0
100
AcDbSpline
 62
7
  6
CONTINUOUS
 70
0
 71
3
 72
24
 73
20
 74
0
 42
0.0000001
 43
0.0000001
 44
0.0000000001
 40
0.0
 40
0.0
 40
0.0
 40
0.0
 40
0.0624752755
 40
0.1250555042
 40
0.1875497185
 40
0.2500276929
 40
0.3125014702
 40
0.3749650605
 40
0.4374199206
 40
0.4998769339
 40
0.5311439365
 40
0.5624144897
 40
0.6248849943
 40
0.6873737552
 40
0.7498798133
 40
0.8123910179
 40
0.8749159556
 40
0.9375176102
 40
1.0
 40
1.0
 40
1.0
 40
1.0
 10
10.4496038498
 20
9.154568223
 30
0.0
 10
10.448422412
 20
9.1570451399
 30
0.0
 10
10.4455596404
 20
9.1617817834
 30
0.0
 10
10.4399798693
 20
9.1679108347
 30
0.0
 10
10.4333058047
 20
9.1728324602
 30
0.0
 10
10.4258045596
 20
9.1763529658
 30
0.0
 10
10.4177629366
 20
9.1783475388
 30
0.0
 10
10.4094867633
 20
9.1787296945
 30
0.0
 10
10.4012979295
 20
9.1774892394
 30
0.0
 10
10.3948001948
 20
9.1751427825
 30
0.0
 10
10.3899611033
 20
9.1725327376
 30
0.0
 10
10.3853990748
 20
9.1694630835
 30
0.0
 10
10.3802945125
 20
9.1648050224
 30
0.0
 10
10.3753808881
 20
9.1581323739
 30
0.0
 10
10.3718657485
 20
9.1506249571
 30
0.0
 10
10.3698755655
 20
9.1425770573
 30
0.0
 10
10.3694940814
 20
9.1342895815
 30
0.0
 10
10.370739944
 20
9.1260926258
 30
0.0
 10
10.3726158237
 20
9.1208843184
 30
0.0
 10
10.3737955976
 20
9.1184062624
 30
0.0
  0
SPLINE
  5
2F0
100
AcDbEntity
  8
0
100
AcDbSpline
 62
7
  6
CONTINUOUS
 70
0
 71
3
 72
24
 73
20
 74
0
 42
0.0000001
 43
0.0000001
 44
0.0000000001
 40
0.0
 40
0.0
 40
0.0
 40
0.0
 40
0.0624761901
 40
0.1250567553
 40
0.187550051
 40
0.2500298644
 40
0.3125066735
 40
0.3749717807
 40
0.4374278278
 40
0.4686952069
 40
0.4999616922
 40
0.562426227
 40
0.6248986061
 40
0.6873881478
 40
0.7498937209
 40
0.8124024992
 40
0.8749204853
 40
0.937517709
 40
1.0
 40
1.0
 40
1.0
 40
1.0
 10
10.7850106973
 20
8.7047012683
 30
0.0
 10
10.787743927
 20
8.7044908547
 30
0.0
 10
10.7932711462
 20
8.7046105786
 30
0.0
 10
10.8013576375
 20
8.7063874169
 30
0.0
 10
10.8089447526
 20
8.7097118602
 30
0.0
 10
10.8157321785
 20
8.7144493773
 30
0.0
 10
10.8214699727
 20
8.7204146143
 30
0.0
 10
10.8259298436
 20
8.7273845051
 30
0.0
 10
10.8284437149
 20
8.7338114102
 30
0.0
 10
10.8296723696
 20
8.739164057
 30
0.0
 10
10.8303735891
 20
8.7446114153
 30
0.0
 10
10.8302362734
 20
8.7515119586
 30
0.0
 10
10.8284638938
 20
8.7595952856
 30
0.0
 10
10.825148948
 20
8.7671818131
 30
0.0
 10
10.8204150653
 20
8.773975118
 30
0.0
 10
10.8144526604
 20
8.7797216607
 30
0.0
 10
10.8074795772
 20
8.784198525
 30
0.0
 10
10.799770963
 20
8.7872251243
 30
0.0
 10
10.7943302699
 20
8.7882123437
 30
0.0
 10
10.7915976679
 20
8.7884340936
 30
0.0
  0
SPLINE
  5
2F1
100
AcDbEntity
  8
0
100
AcDbSpline
 62
7
  6
CONTINUOUS
 70
0
 71
3
 72
24
 73
20
 74
0
 42
0.0000001
 43
0.0000001
 44
0.0000000001
 40
0.0
 40
0.0
 40
0.0
 40
0.0
 40
0.0624752752
 40
0.1250555036
 40
0.1875497178
 40
0.2500276923
 40
0.3125014698
 40
0.3749650605
 40
0.4374199209
 40
0.4998769345
 40
0.5311439372
 40
0.5624144905
 40
0.6248849952
 40
0.6873737561
 40
0.7498798141
 40
0.8123910187
 40
0.8749159562
 40
0.9375176104
 40
1.0
 40
1.0
 40
1.0
 40
1.0
 10
10.7915966773
 20
8.788421829
 30
0.0
 10
10.7888608856
 20
8.788637132
 30
0.0
 10
10.7833274463
 20
8.7885262203
 30
0.0
 10
10.7752296469
 20
8.7867585222
 30
0.0
 10
10.7676303619
 20
8.7834394257
 30
0.0
 10
10.7608308921
 20
8.7787034098
 30
0.0
 10
10.7550827299
 20
8.7727364465
 30
0.0
 10
10.7506136867
 20
8.7657601482
 30
0.0
 10
10.7475935355
 20
8.7580481826
 30
0.0
 10
10.7463767594
 20
8.751247751
 30
0.0
 10
10.7462175788
 20
8.7457519524
 30
0.0
 10
10.746594963
 20
8.7402662928
 30
0.0
 10
10.748076681
 20
8.7335165817
 30
0.0
 10
10.7513985519
 20
8.725924934
 30
0.0
 10
10.7561425956
 20
8.7191270256
 30
0.0
 10
10.7621171896
 20
8.7133795268
 30
0.0
 10
10.7691036121
 20
8.7089054141
 30
0.0
 10
10.7768253151
 20
8.705885885
 30
0.0
 10
10.7822737814
 20
8.7049062907
 30
0.0
 10
10.7850097277
 20
8.704688977
 30
0.0
  0
LINE
  5
2F2
100
AcDbEntity
  8
0
100
AcDbLine
 62
9
  6
CONTINUOUS
 10
10.3582650994
 20
9.7969876342
 11
10.3687428263
 21
9.7896450586
  0
LINE
  5
2F3
100
AcDbEntity
  8
0
100
AcDbLine
 62
9
  6
CONTINUOUS
 10
10.2864989305
 20
9.8463074241
 11
10.2773536979
 21
9.852450326
  0
LINE
  5
2F4
100
AcDbEntity
  8
0
100
AcDbLine
 62
9
  6
CONTINUOUS
 10
10.1895744678
 20
9.5048094941
 11
10.201172184
 21
9.4994068044
  0
LINE
  5
2F5
100
AcDbEntity
  8
0
100
AcDbLine
 62
9
  6
CONTINUOUS
 10
10.1109815653
 20
9.5422997894
 11
10.1010890343
 21
9.5471483461
  0
SPLINE
  5
2F6
100
AcDbEntity
  8
0
100
AcDbSpline
 62
7
  6
CONTINUOUS
 70
0
 71
3
 72
24
 73
20
 74
0
 42
0.0000001
 43
0.0000001
 44
0.0000000001
 40
0.0
 40
0.0
 40
0.0
 40
0.0
 40
0.0624761921
 40
0.1250567594
 40
0.187550056
 40
0.250029869
 40
0.3125066777
 40
0.3749717832
 40
0.4374278278
 40
0.4686952057
 40
0.4999616898
 40
0.5624262222
 40
0.6248985994
 40
0.6873881401
 40
0.7498937132
 40
0.8124024924
 40
0.8749204803
 40
0.9375177064
 40
1.0
 40
1.0
 40
1.0
 40
1.0
 10
11.3488963081
 20
8.8539592055
 30
0.0
 10
11.3504451452
 20
8.856221046
 30
0.0
 10
11.3531050686
 20
8.8610676214
 30
0.0
 10
11.3556095259
 20
8.8689591478
 30
0.0
 10
11.3565240321
 20
8.8771920037
 30
0.0
 10
11.3558149353
 20
8.8854388454
 30
0.0
 10
11.3535177859
 20
8.8933905392
 30
0.0
 10
11.3497116193
 20
8.900737846
 30
0.0
 10
11.3454026921
 20
8.9061283747
 30
0.0
 10
11.3413814917
 20
8.9098687441
 30
0.0
 10
11.3370145509
 20
8.913199697
 30
0.0
 10
11.3309698475
 20
8.9165310495
 30
0.0
 10
11.3230832915
 20
8.9190377869
 30
0.0
 10
11.3148556932
 20
8.919960223
 30
0.0
 10
11.3066055775
 20
8.9192572124
 30
0.0
 10
11.2986477232
 20
8.9169668894
 30
0.0
 10
11.2912841035
 20
8.9131664541
 30
0.0
 10
11.2848086845
 20
8.9080038977
 30
0.0
 10
11.2812333807
 20
8.9037857289
 30
0.0
 10
11.2796750387
 20
8.9015301011
 30
0.0
  0
SPLINE
  5
2F7
100
AcDbEntity
  8
0
100
AcDbSpline
 62
7
  6
CONTINUOUS
 70
0
 71
3
 72
24
 73
20
 74
0
 42
0.0000001
 43
0.0000001
 44
0.0000000001
 40
0.0
 40
0.0
 40
0.0
 40
0.0
 40
0.0624752763
 40
0.125055505
 40
0.1875497197
 40
0.2500276947
 40
0.3125014713
 40
0.3749650615
 40
0.4374199215
 40
0.4998769344
 40
0.5311439368
 40
0.5624144899
 40
0.6248849942
 40
0.6873737549
 40
0.7498798129
 40
0.8123910176
 40
0.8749159553
 40
0.93751761
 40
1.0
 40
1.0
 40
1.0
 40
1.0
 10
11.2796851705
 20
8.9015231071
 30
0.0
 10
11.2781308148
 20
8.8992614946
 30
0.0
 10
11.2754601444
 20
8.8944139413
 30
0.0
 10
11.2729421142
 20
8.8865171925
 30
0.0
 10
11.2720168947
 20
8.87827647
 30
0.0
 10
11.2727186702
 20
8.8700199485
 30
0.0
 10
11.2750121308
 20
8.8620584123
 30
0.0
 10
11.2788192609
 20
8.8546999583
 30
0.0
 10
11.2839879436
 20
8.8482284479
 30
0.0
 10
11.2892689021
 20
8.8437744732
 30
0.0
 10
11.2939488131
 20
8.8408887196
 30
0.0
 10
11.2988882257
 20
8.8384727141
 30
0.0
 10
11.305474506
 20
8.8363810641
 30
0.0
 10
11.3137100013
 20
8.8354620649
 30
0.0
 10
11.3219691846
 20
8.8361715733
 30
0.0
 10
11.3299339617
 20
8.8384719741
 30
0.0
 10
11.3373018683
 20
8.8422853372
 30
0.0
 10
11.3437777087
 20
8.8474627637
 30
0.0
 10
11.3473502955
 20
8.8516914768
 30
0.0
 10
11.3489064679
 20
8.8539522189
 30
0.0
  0
SPLINE
  5
2F8
100
AcDbEntity
  8
0
100
AcDbSpline
 62
7
  6
CONTINUOUS
 70
0
 71
3
 72
24
 73
20
 74
0
 42
0.0000001
 43
0.0000001
 44
0.0000000001
 40
0.0
 40
0.0
 40
0.0
 40
0.0
 40
0.0624752763
 40
0.125055505
 40
0.1875497197
 40
0.2500276947
 40
0.3125014713
 40
0.3749650615
 40
0.4374199215
 40
0.4998769344
 40
0.5311439368
 40
0.5624144899
 40
0.6248849942
 40
0.6873737549
 40
0.7498798129
 40
0.8123910176
 40
0.8749159553
 40
0.93751761
 40
1.0
 40
1.0
 40
1.0
 40
1.0
 10
11.4257808362
 20
9.3807707814
 30
0.0
 10
11.4269622722
 20
9.3782938636
 30
0.0
 10
11.4298250413
 20
9.3735572185
 30
0.0
 10
11.4354048113
 20
9.367428166
 30
0.0
 10
11.4420788766
 20
9.3625065412
 30
0.0
 10
11.4495801217
 20
9.3589860359
 30
0.0
 10
11.4576217446
 20
9.3569914629
 30
0.0
 10
11.4658979178
 20
9.3566093073
 30
0.0
 10
11.4740867515
 20
9.3578497626
 30
0.0
 10
11.480584486
 20
9.3601962195
 30
0.0
 10
11.4854235775
 20
9.3628062644
 30
0.0
 10
11.4899856059
 20
9.3658759186
 30
0.0
 10
11.4950901681
 20
9.3705339796
 30
0.0
 10
11.5000037923
 20
9.3772066281
 30
0.0
 10
11.5035189317
 20
9.3847140449
 30
0.0
 10
11.5055091147
 20
9.3927619446
 30
0.0
 10
11.5058905987
 20
9.4010494204
 30
0.0
 10
11.5046447361
 20
9.409246376
 30
0.0
 10
11.5027688565
 20
9.4144546834
 30
0.0
 10
11.5015890826
 20
9.4169327393
 30
0.0
  0
SPLINE
  5
2F9
100
AcDbEntity
  8
0
100
AcDbSpline
 62
7
  6
CONTINUOUS
 70
0
 71
3
 72
24
 73
20
 74
0
 42
0.0000001
 43
0.0000001
 44
0.0000000001
 40
0.0
 40
0.0
 40
0.0
 40
0.0
 40
0.0624761921
 40
0.1250567594
 40
0.187550056
 40
0.250029869
 40
0.3125066777
 40
0.3749717832
 40
0.4374278278
 40
0.4686952057
 40
0.4999616898
 40
0.5624262222
 40
0.6248985994
 40
0.6873881401
 40
0.7498937132
 40
0.8124024924
 40
0.8749204803
 40
0.9375177064
 40
1.0
 40
1.0
 40
1.0
 40
1.0
 10
11.5015779521
 20
9.416927434
 30
0.0
 10
11.5003935593
 20
9.4193996865
 30
0.0
 10
11.4975262636
 20
9.4241265354
 30
0.0
 10
11.4919442299
 20
9.4302412223
 30
0.0
 10
11.4852716207
 20
9.4351496358
 30
0.0
 10
11.4777750979
 20
9.4386589609
 30
0.0
 10
11.4697401543
 20
9.440645418
 30
0.0
 10
11.4614741166
 20
9.4410228344
 30
0.0
 10
11.4546513183
 20
9.4399864584
 30
0.0
 10
11.4494014632
 20
9.4383741813
 30
0.0
 10
11.444333303
 20
9.4362577761
 30
0.0
 10
11.4384259154
 20
9.4326885857
 30
0.0
 10
11.4323117391
 20
9.4271119965
 30
0.0
 10
11.4273990868
 20
9.4204479055
 30
0.0
 10
11.423882854
 20
9.4129515904
 30
0.0
 10
11.4218874048
 20
9.4049147249
 30
0.0
 10
11.4214968685
 20
9.3966374255
 30
0.0
 10
11.4227300639
 20
9.38844827
 30
0.0
 10
11.4245954534
 20
9.3832428816
 30
0.0
 10
11.4257697133
 20
9.3807655039
 30
0.0
  0
ENDSEC
  0
SECTION
  2
OBJECTS
  0
DICTIONARY
  5
C
100
AcDbDictionary
280
0
281
1
  3
ACAD_GROUP
350
D
  3
ACAD_MLINESTYLE
350
17
  3
ACAD_LAYOUT
350
1A
  3
ACAD_PLOTSETTINGS
350
19
  3
ACAD_PLOTSTYLENAME
350
E
  0
DICTIONARY
  5
D
102
{ACAD_REACTORS
330
C
102
}
100
AcDbDictionary
280
0
281
1
  0
ACDBDICTIONARYWDFLT
  5
E
102
{ACAD_REACTORS
330
C
102
}
100
AcDbDictionary
281
1
  3
Normal
350
F
100
AcDbDictionaryWithDefault
340
F
  0
DICTIONARY
  5
17
102
{ACAD_REACTORS
330
C
102
}
100
AcDbDictionary
280
0
281
1
  3
Standard
350
18
  0
DICTIONARY
  5
19
102
{ACAD_REACTORS
330
C
102
}
100
AcDbDictionary
281
1
  0
DICTIONARY
  5
1A
102
{ACAD_REACTORS
330
C
102
}
100
AcDbDictionary
281
1
  3
Model
350
2FA
  3
Layout1
350
2FB
  0
ACDBPLACEHOLDER
  5
F
102
{ACAD_REACTORS
330
E
102
}
  0
MLINESTYLE
  5
18
102
{ACAD_REACTORS
330
17
102
}
100
AcDbMlineStyle
  2
STANDARD
 70
0
  3

 62
256
 51
90.0
 52
90.0
 71
2
 49
0.5
 62
256
  6
BYLAYER
 49
-0.5
 62
256
  6
BYLAYER
  0
LAYOUT
  5
2FA
102
{ACAD_REACTORS
330
1A
102
}
100
AcDbPlotSettings
  1

  2
none_device
  4
ANSI_C_(22.00_x_17.00_Inches)
  6

 40
0.0
 41
0.0
 42
0.0
 43
0.0
 44
558.8
 45
431.8
 46
0.0
 47
0.0
 48
0.0
 49
0.0
140
0.0
141
0.0
142
1.0
143
1.0
 70
1024
 72
0
 73
0
 74
0
  7

 75
0
147
1.0
148
0.0
149
0.0
100
AcDbLayout
  1
Model
 70
0
 71
0
 10
0.0
 20
0.0
 11
22.0
 21
17.0
 12
0.0
 22
0.0
 32
0.0
 14
0.0
 24
0.0
 34
0.0
 15
0.0
 25
0.0
 35
0.0
146
0.0
 13
0.0
 23
0.0
 33
0.0
 16
1.0
 26
0.0
 36
0.0
 17
0.0
 27
1.0
 37
0.0
 76
0
330
202
345
0
346
0
  0
LAYOUT
  5
2FB
102
{ACAD_REACTORS
330
1A
102
}
100
AcDbPlotSettings
  1

  2
none_device
  4
ANSI_C_(22.00_x_17.00_Inches)
  6

 40
0.0
 41
0.0
 42
0.0
 43
0.0
 44
558.8
 45
431.8
 46
0.0
 47
0.0
 48
0.0
 49
0.0
140
0.0
141
0.0
142
1.0
143
1.0
 70
0
 72
0
 73
0
 74
0
  7

 75
0
147
1.0
148
0.0
149
0.0
100
AcDbLayout
  1
Layout1
 70
0
 71
1
 10
0.0
 20
0.0
 11
22.0
 21
17.0
 12
0.0
 22
0.0
 32
0.0
 14
0.0
 24
0.0
 34
0.0
 15
0.0
 25
0.0
 35
0.0
146
0.0
 13
0.0
 23
0.0
 33
0.0
 16
1.0
 26
0.0
 36
0.0
 17
0.0
 27
1.0
 37
0.0
 76
0
330
203
345
0
346
0
  0
ENDSEC
  0
EOF
