  0
SECTION
  2
HEADER
  9
$ACADVER
  1
AC1015
  9
$DWGCODEPAGE
  3
ANSI_1252
  9
$EXTMAX
 10
23.3858267717
 20
16.5354330709
 30
0.0
  9
$EXTMIN
 10
0.0
 20
0.0
 30
0.0
  9
$LIMMIN
 10
0.0
 20
0.0
  9
$LIMMAX
 10
23.3858267717
 20
16.5354330709
  9
$VIEWCTR
 10
11.6929133858
 20
8.2677165354
  9
$VIEWSIZE
 40
16.5354330709
  9
$CLAYER
  8
0
  9
$LTSCALE
 40
1.2862204724
  9
$CELTYPE
  6
BYLAYER
  9
$DIMSCALE
 40
1.0
  9
$DIMASZ
 40
0.1
  9
$DIMEXO
 40
0.1461614173
  9
$DIMDLI
 40
0.8886614173
  9
$DIMEXE
 40
0.4209448819
  9
$DIMCEN
 40
0.2104724409
  9
$DIMLFAC
 40
1.0
  9
$DIMBLK
  1
_FILLED
  9
$DIMTXT
 40
0.08
  9
$DIMTOL
 70
1
  9
$DIMLIM
 70
0
  9
$DIMTFAC
 40
1.0
  9
$DIMTP
 40
0.01
  9
$DIMTM
 40
0.01
  9
$PDMODE
 70
3
  9
$PDSIZE
 40
0.06
  9
$HANDSEED
  5
2AD
  9
$TILEMODE
 70
1
  9
$MEASUREMENT
 70
0
  9
$INSUNITS
 70
1
  0
ENDSEC
  0
SECTION
  2
CLASSES
  0
CLASS
  1
ACDBDICTIONARYWDFLT
  2
AcDbDictionaryWithDefault
  3
AutoCAD 2000
 90
0
280
0
281
0
  0
CLASS
  1
ACDBPLACEHOLDER
  2
AcDbPlaceHolder
  3
AutoCAD 2000
 90
0
280
0
281
0
  0
CLASS
  1
LAYOUT
  2
AcDbLayout
  3
AutoCAD 2000
 90
0
280
0
281
0
  0
ENDSEC
  0
SECTION
  2
TABLES
  0
TABLE
  2
VPORT
  5
8
100
AcDbSymbolTable
 70
2
  0
VPORT
  5
1F4
100
AcDbSymbolTableRecord
100
AcDbViewportTableRecord
  2
*ACTIVE
 70
0
 10
0.0
 20
0.0
 11
1.0
 21
1.0
 12
11.6929133858
 22
8.2677165354
 13
0.0
 23
0.0
 14
1.0
 24
1.0
 15
0.0
 25
0.0
 16
0.0
 26
0.0
 36
1.0
 17
0.0
 27
0.0
 37
0.0
 40
16.5354330709
 41
1.4142857143
 42
50.0
 43
0.0
 44
0.0
 50
0.0
 51
0.0
 71
0
 72
100
 73
1
 74
1
 75
0
 76
0
 77
0
 78
0
  0
ENDTAB
  0
TABLE
  2
LTYPE
  5
5
100
AcDbSymbolTable
 70
6
  0
LTYPE
  5
14
100
AcDbSymbolTableRecord
100
AcDbLinetypeTableRecord
  2
BYBLOCK
 70
0
  3

 72
65
 73
0
 40
0.0
  0
LTYPE
  5
15
100
AcDbSymbolTableRecord
100
AcDbLinetypeTableRecord
  2
BYLAYER
 70
0
  3

 72
65
 73
0
 40
0.0
  0
LTYPE
  5
16
100
AcDbSymbolTableRecord
100
AcDbLinetypeTableRecord
  2
CONTINUOUS
 70
64
  3
Solid line
 72
65
 73
0
 40
0.0
  0
LTYPE
  5
1F5
100
AcDbSymbolTableRecord
100
AcDbLinetypeTableRecord
  2
CENTER
 70
64
  3
____ _ ____ _ ____ _ ____ _ ____ _ ____ _ ____
 72
65
 73
4
 40
0.6
 49
0.375
 74
0
 49
-0.075
 74
0
 49
0.075
 74
0
 49
-0.075
 74
0
  0
LTYPE
  5
1F6
100
AcDbSymbolTableRecord
100
AcDbLinetypeTableRecord
  2
HIDDEN
 70
64
  3
- - - - - - - - - - - - - - - - - - - -
 72
65
 73
2
 40
0.2
 49
0.1
 74
0
 49
-0.1
 74
0
  0
LTYPE
  5
1F7
100
AcDbSymbolTableRecord
100
AcDbLinetypeTableRecord
  2
PHANTOM
 70
64
  3
_____ _ _ _____ _ _ _____ _ _ _____
 72
65
 73
6
 40
0.8
 49
0.45
 74
0
 49
-0.05
 74
0
 49
0.1
 74
0
 49
-0.05
 74
0
 49
0.1
 74
0
 49
-0.05
 74
0
  0
LTYPE
  5
1F8
100
AcDbSymbolTableRecord
100
AcDbLinetypeTableRecord
  2
DOT
 70
64
  3
. . . . . . . . . . . . . . . . . . . .
 72
65
 73
2
 40
0.2
 49
0.1
 74
0
 49
-0.1
 74
0
  0
LTYPE
  5
1F9
100
AcDbSymbolTableRecord
100
AcDbLinetypeTableRecord
  2
DASHED
 70
64
  3
- - - - - - - - - - - - - - - - - - - -
 72
65
 73
2
 40
0.2
 49
0.1
 74
0
 49
-0.1
 74
0
  0
ENDTAB
  0
TABLE
  2
LAYER
  5
2
100
AcDbSymbolTable
 70
36
  0
LAYER
  5
10
100
AcDbSymbolTableRecord
100
AcDbLayerTableRecord
  2
0
 70
0
 62
7
  6
CONTINUOUS
370
-3
390
F
  0
LAYER
  5
1FA
100
AcDbSymbolTableRecord
100
AcDbLayerTableRecord
  2
DEFAULT_1
 70
0
 62
7
  6
CENTER
370
-3
390
F
  0
LAYER
  5
1FB
100
AcDbSymbolTableRecord
100
AcDbLayerTableRecord
  2
DEFAULT_2
 70
0
 62
8
  6
HIDDEN
370
-3
390
F
  0
LAYER
  5
1FC
100
AcDbSymbolTableRecord
100
AcDbLayerTableRecord
  2
DEFAULT_3
 70
0
 62
7
  6
PHANTOM
370
-3
390
F
  0
LAYER
  5
1FD
100
AcDbSymbolTableRecord
100
AcDbLayerTableRecord
  2
3_ALL_SYMBOLS
 70
0
 62
7
  6
CONTINUOUS
370
-3
390
F
  0
LAYER
  5
1FE
100
AcDbSymbolTableRecord
100
AcDbLayerTableRecord
  2
DEFAULT_COORDINATE_SYSTEM
 70
0
 62
7
  6
CONTINUOUS
370
-3
390
F
  0
LAYER
  5
1FF
100
AcDbSymbolTableRecord
100
AcDbLayerTableRecord
  2
DEFAULT_DATUM_AXES
 70
0
 62
7
  6
CONTINUOUS
370
-3
390
F
  0
LAYER
  5
200
100
AcDbSymbolTableRecord
100
AcDbLayerTableRecord
  2
DEFAULT_DATUM_CURVES
 70
0
 62
7
  6
CONTINUOUS
370
-3
390
F
  0
LAYER
  5
201
100
AcDbSymbolTableRecord
100
AcDbLayerTableRecord
  2
DEFAULT_DATUM_PLANES
 70
0
 62
7
  6
CONTINUOUS
370
-3
390
F
  0
ENDTAB
  0
TABLE
  2
STYLE
  5
3
100
AcDbSymbolTable
 70
1
  0
STYLE
  5
11
100
AcDbSymbolTableRecord
100
AcDbTextStyleTableRecord
  2
STANDARD
 70
0
 40
0.0
 41
0.8
 50
0.0
 71
0
 42
0.2
  3
txt
  4

  0
STYLE
  5
202
100
AcDbSymbolTableRecord
100
AcDbTextStyleTableRecord
  2
TEXTSTYLE_1
 70
0
 40
0.0
 41
0.8
 50
0.0
 71
0
 42
0.2
  3
gdt
  4

  0
ENDTAB
  0
TABLE
  2
VIEW
  5
6
100
AcDbSymbolTable
 70
0
  0
ENDTAB
  0
TABLE
  2
UCS
  5
7
100
AcDbSymbolTable
 70
0
  0
ENDTAB
  0
TABLE
  2
APPID
  5
9
100
AcDbSymbolTable
 70
1
  0
APPID
  5
203
100
AcDbSymbolTableRecord
100
AcDbRegAppTableRecord
  2
ACAD
 70
0
  0
ENDTAB
  0
TABLE
  2
BLOCK_RECORD
  5
1
100
AcDbSymbolTable
 70
0
  0
BLOCK_RECORD
  5
204
100
AcDbSymbolTableRecord
100
AcDbBlockTableRecord
  2
*Model_Space
  0
BLOCK_RECORD
  5
205
100
AcDbSymbolTableRecord
100
AcDbBlockTableRecord
  2
*Paper_Space
  0
ENDTAB
  0
TABLE
  2
DIMSTYLE
  5
A
100
AcDbSymbolTable
 70
1
100
AcDbDimStyleTable
 71
0
  0
DIMSTYLE
105
206
100
AcDbSymbolTableRecord
100
AcDbDimStyleTableRecord
  2
STANDARD
 70
0
  3

  4

 40
1.0
 41
0.1
 42
0.0625
 43
0.38
 44
0.18
 45
0.0
 46
0.0
 47
0.01
 48
0.01
140
0.08
141
0.09
142
0.0
143
25.4
144
1.0
145
0.0
146
1.0
147
0.09
 71
1.0
 72
0.0
 73
1
 74
1
 75
0
 76
0
 77
0
 78
4
170
0
171
2
172
0
173
0
174
0
175
0
176
0
177
0
178
0
270
2
271
2
272
2
273
2
274
2
275
0
280
0
281
0
282
0
283
1
284
4
285
0
286
0
287
3
288
0
340
11
  0
ENDTAB
  0
ENDSEC
  0
SECTION
  2
BLOCKS
  0
BLOCK
  5
20
100
AcDbEntity
  8
0
100
AcDbBlockBegin
  2
*Model_Space
 70
0
 10
0.0
 20
0.0
 30
0.0
  3
*Model_Space
  1

  0
ENDBLK
  5
21
100
AcDbEntity
  8
0
100
AcDbBlockEnd
  0
BLOCK
  5
1C
100
AcDbEntity
  8
0
100
AcDbBlockBegin
  2
*Paper_Space
 70
0
 10
0.0
 20
0.0
 30
0.0
  3
*Paper_Space
  1

  0
ENDBLK
  5
1D
100
AcDbEntity
  8
0
100
AcDbBlockEnd
  0
ENDSEC
  0
SECTION
  2
ENTITIES
  0
LINE
  5
207
100
AcDbEntity
  8
0
100
AcDbLine
 62
6
  6
CONTINUOUS
 10
10.0387014122
 20
8.1269859375
 11
10.0387014122
 21
8.4469857883
  0
LINE
  5
208
100
AcDbEntity
  8
0
100
AcDbLine
 62
6
  6
CONTINUOUS
 10
10.04577248
 20
8.1199148697
 11
10.04577248
 21
8.4540568561
  0
LINE
  5
209
100
AcDbEntity
  8
0
100
AcDbLine
 62
7
  6
CONTINUOUS
 10
10.1047014122
 20
8.0629475175
 11
10.1047014122
 21
8.5110242084
  0
LINE
  5
20A
100
AcDbEntity
  8
0
100
AcDbLine
 62
9
  6
CONTINUOUS
 10
10.1287014122
 20
7.9914892989
 11
10.1287014122
 21
8.5824824269
  0
LINE
  5
20B
100
AcDbEntity
  8
0
100
AcDbLine
 62
9
  6
CONTINUOUS
 10
10.1637014122
 20
7.9564892978
 11
10.1637014122
 21
8.617482428
  0
LINE
  5
20C
100
AcDbEntity
  8
0
100
AcDbLine
 62
6
  6
CONTINUOUS
 10
10.2467014122
 20
7.9564892978
 11
10.2467014122
 21
8.617482428
  0
LINE
  5
20D
100
AcDbEntity
  8
0
100
AcDbLine
 62
6
  6
CONTINUOUS
 10
10.1110400461
 20
8.2869858629
 11
10.1287014122
 21
8.3163793121
  0
LINE
  5
20E
100
AcDbEntity
  8
0
100
AcDbLine
 62
6
  6
CONTINUOUS
 10
10.0387014122
 20
8.4469857883
 11
10.04577248
 21
8.4540568561
  0
LINE
  5
20F
100
AcDbEntity
  8
0
100
AcDbLine
 62
6
  6
CONTINUOUS
 10
13.0237014122
 20
7.0019858629
 11
13.1737014122
 21
7.0019858629
  0
LINE
  5
210
100
AcDbEntity
  8
0
100
AcDbLine
 62
6
  6
CONTINUOUS
 10
10.0387014122
 20
8.1269859375
 11
10.04577248
 21
8.1199148697
  0
LINE
  5
211
100
AcDbEntity
  8
0
100
AcDbLine
 62
6
  6
CONTINUOUS
 10
10.1110400461
 20
8.2869858629
 11
10.1287014122
 21
8.2575924137
  0
LINE
  5
212
100
AcDbEntity
  8
0
100
AcDbLine
 62
6
  6
CONTINUOUS
 10
12.7453331509
 20
7.28485198
 11
12.788661828
 21
7.2821315385
  0
LINE
  5
213
100
AcDbEntity
  8
0
100
AcDbLine
 62
9
  6
CONTINUOUS
 10
10.9344070717
 20
7.9086515146
 11
10.9344070717
 21
8.6653202113
  0
LINE
  5
214
100
AcDbEntity
  8
0
100
AcDbLine
 62
6
  6
CONTINUOUS
 10
12.8028867731
 20
9.3039937717
 11
12.8493829551
 21
9.3215940199
  0
LINE
  5
215
100
AcDbEntity
  8
0
100
AcDbLine
 62
6
  6
CONTINUOUS
 10
12.7172705308
 20
7.6119784383
 11
12.6813075241
 21
7.6146737512
  0
LINE
  5
216
100
AcDbEntity
  8
0
100
AcDbLine
 62
6
  6
CONTINUOUS
 10
12.8028867731
 20
7.2699779541
 11
12.8493829551
 21
7.2523777059
  0
LINE
  5
217
100
AcDbEntity
  8
0
100
AcDbLine
 62
6
  6
CONTINUOUS
 10
11.4137014122
 20
7.8994858629
 11
11.424624516
 21
7.8994858629
  0
LWPOLYLINE
  5
218
100
AcDbEntity
  8
0
100
AcDbPolyline
 62
6
  6
CONTINUOUS
 90
42
 70
0
 10
11.4437014122
 20
7.8975607198
 10
11.4580054064
 20
7.885303929
 10
11.473486337
 20
7.8721707036
 10
11.4898036262
 20
7.858498211
 10
11.5069685623
 20
7.8443196592
 10
11.5249860352
 20
7.8296730885
 10
11.5438590655
 20
7.8145978683
 10
11.5635970868
 20
7.7991284308
 10
11.5842113251
 20
7.7832984835
 10
11.6057129316
 20
7.7671427011
 10
11.6281144576
 20
7.7506957571
 10
11.651429548
 20
7.7339927295
 10
11.6756723534
 20
7.7170696402
 10
11.7008605895
 20
7.6999614983
 10
11.727037141
 20
7.6826886195
 10
11.7542572451
 20
7.6652672394
 10
11.782577901
 20
7.6477173511
 10
11.8120590949
 20
7.6300623243
 10
11.8428378407
 20
7.6122874105
 10
11.8751695475
 20
7.5943259036
 10
11.9093285073
 20
7.5761252089
 10
11.9455833765
 20
7.5576628177
 10
11.983792515
 20
7.5391385777
 10
12.0233484644
 20
7.5209487811
 10
12.0635918422
 20
7.5034509691
 10
12.1038943336
 20
7.4869238276
 10
12.1441850933
 20
7.4713761074
 10
12.1847085228
 20
7.456699962
 10
12.2255588565
 20
7.4428599534
 10
12.2667097038
 20
7.4298659911
 10
12.3081592914
 20
7.4177185453
 10
12.3499364684
 20
7.4064099196
 10
12.3920717928
 20
7.3959344853
 10
12.4345919332
 20
7.3862899916
 10
12.4775207147
 20
7.3774768609
 10
12.5208825153
 20
7.3694972281
 10
12.5647082126
 20
7.3623540295
 10
12.6090313031
 20
7.3560521256
 10
12.6538845624
 20
7.3505988663
 10
12.6993021595
 20
7.3460037457
 10
12.7453180598
 20
7.3422785773
 10
12.7694860634
 20
7.3406903469
  0
LWPOLYLINE
  5
219
100
AcDbEntity
  8
0
100
AcDbPolyline
 62
6
  6
CONTINUOUS
 90
33
 70
0
 10
11.4437014122
 20
7.8770802519
 10
11.479065943
 20
7.8443378801
 10
11.5157228169
 20
7.8116241736
 10
11.5532107274
 20
7.7794424831
 10
11.5913995634
 20
7.7479568064
 10
11.6301409316
 20
7.7173230625
 10
11.6692733268
 20
7.6876844774
 10
11.7086274015
 20
7.6591672129
 10
11.7480248915
 20
7.6318811951
 10
11.7873456258
 20
7.6058768349
 10
11.8266227002
 20
7.5810965991
 10
11.8659165459
 20
7.557472257
 10
11.9052930568
 20
7.5349407206
 10
11.9448005065
 20
7.5134566096
 10
11.9844436712
 20
7.4930024034
 10
12.0242266826
 20
7.4735619128
 10
12.0641699968
 20
7.4551125375
 10
12.1042993119
 20
7.4376320364
 10
12.1446367429
 20
7.4211025888
 10
12.1852032969
 20
7.4055092953
 10
12.2260245662
 20
7.3908379501
 10
12.2671296228
 20
7.3770758563
 10
12.3085439458
 20
7.3642142769
 10
12.3502891508
 20
7.352247981
 10
12.3923872459
 20
7.3411736369
 10
12.434863598
 20
7.3309891143
 10
12.4777459689
 20
7.3216940035
 10
12.5210625953
 20
7.31329017
 10
12.5648461048
 20
7.3057811111
 10
12.6091307915
 20
7.2991727548
 10
12.6539502376
 20
7.29347385
 10
12.69933942
 20
7.288695623
 10
12.7453331509
 20
7.28485198
  0
LINE
  5
21A
100
AcDbEntity
  8
0
100
AcDbLine
 62
6
  6
CONTINUOUS
 10
11.3197014122
 20
7.9344858629
 11
11.3197014122
 21
8.6394858629
  0
LINE
  5
21B
100
AcDbEntity
  8
0
100
AcDbLine
 62
6
  6
CONTINUOUS
 10
11.5155108646
 20
8.6872106313
 11
11.4932870818
 21
8.6716291234
  0
LINE
  5
21C
100
AcDbEntity
  8
0
100
AcDbLine
 62
6
  6
CONTINUOUS
 10
11.3197014122
 20
7.9344858629
 11
11.3637014122
 21
7.9344858629
  0
LINE
  5
21D
100
AcDbEntity
  8
0
100
AcDbLine
 62
6
  6
CONTINUOUS
 10
10.1637014122
 20
7.9564892978
 11
10.2467014122
 21
7.9564892978
  0
LWPOLYLINE
  5
21E
100
AcDbEntity
  8
0
100
AcDbPolyline
 62
6
  6
CONTINUOUS
 90
22
 70
0
 10
11.8283653178
 20
7.8097738715
 10
11.8572941797
 20
7.7983531543
 10
11.8967976121
 20
7.7833748583
 10
11.9365121149
 20
7.7690244086
 10
11.9764416565
 20
7.7552992106
 10
12.0165905456
 20
7.7421957925
 10
12.0569638909
 20
7.7297099944
 10
12.0975684266
 20
7.7178369989
 10
12.1384223044
 20
7.7065689779
 10
12.1795536589
 20
7.6958964642
 10
12.2209757792
 20
7.6858150814
 10
12.262684657
 20
7.6763249934
 10
12.3046843018
 20
7.6674242507
 10
12.3469921296
 20
7.6591083684
 10
12.3896268293
 20
7.6513734263
 10
12.4326022873
 20
7.6442170734
 10
12.4759223153
 20
7.6376388698
 10
12.5195889882
 20
7.6316384081
 10
12.5636016118
 20
7.6262152476
 10
12.6079522225
 20
7.6213691048
 10
12.6526309541
 20
7.6170987869
 10
12.6813075241
 20
7.6146737512
  0
LWPOLYLINE
  5
21F
100
AcDbEntity
  8
0
100
AcDbPolyline
 62
6
  6
CONTINUOUS
 90
33
 70
0
 10
11.5155128533
 20
7.8867597161
 10
11.5388113556
 20
7.8707393493
 10
11.564595127
 20
7.8533428299
 10
11.591680944
 20
7.8354820188
 10
11.6204324252
 20
7.8170118704
 10
11.6512310011
 20
7.7978002661
 10
11.6844826305
 20
7.7777318298
 10
11.7203867071
 20
7.7568478042
 10
11.7581490412
 20
7.7357563538
 10
11.7966695904
 20
7.7151525852
 10
11.8353185994
 20
7.6953902568
 10
11.8740902067
 20
7.6764647626
 10
11.9130154682
 20
7.6583530831
 10
11.9521006631
 20
7.6410450075
 10
11.9913440706
 20
7.6245337168
 10
12.0307500634
 20
7.608809615
 10
12.0703307553
 20
7.5938604986
 10
12.1101009448
 20
7.5796741797
 10
12.1500815156
 20
7.5662376636
 10
12.1902972099
 20
7.553538431
 10
12.2307806701
 20
7.5415637536
 10
12.2715685894
 20
7.5303024668
 10
12.3126856711
 20
7.519749083
 10
12.3541464323
 20
7.509902143
 10
12.3959656457
 20
7.500761019
 10
12.4381635047
 20
7.49232492
 10
12.4807633093
 20
7.4845937495
 10
12.5237877619
 20
7.4775689036
 10
12.5672575776
 20
7.4712533426
 10
12.6111922746
 20
7.4656512519
 10
12.6556105963
 20
7.4607678224
 10
12.7005325944
 20
7.456608928
 10
12.7426942677
 20
7.4534030362
  0
LINE
  5
220
100
AcDbEntity
  8
0
100
AcDbLine
 62
6
  6
CONTINUOUS
 10
11.5155128533
 20
7.8867597161
 11
11.4932870818
 21
7.9023426025
  0
LINE
  5
221
100
AcDbEntity
  8
0
100
AcDbLine
 62
7
  6
CONTINUOUS
 10
11.3637014122
 20
7.9344858629
 11
11.3637014122
 21
8.6394858629
  0
LINE
  5
222
100
AcDbEntity
  8
0
100
AcDbLine
 62
9
  6
CONTINUOUS
 10
11.4137014122
 20
7.8994858629
 11
11.4137014122
 21
8.6744858629
  0
LINE
  5
223
100
AcDbEntity
  8
0
100
AcDbLine
 62
6
  6
CONTINUOUS
 10
11.424624516
 20
8.6744858629
 11
11.424624516
 21
7.8994858629
  0
LINE
  5
224
100
AcDbEntity
  8
0
100
AcDbLine
 62
6
  6
CONTINUOUS
 10
11.4437014122
 20
7.8770846932
 11
11.4437014122
 21
7.8962736266
  0
LINE
  5
225
100
AcDbEntity
  8
0
100
AcDbLine
 62
6
  6
CONTINUOUS
 10
11.4437014122
 20
7.8975842931
 11
11.4437014122
 21
7.9358455584
  0
LINE
  5
226
100
AcDbEntity
  8
0
100
AcDbLine
 62
6
  6
CONTINUOUS
 10
11.4437014122
 20
7.9389703923
 11
11.4437014122
 21
7.9993471217
  0
LINE
  5
227
100
AcDbEntity
  8
0
100
AcDbLine
 62
6
  6
CONTINUOUS
 10
11.4437014122
 20
8.0037663042
 11
11.4437014122
 21
8.0824507899
  0
LINE
  5
228
100
AcDbEntity
  8
0
100
AcDbLine
 62
6
  6
CONTINUOUS
 10
11.4437014122
 20
8.087863161
 11
11.4437014122
 21
8.1794931853
  0
LINE
  5
229
100
AcDbEntity
  8
0
100
AcDbLine
 62
6
  6
CONTINUOUS
 10
11.4437014122
 20
8.1855299008
 11
11.4437014122
 21
8.283861029
  0
LINE
  5
22A
100
AcDbEntity
  8
0
100
AcDbLine
 62
6
  6
CONTINUOUS
 10
11.4437014122
 20
8.2901106968
 11
11.4437014122
 21
8.388441825
  0
LINE
  5
22B
100
AcDbEntity
  8
0
100
AcDbLine
 62
6
  6
CONTINUOUS
 10
11.4437014122
 20
8.3944785405
 11
11.4437014122
 21
8.4861085648
  0
LINE
  5
22C
100
AcDbEntity
  8
0
100
AcDbLine
 62
6
  6
CONTINUOUS
 10
11.4437014122
 20
8.4915209359
 11
11.4437014122
 21
8.5702054216
  0
LINE
  5
22D
100
AcDbEntity
  8
0
100
AcDbLine
 62
6
  6
CONTINUOUS
 10
11.4437014122
 20
8.5746246041
 11
11.4437014122
 21
8.6350013335
  0
LINE
  5
22E
100
AcDbEntity
  8
0
100
AcDbLine
 62
6
  6
CONTINUOUS
 10
11.4437014122
 20
8.6381261674
 11
11.4437014122
 21
8.6763874327
  0
LINE
  5
22F
100
AcDbEntity
  8
0
100
AcDbLine
 62
6
  6
CONTINUOUS
 10
11.4437014122
 20
8.6776980993
 11
11.4437014122
 21
8.6968870326
  0
LINE
  5
230
100
AcDbEntity
  8
0
100
AcDbLine
 62
6
  6
CONTINUOUS
 10
12.7172705308
 20
8.2869858629
 11
11.4932870818
 21
8.2869858629
  0
LINE
  5
231
100
AcDbEntity
  8
0
100
AcDbLine
 62
6
  6
CONTINUOUS
 10
10.1637014122
 20
8.617482428
 11
10.2467014122
 21
8.617482428
  0
LINE
  5
232
100
AcDbEntity
  8
0
100
AcDbLine
 62
6
  6
CONTINUOUS
 10
11.3197014122
 20
8.6394858629
 11
11.3637014122
 21
8.6394858629
  0
LINE
  5
233
100
AcDbEntity
  8
0
100
AcDbLine
 62
6
  6
CONTINUOUS
 10
11.4137014122
 20
8.6744858629
 11
11.424624516
 21
8.6744858629
  0
LINE
  5
234
100
AcDbEntity
  8
0
100
AcDbLine
 62
6
  6
CONTINUOUS
 10
12.9737014122
 20
9.4869858629
 11
13.0237014122
 21
9.5719858629
  0
LWPOLYLINE
  5
235
100
AcDbEntity
  8
0
100
AcDbPolyline
 62
6
  6
CONTINUOUS
 90
22
 70
0
 10
12.6813086288
 20
8.9592980634
 10
12.6514255265
 20
8.9567656426
 10
12.6068616049
 20
8.9524907721
 10
12.562624967
 20
8.9476428313
 10
12.51872513
 20
8.9422206485
 10
12.4751697862
 20
8.9362239438
 10
12.4319595083
 20
8.929652279
 10
12.3890920943
 20
8.9225052356
 10
12.3465636404
 20
8.914782357
 10
12.3043602785
 20
8.9064812871
 10
12.2624633472
 20
8.8975981023
 10
12.2208554765
 20
8.8881283194
 10
12.1795327894
 20
8.878070015
 10
12.1384994363
 20
8.8674233881
 10
12.0977424211
 20
8.8561841482
 10
12.0572339333
 20
8.8443429441
 10
12.016955886
 20
8.8318920027
 10
11.9769015076
 20
8.8188265286
 10
11.9370656528
 20
8.8051423755
 10
11.8974439723
 20
8.7908360728
 10
11.8580324538
 20
8.775905008
 10
11.828361123
 20
8.7641961704
  0
LINE
  5
236
100
AcDbEntity
  8
0
100
AcDbLine
 62
6
  6
CONTINUOUS
 10
12.7172705308
 20
8.9619932876
 11
12.6813086288
 21
8.9592980634
  0
LINE
  5
237
100
AcDbEntity
  8
0
100
AcDbLine
 62
6
  6
CONTINUOUS
 10
12.9737014122
 20
7.0869858629
 11
13.0237014122
 21
7.0019858629
  0
LWPOLYLINE
  5
238
100
AcDbEntity
  8
0
100
AcDbPolyline
 62
6
  6
CONTINUOUS
 90
33
 70
0
 10
12.742694268
 20
9.1205686897
 10
12.7005706352
 20
9.1173659924
 10
12.6556670058
 20
9.1132096139
 10
12.611266654
 20
9.1083293022
 10
12.5673495522
 20
9.1027309249
 10
12.5238969818
 20
9.0964196681
 10
12.4808894523
 20
9.0893997147
 10
12.4383062795
 20
9.0816740252
 10
12.3961247888
 20
9.0732439981
 10
12.3543217034
 20
9.0641095403
 10
12.3128768322
 20
9.0542698614
 10
12.2717754316
 20
9.0437243411
 10
12.2310030323
 20
9.0324715355
 10
12.1905350161
 20
9.0205059892
 10
12.150334642
 20
9.0078165356
 10
12.110369322
 20
8.9943904784
 10
12.0706147141
 20
8.9802154603
 10
12.0310499509
 20
8.9652785341
 10
11.9916591383
 20
8.9495671055
 10
11.9524291104
 20
8.9330684883
 10
11.9133575636
 20
8.9157739228
 10
11.8744507213
 20
8.8976787669
 10
11.8357021785
 20
8.8787730891
 10
11.7970671335
 20
8.8590270291
 10
11.7585352399
 20
8.8384264855
 10
11.7207327992
 20
8.8173212772
 10
11.6847777952
 20
8.7964149018
 10
11.6514827943
 20
8.7763260563
 10
11.6206514961
 20
8.757098615
 10
11.5918741858
 20
8.7386155479
 10
11.564765878
 20
8.7207428513
 10
11.5389596077
 20
8.7033334434
 10
11.5155108646
 20
8.6872106313
  0
LWPOLYLINE
  5
239
100
AcDbEntity
  8
0
100
AcDbPolyline
 62
6
  6
CONTINUOUS
 90
33
 70
0
 10
12.7453331509
 20
9.2891197458
 10
12.69933942
 20
9.2852761029
 10
12.6539502376
 20
9.2804978758
 10
12.6091307915
 20
9.274798971
 10
12.5648461048
 20
9.2681906147
 10
12.5210625953
 20
9.2606815558
 10
12.4777459689
 20
9.2522777223
 10
12.434863598
 20
9.2429826116
 10
12.3923872459
 20
9.2327980889
 10
12.3502891508
 20
9.2217237448
 10
12.3085439458
 20
9.2097574489
 10
12.2671296228
 20
9.1968958695
 10
12.2260245662
 20
9.1831337758
 10
12.1852032969
 20
9.1684624305
 10
12.1446367429
 20
9.152869137
 10
12.1042993119
 20
9.1363396894
 10
12.0641699968
 20
9.1188591883
 10
12.0242266826
 20
9.100409813
 10
11.9844436712
 20
9.0809693224
 10
11.9448005065
 20
9.0605151162
 10
11.9052930568
 20
9.0390310052
 10
11.8659165459
 20
9.0164994688
 10
11.8266227002
 20
8.9928751267
 10
11.7873456258
 20
8.9680948909
 10
11.7480248915
 20
8.9420905308
 10
11.7086274015
 20
8.9148045129
 10
11.6692733268
 20
8.8862872485
 10
11.6301409316
 20
8.8566486633
 10
11.5913995634
 20
8.8260149194
 10
11.5532107274
 20
8.7945292427
 10
11.5157228169
 20
8.7623475522
 10
11.479065943
 20
8.7296338457
 10
11.4437014122
 20
8.6968914739
  0
LWPOLYLINE
  5
23A
100
AcDbEntity
  8
0
100
AcDbPolyline
 62
6
  6
CONTINUOUS
 90
42
 70
0
 10
12.7694860634
 20
9.2332813789
 10
12.7453242904
 20
9.2316935904
 10
12.6993081308
 20
9.2279685239
 10
12.6538902828
 20
9.2233734966
 10
12.6090367805
 20
9.2179203225
 10
12.5647134547
 20
9.2116184961
 10
12.5208875292
 20
9.2044753676
 10
12.4775255073
 20
9.1964957977
 10
12.4345965108
 20
9.1876827231
 10
12.3920761616
 20
9.178038279
 10
12.3499406342
 20
9.1675628878
 10
12.3081632595
 20
9.1562542989
 10
12.2667134791
 20
9.1441068838
 10
12.2255624432
 20
9.1311129461
 10
12.1847119253
 20
9.1172729562
 10
12.1441883179
 20
9.1025968243
 10
12.1038973849
 20
9.0870491123
 10
12.0635947163
 20
9.0705219706
 10
12.0233511532
 20
9.0530241476
 10
11.9837950183
 20
9.0348343308
 10
11.945585703
 20
9.0163100649
 10
11.9093306721
 20
8.9978476454
 10
11.8751715618
 20
8.9796469188
 10
11.8428397124
 20
8.961685376
 10
11.8120608294
 20
8.943910422
 10
11.7825795018
 20
8.9262553503
 10
11.754258715
 20
8.9087054124
 10
11.7270384832
 20
8.8912839789
 10
11.7008618073
 20
8.8740110431
 10
11.6756734507
 20
8.8569028414
 10
11.6514305283
 20
8.8399796898
 10
11.6281153249
 20
8.8232765979
 10
11.6057136896
 20
8.806829588
 10
11.5842119781
 20
8.7906737385
 10
11.563597639
 20
8.7748437235
 10
11.5438595215
 20
8.7593742184
 10
11.5249863999
 20
8.7442989312
 10
11.506968841
 20
8.7296522951
 10
11.489803825
 20
8.7154736803
 10
11.4734864624
 20
8.701801128
 10
11.4580054654
 20
8.6886678472
 10
11.4437014122
 20
8.676411006
  0
LINE
  5
23B
100
AcDbEntity
  8
0
100
AcDbLine
 62
6
  6
CONTINUOUS
 10
12.788661828
 20
9.2918401873
 11
12.7453331509
 21
9.2891197458
  0
LINE
  5
23C
100
AcDbEntity
  8
0
100
AcDbLine
 62
9
  6
CONTINUOUS
 10
12.8028867731
 20
7.2699779541
 11
12.8028867731
 21
9.3039937717
  0
LINE
  5
23D
100
AcDbEntity
  8
0
100
AcDbLine
 62
7
  6
CONTINUOUS
 10
12.9737022184
 20
7.2782201579
 11
12.9737014122
 21
7.2786493507
  0
LINE
  5
23E
100
AcDbEntity
  8
0
100
AcDbLine
 62
7
  6
CONTINUOUS
 10
12.9737014122
 20
9.2012706131
 11
12.9737014122
 21
9.2010419524
  0
LINE
  5
23F
100
AcDbEntity
  8
0
100
AcDbLine
 62
6
  6
CONTINUOUS
 10
12.9737014122
 20
7.2782201579
 11
12.9737014122
 21
7.0869999235
  0
LINE
  5
240
100
AcDbEntity
  8
0
100
AcDbLine
 62
6
  6
CONTINUOUS
 10
12.9737014122
 20
7.2786493507
 11
12.9737014122
 21
9.2010419524
  0
LINE
  5
241
100
AcDbEntity
  8
0
100
AcDbLine
 62
6
  6
CONTINUOUS
 10
12.9737014122
 20
9.2012706131
 11
12.9737014122
 21
9.4869718023
  0
LINE
  5
242
100
AcDbEntity
  8
0
100
AcDbLine
 62
6
  6
CONTINUOUS
 10
13.0237014122
 20
9.5719858629
 11
13.1737014122
 21
9.5719858629
  0
LINE
  5
243
100
AcDbEntity
  8
0
100
AcDbLine
 62
6
  6
CONTINUOUS
 10
13.0237014122
 20
7.0019858629
 11
13.0237014122
 21
9.5719858629
  0
LINE
  5
244
100
AcDbEntity
  8
0
100
AcDbLine
 62
6
  6
CONTINUOUS
 10
13.1737014122
 20
7.0019858629
 11
13.1737014122
 21
9.5719858629
  0
ARC
  5
245
100
AcDbEntity
  8
0
100
AcDbCircle
 62
6
  6
CONTINUOUS
 10
11.1446271422
 20
7.6594858629
 40
0.326
100
AcDbArc
 50
57.5177951966
 51
130.1541931822
  0
ARC
  5
246
100
AcDbEntity
  8
0
100
AcDbCircle
 62
6
  6
CONTINUOUS
 10
10.0477014122
 20
8.0629475175
 40
0.057
100
AcDbArc
 50
0.0
 51
91.9393119103
  0
ARC
  5
247
100
AcDbEntity
  8
0
100
AcDbCircle
 62
6
  6
CONTINUOUS
 10
11.4137014122
 20
7.9494858629
 40
0.05
100
AcDbArc
 50
179.9999913325
 51
270.0
  0
ARC
  5
248
100
AcDbEntity
  8
0
100
AcDbCircle
 62
6
  6
CONTINUOUS
 10
10.1637014122
 20
7.9914892978
 40
0.035
100
AcDbArc
 50
179.9999982105
 51
270.0
  0
ARC
  5
249
100
AcDbEntity
  8
0
100
AcDbCircle
 62
6
  6
CONTINUOUS
 10
10.6152078849
 20
8.2869858629
 40
0.495
100
AcDbArc
 50
221.8874747945
 51
310.1541931822
  0
ARC
  5
24A
100
AcDbEntity
  8
0
100
AcDbCircle
 62
6
  6
CONTINUOUS
 10
10.6152078849
 20
8.2869858629
 40
0.495
100
AcDbArc
 50
49.8458068178
 51
138.1125252055
  0
ARC
  5
24B
100
AcDbEntity
  8
0
100
AcDbCircle
 62
6
  6
CONTINUOUS
 10
11.1446271422
 20
8.9144858629
 40
0.326
100
AcDbArc
 50
229.8458068178
 51
302.4822048034
  0
ARC
  5
24C
100
AcDbEntity
  8
0
100
AcDbCircle
 62
7
  6
CONTINUOUS
 10
11.1447014122
 20
8.2869858629
 40
0.0650899999
100
AcDbArc
 50
229.0174920094
 51
318.9886794061
  0
CIRCLE
  5
24D
100
AcDbEntity
  8
0
100
AcDbCircle
 62
6
  6
CONTINUOUS
 10
11.1447014122
 20
8.2869858629
 40
0.062
  0
ARC
  5
24E
100
AcDbEntity
  8
0
100
AcDbCircle
 62
6
  6
CONTINUOUS
 10
10.0477014122
 20
8.5110242084
 40
0.057
100
AcDbArc
 50
268.0606880897
 51
360.0
  0
ARC
  5
24F
100
AcDbEntity
  8
0
100
AcDbCircle
 62
6
  6
CONTINUOUS
 10
11.4137014122
 20
8.6244858629
 40
0.05
100
AcDbArc
 50
90.0
 51
180.0000086675
  0
ARC
  5
250
100
AcDbEntity
  8
0
100
AcDbCircle
 62
6
  6
CONTINUOUS
 10
10.1637014122
 20
8.582482428
 40
0.035
100
AcDbArc
 50
90.0
 51
180.0000017895
  0
ARC
  5
251
100
AcDbEntity
  8
0
100
AcDbCircle
 62
6
  6
CONTINUOUS
 10
13.5716365355
 20
5.9783154778
 40
3.4372626356
100
AcDbArc
 50
127.8835886967
 51
128.2488670453
  0
ARC
  5
252
100
AcDbEntity
  8
0
100
AcDbCircle
 62
6
  6
CONTINUOUS
 10
12.9903714122
 20
6.846586519
 40
2.4068193439
100
AcDbArc
 50
129.9876415914
 51
130.5827868366
  0
ARC
  5
253
100
AcDbEntity
  8
0
100
AcDbCircle
 62
6
  6
CONTINUOUS
 10
12.9491155881
 20
7.5114541249
 40
0.8565497645
100
AcDbArc
 50
88.3551936779
 51
90.0277047774
  0
ARC
  5
254
100
AcDbEntity
  8
0
100
AcDbCircle
 62
6
  6
CONTINUOUS
 10
12.8737114122
 20
7.4570818667
 40
0.20006
100
AcDbArc
 50
240.4881393003
 51
249.26679
  0
ARC
  5
255
100
AcDbEntity
  8
0
100
AcDbCircle
 62
6
  6
CONTINUOUS
 10
12.948701414
 20
7.4695265558
 40
0.100000001
100
AcDbArc
 50
146.4818723368
 51
284.4775121106
  0
ARC
  5
256
100
AcDbEntity
  8
0
100
AcDbCircle
 62
6
  6
CONTINUOUS
 10
12.9487014128
 20
7.2983124124
 40
0.1000000004
100
AcDbArc
 50
157.4173224877
 51
284.4775120663
  0
ARC
  5
257
100
AcDbEntity
  8
0
100
AcDbCircle
 62
6
  6
CONTINUOUS
 10
12.9487014137
 20
7.8395755551
 40
0.1000000004
100
AcDbArc
 50
133.84399304
 51
240.3478348567
  0
ARC
  5
258
100
AcDbEntity
  8
0
100
AcDbCircle
 62
6
  6
CONTINUOUS
 10
12.9487014129
 20
7.2408236953
 40
0.1000000003
100
AcDbArc
 50
163.2972405841
 51
284.4775122475
  0
ARC
  5
259
100
AcDbEntity
  8
0
100
AcDbCircle
 62
6
  6
CONTINUOUS
 10
12.9487014133
 20
7.7040746728
 40
0.1000000002
100
AcDbArc
 50
137.3353456306
 51
251.5244029528
  0
ARC
  5
25A
100
AcDbEntity
  8
0
100
AcDbCircle
 62
6
  6
CONTINUOUS
 10
12.9487014136
 20
7.9837847711
 40
0.1000000002
100
AcDbArc
 50
131.344595912
 51
234.7425263624
  0
ARC
  5
25B
100
AcDbEntity
  8
0
100
AcDbCircle
 62
6
  6
CONTINUOUS
 10
12.9487014124
 20
7.1876559532
 40
0.1
100
AcDbArc
 50
175.4041642536
 51
284.4775116841
  0
ARC
  5
25C
100
AcDbEntity
  8
0
100
AcDbCircle
 62
6
  6
CONTINUOUS
 10
12.9487014133
 20
7.5799194921
 40
0.0999999998
100
AcDbArc
 50
141.6223407638
 51
284.4775119803
  0
ARC
  5
25D
100
AcDbEntity
  8
0
100
AcDbCircle
 62
6
  6
CONTINUOUS
 10
12.9487014123
 20
8.1338954523
 40
0.0999999996
100
AcDbArc
 50
130.0515332095
 51
231.671100503
  0
ARC
  5
25E
100
AcDbEntity
  8
0
100
AcDbCircle
 62
6
  6
CONTINUOUS
 10
12.9487014113
 20
7.2196605641
 40
0.0999999991
100
AcDbArc
 50
173.9065945795
 51
184.6673534276
  0
ARC
  5
25F
100
AcDbEntity
  8
0
100
AcDbCircle
 62
6
  6
CONTINUOUS
 10
12.9487014116
 20
7.3750445243
 40
0.0999999912
100
AcDbArc
 50
151.8005050304
 51
284.4775137824
  0
ARC
  5
260
100
AcDbEntity
  8
0
100
AcDbCircle
 62
6
  6
CONTINUOUS
 10
12.9487014122
 20
7.2036973332
 40
0.0999999986
100
AcDbArc
 50
169.2750766058
 51
284.4775123514
  0
ARC
  5
261
100
AcDbEntity
  8
0
100
AcDbCircle
 62
6
  6
CONTINUOUS
 10
12.9486996695
 20
7.1930118087
 40
0.0999982575
100
AcDbArc
 50
176.9212580426
 51
181.4618942666
  0
ARC
  5
262
100
AcDbEntity
  8
0
100
AcDbCircle
 62
6
  6
CONTINUOUS
 10
13.5146865239
 20
10.5229366512
 40
3.3448973046
100
AcDbArc
 50
231.7460861861
 51
232.1215248398
  0
ARC
  5
263
100
AcDbEntity
  8
0
100
AcDbCircle
 62
6
  6
CONTINUOUS
 10
12.9903714122
 20
9.7273852069
 40
2.4068193439
100
AcDbArc
 50
229.4172131634
 51
230.0123584086
  0
ARC
  5
264
100
AcDbEntity
  8
0
100
AcDbCircle
 62
6
  6
CONTINUOUS
 10
12.9491155849
 20
9.0625177404
 40
0.856549904
100
AcDbArc
 50
269.9722954389
 51
271.644806266
  0
ARC
  5
265
100
AcDbEntity
  8
0
100
AcDbCircle
 62
6
  6
CONTINUOUS
 10
12.8737114122
 20
9.1168898591
 40
0.20006
100
AcDbArc
 50
110.73321
 51
119.5118606997
  0
ARC
  5
266
100
AcDbEntity
  8
0
100
AcDbCircle
 62
6
  6
CONTINUOUS
 10
12.9487014231
 20
9.3543111618
 40
0.1000000105
100
AcDbArc
 50
175.3850096756
 51
186.0515465387
  0
ARC
  5
267
100
AcDbEntity
  8
0
100
AcDbCircle
 62
6
  6
CONTINUOUS
 10
12.948701414
 20
9.10444517
 40
0.100000001
100
AcDbArc
 50
75.5224878894
 51
213.5181276488
  0
ARC
  5
268
100
AcDbEntity
  8
0
100
AcDbCircle
 62
6
  6
CONTINUOUS
 10
12.9487014128
 20
9.2756593134
 40
0.1000000004
100
AcDbArc
 50
75.5224879337
 51
202.5826775825
  0
ARC
  5
269
100
AcDbEntity
  8
0
100
AcDbCircle
 62
6
  6
CONTINUOUS
 10
12.9487014137
 20
8.7343961707
 40
0.1000000004
100
AcDbArc
 50
119.6521651438
 51
226.1539589462
  0
ARC
  5
26A
100
AcDbEntity
  8
0
100
AcDbCircle
 62
6
  6
CONTINUOUS
 10
12.9487014129
 20
9.3331480305
 40
0.1000000003
100
AcDbArc
 50
75.5224877524
 51
196.702759374
  0
ARC
  5
26B
100
AcDbEntity
  8
0
100
AcDbCircle
 62
6
  6
CONTINUOUS
 10
12.9487014133
 20
8.869897053
 40
0.1000000002
100
AcDbArc
 50
108.4755970472
 51
222.6646543694
  0
ARC
  5
26C
100
AcDbEntity
  8
0
100
AcDbCircle
 62
6
  6
CONTINUOUS
 10
12.9487014122
 20
8.2869858629
 40
0.1
100
AcDbArc
 50
129.5743978874
 51
230.4516261134
  0
ARC
  5
26D
100
AcDbEntity
  8
0
100
AcDbCircle
 62
6
  6
CONTINUOUS
 10
12.9487014124
 20
9.3863157726
 40
0.1
100
AcDbArc
 50
75.5224883159
 51
184.5958351002
  0
ARC
  5
26E
100
AcDbEntity
  8
0
100
AcDbCircle
 62
6
  6
CONTINUOUS
 10
12.9487014133
 20
8.9940522337
 40
0.0999999998
100
AcDbArc
 50
75.5224880197
 51
218.3776592297
  0
ARC
  5
26F
100
AcDbEntity
  8
0
100
AcDbCircle
 62
6
  6
CONTINUOUS
 10
12.9487014119
 20
8.4400762736
 40
0.0999999994
100
AcDbArc
 50
128.3288992704
 51
229.9483789427
  0
ARC
  5
270
100
AcDbEntity
  8
0
100
AcDbCircle
 62
6
  6
CONTINUOUS
 10
12.9487014124
 20
8.590186955
 40
0.0999999994
100
AcDbArc
 50
125.2574748653
 51
228.6552686233
  0
ARC
  5
271
100
AcDbEntity
  8
0
100
AcDbCircle
 62
6
  6
CONTINUOUS
 10
12.9487014116
 20
9.1989272015
 40
0.0999999912
100
AcDbArc
 50
75.5224862175
 51
208.1994949843
  0
ARC
  5
272
100
AcDbEntity
  8
0
100
AcDbCircle
 62
6
  6
CONTINUOUS
 10
12.9487014122
 20
9.3702743926
 40
0.0999999986
100
AcDbArc
 50
75.5224876486
 51
190.7249232987
  0
ARC
  5
273
100
AcDbEntity
  8
0
100
AcDbCircle
 62
6
  6
CONTINUOUS
 10
12.9487001528
 20
9.3809599187
 40
0.0999987406
100
AcDbArc
 50
178.5405212197
 51
183.1117439286
  0
SPLINE
  5
274
100
AcDbEntity
  8
0
100
AcDbSpline
 62
6
  6
CONTINUOUS
 70
0
 71
3
 72
21
 73
17
 74
15
 42
0.0000001
 43
0.0000001
 44
0.0000000001
 12
-0.8754773332
 22
0.0703231793
 32
0.0
 13
-0.8150721951
 23
0.3272051761
 33
0.0
 40
0.0
 40
0.0
 40
0.0
 40
0.0
 40
0.1300435651
 40
0.2583020309
 40
0.3218154563
 40
0.3849446258
 40
0.4477110187
 40
0.510136489
 40
0.5722432506
 40
0.6340538608
 40
0.695591203
 40
0.7568784662
 40
0.8179391247
 40
0.8787969147
 40
0.9394758108
 40
1.0
 40
1.0
 40
1.0
 40
1.0
 10
12.6813075241
 20
7.6146737512
 30
0.0
 10
12.6433574596
 20
7.6177221102
 30
0.0
 10
12.5680748115
 20
7.6250600716
 30
0.0
 10
12.4746625395
 20
7.6375051181
 30
0.0
 10
12.4009823795
 20
7.6493731748
 30
0.0
 10
12.3464032749
 20
7.6591944621
 30
0.0
 10
12.2923282686
 20
7.6699645602
 30
0.0
 10
12.2387572006
 20
7.6816834985
 30
0.0
 10
12.1856901374
 20
7.6943512863
 30
0.0
 10
12.1331270866
 20
7.7079679368
 30
0.0
 10
12.0810680748
 20
7.7225334597
 30
0.0
 10
12.0295131189
 20
7.7380478661
 30
0.0
 10
11.9784622624
 20
7.7545111558
 30
0.0
 10
11.9279154591
 20
7.7719233627
 30
0.0
 10
11.877872998
 20
7.7902843845
 30
0.0
 10
11.844809179
 20
7.8031725955
 30
0.0
 10
11.8283653178
 20
7.8097738715
 30
0.0
 11
12.6813075241
 21
7.6146737512
 31
0.0
 11
12.5676321527
 21
7.6257827087
 31
0.0
 11
12.4559732372
 21
7.6406855398
 31
0.0
 11
12.4008999504
 21
7.6495596579
 31
0.0
 11
12.3463307776
 21
7.6593822444
 31
0.0
 11
12.2922657187
 21
7.6701532994
 31
0.0
 11
12.2387047738
 21
7.6818728227
 31
0.0
 11
12.1856479429
 21
7.6945408144
 31
0.0
 11
12.133095226
 21
7.7081572745
 31
0.0
 11
12.081046623
 21
7.722722203
 31
0.0
 11
12.029502134
 21
7.7382355999
 31
0.0
 11
11.978461759
 21
7.7546974652
 31
0.0
 11
11.927925498
 21
7.7721077989
 31
0.0
 11
11.8778933509
 21
7.790466601
 31
0.0
 11
11.8283653178
 21
7.8097738715
 31
0.0
  0
SPLINE
  5
275
100
AcDbEntity
  8
0
100
AcDbSpline
 62
6
  6
CONTINUOUS
 70
0
 71
3
 72
11
 73
7
 74
5
 42
0.0000001
 43
0.0000001
 44
0.0000000001
 12
0.0251504778
 22
0.0
 32
0.0
 13
0.024667974
 23
0.0049028149
 33
0.0
 40
0.0
 40
0.0
 40
0.0
 40
0.0
 40
0.2548969658
 40
0.5078456237
 40
0.7568537917
 40
1.0
 40
1.0
 40
1.0
 40
1.0
 10
12.9487014122
 20
7.7417196424
 30
0.0
 10
12.950838339
 20
7.7417196424
 30
0.0
 10
12.9550965317
 20
7.7418194981
 30
0.0
 10
12.9614281265
 20
7.7422673118
 30
0.0
 10
12.9676329003
 20
7.7430091911
 30
0.0
 10
12.9717021041
 20
7.7437043417
 30
0.0
 10
12.9737014122
 20
7.7441017087
 30
0.0
 11
12.9487014122
 21
7.7417196424
 31
0.0
 11
12.9551104192
 21
7.7418704231
 31
0.0
 11
12.9614562127
 21
7.7423211395
 31
0.0
 11
12.9676742493
 21
7.743067538
 31
0.0
 11
12.9737014122
 21
7.7441017087
 31
0.0
  0
SPLINE
  5
276
100
AcDbEntity
  8
0
100
AcDbSpline
 62
6
  6
CONTINUOUS
 70
0
 71
3
 72
11
 73
7
 74
5
 42
0.0000001
 43
0.0000001
 44
0.0000000001
 12
0.025080069
 22
0.0
 32
0.0
 13
0.0248212219
 23
0.0035939958
 33
0.0
 40
0.0
 40
0.0
 40
0.0
 40
0.0
 40
0.2555800921
 40
0.5089403537
 40
0.7578131118
 40
1.0
 40
1.0
 40
1.0
 40
1.0
 10
12.9487014122
 20
7.8897476792
 30
0.0
 10
12.9508380676
 20
7.8897476792
 30
0.0
 10
12.9550931777
 20
7.8898203409
 30
0.0
 10
12.9614213692
 20
7.8901462272
 30
0.0
 10
12.9676225643
 20
7.8906860911
 30
0.0
 10
12.9716976207
 20
7.8911929263
 30
0.0
 10
12.9737014122
 20
7.8914830658
 30
0.0
 11
12.9487014122
 21
7.8897476792
 31
0.0
 11
12.9551104372
 21
7.8898575275
 31
0.0
 11
12.9614562405
 21
7.8901858844
 31
0.0
 11
12.9676742555
 21
7.8907296507
 31
0.0
 11
12.9737014122
 21
7.8914830658
 31
0.0
  0
SPLINE
  5
277
100
AcDbEntity
  8
0
100
AcDbSpline
 62
6
  6
CONTINUOUS
 70
0
 71
3
 72
11
 73
7
 74
5
 42
0.0000001
 43
0.0000001
 44
0.0000000001
 12
0.0250296425
 22
0.0
 32
0.0
 13
0.0249332433
 23
0.0021946255
 33
0.0
 40
0.0
 40
0.0
 40
0.0
 40
0.0
 40
0.2560712714
 40
0.5097281564
 40
0.7585050059
 40
1.0
 40
1.0
 40
1.0
 40
1.0
 10
12.9487014122
 20
8.0455075055
 30
0.0
 10
12.9508378696
 20
8.0455075055
 30
0.0
 10
12.9550907728
 20
8.0455516383
 30
0.0
 10
12.961416506
 20
8.0457495876
 30
0.0
 10
12.9676150716
 20
8.0460774968
 30
0.0
 10
12.9716943277
 20
8.0463857713
 30
0.0
 10
12.9737014122
 20
8.046562435
 30
0.0
 11
12.9487014122
 21
8.0455075055
 31
0.0
 11
12.9551104367
 21
8.0455742814
 31
0.0
 11
12.9614562393
 21
8.0457738873
 31
0.0
 11
12.967674255
 21
8.0461044391
 31
0.0
 11
12.9737014122
 21
8.046562435
 31
0.0
  0
SPLINE
  5
278
100
AcDbEntity
  8
0
100
AcDbSpline
 62
6
  6
CONTINUOUS
 70
0
 71
3
 72
29
 73
25
 74
23
 42
0.0000001
 43
0.0000001
 44
0.0000000001
 12
0.0497591632
 22
-0.0393546853
 32
0.0
 13
0.0634410402
 23
0.0
 33
0.0
 40
0.0
 40
0.0
 40
0.0
 40
0.0
 40
0.0140776423
 40
0.0294502751
 40
0.0461484006
 40
0.0641869563
 40
0.0835709972
 40
0.1042983951
 40
0.1263617244
 40
0.1497488146
 40
0.1744358613
 40
0.2003911481
 40
0.2275807619
 40
0.2559691471
 40
0.3161918382
 40
0.3807327351
 40
0.4491896829
 40
0.5211416553
 40
0.596154274
 40
0.6737627735
 40
0.7534935002
 40
0.834847886
 40
0.9172261184
 40
1.0
 40
1.0
 40
1.0
 40
1.0
 10
12.886684068
 20
8.0554490852
 30
0.0
 10
12.8869175652
 20
8.0552644114
 30
0.0
 10
12.8874224704
 20
8.0548986308
 30
0.0
 10
12.8882501256
 20
8.0543804944
 30
0.0
 10
12.8891791693
 20
8.0538697963
 30
0.0
 10
12.8902078932
 20
8.0533673562
 30
0.0
 10
12.8913346058
 20
8.0528739644
 30
0.0
 10
12.8925575596
 20
8.0523904639
 30
0.0
 10
12.8938749732
 20
8.0519176953
 30
0.0
 10
12.8952848696
 20
8.0514566127
 30
0.0
 10
12.8967848468
 20
8.0510079103
 30
0.0
 10
12.8983721901
 20
8.0505722573
 30
0.0
 10
12.9000440844
 20
8.0501503806
 30
0.0
 10
12.902429535
 20
8.0495962767
 30
0.0
 10
12.9056032427
 20
8.0489474796
 30
0.0
 10
12.9096297465
 20
8.0482495594
 30
0.0
 10
12.9139185584
 20
8.0476216881
 30
0.0
 10
12.91844074
 20
8.0470683645
 30
0.0
 10
12.9231663795
 20
8.0465939489
 30
0.0
 10
12.9280645009
 20
8.0462010479
 30
0.0
 10
12.9331030049
 20
8.0458924715
 30
0.0
 10
12.938247038
 20
8.0456710451
 30
0.0
 10
12.9434584451
 20
8.0455374462
 30
0.0
 10
12.9469509918
 20
8.0455075055
 30
0.0
 10
12.9487014122
 20
8.0455075055
 30
0.0
 11
12.886684068
 21
8.0554490852
 31
0.0
 11
12.8874055869
 21
8.0549227407
 31
0.0
 11
12.8882308165
 21
8.0544030099
 31
0.0
 11
12.8891580707
 21
8.0538907459
 31
0.0
 11
12.8901855183
 21
8.0533867935
 31
0.0
 11
12.8913113277
 21
8.0528919978
 31
0.0
 11
12.8925336675
 21
8.0524072037
 31
0.0
 11
12.8938507064
 21
8.0519332563
 31
0.0
 11
12.8952605584
 21
8.0514709935
 31
0.0
 11
12.8967607455
 21
8.0510211786
 31
0.0
 11
12.8983484258
 21
8.0505845291
 31
0.0
 11
12.9000207525
 21
8.0501617618
 31
0.0
 11
12.9017748788
 21
8.0497535934
 31
0.0
 11
12.9055171389
 21
8.0489839194
 31
0.0
 11
12.9095508732
 21
8.0482808836
 31
0.0
 11
12.9138476268
 21
8.0476489158
 31
0.0
 11
12.91837827
 21
8.0470922908
 31
0.0
 11
12.9231131506
 21
8.0466149745
 31
0.0
 11
12.9280208366
 21
8.0462198801
 31
0.0
 11
12.9330695172
 21
8.0459096964
 31
0.0
 11
12.9382259101
 21
8.0456868323
 31
0.0
 11
12.9434503436
 21
8.045552481
 31
0.0
 11
12.9487014122
 21
8.0455075055
 31
0.0
  0
SPLINE
  5
279
100
AcDbEntity
  8
0
100
AcDbSpline
 62
6
  6
CONTINUOUS
 70
0
 71
3
 72
23
 73
19
 74
17
 42
0.0000001
 43
0.0000001
 44
0.0000000001
 12
0.0488013616
 22
-0.0345056129
 32
0.0
 13
0.0597679698
 23
0.0
 33
0.0
 40
0.0
 40
0.0
 40
0.0
 40
0.0
 40
0.041772575
 40
0.0870084226
 40
0.135686504
 40
0.1877121885
 40
0.2429594241
 40
0.3012781841
 40
0.3624697538
 40
0.4263032292
 40
0.4925377093
 40
0.5609205922
 40
0.6311787658
 40
0.7030315768
 40
0.7761934469
 40
0.8503312458
 40
0.9250622361
 40
1.0
 40
1.0
 40
1.0
 40
1.0
 10
12.8909769554
 20
7.90212827
 30
0.0
 10
12.891656475
 20
7.9016478072
 30
0.0
 10
12.893115691
 20
7.9007082749
 30
0.0
 10
12.8954883084
 20
7.8994091335
 30
0.0
 10
12.8981203522
 20
7.8981700965
 30
0.0
 10
12.9009984221
 20
7.8969963698
 30
0.0
 10
12.9041088728
 20
7.8958937645
 30
0.0
 10
12.9074371007
 20
7.8948685671
 30
0.0
 10
12.9109666989
 20
7.8939252611
 30
0.0
 10
12.9146801142
 20
7.8930679908
 30
0.0
 10
12.9185593602
 20
7.892301268
 30
0.0
 10
12.9225859219
 20
7.8916293976
 30
0.0
 10
12.9267405144
 20
7.8910549861
 30
0.0
 10
12.931003517
 20
7.8905807824
 30
0.0
 10
12.9353542985
 20
7.890209849
 30
0.0
 10
12.9397701877
 20
7.8899439243
 30
0.0
 10
12.9442265312
 20
7.8897835727
 30
0.0
 10
12.9472084528
 20
7.8897476792
 30
0.0
 10
12.9487014122
 20
7.8897476792
 30
0.0
 11
12.8909769554
 21
7.90212827
 31
0.0
 11
12.8930719488
 21
7.9007702111
 31
0.0
 11
12.8954400824
 21
7.8994657218
 31
0.0
 11
12.8980698557
 21
7.8982211964
 31
0.0
 11
12.9009472671
 21
7.8970425088
 31
0.0
 11
12.9040581917
 21
7.8959355075
 31
0.0
 11
12.9073882631
 21
7.8949059497
 31
0.0
 11
12.9109207604
 21
7.8939587034
 31
0.0
 11
12.9146376344
 21
7.8930981349
 31
0.0
 11
12.9185208202
 21
7.8923286045
 31
0.0
 11
12.9225518872
 21
7.8916541163
 31
0.0
 11
12.9267113132
 21
7.8910776107
 31
0.0
 11
12.9309793731
 21
7.8906018309
 31
0.0
 11
12.9353362277
 21
7.8902294843
 31
0.0
 11
12.9397592369
 21
7.889962402
 31
0.0
 11
12.9442228576
 21
7.8898015067
 31
0.0
 11
12.9487014122
 21
7.8897476792
 31
0.0
  0
SPLINE
  5
27A
100
AcDbEntity
  8
0
100
AcDbSpline
 62
6
  6
CONTINUOUS
 70
0
 71
3
 72
22
 73
18
 74
16
 42
0.0000001
 43
0.0000001
 44
0.0000000001
 12
0.0444809355
 22
-0.0253312952
 32
0.0
 13
0.0511881641
 23
-0.0
 33
0.0
 40
0.0
 40
0.0
 40
0.0
 40
0.0
 40
0.0515046128
 40
0.1049570386
 40
0.1602844267
 40
0.2174017125
 40
0.2762153645
 40
0.3366254264
 40
0.3985235646
 40
0.461787914
 40
0.5262906879
 40
0.5919006626
 40
0.6584842283
 40
0.7258964909
 40
0.7939525123
 40
0.862455743
 40
1.0
 40
1.0
 40
1.0
 40
1.0
 10
12.8992282456
 20
7.7526711288
 30
0.0
 10
12.8999919033
 20
7.7522362359
 30
0.0
 10
12.9015701843
 20
7.751388317
 30
0.0
 10
12.9040357145
 20
7.7502029451
 30
0.0
 10
12.9066361692
 20
7.7490828556
 30
0.0
 10
12.9093632872
 20
7.7480313489
 30
0.0
 10
12.9122088342
 20
7.7470516142
 30
0.0
 10
12.9151645073
 20
7.7461469613
 30
0.0
 10
12.9182216854
 20
7.7453205026
 30
0.0
 10
12.9213711615
 20
7.7445741128
 30
0.0
 10
12.924603636
 20
7.7439098657
 30
0.0
 10
12.9279097643
 20
7.743329798
 30
0.0
 10
12.9312800444
 20
7.7428359917
 30
0.0
 10
12.9347040971
 20
7.7424305704
 30
0.0
 10
12.9381704234
 20
7.7421140155
 30
0.0
 10
12.9428379017
 20
7.7418110091
 30
0.0
 10
12.9463545328
 20
7.7417196424
 30
0.0
 10
12.9487014122
 20
7.7417196424
 30
0.0
 11
12.8992282456
 21
7.7526711288
 31
0.0
 11
12.9015496094
 21
7.7514213227
 31
0.0
 11
12.9040145663
 21
7.7502337188
 31
0.0
 11
12.9066148882
 21
7.7491115964
 31
0.0
 11
12.9093422574
 21
7.7480581979
 31
0.0
 11
12.9121883563
 21
7.7470767656
 31
0.0
 11
12.9151448666
 21
7.7461705407
 31
0.0
 11
12.9182031925
 21
7.7453424517
 31
0.0
 11
12.9213540573
 21
7.7445946591
 31
0.0
 11
12.9245880821
 21
7.7439292075
 31
0.0
 11
12.9278958875
 21
7.7433481415
 31
0.0
 11
12.9312680944
 21
7.7428535057
 31
0.0
 11
12.9346947899
 21
7.7424471109
 31
0.0
 11
12.9381639763
 21
7.7421298537
 31
0.0
 11
12.9416631467
 21
7.7419024075
 31
0.0
 11
12.9487014122
 21
7.7417196424
 31
0.0
  0
SPLINE
  5
27B
100
AcDbEntity
  8
0
100
AcDbSpline
 62
6
  6
CONTINUOUS
 70
0
 71
3
 72
14
 73
10
 74
8
 42
0.0000001
 43
0.0000001
 44
0.0000000001
 12
0.0305437357
 22
-0.0102041964
 32
0.0
 13
0.0322031895
 23
-0.0
 33
0.0
 40
0.0
 40
0.0
 40
0.0
 40
0.0
 40
0.1191389218
 40
0.2405736299
 40
0.4891999471
 40
0.6158383849
 40
0.7434780277
 40
0.8716794245
 40
1.0
 40
1.0
 40
1.0
 40
1.0
 10
12.9170112333
 20
7.6092288148
 30
0.0
 10
12.9182242159
 20
7.6088235758
 30
0.0
 10
12.9206926097
 20
7.6080611222
 30
0.0
 10
12.9257734296
 20
7.6067294873
 30
0.0
 10
12.9310129579
 20
7.6057040684
 30
0.0
 10
12.9363639431
 20
7.6049831938
 30
0.0
 10
12.9404521335
 20
7.6045927468
 30
0.0
 10
12.9445700708
 20
7.6043573356
 30
0.0
 10
12.9473239682
 20
7.6043045923
 30
0.0
 10
12.9487014122
 20
7.6043045923
 30
0.0
 11
12.9170112333
 21
7.6092288148
 31
0.0
 11
12.9206764602
 21
7.6080947863
 31
0.0
 11
12.9244589041
 21
7.6071019158
 31
0.0
 11
12.9323148382
 21
7.6055561764
 31
0.0
 11
12.9363563483
 21
7.6050106511
 31
0.0
 11
12.9404480797
 21
7.6046193041
 31
0.0
 11
12.9445698338
 21
7.6043834972
 31
0.0
 11
12.9487014122
 21
7.6043045923
 31
0.0
  0
SPLINE
  5
27C
100
AcDbEntity
  8
0
100
AcDbSpline
 62
6
  6
CONTINUOUS
 70
0
 71
3
 72
67
 73
63
 74
61
 42
0.0000001
 43
0.0000001
 44
0.0000000001
 12
0.2628121241
 22
-0.0148553765
 32
0.0
 13
-0.136767086
 23
0.2249125585
 33
0.0
 40
0.0
 40
0.0
 40
0.0
 40
0.0
 40
0.0200761739
 40
0.0407299462
 40
0.0620022231
 40
0.0728792698
 40
0.0839170079
 40
0.1064679296
 40
0.1296518477
 40
0.141481747
 40
0.1534690348
 40
0.1778939309
 40
0.1903217303
 40
0.2028862403
 40
0.2155866757
 40
0.2219887663
 40
0.228425503
 40
0.2413983891
 40
0.2545018351
 40
0.2677394964
 40
0.2811240325
 40
0.2878787422
 40
0.2946791108
 40
0.3084148028
 40
0.3223314059
 40
0.336448781
 40
0.3435980136
 40
0.3508174282
 40
0.3581174465
 40
0.3655096614
 40
0.3730007467
 40
0.3805936143
 40
0.3960883872
 40
0.4120043357
 40
0.420121035
 40
0.4283412119
 40
0.4366634298
 40
0.4450863303
 40
0.4536102954
 40
0.4622350214
 40
0.4797754847
 40
0.4976755555
 40
0.5158813187
 40
0.52507798
 40
0.5343257973
 40
0.5529657486
 40
0.5717877879
 40
0.6099051857
 40
0.6291575277
 40
0.6485101268
 40
0.6679498385
 40
0.687463464
 40
0.7266563362
 40
0.7463066292
 40
0.7659761707
 40
0.8053376098
 40
0.8446702458
 40
0.8643038724
 40
0.8839030298
 40
0.9229434916
 40
0.9616796597
 40
1.0
 40
1.0
 40
1.0
 40
1.0
 10
12.7172705308
 20
7.6119784383
 30
0.0
 10
12.7190292847
 20
7.6118790252
 30
0.0
 10
12.722609076
 20
7.6118510381
 30
0.0
 10
12.7280376313
 20
7.6122910583
 30
0.0
 10
12.7326147328
 20
7.6130426102
 30
0.0
 10
12.736314062
 20
7.6138670494
 30
0.0
 10
12.7400893913
 20
7.6148546889
 30
0.0
 10
12.7448372759
 20
7.6163769883
 30
0.0
 10
12.7495302278
 20
7.6182564716
 30
0.0
 10
12.7532744693
 20
7.6199869725
 30
0.0
 10
12.757053574
 20
7.621895268
 30
0.0
 10
12.7607754996
 20
7.6240285079
 30
0.0
 10
12.7644108762
 20
7.626393421
 30
0.0
 10
12.7671112642
 20
7.6283044764
 30
0.0
 10
12.76931302
 20
7.6300008132
 30
0.0
 10
12.7710444294
 20
7.6314236934
 30
0.0
 10
12.7727631625
 20
7.6328988299
 30
0.0
 10
12.7748651623
 20
7.6348292442
 30
0.0
 10
12.7772907014
 20
7.6372840872
 30
0.0
 10
12.7796085185
 20
7.6398897233
 30
0.0
 10
12.7814301528
 20
7.6421851532
 30
0.0
 10
12.7828154759
 20
7.6441008545
 30
0.0
 10
12.7841587299
 20
7.6460835903
 30
0.0
 10
12.7857327134
 20
7.6486674495
 30
0.0
 10
12.7874121099
 20
7.651928771
 30
0.0
 10
12.7886062387
 20
7.6547797709
 30
0.0
 10
12.7894226082
 20
7.6571428798
 30
0.0
 10
12.7899632431
 20
7.6589663827
 30
0.0
 10
12.7904249465
 20
7.6608334525
 30
0.0
 10
12.7908024256
 20
7.6627436803
 30
0.0
 10
12.7910950104
 20
7.6646947069
 30
0.0
 10
12.7913744963
 20
7.6673639565
 30
0.0
 10
12.7915090463
 20
7.6707879596
 30
0.0
 10
12.7913643405
 20
7.6742569725
 30
0.0
 10
12.7910850095
 20
7.6770736895
 30
0.0
 10
12.7907908497
 20
7.6792178105
 30
0.0
 10
12.7904137134
 20
7.6813761411
 30
0.0
 10
12.7899533504
 20
7.6835454954
 30
0.0
 10
12.7894137991
 20
7.6857238175
 30
0.0
 10
12.7885906823
 20
7.6886545871
 30
0.0
 10
12.7873857339
 20
7.6923305866
 30
0.0
 10
12.7857073062
 20
7.6967297917
 30
0.0
 10
12.7841441054
 20
7.7003855306
 30
0.0
 10
12.7828086177
 20
7.7033110413
 30
0.0
 10
12.7814144076
 20
7.7062512668
 30
0.0
 10
12.7795829048
 20
7.709918325
 30
0.0
 10
12.7764812579
 20
7.7157804448
 30
0.0
 10
12.7731783924
 20
7.7215946641
 30
0.0
 10
12.7697382997
 20
7.727381266
 30
0.0
 10
12.7670896471
 20
7.7317315539
 30
0.0
 10
12.7643897288
 20
7.7360771612
 30
0.0
 10
12.7607281853
 20
7.7418745936
 30
0.0
 10
12.7570059863
 20
7.7476553199
 30
0.0
 10
12.7532530913
 20
7.7534323554
 30
0.0
 10
12.7494829889
 20
7.7592158536
 30
0.0
 10
12.7447596375
 20
7.7664394754
 30
0.0
 10
12.7400453234
 20
7.7736652508
 30
0.0
 10
12.7362953447
 20
7.7794497095
 30
0.0
 10
12.7325746234
 20
7.7852225522
 30
0.0
 10
12.7279779743
 20
7.7924249225
 30
0.0
 10
12.7225613412
 20
7.8010523798
 30
0.0
 10
12.7190175178
 20
7.806810627
 30
0.0
 10
12.7172705308
 20
7.8096835356
 30
0.0
 11
12.7172705308
 21
7.6119784383
 31
0.0
 11
12.7225549786
 21
7.6119284632
 31
0.0
 11
12.7279746088
 21
7.612359277
 31
0.0
 11
12.7335014013
 21
7.613258928
 31
0.0
 11
12.7362962269
 21
7.6138808326
 31
0.0
 11
12.7391072501
 21
7.6146156614
 31
0.0
 11
12.7447609307
 21
7.616424907
 31
0.0
 11
12.7504272793
 21
7.6186911679
 31
0.0
 11
12.7532541365
 21
7.6199972679
 31
0.0
 11
12.7560708535
 21
7.6214195427
 31
0.0
 11
12.7616469953
 21
7.6246201515
 31
0.0
 11
12.7643889359
 21
7.6264044593
 31
0.0
 11
12.7670883183
 21
7.6283154993
 31
0.0
 11
12.769736289
 21
7.6303563192
 31
0.0
 11
12.7710382284
 21
7.6314263489
 31
0.0
 11
12.7723238043
 21
7.6325300362
 31
0.0
 11
12.7748376543
 21
7.6348412962
 31
0.0
 11
12.777260578
 21
7.6372962316
 31
0.0
 11
12.7795751473
 21
7.639901036
 31
0.0
 11
12.7817639338
 21
7.6426619031
 31
0.0
 11
12.7828057121
 21
7.6441027957
 31
0.0
 11
12.783809413
 21
7.6455850044
 31
0.0
 11
12.7856870638
 21
7.6486749053
 31
0.0
 11
12.7873607504
 21
7.6519335045
 31
0.0
 11
12.788793242
 21
7.6553624493
 31
0.0
 11
12.7894074051
 21
7.6571413161
 31
0.0
 11
12.7899473079
 21
7.6589633871
 31
0.0
 11
12.7904082967
 21
7.6608288682
 31
0.0
 11
12.7907860614
 21
7.6627377117
 31
0.0
 11
12.7910792595
 21
7.6646876829
 31
0.0
 11
12.791288065
 21
7.6666754289
 31
0.0
 11
12.7914532436
 21
7.6707507972
 31
0.0
 11
12.7912830879
 21
7.6749369216
 31
0.0
 11
12.7910727254
 21
7.6770631125
 31
0.0
 11
12.7907790883
 21
7.6792069067
 31
0.0
 11
12.7904023628
 21
7.6813649423
 31
0.0
 11
12.7899431299
 21
7.6835340355
 31
0.0
 11
12.7894047874
 21
7.6857122742
 31
0.0
 11
12.7887919573
 21
7.6878982991
 31
0.0
 11
12.7873613432
 21
7.692288279
 31
0.0
 11
12.7856883048
 21
7.6966931188
 31
0.0
 11
12.7838098594
 21
7.7011019619
 31
0.0
 11
12.7828051769
 21
7.7033044919
 31
0.0
 11
12.7817625585
 21
7.7055042309
 31
0.0
 11
12.7795730902
 21
7.7098952668
 31
0.0
 11
12.7772587265
 21
7.7142760599
 31
0.0
 11
12.7723228979
 21
7.7230117815
 31
0.0
 11
12.7697351806
 21
7.7273691401
 31
0.0
 11
12.7670871075
 21
7.7317210075
 31
0.0
 11
12.7643878256
 21
7.7360683137
 31
0.0
 11
12.7616460529
 21
7.7404119734
 31
0.0
 11
12.7560699075
 21
7.7490920106
 31
0.0
 11
12.7532528693
 21
7.7534301976
 31
0.0
 11
12.7504258724
 21
7.7577679508
 31
0.0
 11
12.7447597186
 21
7.76644255
 31
0.0
 11
12.7391064776
 21
7.7751165213
 31
0.0
 11
12.7362956215
 21
7.7794534895
 31
0.0
 11
12.7335009267
 21
7.783790099
 31
0.0
 11
12.7279743714
 21
7.7924542455
 31
0.0
 11
12.7225549126
 21
7.8010913637
 31
0.0
 11
12.7172705308
 21
7.8096835356
 31
0.0
  0
SPLINE
  5
27D
100
AcDbEntity
  8
0
100
AcDbSpline
 62
6
  6
CONTINUOUS
 70
0
 71
3
 72
64
 73
60
 74
58
 42
0.0000001
 43
0.0000001
 44
0.0000000001
 12
0.2640287435
 22
0.1029611758
 32
0.0
 13
-0.1601976246
 23
0.2337710465
 33
0.0
 40
0.0
 40
0.0
 40
0.0
 40
0.0
 40
0.0202891563
 40
0.0416676607
 40
0.0640878672
 40
0.075671947
 40
0.0874953027
 40
0.1118361033
 40
0.1243449532
 40
0.1370725733
 40
0.1500146076
 40
0.1631658515
 40
0.1765194805
 40
0.1900698379
 40
0.2038128796
 40
0.2177462667
 40
0.2318684832
 40
0.246173773
 40
0.2606574542
 40
0.2753193006
 40
0.2901639112
 40
0.3051972489
 40
0.32041506
 40
0.3358198865
 40
0.3514281535
 40
0.3672685429
 40
0.3833457429
 40
0.3996513165
 40
0.4078929489
 40
0.4161961673
 40
0.4245648909
 40
0.4330021314
 40
0.4415073867
 40
0.4500786797
 40
0.4674036286
 40
0.4761505823
 40
0.4849456186
 40
0.4937822535
 40
0.5026553552
 40
0.5115646394
 40
0.5205096838
 40
0.5384988535
 40
0.5566004328
 40
0.5656824886
 40
0.5747778568
 40
0.5929982835
 40
0.6112537489
 40
0.629534197
 40
0.6478254879
 40
0.6843845047
 40
0.7208481279
 40
0.7571319302
 40
0.7931663169
 40
0.8288818743
 40
0.8642062999
 40
0.8990650022
 40
0.933378996
 40
0.9670616469
 40
1.0
 40
1.0
 40
1.0
 40
1.0
 10
12.7172705308
 20
7.8096835356
 30
0.0
 10
12.7190561709
 20
7.8103798674
 30
0.0
 10
12.7226758358
 20
7.8119338731
 30
0.0
 10
12.7280929619
 20
7.8146431029
 30
0.0
 10
12.7326450018
 20
7.8172266823
 30
0.0
 10
12.7363317554
 20
7.8194963989
 30
0.0
 10
12.7401169714
 20
7.8219499683
 30
0.0
 10
12.743886885
 20
7.8245855085
 30
0.0
 10
12.7476319767
 20
7.8273980461
 30
0.0
 10
12.7504657825
 20
7.8296294059
 30
0.0
 10
12.7532947351
 20
7.8319634348
 30
0.0
 10
12.7561138775
 20
7.8344007774
 30
0.0
 10
12.7589153682
 20
7.8369447515
 30
0.0
 10
12.7616914298
 20
7.8395980874
 30
0.0
 10
12.7644342013
 20
7.8423635769
 30
0.0
 10
12.7671356542
 20
7.8452440176
 30
0.0
 10
12.7697877952
 20
7.8482413194
 30
0.0
 10
12.7723778055
 20
7.8513605072
 30
0.0
 10
12.7748912659
 20
7.8546065832
 30
0.0
 10
12.7773138086
 20
7.8579841446
 30
0.0
 10
12.7796306541
 20
7.8614975832
 30
0.0
 10
12.7818266367
 20
7.8651495019
 30
0.0
 10
12.7838748058
 20
7.868947011
 30
0.0
 10
12.7857460241
 20
7.8728954053
 30
0.0
 10
12.7874109205
 20
7.8769991604
 30
0.0
 10
12.7888383722
 20
7.8812589723
 30
0.0
 10
12.7899988439
 20
7.8856675686
 30
0.0
 10
12.7907151123
 20
7.8894414068
 30
0.0
 10
12.7911245282
 20
7.8925180998
 30
0.0
 10
12.7913462854
 20
7.8948616915
 30
0.0
 10
12.7914771006
 20
7.8972306283
 30
0.0
 10
12.791515037
 20
7.8996219281
 30
0.0
 10
12.7914632453
 20
7.9020320845
 30
0.0
 10
12.7912768841
 20
7.9052770023
 30
0.0
 10
12.7909200948
 20
7.9085329486
 30
0.0
 10
12.7904056694
 20
7.9117865909
 30
0.0
 10
12.7899408044
 20
7.914235118
 30
0.0
 10
12.78940051
 20
7.9166802541
 30
0.0
 10
12.788787142
 20
7.9191191968
 30
0.0
 10
12.788105234
 20
7.9215504709
 30
0.0
 10
12.7871084747
 20
7.9247866931
 30
0.0
 10
12.785712262
 20
7.9288069523
 30
0.0
 10
12.7841491784
 20
7.9327786895
 30
0.0
 10
12.7828118872
 20
7.9359342237
 30
0.0
 10
12.7814203856
 20
7.9390785141
 30
0.0
 10
12.7795916731
 20
7.9429763335
 30
0.0
 10
12.7772734373
 20
7.9476008331
 30
0.0
 10
12.7748480215
 20
7.9521774985
 30
0.0
 10
12.7714955507
 20
7.9582181663
 30
0.0
 10
12.7671270499
 20
7.9656576757
 30
0.0
 10
12.7616768312
 20
7.9744285142
 30
0.0
 10
12.7560989714
 20
7.9830594232
 30
0.0
 10
12.750448953
 20
7.9915582801
 30
0.0
 10
12.744780921
 20
7.9999358034
 30
0.0
 10
12.7391296151
 20
8.0081903193
 30
0.0
 10
12.7335298925
 20
8.0163196181
 30
0.0
 10
12.7280085797
 20
8.0243145917
 30
0.0
 10
12.722594436
 20
8.0321631153
 30
0.0
 10
12.7190294127
 20
8.03734932
 30
0.0
 10
12.7172705308
 20
8.0399159977
 30
0.0
 11
12.7172705308
 21
7.8096835356
 31
0.0
 11
12.7225580536
 21
7.8119424293
 31
0.0
 11
12.7279805527
 21
7.8146447281
 31
0.0
 11
12.7335098666
 21
7.8177747222
 31
0.0
 11
12.736305777
 21
7.8194952016
 31
0.0
 11
12.7391176202
 21
7.8213174302
 31
0.0
 11
12.7447725518
 21
7.8252677055
 31
0.0
 11
12.7476072953
 21
7.8273962689
 31
0.0
 11
12.7504413276
 21
7.8296274608
 31
0.0
 11
12.7532704698
 21
7.8319615439
 31
0.0
 11
12.7560894555
 21
7.8343995205
 31
0.0
 11
12.7588907131
 21
7.8369439608
 31
0.0
 11
12.7616663767
 21
7.839597635
 31
0.0
 11
12.7644085805
 21
7.8423633131
 31
0.0
 11
12.7671094589
 21
7.8452437653
 31
0.0
 11
12.7697605427
 21
7.8482419273
 31
0.0
 11
12.7723491867
 21
7.8513618812
 31
0.0
 11
12.7748609795
 21
7.8546081941
 31
0.0
 11
12.7772815032
 21
7.8579854346
 31
0.0
 11
12.77959634
 21
7.8614981716
 31
0.0
 11
12.7817890024
 21
7.8651509629
 31
0.0
 11
12.7838332515
 21
7.8689483149
 31
0.0
 11
12.7856999788
 21
7.8728947192
 31
0.0
 11
12.7873600754
 21
7.8769946671
 31
0.0
 11
12.7887843216
 21
7.8812518128
 31
0.0
 11
12.7899419995
 21
7.8856584648
 31
0.0
 11
12.7908013119
 21
7.8901987644
 31
0.0
 11
12.7911091371
 21
7.8925140201
 31
0.0
 11
12.7913304381
 21
7.8948566732
 31
0.0
 11
12.7914612786
 21
7.8972247077
 31
0.0
 11
12.7915001084
 21
7.899615456
 31
0.0
 11
12.7914490302
 21
7.9020252534
 31
0.0
 11
12.7913104554
 21
7.9044503508
 31
0.0
 11
12.7907804621
 21
7.9093314488
 31
0.0
 11
12.7903938665
 21
7.9117799513
 31
0.0
 11
12.7899294202
 21
7.9142287573
 31
0.0
 11
12.7893895351
 21
7.9166741183
 31
0.0
 11
12.7887770355
 21
7.9191129659
 31
0.0
 11
12.7880959424
 21
7.9215442041
 31
0.0
 11
12.7873504922
 21
7.9239670925
 31
0.0
 11
12.7856834671
 21
7.9287848586
 31
0.0
 11
12.7838098525
 21
7.9335603412
 31
0.0
 11
12.7828061657
 21
7.9359303753
 31
0.0
 11
12.7817634905
 21
7.9382876431
 31
0.0
 11
12.7795729771
 21
7.9429635394
 31
0.0
 11
12.7772571628
 21
7.9475897694
 31
0.0
 11
12.7748338382
 21
7.9521686124
 31
0.0
 11
12.7723207933
 21
7.9567023479
 31
0.0
 11
12.7670854885
 21
7.9656429167
 31
0.0
 11
12.7616420244
 21
7.9744265059
 31
0.0
 11
12.7560675597
 21
7.9830669618
 31
0.0
 11
12.7504207539
 21
7.9915756107
 31
0.0
 11
12.7447524997
 21
7.9999611457
 31
0.0
 11
12.7391008124
 21
8.0082239042
 31
0.0
 11
12.7334990688
 21
8.0163608655
 31
0.0
 11
12.7279753897
 21
8.0243641498
 31
0.0
 11
12.7225566901
 21
8.0322224924
 31
0.0
 11
12.7172705308
 21
8.0399159977
 31
0.0
  0
SPLINE
  5
27E
100
AcDbEntity
  8
0
100
AcDbSpline
 62
6
  6
CONTINUOUS
 70
0
 71
3
 72
66
 73
62
 74
60
 42
0.0000001
 43
0.0000001
 44
0.0000000001
 12
0.2292673876
 22
0.1856775647
 32
0.0
 13
-0.191249521
 23
0.22464041
 33
0.0
 40
0.0
 40
0.0
 40
0.0
 40
0.0
 40
0.0233456286
 40
0.0478675349
 40
0.0734710916
 40
0.08664894
 40
0.1000626112
 40
0.1275660198
 40
0.1416422206
 40
0.155925675
 40
0.1704101351
 40
0.1850891837
 40
0.1999556118
 40
0.2150030443
 40
0.2302263177
 40
0.2456215752
 40
0.2611858742
 40
0.2769128472
 40
0.2927958883
 40
0.3088318898
 40
0.3250216485
 40
0.3331757773
 40
0.3413685354
 40
0.3578618165
 40
0.3744939586
 40
0.3912683643
 40
0.3997142962
 40
0.4082019849
 40
0.4252861493
 40
0.4424904604
 40
0.4511321082
 40
0.4597977777
 40
0.4684876746
 40
0.4772028142
 40
0.4859426568
 40
0.4947051374
 40
0.5122826841
 40
0.5299033462
 40
0.5387166656
 40
0.5475229592
 40
0.5651102184
 40
0.5826714217
 40
0.600200177
 40
0.6176769404
 40
0.6350783988
 40
0.6524009955
 40
0.6696426247
 40
0.6867968658
 40
0.7038544695
 40
0.7208092486
 40
0.7376554598
 40
0.7543858175
 40
0.7709920544
 40
0.7874675863
 40
0.8038062712
 40
0.8200013333
 40
0.8519302057
 40
0.8831894034
 40
0.9434102781
 40
0.9722107767
 40
1.0
 40
1.0
 40
1.0
 40
1.0
 10
12.7172705308
 20
8.0399159977
 30
0.0
 10
12.7190546612
 20
8.0413609176
 30
0.0
 10
12.7226670757
 20
8.0443803941
 30
0.0
 10
12.7280808126
 20
8.0491665562
 30
0.0
 10
12.7326367375
 20
8.0534100921
 30
0.0
 10
12.7363280396
 20
8.0569769594
 30
0.0
 10
12.7401082346
 20
8.0607201326
 30
0.0
 10
12.7438782792
 20
8.0645985976
 30
0.0
 10
12.7476285341
 20
8.0686132416
 30
0.0
 10
12.7504622809
 20
8.071731494
 30
0.0
 10
12.7532910932
 20
8.074933763
 30
0.0
 10
12.7561103387
 20
8.0782204016
 30
0.0
 10
12.7589120192
 20
8.0815943573
 30
0.0
 10
12.7616882444
 20
8.085058195
 30
0.0
 10
12.764431081
 20
8.0886144922
 30
0.0
 10
12.7671324011
 20
8.0922658966
 30
0.0
 10
12.7697844605
 20
8.0960141507
 30
0.0
 10
12.7723748205
 20
8.0998633832
 30
0.0
 10
12.7748886032
 20
8.1038182761
 30
0.0
 10
12.7773111921
 20
8.1078828624
 30
0.0
 10
12.7792369624
 20
8.1113565526
 30
0.0
 10
12.7807174612
 20
8.1141933083
 30
0.0
 10
12.7821605869
 20
8.1170826558
 30
0.0
 10
12.7838714799
 20
8.1207695351
 30
0.0
 10
12.7857432098
 20
8.125307546
 30
0.0
 10
12.7871275455
 20
8.1291856764
 30
0.0
 10
12.7881168059
 20
8.1323499159
 30
0.0
 10
12.7890259313
 20
8.1355697724
 30
0.0
 10
12.789993798
 20
8.1396662386
 30
0.0
 10
12.7907112094
 20
8.1438297847
 30
0.0
 10
12.7911221791
 20
8.147199291
 30
0.0
 10
12.791345124
 20
8.149746689
 30
0.0
 10
12.7914785415
 20
8.1523076068
 30
0.0
 10
12.7915183502
 20
8.154878989
 30
0.0
 10
12.7914669634
 20
8.1574572802
 30
0.0
 10
12.7912804619
 20
8.1609026066
 30
0.0
 10
12.7908329717
 20
8.1652057581
 30
0.0
 10
12.7901194145
 20
8.1694774576
 30
0.0
 10
12.7893989361
 20
8.1728677439
 30
0.0
 10
12.7885823649
 20
8.1762328074
 30
0.0
 10
12.7873902817
 20
8.1803900058
 30
0.0
 10
12.7857194709
 20
8.1852953936
 30
0.0
 10
12.783842075
 20
8.1901134676
 30
0.0
 10
12.7817910781
 20
8.1948426866
 30
0.0
 10
12.7795973778
 20
8.1994847573
 30
0.0
 10
12.777279285
 20
8.2040398924
 30
0.0
 10
12.7748542845
 20
8.2085112252
 30
0.0
 10
12.7723393154
 20
8.2129024273
 30
0.0
 10
12.7697514434
 20
8.2172181013
 30
0.0
 10
12.7671017451
 20
8.2214603614
 30
0.0
 10
12.7644001934
 20
8.2256314412
 30
0.0
 10
12.7616567559
 20
8.2297338655
 30
0.0
 10
12.7588814371
 20
8.2337705883
 30
0.0
 10
12.7560815102
 20
8.2377432231
 30
0.0
 10
12.753263577
 20
8.2416533502
 30
0.0
 10
12.7495090237
 20
8.246761352
 30
0.0
 10
12.7448091801
 20
8.2529951976
 30
0.0
 10
12.7373684624
 20
8.2625832307
 30
0.0
 10
12.729955807
 20
8.2718023833
 30
0.0
 10
12.7226301696
 20
8.2806508946
 30
0.0
 10
12.7190420893
 20
8.2849050021
 30
0.0
 10
12.7172705308
 20
8.2869858629
 30
0.0
 11
12.7172705308
 21
8.0399159977
 31
0.0
 11
12.72255802
 21
8.0443296911
 31
0.0
 11
12.7279805312
 21
8.0491187849
 31
0.0
 11
12.7335099088
 21
8.0542650619
 31
0.0
 11
12.736305873
 21
8.0569664546
 31
0.0
 11
12.7391178016
 21
8.0597510213
 31
0.0
 11
12.7447729133
 21
8.0655699385
 31
0.0
 11
12.7476076888
 21
8.0686047438
 31
0.0
 11
12.7504416723
 21
8.0717234167
 31
0.0
 11
12.7532706588
 21
8.0749261853
 31
0.0
 11
12.7560895727
 21
8.0782138221
 31
0.0
 11
12.7588908837
 21
8.0815886346
 31
0.0
 11
12.7616666323
 21
8.0850531983
 31
0.0
 11
12.7644088591
 21
8.088610089
 31
0.0
 11
12.7671096046
 21
8.0922618824
 31
0.0
 11
12.769760547
 21
8.0960112349
 31
0.0
 11
12.7723494212
 21
8.0998616799
 31
0.0
 11
12.7748615403
 21
8.1038172895
 31
0.0
 11
12.7772821823
 21
8.1078821437
 31
0.0
 11
12.7795966254
 21
8.1120603226
 31
0.0
 11
12.780709364
 21
8.1141931765
 31
0.0
 11
12.7817889335
 21
8.116355755
 31
0.0
 11
12.7838337193
 21
8.1207711953
 31
0.0
 11
12.7857011638
 21
8.1253088467
 31
0.0
 11
12.7873614227
 21
8.1299709094
 31
0.0
 11
12.7881045313
 21
8.1323492826
 31
0.0
 11
12.7887846437
 21
8.1347592331
 31
0.0
 11
12.7899407287
 21
8.1396651099
 31
0.0
 11
12.7907992974
 21
8.1446676685
 31
0.0
 11
12.7911075142
 21
8.1471984706
 31
0.0
 11
12.7913299534
 21
8.1497453637
 31
0.0
 11
12.7914628153
 21
8.1523056546
 31
0.0
 11
12.7915031582
 21
8.1548765213
 31
0.0
 11
12.7914523593
 21
8.1574544921
 31
0.0
 11
12.7913131519
 21
8.1600358913
 31
0.0
 11
12.7907804473
 21
8.1651942721
 31
0.0
 11
12.7899269158
 21
8.1703222582
 31
0.0
 11
12.7893866747
 21
8.1728656639
 31
0.0
 11
12.7887744874
 21
8.1753905847
 31
0.0
 11
12.7873491189
 21
8.1803796446
 31
0.0
 11
12.7856833165
 21
8.1852855374
 31
0.0
 11
12.783810187
 21
8.1901058033
 31
0.0
 11
12.7817628374
 21
8.194837983
 31
0.0
 11
12.7795715308
 21
8.1994806903
 31
0.0
 11
12.7772558762
 21
8.2040365601
 31
0.0
 11
12.7748329877
 21
8.2085091689
 31
0.0
 11
12.7723199796
 21
8.2129020933
 31
0.0
 11
12.7697332229
 21
8.2172187957
 31
0.0
 11
12.7670844922
 21
8.2214620316
 31
0.0
 11
12.7643838063
 21
8.2256342865
 31
0.0
 11
12.7616411807
 21
8.2297380455
 31
0.0
 11
12.7588663232
 21
8.2337757243
 31
0.0
 11
12.756066786
 21
8.2377492517
 31
0.0
 11
12.7532491983
 21
8.241660348
 31
0.0
 11
12.7504201861
 21
8.245510733
 31
0.0
 11
12.744751969
 21
8.253034308
 31
0.0
 11
12.7391003959
 21
8.260321932
 31
0.0
 11
12.7279751987
 21
8.2741741561
 31
0.0
 11
12.7225566152
 21
8.2807190515
 31
0.0
 11
12.7172705308
 21
8.2869858629
 31
0.0
  0
SPLINE
  5
27F
100
AcDbEntity
  8
0
100
AcDbSpline
 62
6
  6
CONTINUOUS
 70
0
 71
3
 72
64
 73
60
 74
58
 42
0.0000001
 43
0.0000001
 44
0.0000000001
 12
0.1912487149
 22
0.2246394631
 32
0.0
 13
-0.2292664212
 23
0.1856767821
 33
0.0
 40
0.0
 40
0.0
 40
0.0
 40
0.0
 40
0.0277949907
 40
0.0566161235
 40
0.0863540237
 40
0.1015328268
 40
0.1169018629
 40
0.1481775595
 40
0.1640689697
 40
0.1801194407
 40
0.1963218182
 40
0.2126686967
 40
0.2291520823
 40
0.2457645998
 40
0.2624997428
 40
0.279351976
 40
0.2963160324
 40
0.3133825876
 40
0.3305423636
 40
0.34778893
 40
0.365119079
 40
0.3825290058
 40
0.4000005779
 40
0.4175184659
 40
0.4350776822
 40
0.4526819613
 40
0.4703051484
 40
0.4879040089
 40
0.496686107
 40
0.5054532554
 40
0.5142050058
 40
0.522941422
 40
0.5316613814
 40
0.5403628933
 40
0.5576967153
 40
0.5663240062
 40
0.5749182752
 40
0.5834745452
 40
0.5919896721
 40
0.6089055231
 40
0.6256844007
 40
0.6423278699
 40
0.6505957817
 40
0.6588241105
 40
0.6751601635
 40
0.6913424806
 40
0.707373618
 40
0.7232508871
 40
0.7545226313
 40
0.7851306495
 40
0.8001720009
 40
0.8150307523
 40
0.8441789418
 40
0.8725264813
 40
0.9000150299
 40
0.9265807347
 40
0.9521540317
 40
0.9766587915
 40
1.0
 40
1.0
 40
1.0
 40
1.0
 10
12.7172705308
 20
8.2869858629
 30
0.0
 10
12.7190424495
 20
8.2890671468
 30
0.0
 10
12.7226326127
 20
8.2933228479
 30
0.0
 10
12.7280484774
 20
8.2998640391
 30
0.0
 10
12.7326188855
 20
8.3054940533
 30
0.0
 10
12.7363205437
 20
8.3101250357
 30
0.0
 10
12.7400913291
 20
8.3148942504
 30
0.0
 10
12.7438621282
 20
8.3197527169
 30
0.0
 10
12.7476215337
 20
8.324704205
 30
0.0
 10
12.7504554592
 20
8.3284970226
 30
0.0
 10
12.7532846171
 20
8.33234912
 30
0.0
 10
12.756104108
 20
8.3362609222
 30
0.0
 10
12.7589058583
 20
8.3402349352
 30
0.0
 10
12.7616820964
 20
8.3442732662
 30
0.0
 10
12.7644249709
 20
8.3483780693
 30
0.0
 10
12.7671264728
 20
8.3525514956
 30
0.0
 10
12.7697788094
 20
8.3567948799
 30
0.0
 10
12.7723689439
 20
8.3611119208
 30
0.0
 10
12.7748824011
 20
8.3655061894
 30
0.0
 10
12.7773048516
 20
8.3699808984
 30
0.0
 10
12.7796215657
 20
8.3745389775
 30
0.0
 10
12.78181743
 20
8.3791811786
 30
0.0
 10
12.7838654015
 20
8.3839109468
 30
0.0
 10
12.785736462
 20
8.3887295591
 30
0.0
 10
12.7874014188
 20
8.3936374003
 30
0.0
 10
12.788829384
 20
8.398630597
 30
0.0
 10
12.7899909045
 20
8.4036967297
 30
0.0
 10
12.79071172
 20
8.4079667096
 30
0.0
 10
12.7911233111
 20
8.4113991562
 30
0.0
 10
12.7913454274
 20
8.4139765974
 30
0.0
 10
12.7914766805
 20
8.4165557904
 30
0.0
 10
12.7915150742
 20
8.4191333793
 30
0.0
 10
12.7914637157
 20
8.4217058029
 30
0.0
 10
12.7912788247
 20
8.4251191787
 30
0.0
 10
12.7909240894
 20
8.4285123869
 30
0.0
 10
12.7904076542
 20
8.4318715572
 30
0.0
 10
12.7899431082
 20
8.4343641075
 30
0.0
 10
12.7894030902
 20
8.4368300806
 30
0.0
 10
12.7885874145
 20
8.4400718263
 30
0.0
 10
12.7873968672
 20
8.4440509492
 30
0.0
 10
12.7857250689
 20
8.4487125755
 30
0.0
 10
12.7841568368
 20
8.4525022929
 30
0.0
 10
12.7828150927
 20
8.4554724692
 30
0.0
 10
12.7814277634
 20
8.4583881932
 30
0.0
 10
12.7796045239
 20
8.4619575319
 30
0.0
 10
12.7772862106
 20
8.4661322775
 30
0.0
 10
12.7748606695
 20
8.4701930588
 30
0.0
 10
12.7715244692
 20
8.4754353635
 30
0.0
 10
12.7671774965
 20
8.481730102
 30
0.0
 10
12.7626100262
 20
8.4877626104
 30
0.0
 10
12.7588883697
 20
8.4924058775
 30
0.0
 10
12.7551790027
 20
8.4968739255
 30
0.0
 10
12.750502596
 20
8.5022383605
 30
0.0
 10
12.7448368244
 20
8.508383459
 30
0.0
 10
12.739188305
 20
8.5141951068
 30
0.0
 10
12.7335919183
 20
8.5196734597
 30
0.0
 10
12.7280744323
 20
8.5248095766
 30
0.0
 10
12.722664717
 20
8.5295925357
 30
0.0
 10
12.7190543159
 20
8.5326110879
 30
0.0
 10
12.7172705308
 20
8.5340557281
 30
0.0
 11
12.7172705308
 21
8.2869858629
 31
0.0
 11
12.7225580536
 21
8.2932536418
 31
0.0
 11
12.7279805527
 21
8.2998031521
 31
0.0
 11
12.7335098666
 21
8.30661483
 31
0.0
 11
12.736305777
 21
8.310112875
 31
0.0
 11
12.7391176202
 21
8.3136699486
 31
0.0
 11
12.7447725518
 21
8.3209610787
 31
0.0
 11
12.7476072953
 21
8.3246953496
 31
0.0
 11
12.7504413276
 21
8.3284889009
 31
0.0
 11
12.7532704698
 21
8.3323418431
 31
0.0
 11
12.7560894555
 21
8.3362548865
 31
0.0
 11
12.7588907131
 21
8.340230011
 31
0.0
 11
12.7616663767
 21
8.3442693591
 31
0.0
 11
12.7644085805
 21
8.3483750728
 31
0.0
 11
12.7671094589
 21
8.3525492944
 31
0.0
 11
12.7697605427
 21
8.3567942629
 31
0.0
 11
12.7723491867
 21
8.3611128883
 31
0.0
 11
12.7748609795
 21
8.3655083641
 31
0.0
 11
12.7772815032
 21
8.3699838848
 31
0.0
 11
12.77959634
 21
8.3745426451
 31
0.0
 11
12.7817890024
 21
8.3791874511
 31
0.0
 11
12.7838332515
 21
8.383919279
 31
0.0
 11
12.7856999788
 21
8.3887385665
 31
0.0
 11
12.7873600754
 21
8.393645751
 31
0.0
 11
12.7887843216
 21
8.3986403304
 31
0.0
 11
12.7899419995
 21
8.4037090636
 31
0.0
 11
12.7908013119
 21
8.4088295401
 31
0.0
 11
12.7911091371
 21
8.4114021156
 31
0.0
 11
12.7913304381
 21
8.4139791472
 31
0.0
 11
12.7914612786
 21
8.4165578033
 31
0.0
 11
12.7915001084
 21
8.4191349603
 31
0.0
 11
12.7914490302
 21
8.4217070475
 31
0.0
 11
12.7913104554
 21
8.4242704565
 31
0.0
 11
12.7907804621
 21
8.4293568063
 31
0.0
 11
12.7903938665
 21
8.4318725301
 31
0.0
 11
12.7899294202
 21
8.434365142
 31
0.0
 11
12.7893895351
 21
8.4368310344
 31
0.0
 11
12.7887770355
 21
8.4392673865
 31
0.0
 11
12.7873504922
 21
8.4440497317
 31
0.0
 11
12.7856834671
 21
8.4487107583
 31
0.0
 11
12.7838098525
 21
8.4532494587
 31
0.0
 11
12.7828061657
 21
8.4554726217
 31
0.0
 11
12.7817634905
 21
8.4576648434
 31
0.0
 11
12.7795729771
 21
8.4619577962
 31
0.0
 11
12.7772571628
 21
8.4661326818
 31
0.0
 11
12.7748338382
 21
8.4701942432
 31
0.0
 11
12.7723207933
 21
8.4741472235
 31
0.0
 11
12.7670854885
 21
8.4817438607
 31
0.0
 11
12.7616420244
 21
8.4889488045
 31
0.0
 11
12.7588672075
 21
8.4924117919
 31
0.0
 11
12.7560675597
 21
8.4957850174
 31
0.0
 11
12.7504207539
 21
8.5022706445
 31
0.0
 11
12.7447524997
 21
8.5084199471
 31
0.0
 11
12.7391008124
 21
8.5142360313
 31
0.0
 11
12.7334990688
 21
8.5197175506
 31
0.0
 11
12.7279753897
 21
8.5248568
 31
0.0
 11
12.7225566901
 21
8.5296425217
 31
0.0
 11
12.7172705308
 21
8.5340557281
 31
0.0
  0
SPLINE
  5
280
100
AcDbEntity
  8
0
100
AcDbSpline
 62
6
  6
CONTINUOUS
 70
0
 71
3
 72
65
 73
61
 74
59
 42
0.0000001
 43
0.0000001
 44
0.0000000001
 12
0.1601964583
 22
0.2337693445
 32
0.0
 13
-0.2640268212
 23
0.1029604262
 33
0.0
 40
0.0
 40
0.0
 40
0.0
 40
0.0
 40
0.0329447585
 40
0.0666505195
 40
0.1010041662
 40
0.1183885982
 40
0.1358944582
 40
0.1712362161
 40
0.1890557931
 40
0.206963755
 40
0.2249521936
 40
0.2430126041
 40
0.2611351978
 40
0.2793104752
 40
0.2975295445
 40
0.3157842331
 40
0.334066269
 40
0.3523621332
 40
0.3706575606
 40
0.3889407296
 40
0.407202687
 40
0.4254329425
 40
0.4436032719
 40
0.4616869516
 40
0.479667444
 40
0.497537197
 40
0.515259871
 40
0.5327837465
 40
0.5414609492
 40
0.5500775491
 40
0.5586329029
 40
0.5671279251
 40
0.5755636736
 40
0.583940527
 40
0.6005131294
 40
0.6087093074
 40
0.6168421129
 40
0.6249092047
 40
0.6329100587
 40
0.6487311595
 40
0.6643418027
 40
0.6797581551
 40
0.6873943646
 40
0.6949804465
 40
0.7100037552
 40
0.7248407397
 40
0.7394983946
 40
0.7539771057
 40
0.7682734939
 40
0.7823870725
 40
0.8100530008
 40
0.8235977387
 40
0.8369438929
 40
0.8630220205
 40
0.8882469608
 40
0.9125740907
 40
0.9359571371
 40
0.9583518554
 40
0.9797152991
 40
1.0
 40
1.0
 40
1.0
 40
1.0
 10
12.7172705308
 20
8.5340557281
 30
0.0
 10
12.719029742
 20
8.5366228863
 30
0.0
 10
12.7225967439
 20
8.541811059
 30
0.0
 10
12.7280149186
 20
8.5496646548
 30
0.0
 10
12.732600379
 20
8.5563069815
 30
0.0
 10
12.7363128418
 20
8.5616924326
 30
0.0
 10
12.7400737853
 20
8.5671578284
 30
0.0
 10
12.7438452553
 20
8.5726658897
 30
0.0
 10
12.7476144316
 20
8.5782214634
 30
0.0
 10
12.7504484707
 20
8.582430515
 30
0.0
 10
12.7532777186
 20
8.5866701714
 30
0.0
 10
12.7560972498
 20
8.5909406246
 30
0.0
 10
12.7588990227
 20
8.5952438458
 30
0.0
 10
12.7616752673
 20
8.5995814075
 30
0.0
 10
12.7644181369
 20
8.6039549151
 30
0.0
 10
12.7671196235
 20
8.6083659617
 30
0.0
 10
12.7697719008
 20
8.6128152628
 30
0.0
 10
12.7723619569
 20
8.6173055896
 30
0.0
 10
12.774875341
 20
8.6218394869
 30
0.0
 10
12.7772977391
 20
8.6264191259
 30
0.0
 10
12.7796144205
 20
8.6310463575
 30
0.0
 10
12.7818101648
 20
8.6357205927
 30
0.0
 10
12.7838580961
 20
8.6404434025
 30
0.0
 10
12.7857292856
 20
8.6452139961
 30
0.0
 10
12.7873946152
 20
8.6500306695
 30
0.0
 10
12.7888232957
 20
8.6548877187
 30
0.0
 10
12.7899858371
 20
8.6597712804
 30
0.0
 10
12.7907096625
 20
8.6638598777
 30
0.0
 10
12.7911226055
 20
8.6671234178
 30
0.0
 10
12.791344949
 20
8.6695556269
 30
0.0
 10
12.7914764558
 20
8.6719772425
 30
0.0
 10
12.7915150946
 20
8.6743850235
 30
0.0
 10
12.7914639493
 20
8.6767757212
 30
0.0
 10
12.791279743
 20
8.6799245756
 30
0.0
 10
12.7909258776
 20
8.683038898
 30
0.0
 10
12.7904084922
 20
8.686104046
 30
0.0
 10
12.7899440365
 20
8.688361834
 30
0.0
 10
12.789404079
 20
8.690583757
 30
0.0
 10
12.7885897078
 20
8.6934844939
 30
0.0
 10
12.7874009798
 20
8.6970177881
 30
0.0
 10
12.7857290186
 20
8.7011179605
 30
0.0
 10
12.7841590689
 20
8.7044177192
 30
0.0
 10
12.7828160077
 20
8.7069817402
 30
0.0
 10
12.7814298164
 20
8.7094803335
 30
0.0
 10
12.7796079349
 20
8.7125138964
 30
0.0
 10
12.7772894981
 20
8.7160238113
 30
0.0
 10
12.7748639374
 20
8.7193972243
 30
0.0
 10
12.7723490468
 20
8.7226399254
 30
0.0
 10
12.7697614795
 20
8.7257583368
 30
0.0
 10
12.7662521642
 20
8.7297271768
 30
0.0
 10
12.7626181212
 20
8.7334875695
 30
0.0
 10
12.7588919382
 20
8.7370484438
 30
0.0
 10
12.7551874957
 20
8.7404127671
 30
0.0
 10
12.7505179492
 20
8.7443524242
 30
0.0
 10
12.7448523143
 20
8.7487085192
 30
0.0
 10
12.7392036518
 20
8.7526574475
 30
0.0
 10
12.733606203
 20
8.7562009498
 30
0.0
 10
12.728086739
 20
8.7593308589
 30
0.0
 10
12.7226735044
 20
8.7620382668
 30
0.0
 10
12.7190557658
 20
8.7635920164
 30
0.0
 10
12.7172705308
 20
8.7642881902
 30
0.0
 11
12.7172705308
 21
8.5340557281
 31
0.0
 11
12.7225580536
 21
8.5417504165
 31
0.0
 11
12.7279805527
 21
8.54961401
 31
0.0
 11
12.7335098666
 21
8.5576269732
 31
0.0
 11
12.736305777
 21
8.5616833702
 31
0.0
 11
12.7391176202
 21
8.565770577
 31
0.0
 11
12.7447725518
 21
8.5740369791
 31
0.0
 11
12.7476072953
 21
8.5782162102
 31
0.0
 11
12.7504413276
 21
8.5824261519
 31
0.0
 11
12.7532704698
 21
8.5866668248
 31
0.0
 11
12.7560894555
 21
8.5909387142
 31
0.0
 11
12.7588907131
 21
8.59524329
 31
0.0
 11
12.7616663767
 21
8.599582148
 31
0.0
 11
12.7644085805
 21
8.6039568836
 31
0.0
 11
12.7671094589
 21
8.6083690926
 31
0.0
 11
12.7697605427
 21
8.6128204219
 31
0.0
 11
12.7723491867
 21
8.6173128735
 31
0.0
 11
12.7748609795
 21
8.6218485997
 31
0.0
 11
12.7772815032
 21
8.6264297535
 31
0.0
 11
12.77959634
 21
8.6310584877
 31
0.0
 11
12.7817890024
 21
8.6357364114
 31
0.0
 11
12.7838332515
 21
8.6404625726
 31
0.0
 11
12.7856999788
 21
8.6452352651
 31
0.0
 11
12.7873600754
 21
8.6500527829
 31
0.0
 11
12.7887843216
 21
8.6549125239
 31
0.0
 11
12.7899419995
 21
8.6597997443
 31
0.0
 11
12.7908013119
 21
8.6646909595
 31
0.0
 11
12.7911091371
 21
8.6671306662
 31
0.0
 11
12.7913304381
 21
8.6695624928
 31
0.0
 11
12.7914612786
 21
8.6719834784
 31
0.0
 11
12.7915001084
 21
8.6743905864
 31
0.0
 11
12.7914490302
 21
8.676780664
 31
0.0
 11
12.7913104554
 21
8.6791505491
 31
0.0
 11
12.7907804621
 21
8.6838170916
 31
0.0
 11
12.7903938665
 21
8.6861074242
 31
0.0
 11
12.7899294202
 21
8.6883649145
 31
0.0
 11
12.7893895351
 21
8.6905864009
 31
0.0
 11
12.7887770355
 21
8.6927694828
 31
0.0
 11
12.7873504922
 21
8.6970200594
 31
0.0
 11
12.7856834671
 21
8.7011178872
 31
0.0
 11
12.7838098525
 21
8.7050646071
 31
0.0
 11
12.7828061657
 21
8.7069818145
 31
0.0
 11
12.7817634905
 21
8.7088618724
 31
0.0
 11
12.7795729771
 21
8.7125126025
 31
0.0
 11
12.7772571628
 21
8.7160220695
 31
0.0
 11
12.7748338382
 21
8.7193958011
 31
0.0
 11
12.7723207933
 21
8.7226393254
 31
0.0
 11
12.7697342679
 21
8.7257577209
 31
0.0
 11
12.7670854885
 21
8.7287546137
 31
0.0
 11
12.7616420244
 21
8.7343972227
 31
0.0
 11
12.7588672075
 21
8.7370494375
 31
0.0
 11
12.7560675597
 21
8.7395924585
 31
0.0
 11
12.7504207539
 21
8.7443601196
 31
0.0
 11
12.7447524997
 21
8.7487158744
 31
0.0
 11
12.7391008124
 21
8.7526639411
 31
0.0
 11
12.7334990688
 21
8.7562039789
 31
0.0
 11
12.7279753897
 21
8.7593291703
 31
0.0
 11
12.7225566901
 21
8.7620294253
 31
0.0
 11
12.7172705308
 21
8.7642881902
 31
0.0
  0
SPLINE
  5
281
100
AcDbEntity
  8
0
100
AcDbSpline
 62
6
  6
CONTINUOUS
 70
0
 71
3
 72
64
 73
60
 74
58
 42
0.0000001
 43
0.0000001
 44
0.0000000001
 12
0.1367675881
 22
0.2249133841
 32
0.0
 13
-0.2628130889
 23
-0.014855431
 33
0.0
 40
0.0
 40
0.0
 40
0.0
 40
0.0
 40
0.0383435129
 40
0.0771018352
 40
0.1161623958
 40
0.1357705133
 40
0.1554129949
 40
0.1947644949
 40
0.2144558393
 40
0.234145736
 40
0.2538253033
 40
0.2734846615
 40
0.3126911093
 40
0.33221241
 40
0.351662536
 40
0.371029182
 40
0.3902933066
 40
0.4094324739
 40
0.4284263202
 40
0.4472571423
 40
0.4566067983
 40
0.4659077374
 40
0.4843375694
 40
0.5025013485
 40
0.5203641232
 40
0.5379037618
 40
0.5550849846
 40
0.5718521822
 40
0.5800696654
 40
0.588172392
 40
0.5961603764
 40
0.6040362934
 40
0.611805949
 40
0.6194751705
 40
0.6345286539
 40
0.6492341568
 40
0.6564661142
 40
0.6636209084
 40
0.6777294958
 40
0.6916221988
 40
0.7053346151
 40
0.7121288623
 40
0.7188811935
 40
0.7322655234
 40
0.7455067494
 40
0.7586148079
 40
0.7715905225
 40
0.7844303498
 40
0.7971355557
 40
0.8097054195
 40
0.8221357761
 40
0.84655476
 40
0.8703740068
 40
0.8935637653
 40
0.9161098249
 40
0.938006567
 40
0.9592665651
 40
0.979917087
 40
1.0
 40
1.0
 40
1.0
 40
1.0
 10
12.7172705308
 20
8.7642881902
 30
0.0
 10
12.7190185807
 20
8.7671628466
 30
0.0
 10
12.7225645238
 20
8.7729244888
 30
0.0
 10
12.7279843261
 20
8.7815567789
 30
0.0
 10
12.7325834853
 20
8.7887629157
 30
0.0
 10
12.7363061766
 20
8.7945384765
 30
0.0
 10
12.7400577732
 20
8.8003257513
 30
0.0
 10
12.7438297386
 20
8.8061084936
 30
0.0
 10
12.7476086399
 20
8.8118916652
 30
0.0
 10
12.750442744
 20
8.8162302709
 30
0.0
 10
12.7532718387
 20
8.8205687983
 30
0.0
 10
12.7570274381
 20
8.8263475262
 30
0.0
 10
12.7607499019
 20
8.8321312819
 30
0.0
 10
12.7644121244
 20
8.8379315975
 30
0.0
 10
12.7671133797
 20
8.8422797185
 30
0.0
 10
12.7697652453
 20
8.8466317631
 30
0.0
 10
12.7723554038
 20
8.8509891582
 30
0.0
 10
12.7748689776
 20
8.8553535472
 30
0.0
 10
12.7772913292
 20
8.8597258784
 30
0.0
 10
12.7792260575
 20
8.8633855552
 30
0.0
 10
12.7807134311
 20
8.8663188579
 30
0.0
 10
12.7821487801
 20
8.8692388007
 30
0.0
 10
12.7838503057
 20
8.8728893779
 30
0.0
 10
12.7857222828
 20
8.877286809
 30
0.0
 10
12.7873882934
 20
8.8816833521
 30
0.0
 10
12.7888170494
 20
8.886072618
 30
0.0
 10
12.7899785856
 20
8.8904410614
 30
0.0
 10
12.7907051328
 20
8.8940719884
 30
0.0
 10
12.7911201255
 20
8.8969460031
 30
0.0
 10
12.7913436428
 20
8.8990677383
 30
0.0
 10
12.7914777543
 20
8.9011670364
 30
0.0
 10
12.7915184763
 20
8.9032410216
 30
0.0
 10
12.7914682071
 20
8.9052868348
 30
0.0
 10
12.7912846286
 20
8.9079567747
 30
0.0
 10
12.7908444662
 20
8.9112157888
 30
0.0
 10
12.7901290324
 20
8.9143862169
 30
0.0
 10
12.789404118
 20
8.9168345496
 30
0.0
 10
12.7885899572
 20
8.9191993098
 30
0.0
 10
12.7874013439
 20
8.9220499948
 30
0.0
 10
12.7857288097
 20
8.9253093931
 30
0.0
 10
12.7841588096
 20
8.9278903083
 30
0.0
 10
12.7828163481
 20
8.9298702389
 30
0.0
 10
12.7814301208
 20
8.9317843551
 30
0.0
 10
12.779607217
 20
8.9340788826
 30
0.0
 10
12.7772882021
 20
8.9366843733
 30
0.0
 10
12.7748621926
 20
8.9391401284
 30
0.0
 10
12.7723471841
 20
8.9414525554
 30
0.0
 10
12.7697593205
 20
8.9436284091
 30
0.0
 10
12.7671093124
 20
8.9456701376
 30
0.0
 10
12.7644075715
 20
8.9475812571
 30
0.0
 10
12.7607717053
 20
8.9499458032
 30
0.0
 10
12.7561499542
 20
8.9525977105
 30
0.0
 10
12.7505004382
 20
8.9553225756
 30
0.0
 10
12.7448299664
 20
8.9575924727
 30
0.0
 10
12.7391751386
 20
8.959408624
 30
0.0
 10
12.7335686761
 20
8.960773697
 30
0.0
 10
12.728037831
 20
8.9616800491
 30
0.0
 10
12.7226099913
 20
8.9621202898
 30
0.0
 10
12.7190298815
 20
8.9620927343
 30
0.0
 10
12.7172705308
 20
8.9619932876
 30
0.0
 11
12.7172705308
 21
8.7642881902
 31
0.0
 11
12.7225581602
 21
8.7728855693
 31
0.0
 11
12.7279808242
 21
8.7815276052
 31
0.0
 11
12.7335103684
 21
8.7901961653
 31
0.0
 11
12.7363064217
 21
8.7945347279
 31
0.0
 11
12.739118445
 21
8.7988737398
 31
0.0
 11
12.7447737475
 21
8.8075523401
 31
0.0
 11
12.7476086073
 21
8.8118918383
 31
0.0
 11
12.75044266
 21
8.8162314086
 31
0.0
 11
12.7532716953
 21
8.8205710061
 31
0.0
 11
12.7560906643
 21
8.8249108072
 31
0.0
 11
12.7616678722
 21
8.8335944542
 31
0.0
 11
12.7644101658
 21
8.8379401964
 31
0.0
 11
12.7671109557
 21
8.8422898153
 31
0.0
 11
12.7697619417
 21
8.8466442602
 31
0.0
 11
12.7723509267
 21
8.851004495
 31
0.0
 11
12.7748631583
 21
8.8553714926
 31
0.0
 11
12.7772838399
 21
8.8597462265
 31
0.0
 11
12.7795981746
 21
8.8641296701
 31
0.0
 11
12.7807107997
 21
8.8663249485
 31
0.0
 11
12.7817903105
 21
8.8685224198
 31
0.0
 11
12.783835118
 21
8.8729217596
 31
0.0
 11
12.7857026493
 21
8.8773232532
 31
0.0
 11
12.7873629157
 21
8.8817224495
 31
0.0
 11
12.788785926
 21
8.8861146897
 31
0.0
 11
12.7899415911
 21
8.8904872031
 31
0.0
 11
12.7907996946
 21
8.8948166567
 31
0.0
 11
12.7911077154
 21
8.8969577233
 31
0.0
 11
12.7913300115
 21
8.8990790094
 31
0.0
 11
12.7914628046
 21
8.9011775099
 31
0.0
 11
12.7915032796
 21
8.9032503129
 31
0.0
 11
12.7914528805
 21
8.9052949185
 31
0.0
 11
12.7913142283
 21
8.9073089406
 31
0.0
 11
12.7907826494
 21
8.9112356907
 31
0.0
 11
12.7899295121
 21
8.9150114752
 31
0.0
 11
12.7893889119
 21
8.9168367904
 31
0.0
 11
12.7887760289
 21
8.9186176543
 31
0.0
 11
12.7873493601
 21
8.9220465353
 31
0.0
 11
12.7856828132
 21
8.9253017405
 31
0.0
 11
12.7838099791
 21
8.9283874138
 31
0.0
 11
12.7828067015
 21
8.9298679711
 31
0.0
 11
12.7817643816
 21
8.9313077071
 31
0.0
 11
12.7795741714
 21
8.9340673921
 31
0.0
 11
12.7772582904
 21
8.9366723031
 31
0.0
 11
12.7748347756
 21
8.9391283788
 31
0.0
 11
12.7723216615
 21
8.9414415571
 31
0.0
 11
12.7697351373
 21
8.9436171843
 31
0.0
 11
12.7670863177
 21
8.94565898
 31
0.0
 11
12.7643854533
 21
8.9475703868
 31
0.0
 11
12.7616427945
 21
8.949354847
 31
0.0
 11
12.7560682506
 21
8.9525551606
 31
0.0
 11
12.7504213088
 21
8.9552800419
 31
0.0
 11
12.7447529604
 21
8.9575455023
 31
0.0
 11
12.7391011799
 21
8.9593565563
 31
0.0
 11
12.7334993456
 21
8.9607139125
 31
0.0
 11
12.7279755693
 21
8.9616121022
 31
0.0
 11
12.7225567755
 21
8.9620428928
 31
0.0
 11
12.7172705308
 21
8.9619932876
 31
0.0
  0
SPLINE
  5
282
100
AcDbEntity
  8
0
100
AcDbSpline
 62
6
  6
CONTINUOUS
 70
0
 71
3
 72
62
 73
58
 74
56
 42
0.0000001
 43
0.0000001
 44
0.0000000001
 12
0.1073413858
 22
0.1843749854
 32
0.0
 13
-0.2128516222
 23
-0.0145084554
 33
0.0
 40
0.0
 40
0.0
 40
0.0
 40
0.0
 40
0.0830828837
 40
0.1245630935
 40
0.1658999063
 40
0.2070201918
 40
0.2478668546
 40
0.2883846935
 40
0.308502648
 40
0.3285160343
 40
0.3681814318
 40
0.4072817106
 40
0.4265889793
 40
0.4457173086
 40
0.4833542559
 40
0.5018178958
 40
0.5200163934
 40
0.5379300916
 40
0.5555345915
 40
0.572785282
 40
0.5896371972
 40
0.6060516799
 40
0.6219981774
 40
0.6374492047
 40
0.6523597019
 40
0.6666923692
 40
0.6736370408
 40
0.6804330599
 40
0.6870825985
 40
0.6935902407
 40
0.6999646543
 40
0.7062159989
 40
0.7183855701
 40
0.7301807908
 40
0.7416762574
 40
0.7473357382
 40
0.7529472812
 40
0.7640671102
 40
0.7751147268
 40
0.786141081
 40
0.7971739981
 40
0.8026967401
 40
0.8082231525
 40
0.8192939946
 40
0.8304020987
 40
0.8415533338
 40
0.8527458304
 40
0.8639716013
 40
0.8752266516
 40
0.8865103151
 40
0.8978192854
 40
0.9091477542
 40
0.9318348893
 40
0.9545525364
 40
0.9659168656
 40
0.9772793456
 40
1.0
 40
1.0
 40
1.0
 40
1.0
 10
12.7172705308
 20
8.9619932876
 30
0.0
 10
12.7202432747
 20
8.9670994227
 30
0.0
 10
12.7248107317
 20
8.9746910313
 30
0.0
 10
12.7310758336
 20
8.9846882466
 30
0.0
 10
12.7358389333
 20
8.9921044305
 30
0.0
 10
12.7406517791
 20
8.9994344962
 30
0.0
 10
12.7454924001
 20
9.0066762513
 30
0.0
 10
12.7495413313
 20
9.0126504407
 30
0.0
 10
12.7527752929
 20
9.0173871172
 30
0.0
 10
12.7559834666
 20
9.0220679865
 30
0.0
 10
12.7599620075
 20
9.027857411
 30
0.0
 10
12.7638993444
 20
9.0336142323
 30
0.0
 10
12.7669903411
 20
9.0381804008
 30
0.0
 10
12.7700041424
 20
9.0426730725
 30
0.0
 10
12.7729455327
 20
9.0471421666
 30
0.0
 10
12.7757835242
 20
9.0515992245
 30
0.0
 10
12.7778279149
 20
9.0548984452
 30
0.0
 10
12.7797925685
 20
9.0581747642
 30
0.0
 10
12.7816671918
 20
9.0614259206
 30
0.0
 10
12.7834349142
 20
9.0646507063
 30
0.0
 10
12.7850778635
 20
9.0678461151
 30
0.0
 10
12.786577967
 20
9.0710088934
 30
0.0
 10
12.7879169157
 20
9.0741353795
 30
0.0
 10
12.7890755946
 20
9.0772194366
 30
0.0
 10
12.7900355888
 20
9.0802511321
 30
0.0
 10
12.7906601796
 20
9.0827499316
 30
0.0
 10
12.7910371186
 20
9.0847109055
 30
0.0
 10
12.7912544651
 20
9.0861449969
 30
0.0
 10
12.7914070475
 20
9.0875562217
 30
0.0
 10
12.7914919272
 20
9.0889431389
 30
0.0
 10
12.7915095092
 20
9.0903042666
 30
0.0
 10
12.7914461584
 20
9.0920670111
 30
0.0
 10
12.7912102657
 20
9.0942068373
 30
0.0
 10
12.7906792063
 20
9.0966764063
 30
0.0
 10
12.790038638
 20
9.0986373377
 30
0.0
 10
12.789415465
 20
9.1001323483
 30
0.0
 10
12.7887262345
 20
9.1015684917
 30
0.0
 10
12.7877360298
 20
9.1032820112
 30
0.0
 10
12.7863630587
 20
9.1052062234
 30
0.0
 10
12.7848306573
 20
9.1069972852
 30
0.0
 10
12.783438963
 20
9.1083824141
 30
0.0
 10
12.7822674033
 20
9.1094285098
 30
0.0
 10
12.7810585796
 20
9.1104355566
 30
0.0
 10
12.7794826225
 20
9.1116205422
 30
0.0
 10
12.7775024006
 20
9.1129256989
 30
0.0
 10
12.7754429493
 20
9.1141189536
 30
0.0
 10
12.7733153391
 20
9.1152040713
 30
0.0
 10
12.771130027
 20
9.1161855601
 30
0.0
 10
12.7688951537
 20
9.1170659026
 30
0.0
 10
12.7666174235
 20
9.1178467409
 30
0.0
 10
12.7643032039
 20
9.1185302464
 30
0.0
 10
12.7611761162
 20
9.1193148577
 30
0.0
 10
12.7572069997
 20
9.1200626963
 30
0.0
 10
12.7531907236
 20
9.120508895
 30
0.0
 10
12.7499634393
 20
9.1206908912
 30
0.0
 10
12.74673164
 20
9.1207578205
 30
0.0
 10
12.7443064235
 20
9.1206786287
 30
0.0
 10
12.7426943808
 20
9.1205687482
 30
0.0
 11
12.7172705308
 21
8.9619932876
 31
0.0
 11
12.7263969761
 21
8.9771885632
 31
0.0
 11
12.7310951102
 21
8.9846881133
 31
0.0
 11
12.7358597072
 21
8.9921092851
 31
0.0
 11
12.7406725209
 21
8.9994440887
 31
0.0
 11
12.7455131396
 21
9.0066904733
 31
0.0
 11
12.7503606924
 21
9.0138476473
 31
0.0
 11
12.7527805469
 21
9.017392533
 31
0.0
 11
12.7551938597
 21
9.0209148653
 31
0.0
 11
12.7599821692
 21
9.0278923212
 31
0.0
 11
12.7646866026
 21
9.0347810865
 31
0.0
 11
12.7669950702
 21
9.0381925553
 31
0.0
 11
12.7692675373
 21
9.0415822443
 31
0.0
 11
12.7736724095
 21
9.0482958695
 31
0.0
 11
12.7757867967
 21
9.0516194443
 31
0.0
 11
12.7778304645
 21
9.054920619
 31
0.0
 11
12.7797943979
 21
9.0581992125
 31
0.0
 11
12.7816678645
 21
9.0614544338
 31
0.0
 11
12.7834340217
 21
9.064683322
 31
0.0
 11
12.7850746688
 21
9.0678824343
 31
0.0
 11
12.7865716048
 21
9.0710483276
 31
0.0
 11
12.7879066289
 21
9.0741775588
 31
0.0
 11
12.7890612687
 21
9.0772651321
 31
0.0
 11
12.7900159212
 21
9.0802995937
 31
0.0
 11
12.7907506902
 21
9.0832678117
 31
0.0
 11
12.7910294006
 21
9.0847229757
 31
0.0
 11
12.791245679
 21
9.0861566542
 31
0.0
 11
12.7913970383
 21
9.0875672059
 31
0.0
 11
12.7914812405
 21
9.0889530264
 31
0.0
 11
12.7914984425
 21
9.0903128702
 31
0.0
 11
12.7914501375
 21
9.0916456915
 31
0.0
 11
12.7911630378
 21
9.0942260924
 31
0.0
 11
12.7906320041
 21
9.0966858813
 31
0.0
 11
12.7898690988
 21
9.0990167099
 31
0.0
 11
12.7894044641
 21
9.1001311557
 31
0.0
 11
12.788886635
 21
9.1012105699
 31
0.0
 11
12.7877015692
 21
9.1032657432
 31
0.0
 11
12.7863349526
 21
9.1051860602
 31
0.0
 11
12.7848079774
 21
9.1069755409
 31
0.0
 11
12.7831418351
 21
9.1086382058
 31
0.0
 11
12.7822631988
 21
9.1094232387
 31
0.0
 11
12.7813574628
 21
9.1101780674
 31
0.0
 11
12.7794707636
 21
9.1115989849
 31
0.0
 11
12.7774930317
 21
9.1129046773
 31
0.0
 11
12.7754353907
 21
9.1140988584
 31
0.0
 11
12.7733089645
 21
9.115185242
 31
0.0
 11
12.7711246813
 21
9.1161674732
 31
0.0
 11
12.7688908457
 21
9.1170482738
 31
0.0
 11
12.7666138851
 21
9.1178297052
 31
0.0
 11
12.7643001862
 21
9.1185138148
 31
0.0
 11
12.7619561356
 21
9.1191026495
 31
0.0
 11
12.7572002183
 21
9.1200019667
 31
0.0
 11
12.7523834389
 21
9.1205397547
 31
0.0
 11
12.7499627701
 21
9.1206765095
 31
0.0
 11
12.7475391559
 21
9.1207267138
 31
0.0
 11
12.7426943808
 21
9.1205687482
 31
0.0
  0
SPLINE
  5
283
100
AcDbEntity
  8
0
100
AcDbSpline
 62
6
  6
CONTINUOUS
 70
0
 71
3
 72
56
 73
52
 74
50
 42
0.0000001
 43
0.0000001
 44
0.0000000001
 12
0.0805979012
 22
0.1306211998
 32
0.0
 13
-0.1532019024
 23
-0.0093325571
 33
0.0
 40
0.0
 40
0.0
 40
0.0
 40
0.0
 40
0.0895899933
 40
0.1776908428
 40
0.2210726
 40
0.263954222
 40
0.3062971898
 40
0.3480613415
 40
0.3687134529
 40
0.3892041621
 40
0.4296605749
 40
0.4693438889
 40
0.5081649408
 40
0.5272239836
 40
0.5460312824
 40
0.5828072867
 40
0.6183215052
 40
0.6524058989
 40
0.6688576006
 40
0.6848658881
 40
0.7003857222
 40
0.7153746482
 40
0.7297936423
 40
0.7436082203
 40
0.7567891273
 40
0.7693039003
 40
0.7811217082
 40
0.7922246346
 40
0.8026129028
 40
0.8075472633
 40
0.8123151827
 40
0.8169255861
 40
0.8213921574
 40
0.8299537347
 40
0.8381376051
 40
0.8460806843
 40
0.8539174536
 40
0.8617736299
 40
0.8697610742
 40
0.8779712211
 40
0.8864664177
 40
0.895282085
 40
0.9044314635
 40
0.9139101825
 40
0.9237002773
 40
0.9337842353
 40
0.944157748
 40
0.9548139027
 40
0.9657418786
 40
0.9769276313
 40
1.0
 40
1.0
 40
1.0
 40
1.0
 10
12.7205290831
 20
9.11906377
 30
0.0
 10
12.7229360049
 20
9.1229645541
 30
0.0
 10
12.7278293395
 20
9.1306281418
 30
0.0
 10
12.7341875979
 20
9.1399840528
 30
0.0
 10
12.7393486921
 20
9.1472605708
 30
0.0
 10
12.7432212691
 20
9.1525801977
 30
0.0
 10
12.7471044044
 20
9.1577892075
 30
0.0
 10
12.750352066
 20
9.1620530025
 30
0.0
 10
12.7529459122
 20
9.1654091818
 30
0.0
 10
12.7555133919
 20
9.1687011285
 30
0.0
 10
12.7587031102
 20
9.1727425002
 30
0.0
 10
12.7625002174
 20
9.1774990569
 30
0.0
 10
12.7656269216
 20
9.1813899665
 30
0.0
 10
12.7680864391
 20
9.1844468362
 30
0.0
 10
12.7704794963
 20
9.1874228861
 30
0.0
 10
12.7733921375
 20
9.1910614469
 30
0.0
 10
12.7767590502
 20
9.1953374069
 30
0.0
 10
12.7794347693
 20
9.1988337997
 30
0.0
 10
12.7814613941
 20
9.2015695257
 30
0.0
 10
12.7828961007
 20
9.2035614672
 30
0.0
 10
12.7842543319
 20
9.2055158999
 30
0.0
 10
12.7855266072
 20
9.2074305197
 30
0.0
 10
12.78670345
 20
9.2093030486
 30
0.0
 10
12.7877754253
 20
9.2111311838
 30
0.0
 10
12.788732668
 20
9.2129122174
 30
0.0
 10
12.7895657621
 20
9.2146420596
 30
0.0
 10
12.7902653363
 20
9.2163157181
 30
0.0
 10
12.7908216025
 20
9.2179278951
 30
0.0
 10
12.7911633176
 20
9.2192379099
 30
0.0
 10
12.7913508705
 20
9.2202489194
 30
0.0
 10
12.7914468928
 20
9.2209752297
 30
0.0
 10
12.7914992133
 20
9.2216820762
 30
0.0
 10
12.7915108336
 20
9.2225848646
 30
0.0
 10
12.7914226845
 20
9.2236699065
 30
0.0
 10
12.7911496441
 20
9.2249072741
 30
0.0
 10
12.7907175666
 20
9.2260591289
 30
0.0
 10
12.7901336619
 20
9.2271227196
 30
0.0
 10
12.7894056308
 20
9.2280959072
 30
0.0
 10
12.7885412083
 20
9.2289765303
 30
0.0
 10
12.7875522013
 20
9.229766886
 30
0.0
 10
12.7864498297
 20
9.230470605
 30
0.0
 10
12.7852447406
 20
9.2310910698
 30
0.0
 10
12.7839474
 20
9.2316315043
 30
0.0
 10
12.7825681747
 20
9.2320948788
 30
0.0
 10
12.7811169331
 20
9.2324843426
 30
0.0
 10
12.7796017172
 20
9.2328024235
 30
0.0
 10
12.7780286435
 20
9.2330501589
 30
0.0
 10
12.7764029252
 20
9.2332292258
 30
0.0
 10
12.7747295966
 20
9.2333412174
 30
0.0
 10
12.772418201
 20
9.2334038277
 30
0.0
 10
12.7706643258
 20
9.2333531694
 30
0.0
 10
12.7694860822
 20
9.2332813947
 30
0.0
 11
12.7205290831
 21
9.11906377
 31
0.0
 11
12.7279255681
 21
9.1306558585
 31
0.0
 11
12.7355232633
 21
9.141841829
 31
0.0
 11
12.7393746739
 21
9.1472734122
 31
0.0
 11
12.743247559
 21
9.1525950523
 31
0.0
 11
12.7471311129
 21
9.1578061594
 31
0.0
 11
12.7510145298
 21
9.1629061438
 31
0.0
 11
12.75295281
 21
9.1654142808
 31
0.0
 11
12.7548867849
 21
9.1678943987
 31
0.0
 11
12.7587321419
 21
9.1727699479
 31
0.0
 11
12.7625303263
 21
9.1775314594
 31
0.0
 11
12.7662608797
 21
9.1821775869
 31
0.0
 11
12.768094401
 21
9.1844569609
 31
0.0
 11
12.7699028569
 21
9.1867069086
 31
0.0
 11
12.7734264689
 21
9.1911166302
 31
0.0
 11
12.7767942187
 21
9.1954027608
 31
0.0
 11
12.7799683516
 21
9.1995612698
 31
0.0
 11
12.7814702878
 21
9.2015911315
 31
0.0
 11
12.7829049866
 21
9.2035858033
 31
0.0
 11
12.7842628835
 21
9.2055429441
 31
0.0
 11
12.785534414
 21
9.2074602127
 31
0.0
 11
12.7867100136
 21
9.2093352676
 31
0.0
 11
12.7877801177
 21
9.2111657678
 31
0.0
 11
12.7887351501
 21
9.2129492418
 31
0.0
 11
12.7895653696
 21
9.2146813983
 31
0.0
 11
12.7902609141
 21
9.2163566089
 31
0.0
 11
12.7908119186
 21
9.2179692142
 31
0.0
 11
12.7912085181
 21
9.2195135549
 31
0.0
 11
12.7913458332
 21
9.2202583574
 31
0.0
 11
12.7914408476
 21
9.2209839714
 31
0.0
 11
12.7914924501
 21
9.2216897193
 31
0.0
 11
12.7915007634
 21
9.2223752246
 31
0.0
 11
12.7913908946
 21
9.2236847049
 31
0.0
 11
12.79111803
 21
9.2249108182
 31
0.0
 11
12.790688967
 21
9.2260519725
 31
0.0
 11
12.7901105034
 21
9.2271065759
 31
0.0
 11
12.7893894368
 21
9.2280730365
 31
0.0
 11
12.7885330019
 21
9.2289502465
 31
0.0
 11
12.7875509394
 21
9.2297398732
 31
0.0
 11
12.7864538806
 21
9.2304445706
 31
0.0
 11
12.7852524581
 21
9.2310669941
 31
0.0
 11
12.7839573044
 21
9.2316097988
 31
0.0
 11
12.782579052
 21
9.23207564
 31
0.0
 11
12.7811283157
 21
9.2324671693
 31
0.0
 11
12.7796139098
 21
9.2327866854
 31
0.0
 11
12.7780413369
 21
9.2330358372
 31
0.0
 11
12.7764157431
 21
9.2332162036
 31
0.0
 11
12.7747422745
 21
9.2333293636
 31
0.0
 11
12.7730260774
 21
9.2333768961
 31
0.0
 11
12.7694860822
 21
9.2332813947
 31
0.0
  0
SPLINE
  5
284
100
AcDbEntity
  8
0
100
AcDbSpline
 62
6
  6
CONTINUOUS
 70
0
 71
3
 72
52
 73
48
 74
46
 42
0.0000001
 43
0.0000001
 44
0.0000000001
 12
0.0544241339
 22
0.0681217125
 32
0.0
 13
-0.0870765119
 23
-0.0044983492
 33
0.0
 40
0.0
 40
0.0
 40
0.0
 40
0.0
 40
0.095505044
 40
0.1887623972
 40
0.2796108816
 40
0.3240788052
 40
0.36787665
 40
0.453273813
 40
0.4947610203
 40
0.5353625196
 40
0.5750187298
 40
0.6136606131
 40
0.6874591794
 40
0.722376616
 40
0.755811511
 40
0.7876302487
 40
0.817611165
 40
0.8454951419
 40
0.8710270906
 40
0.8828337406
 40
0.8939608958
 40
0.9043773012
 40
0.9140502126
 40
0.9229492621
 40
0.9271002993
 40
0.9310483492
 40
0.9383258143
 40
0.9447707931
 40
0.9476824286
 40
0.9503896152
 40
0.9528973816
 40
0.955213771
 40
0.9573518449
 40
0.9593315289
 40
0.9611773027
 40
0.9629180727
 40
0.9645869408
 40
0.966220106
 40
0.9678548784
 40
0.9695272439
 40
0.9731031789
 40
0.9750638616
 40
0.9771627202
 40
0.9818233547
 40
0.9871620672
 40
0.9932172754
 40
1.0
 40
1.0
 40
1.0
 40
1.0
 10
12.7331709895
 20
9.2309290563
 30
0.0
 10
12.7349035826
 20
9.233097712
 30
0.0
 10
12.7383882439
 20
9.237336249
 30
0.0
 10
12.7437198393
 20
9.2434707007
 30
0.0
 10
12.7482083836
 20
9.2483694037
 30
0.0
 10
12.7517977855
 20
9.2521400656
 30
0.0
 10
12.7553230338
 20
9.2557525039
 30
0.0
 10
12.7588500892
 20
9.2592415961
 30
0.0
 10
12.7623649123
 20
9.2626094557
 30
0.0
 10
12.7649439355
 20
9.2650321549
 30
0.0
 10
12.7674844626
 20
9.267374815
 30
0.0
 10
12.7707600109
 20
9.2703434209
 30
0.0
 10
12.7739639617
 20
9.2731856643
 30
0.0
 10
12.7770712848
 20
9.2759085009
 30
0.0
 10
12.7792649453
 20
9.2778226783
 30
0.0
 10
12.7813508852
 20
9.2796420764
 30
0.0
 10
12.7833090236
 20
9.2813625605
 30
0.0
 10
12.785115823
 20
9.2829783521
 30
0.0
 10
12.7865096457
 20
9.2842633695
 30
0.0
 10
12.7875272365
 20
9.285237453
 30
0.0
 10
12.7882170603
 20
9.2859184602
 30
0.0
 10
12.7888505343
 20
9.2865680729
 30
0.0
 10
12.7894244408
 20
9.2871850227
 30
0.0
 10
12.7898599356
 20
9.2876817021
 30
0.0
 10
12.7901748337
 20
9.2880624199
 30
0.0
 10
12.7904522101
 20
9.2884128679
 30
0.0
 10
12.7907566438
 20
9.2888267834
 30
0.0
 10
12.7910180997
 20
9.2892340664
 30
0.0
 10
12.7911872363
 20
9.289541345
 30
0.0
 10
12.791290272
 20
9.2897540191
 30
0.0
 10
12.7913734676
 20
9.2899566613
 30
0.0
 10
12.7914363961
 20
9.2901492107
 30
0.0
 10
12.7914786636
 20
9.2903316627
 30
0.0
 10
12.7915004293
 20
9.2905039627
 30
0.0
 10
12.7915018271
 20
9.2906661522
 30
0.0
 10
12.7914829682
 20
9.2908182214
 30
0.0
 10
12.7914439723
 20
9.2909600718
 30
0.0
 10
12.7913850477
 20
9.2910915246
 30
0.0
 10
12.7913065098
 20
9.2912124049
 30
0.0
 10
12.791173402
 20
9.2913625995
 30
0.0
 10
12.7910024797
 20
9.2914881658
 30
0.0
 10
12.7908050004
 20
9.2915897585
 30
0.0
 10
12.7905694039
 20
9.2916841884
 30
0.0
 10
12.7902279967
 20
9.2917735985
 30
0.0
 10
12.789765001
 20
9.2918373415
 30
0.0
 10
12.7892366921
 20
9.2918614722
 30
0.0
 10
12.788863411
 20
9.2918520709
 30
0.0
 10
12.788666539
 20
9.2918419005
 30
0.0
 11
12.7331709895
 21
9.2309290563
 31
0.0
 11
12.738459085
 21
9.237361829
 31
0.0
 11
12.743792663
 21
9.2434995692
 31
0.0
 11
12.7491437203
 21
9.2493402425
 31
0.0
 11
12.7518170303
 21
9.252148565
 31
0.0
 11
12.7544840145
 21
9.2548818421
 31
0.0
 11
12.7597759331
 21
9.2601200247
 31
0.0
 11
12.7623876519
 21
9.2626228936
 31
0.0
 11
12.7649677226
 21
9.2650469206
 31
0.0
 11
12.7675095294
 21
9.2673910854
 31
0.0
 11
12.7700056225
 21
9.2696541841
 31
0.0
 11
12.7748151856
 21
9.2739289179
 31
0.0
 11
12.7771044023
 21
9.2759360873
 31
0.0
 11
12.779300407
 21
9.2778534812
 31
0.0
 11
12.7813900034
 21
9.2796784898
 31
0.0
 11
12.7833521863
 21
9.281405752
 31
0.0
 11
12.7851624883
 21
9.2830286862
 31
0.0
 11
12.7867964263
 21
9.2845407056
 31
0.0
 11
12.7875396078
 21
9.2852530638
 31
0.0
 11
12.7882295128
 21
9.2859352153
 31
0.0
 11
12.7888629479
 21
9.2865860982
 31
0.0
 11
12.7894365753
 21
9.2872043911
 31
0.0
 11
12.7899470497
 21
9.2877887588
 31
0.0
 11
12.7901775591
 21
9.2880678034
 31
0.0
 11
12.7903910255
 21
9.288337866
 31
0.0
 11
12.7907651573
 21
9.2888503776
 31
0.0
 11
12.7910660994
 21
9.2893249582
 31
0.0
 11
12.7911880789
 21
9.2895476072
 31
0.0
 11
12.7912905065
 21
9.2897602728
 31
0.0
 11
12.7913729639
 21
9.289962788
 31
0.0
 11
12.7914350334
 21
9.2901549861
 31
0.0
 11
12.791476463
 21
9.2903367486
 31
0.0
 11
12.7914974361
 21
9.2905080835
 31
0.0
 11
12.7914982062
 21
9.2906690196
 31
0.0
 11
12.7914790268
 21
9.2908195852
 31
0.0
 11
12.7914401514
 21
9.2909598091
 31
0.0
 11
12.7913818335
 21
9.2910897198
 31
0.0
 11
12.7913043268
 21
9.2912093458
 31
0.0
 11
12.7912078846
 21
9.2913187157
 31
0.0
 11
12.7909592083
 21
9.2915068017
 31
0.0
 11
12.7908074813
 21
9.2915855749
 31
0.0
 11
12.7906378329
 21
9.2916542063
 31
0.0
 11
12.7902457866
 21
9.2917611581
 31
0.0
 11
12.7897850977
 21
9.2918278857
 31
0.0
 11
12.7892578057
 21
9.2918546233
 31
0.0
 11
12.788666539
 21
9.2918419005
 31
0.0
  0
SPLINE
  5
285
100
AcDbEntity
  8
0
100
AcDbSpline
 62
6
  6
CONTINUOUS
 70
0
 71
3
 72
9
 73
5
 74
3
 42
0.0000001
 43
0.0000001
 44
0.0000000001
 12
0.0492046151
 22
-0.0148387187
 32
0.0
 13
0.0498509584
 23
-0.0124965461
 33
0.0
 40
0.0
 40
0.0
 40
0.0
 40
0.0
 40
0.4986327227
 40
1.0
 40
1.0
 40
1.0
 40
1.0
 10
11.4437014122
 20
8.1855299008
 30
0.0
 10
11.4518797559
 20
8.1830635439
 30
0.0
 10
11.4683704288
 20
8.1784126124
 30
0.0
 10
11.4849558687
 20
8.1741204117
 30
0.0
 10
11.4932870818
 20
8.1720319586
 30
0.0
 11
11.4437014122
 21
8.1855299008
 31
0.0
 11
11.4683488965
 21
8.1785145235
 31
0.0
 11
11.4932870818
 21
8.1720319586
 31
0.0
  0
SPLINE
  5
286
100
AcDbEntity
  8
0
100
AcDbSpline
 62
6
  6
CONTINUOUS
 70
0
 71
3
 72
10
 73
6
 74
4
 42
0.0000001
 43
0.0000001
 44
0.0000000001
 12
-0.0495112558
 22
0.0079482188
 32
0.0
 13
-0.0497078031
 23
0.006608551
 33
0.0
 40
0.0
 40
0.0
 40
0.0
 40
0.0
 40
0.5034082334
 40
0.752641583
 40
1.0
 40
1.0
 40
1.0
 40
1.0
 10
11.4932870818
 20
8.1720319586
 30
0.0
 10
11.4849789572
 20
8.1733656916
 30
0.0
 10
11.4725526395
 20
8.1753301823
 30
0.0
 10
11.4560208437
 20
8.1777993495
 30
0.0
 10
11.44779996
 20
8.1789482917
 30
0.0
 10
11.4437014122
 20
8.1794931853
 30
0.0
 11
11.4932870818
 21
8.1720319586
 31
0.0
 11
11.4683488959
 21
8.1759461487
 31
0.0
 11
11.4559869937
 21
8.1777845265
 31
0.0
 11
11.4437014122
 21
8.1794931853
 31
0.0
  0
SPLINE
  5
287
100
AcDbEntity
  8
0
100
AcDbSpline
 62
6
  6
CONTINUOUS
 70
0
 71
3
 72
9
 73
5
 74
3
 42
0.0000001
 43
0.0000001
 44
0.0000000001
 12
0.0489661068
 22
-0.0242531915
 32
0.0
 13
0.0500598803
 23
-0.021906741
 33
0.0
 40
0.0
 40
0.0
 40
0.0
 40
0.0
 40
0.4997517306
 40
1.0
 40
1.0
 40
1.0
 40
1.0
 10
11.4437014122
 20
8.087863161
 30
0.0
 10
11.4518583777
 20
8.0838229695
 30
0.0
 10
11.4683152175
 20
8.0760101622
 30
0.0
 10
11.4849396256
 20
8.0685649094
 30
0.0
 10
11.4932870818
 20
8.064911973
 30
0.0
 11
11.4437014122
 21
8.087863161
 31
0.0
 11
11.4683488965
 21
8.0761058389
 31
0.0
 11
11.4932870818
 21
8.064911973
 31
0.0
  0
LINE
  5
288
100
AcDbEntity
  8
0
100
AcDbLine
 62
6
  6
CONTINUOUS
 10
11.4932870818
 20
8.064911973
 11
11.4437014122
 21
8.0824507899
  0
SPLINE
  5
289
100
AcDbEntity
  8
0
100
AcDbSpline
 62
6
  6
CONTINUOUS
 70
0
 71
3
 72
9
 73
5
 74
3
 42
0.0000001
 43
0.0000001
 44
0.0000000001
 12
0.0488446281
 22
-0.0320071735
 32
0.0
 13
0.0501918805
 23
-0.0298501588
 33
0.0
 40
0.0
 40
0.0
 40
0.0
 40
0.0
 40
0.5003992978
 40
1.0
 40
1.0
 40
1.0
 40
1.0
 10
11.4437014122
 20
8.0037663042
 30
0.0
 10
11.4518486847
 20
7.9984275151
 30
0.0
 10
11.4682828088
 20
7.9879906922
 30
0.0
 10
11.4849284489
 20
7.9778970093
 30
0.0
 10
11.4932870818
 20
7.9729259559
 30
0.0
 11
11.4437014122
 21
8.0037663042
 31
0.0
 11
11.4683488965
 21
7.9880682795
 31
0.0
 11
11.4932870818
 21
7.9729259559
 31
0.0
  0
LINE
  5
28A
100
AcDbEntity
  8
0
100
AcDbLine
 62
6
  6
CONTINUOUS
 10
11.4932870818
 20
7.9729259559
 11
11.4437014122
 21
7.9993471217
  0
SPLINE
  5
28B
100
AcDbEntity
  8
0
100
AcDbSpline
 62
6
  6
CONTINUOUS
 70
0
 71
3
 72
9
 73
5
 74
3
 42
0.0000001
 43
0.0000001
 44
0.0000000001
 12
0.0488324207
 22
-0.0376306816
 32
0.0
 13
0.0502371482
 23
-0.0357337719
 33
0.0
 40
0.0
 40
0.0
 40
0.0
 40
0.0
 40
0.5005615381
 40
1.0
 40
1.0
 40
1.0
 40
1.0
 10
11.4437014122
 20
7.9389703923
 30
0.0
 10
11.4518492894
 20
7.9326915684
 30
0.0
 10
11.4682741903
 20
7.9203387647
 30
0.0
 10
11.4849236271
 20
7.9082915425
 30
0.0
 10
11.4932870818
 20
7.9023426025
 30
0.0
 11
11.4437014122
 21
7.9389703923
 31
0.0
 11
11.4683488968
 21
7.9204014586
 31
0.0
 11
11.4932870818
 21
7.9023426025
 31
0.0
  0
LINE
  5
28C
100
AcDbEntity
  8
0
100
AcDbLine
 62
6
  6
CONTINUOUS
 10
11.4932870818
 20
7.9023426025
 11
11.4437014122
 21
7.9358455584
  0
SPLINE
  5
28D
100
AcDbEntity
  8
0
100
AcDbSpline
 62
6
  6
CONTINUOUS
 70
0
 71
3
 72
10
 73
6
 74
4
 42
0.0000001
 43
0.0000001
 44
0.0000000001
 12
-0.0496328984
 22
-0.0023159836
 32
0.0
 13
-0.0494986996
 23
-0.0043205466
 33
0.0
 40
0.0
 40
0.0
 40
0.0
 40
0.0
 40
0.5026193517
 40
0.7519622093
 40
1.0
 40
1.0
 40
1.0
 40
1.0
 10
11.4932870818
 20
8.2869858629
 30
0.0
 10
11.4849715967
 20
8.2865978435
 30
0.0
 10
11.4725336522
 20
8.2859497142
 30
0.0
 10
11.4560066987
 20
8.2848644415
 30
0.0
 10
11.4477939282
 20
8.2842182486
 30
0.0
 10
11.4437014122
 20
8.283861029
 30
0.0
 11
11.4932870818
 21
8.2869858629
 31
0.0
 11
11.4683488959
 21
8.2856563732
 31
0.0
 11
11.4559869937
 21
8.2848362856
 31
0.0
 11
11.4437014122
 21
8.283861029
 31
0.0
  0
LINE
  5
28E
100
AcDbEntity
  8
0
100
AcDbLine
 62
6
  6
CONTINUOUS
 10
11.4437014122
 20
8.6381261674
 11
11.4932870818
 21
8.6716291234
  0
SPLINE
  5
28F
100
AcDbEntity
  8
0
100
AcDbSpline
 62
6
  6
CONTINUOUS
 70
0
 71
3
 72
9
 73
5
 74
3
 42
0.0000001
 43
0.0000001
 44
0.0000000001
 12
-0.0502371482
 22
-0.0357337719
 32
0.0
 13
-0.0488324207
 23
-0.0376306816
 33
0.0
 40
0.0
 40
0.0
 40
0.0
 40
0.0
 40
0.4994384963
 40
1.0
 40
1.0
 40
1.0
 40
1.0
 10
11.4932870818
 20
8.6716291234
 30
0.0
 10
11.4849236265
 20
8.6656801829
 30
0.0
 10
11.4682741912
 20
8.6536329588
 30
0.0
 10
11.4518492888
 20
8.641280157
 30
0.0
 10
11.4437014122
 20
8.6350013335
 30
0.0
 11
11.4932870818
 21
8.6716291234
 31
0.0
 11
11.4683488959
 21
8.653570265
 31
0.0
 11
11.4437014122
 21
8.6350013335
 31
0.0
  0
LINE
  5
290
100
AcDbEntity
  8
0
100
AcDbLine
 62
6
  6
CONTINUOUS
 10
11.4437014122
 20
8.5746246041
 11
11.4932870818
 21
8.6010457699
  0
SPLINE
  5
291
100
AcDbEntity
  8
0
100
AcDbSpline
 62
6
  6
CONTINUOUS
 70
0
 71
3
 72
9
 73
5
 74
3
 42
0.0000001
 43
0.0000001
 44
0.0000000001
 12
-0.0501918805
 22
-0.0298501588
 32
0.0
 13
-0.0488446281
 23
-0.0320071735
 33
0.0
 40
0.0
 40
0.0
 40
0.0
 40
0.0
 40
0.4996007281
 40
1.0
 40
1.0
 40
1.0
 40
1.0
 10
11.4932870818
 20
8.6010457699
 30
0.0
 10
11.4849284484
 20
8.5960747163
 30
0.0
 10
11.4682828096
 20
8.5859810314
 30
0.0
 10
11.4518486843
 20
8.5755442104
 30
0.0
 10
11.4437014122
 20
8.5702054216
 30
0.0
 11
11.4932870818
 21
8.6010457699
 31
0.0
 11
11.4683488959
 21
8.5859034445
 31
0.0
 11
11.4437014122
 21
8.5702054216
 31
0.0
  0
LINE
  5
292
100
AcDbEntity
  8
0
100
AcDbLine
 62
6
  6
CONTINUOUS
 10
11.4437014122
 20
8.4915209359
 11
11.4932870818
 21
8.5090597529
  0
SPLINE
  5
293
100
AcDbEntity
  8
0
100
AcDbSpline
 62
6
  6
CONTINUOUS
 70
0
 71
3
 72
9
 73
5
 74
3
 42
0.0000001
 43
0.0000001
 44
0.0000000001
 12
-0.0500598803
 22
-0.021906741
 32
0.0
 13
-0.0489661068
 23
-0.0242531915
 33
0.0
 40
0.0
 40
0.0
 40
0.0
 40
0.0
 40
0.5002482957
 40
1.0
 40
1.0
 40
1.0
 40
1.0
 10
11.4932870818
 20
8.5090597529
 30
0.0
 10
11.4849396252
 20
8.5054068163
 30
0.0
 10
11.4683152183
 20
8.4979615607
 30
0.0
 10
11.4518583773
 20
8.4901487561
 30
0.0
 10
11.4437014122
 20
8.4861085648
 30
0.0
 11
11.4932870818
 21
8.5090597529
 31
0.0
 11
11.4683488959
 21
8.4978658849
 31
0.0
 11
11.4437014122
 21
8.4861085648
 31
0.0
  0
SPLINE
  5
294
100
AcDbEntity
  8
0
100
AcDbSpline
 62
6
  6
CONTINUOUS
 70
0
 71
3
 72
10
 73
6
 74
4
 42
0.0000001
 43
0.0000001
 44
0.0000000001
 12
0.0497078031
 22
0.006608551
 32
0.0
 13
0.0495112559
 23
0.0079482188
 33
0.0
 40
0.0
 40
0.0
 40
0.0
 40
0.0
 40
0.2473583921
 40
0.4965917751
 40
1.0
 40
1.0
 40
1.0
 40
1.0
 10
11.4437014122
 20
8.3944785405
 30
0.0
 10
11.4477999596
 20
8.3950234341
 30
0.0
 10
11.4560208449
 20
8.3961723657
 30
0.0
 10
11.4725526388
 20
8.3986415468
 30
0.0
 10
11.4849789573
 20
8.4006060343
 30
0.0
 10
11.4932870818
 20
8.4019397672
 30
0.0
 11
11.4437014122
 21
8.3944785405
 31
0.0
 11
11.4559869934
 21
8.396187193
 31
0.0
 11
11.4683488965
 21
8.3980255754
 31
0.0
 11
11.4932870818
 21
8.4019397672
 31
0.0
  0
SPLINE
  5
295
100
AcDbEntity
  8
0
100
AcDbSpline
 62
6
  6
CONTINUOUS
 70
0
 71
3
 72
9
 73
5
 74
3
 42
0.0000001
 43
0.0000001
 44
0.0000000001
 12
-0.0498509584
 22
-0.0124965461
 32
0.0
 13
-0.0492046151
 23
-0.0148387187
 33
0.0
 40
0.0
 40
0.0
 40
0.0
 40
0.0
 40
0.5013673001
 40
1.0
 40
1.0
 40
1.0
 40
1.0
 10
11.4932870818
 20
8.4019397672
 30
0.0
 10
11.4849558683
 20
8.399851314
 30
0.0
 10
11.4683704294
 20
8.3955591099
 30
0.0
 10
11.4518797555
 20
8.3909081818
 30
0.0
 10
11.4437014122
 20
8.388441825
 30
0.0
 11
11.4932870818
 21
8.4019397672
 31
0.0
 11
11.4683488959
 21
8.3954572003
 31
0.0
 11
11.4437014122
 21
8.388441825
 31
0.0
  0
SPLINE
  5
296
100
AcDbEntity
  8
0
100
AcDbSpline
 62
6
  6
CONTINUOUS
 70
0
 71
3
 72
10
 73
6
 74
4
 42
0.0000001
 43
0.0000001
 44
0.0000000001
 12
0.0494986997
 22
-0.0043205466
 32
0.0
 13
0.0496328985
 23
-0.0023159836
 33
0.0
 40
0.0
 40
0.0
 40
0.0
 40
0.0
 40
0.2480377936
 40
0.4973806649
 40
1.0
 40
1.0
 40
1.0
 40
1.0
 10
11.4437014122
 20
8.2901106968
 30
0.0
 10
11.4477939283
 20
8.2897534772
 30
0.0
 10
11.4560066982
 20
8.2891072731
 30
0.0
 10
11.4725336527
 20
8.288022015
 30
0.0
 10
11.484971597
 20
8.2873738823
 30
0.0
 10
11.4932870818
 20
8.2869858629
 30
0.0
 11
11.4437014122
 21
8.2901106968
 31
0.0
 11
11.4559869934
 21
8.2891354337
 31
0.0
 11
11.4683488965
 21
8.2883153507
 31
0.0
 11
11.4932870818
 21
8.2869858629
 31
0.0
  0
SPLINE
  5
297
100
AcDbEntity
  8
0
100
AcDbSpline
 62
6
  6
CONTINUOUS
 70
0
 71
3
 72
19
 73
15
 74
13
 42
0.0000001
 43
0.0000001
 44
0.0000000001
 12
-1.2547777146
 22
0.0617512258
 32
0.0
 13
-1.1626235328
 23
0.4760113948
 33
0.0
 40
0.0
 40
0.0
 40
0.0
 40
0.0
 40
0.1343934675
 40
0.2656847369
 40
0.3940656842
 40
0.5197415164
 40
0.5816364134
 40
0.6429382168
 40
0.7036763739
 40
0.763881159
 40
0.8235836581
 40
0.8828157477
 40
0.9416100697
 40
1.0
 40
1.0
 40
1.0
 40
1.0
 10
12.7172705308
 20
7.8096835356
 30
0.0
 10
12.6610592214
 20
7.812449856
 30
0.0
 10
12.5500186618
 20
7.819874332
 30
0.0
 10
12.3858525236
 20
7.8370281029
 30
0.0
 10
12.2260924235
 20
7.860065628
 30
0.0
 10
12.0959765163
 20
7.8842906492
 30
0.0
 10
11.9941762244
 20
7.906646006
 30
0.0
 10
11.9193134873
 20
7.9247979975
 30
0.0
 10
11.8455547681
 20
7.9444198107
 30
0.0
 10
11.7728997185
 20
7.9655115701
 30
0.0
 10
11.7013485303
 20
7.9880732956
 30
0.0
 10
11.6309010898
 20
8.0121051012
 30
0.0
 10
11.5615580027
 20
8.037606812
 30
0.0
 10
11.5159155841
 20
8.0556472156
 30
0.0
 10
11.4932870818
 20
8.064911973
 30
0.0
 11
12.7172705308
 21
7.8096835356
 31
0.0
 11
12.5488135731
 21
7.8210205484
 31
0.0
 11
12.3847734802
 21
7.8382337161
 31
0.0
 11
12.225150252
 21
7.8613230386
 31
0.0
 11
12.0699438885
 21
7.8902885158
 31
0.0
 11
11.9939970311
 21
7.9069748125
 31
0.0
 11
11.9191543898
 21
7.9251301479
 31
0.0
 11
11.8454159647
 21
7.944754522
 31
0.0
 11
11.7727817557
 21
7.9658479348
 31
0.0
 11
11.701251763
 21
7.9884103863
 31
0.0
 11
11.6308259864
 21
8.0124418765
 31
0.0
 11
11.561504426
 21
8.0379424054
 31
0.0
 11
11.4932870818
 21
8.064911973
 31
0.0
  0
SPLINE
  5
298
100
AcDbEntity
  8
0
100
AcDbSpline
 62
6
  6
CONTINUOUS
 70
0
 71
3
 72
23
 73
19
 74
17
 42
0.0000001
 43
0.0000001
 44
0.0000000001
 12
-1.2323921796
 22
0.0313945272
 32
0.0
 13
-1.2060045514
 23
0.2555956232
 33
0.0
 40
0.0
 40
0.0
 40
0.0
 40
0.0
 40
0.0688024002
 40
0.1367311251
 40
0.20379243
 40
0.2699928158
 40
0.3353390407
 40
0.3998381312
 40
0.4634973943
 40
0.5263244301
 40
0.5883271447
 40
0.6495137638
 40
0.7098928466
 40
0.7694733003
 40
0.8282643951
 40
0.8862757796
 40
0.9435174967
 40
1.0
 40
1.0
 40
1.0
 40
1.0
 10
12.7172705308
 20
8.0399159977
 30
0.0
 10
12.6890066841
 20
8.040636004
 30
0.0
 10
12.6328440842
 20
8.0423245549
 30
0.0
 10
12.5491637161
 20
8.0456340113
 30
0.0
 10
12.4665872864
 20
8.0497038517
 30
0.0
 10
12.3851148784
 20
8.0545340782
 30
0.0
 10
12.3047464579
 20
8.0601246965
 30
0.0
 10
12.2254820213
 20
8.0664757121
 30
0.0
 10
12.1473215566
 20
8.0735871316
 30
0.0
 10
12.0702650537
 20
8.0814589621
 30
0.0
 10
11.9943125016
 20
8.0900912117
 30
0.0
 10
11.9194638893
 20
8.0994838897
 30
0.0
 10
11.8457192066
 20
8.109637006
 30
0.0
 10
11.7730784385
 20
8.1205505724
 30
0.0
 10
11.7015415875
 20
8.1322245986
 30
0.0
 10
11.6311085927
 20
8.1446591087
 30
0.0
 10
11.561779625
 20
8.1578540792
 30
0.0
 10
11.5159931338
 20
8.1672197318
 30
0.0
 10
11.4932870818
 20
8.1720319586
 30
0.0
 11
12.7172705308
 21
8.0399159977
 31
0.0
 11
12.6324899439
 21
8.0424700174
 31
0.0
 11
12.5488135731
 21
8.0457844674
 31
0.0
 11
12.4662414186
 21
8.0498593479
 31
0.0
 11
12.3847734802
 21
8.0546946587
 31
0.0
 11
12.304409758
 21
8.0602903999
 31
0.0
 11
12.225150252
 21
8.0666465715
 31
0.0
 11
12.1469949622
 21
8.0737631734
 31
0.0
 11
12.0699438885
 21
8.0816402058
 31
0.0
 11
11.9939970311
 21
8.0902776685
 31
0.0
 11
11.9191543898
 21
8.0996755617
 31
0.0
 11
11.8454159647
 21
8.1098338852
 31
0.0
 11
11.7727817557
 21
8.1207526391
 31
0.0
 11
11.701251763
 21
8.1324318234
 31
0.0
 11
11.6308259864
 21
8.1448714381
 31
0.0
 11
11.561504426
 21
8.1580714832
 31
0.0
 11
11.4932870818
 21
8.1720319586
 31
0.0
  0
SPLINE
  5
299
100
AcDbEntity
  8
0
100
AcDbSpline
 62
6
  6
CONTINUOUS
 70
0
 71
3
 72
23
 73
19
 74
17
 42
0.0000001
 43
0.0000001
 44
0.0000000001
 12
-1.2323921796
 22
-0.0313945272
 32
0.0
 13
-1.2060045514
 23
-0.2555956232
 33
0.0
 40
0.0
 40
0.0
 40
0.0
 40
0.0
 40
0.0688024002
 40
0.1367311251
 40
0.20379243
 40
0.2699928158
 40
0.3353390407
 40
0.3998381312
 40
0.4634973943
 40
0.5263244301
 40
0.5883271447
 40
0.6495137638
 40
0.7098928466
 40
0.7694733003
 40
0.8282643951
 40
0.8862757796
 40
0.9435174967
 40
1.0
 40
1.0
 40
1.0
 40
1.0
 10
12.7172705308
 20
8.5340557281
 30
0.0
 10
12.6890066841
 20
8.5333357218
 30
0.0
 10
12.6328440842
 20
8.5316471709
 30
0.0
 10
12.5491637161
 20
8.5283377145
 30
0.0
 10
12.4665872864
 20
8.5242678742
 30
0.0
 10
12.3851148784
 20
8.5194376476
 30
0.0
 10
12.3047464579
 20
8.5138470293
 30
0.0
 10
12.2254820213
 20
8.5074960137
 30
0.0
 10
12.1473215566
 20
8.5003845943
 30
0.0
 10
12.0702650537
 20
8.4925127638
 30
0.0
 10
11.9943125016
 20
8.4838805141
 30
0.0
 10
11.9194638893
 20
8.4744878361
 30
0.0
 10
11.8457192066
 20
8.4643347199
 30
0.0
 10
11.7730784385
 20
8.4534211534
 30
0.0
 10
11.7015415875
 20
8.4417471272
 30
0.0
 10
11.6311085927
 20
8.4293126171
 30
0.0
 10
11.561779625
 20
8.4161176466
 30
0.0
 10
11.5159931338
 20
8.4067519941
 30
0.0
 10
11.4932870818
 20
8.4019397672
 30
0.0
 11
12.7172705308
 21
8.5340557281
 31
0.0
 11
12.6324899439
 21
8.5315017084
 31
0.0
 11
12.5488135731
 21
8.5281872584
 31
0.0
 11
12.4662414186
 21
8.524112378
 31
0.0
 11
12.3847734802
 21
8.5192770672
 31
0.0
 11
12.304409758
 21
8.513681326
 31
0.0
 11
12.225150252
 21
8.5073251544
 31
0.0
 11
12.1469949622
 21
8.5002085524
 31
0.0
 11
12.0699438885
 21
8.49233152
 31
0.0
 11
11.9939970311
 21
8.4836940573
 31
0.0
 11
11.9191543898
 21
8.4742961642
 31
0.0
 11
11.8454159647
 21
8.4641378406
 31
0.0
 11
11.7727817557
 21
8.4532190867
 31
0.0
 11
11.701251763
 21
8.4415399024
 31
0.0
 11
11.6308259864
 21
8.4291002877
 31
0.0
 11
11.561504426
 21
8.4159002427
 31
0.0
 11
11.4932870818
 21
8.4019397672
 31
0.0
  0
SPLINE
  5
29A
100
AcDbEntity
  8
0
100
AcDbSpline
 62
6
  6
CONTINUOUS
 70
0
 71
3
 72
19
 73
15
 74
13
 42
0.0000001
 43
0.0000001
 44
0.0000000001
 12
-1.2547777146
 22
-0.0617512258
 32
0.0
 13
-1.1626235328
 23
-0.4760113948
 33
0.0
 40
0.0
 40
0.0
 40
0.0
 40
0.0
 40
0.1343934675
 40
0.2656847369
 40
0.3940656842
 40
0.5197415164
 40
0.5816364134
 40
0.6429382168
 40
0.7036763739
 40
0.763881159
 40
0.8235836581
 40
0.8828157477
 40
0.9416100697
 40
1.0
 40
1.0
 40
1.0
 40
1.0
 10
12.7172705308
 20
8.7642881902
 30
0.0
 10
12.6610592214
 20
8.7615218698
 30
0.0
 10
12.5500186618
 20
8.7540973938
 30
0.0
 10
12.3858525236
 20
8.7369436229
 30
0.0
 10
12.2260924235
 20
8.7139060978
 30
0.0
 10
12.0959765163
 20
8.6896810766
 30
0.0
 10
11.9941762244
 20
8.6673257199
 30
0.0
 10
11.9193134873
 20
8.6491737283
 30
0.0
 10
11.8455547681
 20
8.6295519151
 30
0.0
 10
11.7728997185
 20
8.6084601557
 30
0.0
 10
11.7013485303
 20
8.5858984302
 30
0.0
 10
11.6309010898
 20
8.5618666246
 30
0.0
 10
11.5615580027
 20
8.5363649138
 30
0.0
 10
11.5159155841
 20
8.5183245103
 30
0.0
 10
11.4932870818
 20
8.5090597529
 30
0.0
 11
12.7172705308
 21
8.7642881902
 31
0.0
 11
12.5488135731
 21
8.7529511774
 31
0.0
 11
12.3847734802
 21
8.7357380097
 31
0.0
 11
12.225150252
 21
8.7126486872
 31
0.0
 11
12.0699438885
 21
8.68368321
 31
0.0
 11
11.9939970311
 21
8.6669969133
 31
0.0
 11
11.9191543898
 21
8.6488415779
 31
0.0
 11
11.8454159647
 21
8.6292172038
 31
0.0
 11
11.7727817557
 21
8.608123791
 31
0.0
 11
11.701251763
 21
8.5855613395
 31
0.0
 11
11.6308259864
 21
8.5615298494
 31
0.0
 11
11.561504426
 21
8.5360293205
 31
0.0
 11
11.4932870818
 21
8.5090597529
 31
0.0
  0
SPLINE
  5
29B
100
AcDbEntity
  8
0
100
AcDbSpline
 62
6
  6
CONTINUOUS
 70
0
 71
3
 72
32
 73
28
 74
26
 42
0.0000001
 43
0.0000001
 44
0.0000000001
 12
-0.0642251104
 22
0.0
 32
0.0
 13
-0.0494662185
 23
0.0409628861
 33
0.0
 40
0.0
 40
0.0
 40
0.0
 40
0.0
 40
0.0924558128
 40
0.184314802
 40
0.3625622031
 40
0.4473322145
 40
0.5282592121
 40
0.6046599015
 40
0.6759046088
 40
0.741379482
 40
0.8004933849
 40
0.8275159781
 40
0.8527785868
 40
0.8762291815
 40
0.8978165038
 40
0.9174906293
 40
0.9352136579
 40
0.9509648716
 40
0.9647283777
 40
0.9708617877
 40
0.9764955181
 40
0.981630271
 40
0.9862681466
 40
0.9904133205
 40
0.9940731619
 40
0.9972608784
 40
1.0
 40
1.0
 40
1.0
 40
1.0
 10
12.9487014122
 20
8.2059674332
 30
0.0
 10
12.9467220839
 20
8.2059674332
 30
0.0
 10
12.9427761889
 20
8.2059802861
 30
0.0
 10
12.9350146601
 20
8.2060558818
 30
0.0
 10
12.9274184842
 20
8.2062044533
 30
0.0
 10
12.9200586311
 20
8.2064313375
 30
0.0
 10
12.9148795606
 20
8.2066326474
 30
0.0
 10
12.9099917175
 20
8.2068664998
 30
0.0
 10
12.90543671
 20
8.2071304502
 30
0.0
 10
12.9012542771
 20
8.2074219771
 30
0.0
 10
12.8980197456
 20
8.2076935156
 30
0.0
 10
12.8956461451
 20
8.2079254628
 30
0.0
 10
12.8940340972
 20
8.2080994693
 30
0.0
 10
12.8925397073
 20
8.2082783543
 30
0.0
 10
12.8911664626
 20
8.2084617006
 30
0.0
 10
12.8899176229
 20
8.2086491322
 30
0.0
 10
12.8887958697
 20
8.2088402348
 30
0.0
 10
12.8878032973
 20
8.209034445
 30
0.0
 10
12.8870590579
 20
8.2092042469
 30
0.0
 10
12.8865303776
 20
8.2093431178
 30
0.0
 10
12.8861827676
 20
8.2094437619
 30
0.0
 10
12.8858687613
 20
8.2095448682
 30
0.0
 10
12.8855885443
 20
8.2096463801
 30
0.0
 10
12.8853422874
 20
8.2097482285
 30
0.0
 10
12.8851300873
 20
8.2098503812
 30
0.0
 10
12.8849520159
 20
8.2099528214
 30
0.0
 10
12.8848484277
 20
8.210026697
 30
0.0
 10
12.8848032631
 20
8.2100640977
 30
0.0
 11
12.9487014122
 21
8.2059674332
 31
0.0
 11
12.9427634589
 21
8.2059867636
 31
0.0
 11
12.936864087
 21
8.2060444346
 31
0.0
 11
12.925418404
 21
8.2062727003
 31
0.0
 11
12.9199766526
 21
8.2064413262
 31
0.0
 11
12.9147830754
 21
8.206644386
 31
0.0
 11
12.9098819068
 21
8.2068802907
 31
0.0
 11
12.9053139803
 21
8.2071468828
 31
0.0
 11
12.9011192074
 21
8.2074418505
 31
0.0
 11
12.8973362008
 21
8.2077628017
 31
0.0
 11
12.8956089524
 21
8.2079321358
 31
0.0
 11
12.8939958949
 21
8.2081068689
 31
0.0
 11
12.8925005428
 21
8.2082866205
 31
0.0
 11
12.8911264108
 21
8.2084710106
 31
0.0
 11
12.8898769996
 21
8.2086596585
 31
0.0
 11
12.8887551326
 21
8.2088521637
 31
0.0
 11
12.887762665
 21
8.2090480973
 31
0.0
 11
12.8869013772
 21
8.2092470282
 31
0.0
 11
12.8865204823
 21
8.2093474829
 31
0.0
 11
12.88617305
 21
8.2094485252
 31
0.0
 11
12.8858593029
 21
8.2095501013
 31
0.0
 11
12.8855794638
 21
8.2096521572
 31
0.0
 11
12.885333755
 21
8.2097546392
 31
0.0
 11
12.8851223991
 21
8.2098574932
 31
0.0
 11
12.8849455642
 21
8.2099606648
 31
0.0
 11
12.8848032631
 21
8.2100640977
 31
0.0
  0
SPLINE
  5
29C
100
AcDbEntity
  8
0
100
AcDbSpline
 62
6
  6
CONTINUOUS
 70
0
 71
3
 72
11
 73
7
 74
5
 42
0.0000001
 43
0.0000001
 44
0.0000000001
 12
0.0250296425
 22
0.0
 32
0.0
 13
0.0249332433
 23
-0.0021946255
 33
0.0
 40
0.0
 40
0.0
 40
0.0
 40
0.0
 40
0.2560712714
 40
0.5097281564
 40
0.7585050059
 40
1.0
 40
1.0
 40
1.0
 40
1.0
 10
12.9487014122
 20
8.5284642204
 30
0.0
 10
12.9508378696
 20
8.5284642204
 30
0.0
 10
12.9550907728
 20
8.5284200876
 30
0.0
 10
12.961416506
 20
8.5282221382
 30
0.0
 10
12.9676150716
 20
8.5278942291
 30
0.0
 10
12.9716943277
 20
8.5275859545
 30
0.0
 10
12.9737014122
 20
8.5274092908
 30
0.0
 11
12.9487014122
 21
8.5284642204
 31
0.0
 11
12.9551104367
 21
8.5283974444
 31
0.0
 11
12.9614562393
 21
8.5281978385
 31
0.0
 11
12.967674255
 21
8.5278672867
 31
0.0
 11
12.9737014122
 21
8.5274092908
 31
0.0
  0
SPLINE
  5
29D
100
AcDbEntity
  8
0
100
AcDbSpline
 62
6
  6
CONTINUOUS
 70
0
 71
3
 72
11
 73
7
 74
5
 42
0.0000001
 43
0.0000001
 44
0.0000000001
 12
0.025080069
 22
0.0
 32
0.0
 13
0.0248212219
 23
-0.0035939958
 33
0.0
 40
0.0
 40
0.0
 40
0.0
 40
0.0
 40
0.2555800713
 40
0.5089403075
 40
0.7578130923
 40
1.0
 40
1.0
 40
1.0
 40
1.0
 10
12.9487014122
 20
8.6842240466
 30
0.0
 10
12.9508380674
 20
8.6842240466
 30
0.0
 10
12.9550931772
 20
8.684151385
 30
0.0
 10
12.9614213685
 20
8.6838254987
 30
0.0
 10
12.9676225638
 20
8.6832856347
 30
0.0
 10
12.9716976205
 20
8.6827787996
 30
0.0
 10
12.9737014122
 20
8.68248866
 30
0.0
 11
12.9487014122
 21
8.6842240466
 31
0.0
 11
12.9551104367
 21
8.6841141984
 31
0.0
 11
12.9614562393
 21
8.6837858415
 31
0.0
 11
12.967674255
 21
8.6832420751
 31
0.0
 11
12.9737014122
 21
8.68248866
 31
0.0
  0
SPLINE
  5
29E
100
AcDbEntity
  8
0
100
AcDbSpline
 62
6
  6
CONTINUOUS
 70
0
 71
3
 72
11
 73
7
 74
5
 42
0.0000001
 43
0.0000001
 44
0.0000000001
 12
0.0251504778
 22
0.0
 32
0.0
 13
0.0246679739
 23
-0.0049028149
 33
0.0
 40
0.0
 40
0.0
 40
0.0
 40
0.0
 40
0.2548976612
 40
0.5078466851
 40
0.7568540182
 40
1.0
 40
1.0
 40
1.0
 40
1.0
 10
12.9487014122
 20
8.8322520834
 30
0.0
 10
12.9508383448
 20
8.8322520834
 30
0.0
 10
12.9550965464
 20
8.8321522254
 30
0.0
 10
12.9614281431
 20
8.8317044135
 30
0.0
 10
12.9676329109
 20
8.8309625329
 30
0.0
 10
12.9717021059
 20
8.8302673837
 30
0.0
 10
12.9737014122
 20
8.8298700171
 30
0.0
 11
12.9487014122
 21
8.8322520834
 31
0.0
 11
12.9551104367
 21
8.832101301
 31
0.0
 11
12.9614562393
 21
8.8316505842
 31
0.0
 11
12.967674255
 21
8.8309041872
 31
0.0
 11
12.9737014122
 21
8.8298700171
 31
0.0
  0
SPLINE
  5
29F
100
AcDbEntity
  8
0
100
AcDbSpline
 62
6
  6
CONTINUOUS
 70
0
 71
3
 72
11
 73
7
 74
5
 42
0.0000001
 43
0.0000001
 44
0.0000000001
 12
0.0252351612
 22
0.0
 32
0.0
 13
0.0244883677
 23
-0.0060937025
 33
0.0
 40
0.0
 40
0.0
 40
0.0
 40
0.0
 40
0.2540821591
 40
0.5065411665
 40
0.7557112074
 40
1.0
 40
1.0
 40
1.0
 40
1.0
 10
12.9487014122
 20
8.9696671335
 30
0.0
 10
12.9508386803
 20
8.9696671335
 30
0.0
 10
12.9551006169
 20
8.9695419284
 30
0.0
 10
12.9614362685
 20
8.9689805315
 30
0.0
 10
12.9676451814
 20
8.9680504454
 30
0.0
 10
12.9717073342
 20
8.9671809595
 30
0.0
 10
12.9737014122
 20
8.9666847517
 30
0.0
 11
12.9487014122
 21
8.9696671335
 31
0.0
 11
12.9551104367
 21
8.9694783517
 31
0.0
 11
12.9614562393
 21
8.9689140477
 31
0.0
 11
12.967674255
 21
8.9679795477
 31
0.0
 11
12.9737014122
 21
8.9666847517
 31
0.0
  0
SPLINE
  5
2A0
100
AcDbEntity
  8
0
100
AcDbSpline
 62
6
  6
CONTINUOUS
 70
0
 71
3
 72
52
 73
48
 74
46
 42
0.0000001
 43
0.0000001
 44
0.0000000001
 12
0.0871676984
 22
-0.0045306903
 32
0.0
 13
-0.0544674733
 23
0.0682057854
 33
0.0
 40
0.0
 40
0.0
 40
0.0
 40
0.0
 40
0.0068098392
 40
0.0129128442
 40
0.0183096901
 40
0.0230222159
 40
0.0251400277
 40
0.0271131595
 40
0.0306924048
 40
0.0323581724
 40
0.0339844679
 40
0.0356119339
 40
0.0372829863
 40
0.040896637
 40
0.0429044588
 40
0.0450716018
 40
0.0474124109
 40
0.0499372987
 40
0.0555649271
 40
0.0619918261
 40
0.0692308091
 40
0.0772818005
 40
0.0861367792
 40
0.0957803982
 40
0.1061854857
 40
0.1173200167
 40
0.1291498449
 40
0.154751529
 40
0.1826951853
 40
0.1974501866
 40
0.2126788016
 40
0.2444697107
 40
0.2779117852
 40
0.3128524128
 40
0.3491394448
 40
0.3866343473
 40
0.425244799
 40
0.4648895628
 40
0.505488546
 40
0.5469646938
 40
0.5892591844
 40
0.6323237439
 40
0.6761112283
 40
0.7205759099
 40
0.8114025254
 40
0.9045994313
 40
1.0
 40
1.0
 40
1.0
 40
1.0
 10
12.7886596656
 20
7.2821323221
 30
0.0
 10
12.7888575316
 20
7.2821220377
 30
0.0
 10
12.7892333701
 20
7.2821123208
 30
0.0
 10
12.7897661429
 20
7.2821350878
 30
0.0
 10
12.7902345161
 20
7.2821967015
 30
0.0
 10
12.7905806834
 20
7.2822840777
 30
0.0
 10
12.7908196984
 20
7.2823772193
 30
0.0
 10
12.7910191811
 20
7.2824775857
 30
0.0
 10
12.7911914557
 20
7.2826024725
 30
0.0
 10
12.7913238472
 20
7.2827532375
 30
0.0
 10
12.7914004777
 20
7.2828748943
 30
0.0
 10
12.791455968
 20
7.2830077208
 30
0.0
 10
12.7915027398
 20
7.2832040995
 30
0.0
 10
12.7915042531
 20
7.2834191279
 30
0.0
 10
12.7914694225
 20
7.2836431764
 30
0.0
 10
12.7914228043
 20
7.2838272363
 30
0.0
 10
12.7913568843
 20
7.2840211236
 30
0.0
 10
12.7912392694
 20
7.2843030743
 30
0.0
 10
12.7910418137
 20
7.2846793895
 30
0.0
 10
12.7907406102
 20
7.2851535798
 30
0.0
 10
12.7903687592
 20
7.2856648447
 30
0.0
 10
12.7899281349
 20
7.2862122534
 30
0.0
 10
12.7894206013
 20
7.2867947949
 30
0.0
 10
12.7888483927
 20
7.2874112097
 30
0.0
 10
12.7882148128
 20
7.2880607207
 30
0.0
 10
12.7875233139
 20
7.288742299
 30
0.0
 10
12.7865015054
 20
7.2897183631
 30
0.0
 10
12.7851014717
 20
7.2910061643
 30
0.0
 10
12.7836192828
 20
7.2923298768
 30
0.0
 10
12.7823556237
 20
7.2934451116
 30
0.0
 10
12.781004901
 20
7.29463085
 30
0.0
 10
12.7792414838
 20
7.2961706023
 30
0.0
 10
12.7770450096
 20
7.2980863731
 30
0.0
 10
12.7747538436
 20
7.3000925924
 30
0.0
 10
12.7723826743
 20
7.3021864146
 30
0.0
 10
12.769944881
 20
7.3043660212
 30
0.0
 10
12.7674504373
 20
7.3066287198
 30
0.0
 10
12.7649081852
 20
7.308972979
 30
0.0
 10
12.7623266543
 20
7.311397436
 30
0.0
 10
12.7597141369
 20
7.3139012592
 30
0.0
 10
12.7570773796
 20
7.3164831707
 30
0.0
 10
12.7544222107
 20
7.3191420704
 30
0.0
 10
12.7517542987
 20
7.3218771307
 30
0.0
 10
12.7481621363
 20
7.3256513753
 30
0.0
 10
12.7436714346
 20
7.3305543244
 30
0.0
 10
12.7383394875
 20
7.3366927292
 30
0.0
 10
12.7348555358
 20
7.3409331848
 30
0.0
 10
12.7331234598
 20
7.3431021417
 30
0.0
 11
12.7886596656
 21
7.2821323221
 31
0.0
 11
12.7892539146
 21
7.2821189569
 31
0.0
 11
12.789786017
 21
7.2821442476
 31
0.0
 11
12.7902526191
 21
7.2822089413
 31
0.0
 11
12.7906503676
 21
7.282313785
 31
0.0
 11
12.7908223738
 21
7.2823814966
 31
0.0
 11
12.7909759091
 21
7.2824595259
 31
0.0
 11
12.7912258899
 21
7.282646911
 31
0.0
 11
12.7913214971
 21
7.2827564536
 31
0.0
 11
12.7913969567
 21
7.2828766874
 31
0.0
 11
12.7914518627
 21
7.2830077013
 31
0.0
 11
12.7914861292
 21
7.2831494775
 31
0.0
 11
12.791493716
 21
7.2834648051
 31
0.0
 11
12.7914675446
 21
7.2836380934
 31
0.0
 11
12.7914217355
 21
7.2838216226
 31
0.0
 11
12.7913565429
 21
7.2840152612
 31
0.0
 11
12.7912722208
 21
7.2842188777
 31
0.0
 11
12.791047205
 21
7.284655518
 31
0.0
 11
12.7907487211
 21
7.2851304911
 31
0.0
 11
12.7903788023
 21
7.2856427446
 31
0.0
 11
12.7899394817
 21
7.2861912262
 31
0.0
 11
12.7894327923
 21
7.2867748835
 31
0.0
 11
12.7888610514
 21
7.2873926618
 31
0.0
 11
12.7882276002
 21
7.2880434984
 31
0.0
 11
12.7875360106
 21
7.288726329
 31
0.0
 11
12.7867898543
 21
7.2894400891
 31
0.0
 11
12.785148129
 21
7.2909561396
 31
0.0
 11
12.7833309989
 21
7.2925831342
 31
0.0
 11
12.7823655866
 21
7.2934355744
 31
0.0
 11
12.7813667906
 21
7.2943126564
 31
0.0
 11
12.7792775098
 21
7.2961388192
 31
0.0
 11
12.7770784762
 21
7.2980584113
 31
0.0
 11
12.774784689
 21
7.3000683499
 31
0.0
 11
12.772411147
 21
7.3021655521
 31
0.0
 11
12.7699716593
 21
7.3043472563
 31
0.0
 11
12.767475786
 21
7.3066118478
 31
0.0
 11
12.7649321386
 21
7.3089579679
 31
0.0
 11
12.7623493288
 21
7.3113842577
 31
0.0
 11
12.759735788
 21
7.3138893907
 31
0.0
 11
12.7570981978
 21
7.3164723528
 31
0.0
 11
12.7544422566
 21
7.3191323056
 31
0.0
 11
12.7517736515
 21
7.3218684124
 31
0.0
 11
12.7490980364
 21
7.3246798435
 31
0.0
 11
12.7437436647
 21
7.3305263176
 31
0.0
 11
12.7384095829
 21
7.3366680875
 31
0.0
 11
12.7331234598
 21
7.3431021417
 31
0.0
  0
SPLINE
  5
2A1
100
AcDbEntity
  8
0
100
AcDbSpline
 62
6
  6
CONTINUOUS
 70
0
 71
3
 72
53
 73
49
 74
47
 42
0.0000001
 43
0.0000001
 44
0.0000000001
 12
0.1533118772
 22
-0.0093366339
 32
0.0
 13
-0.0806175064
 23
0.1307383727
 33
0.0
 40
0.0
 40
0.0
 40
0.0
 40
0.0
 40
0.0230672065
 40
0.0342457769
 40
0.0451675608
 40
0.0661934093
 40
0.0762872525
 40
0.0860760853
 40
0.0955397276
 40
0.1046684044
 40
0.1134656631
 40
0.1219518776
 40
0.1301677459
 40
0.1381709584
 40
0.1460388008
 40
0.1538747487
 40
0.1618072697
 40
0.1699849124
 40
0.1742181977
 40
0.178570714
 40
0.1876845035
 40
0.1974165202
 40
0.2078189019
 40
0.2189183364
 40
0.2307224876
 40
0.2432250231
 40
0.2564083297
 40
0.2702436508
 40
0.284693486
 40
0.2997138707
 40
0.315256042
 40
0.331268697
 40
0.3477151601
 40
0.3818126136
 40
0.4173489059
 40
0.4355915171
 40
0.4541207008
 40
0.4919794904
 40
0.5308077979
 40
0.5704915448
 40
0.6109429397
 40
0.6520882613
 40
0.6938579333
 40
0.7361993769
 40
0.7790677865
 40
0.8224211247
 40
0.9104444825
 40
1.0
 40
1.0
 40
1.0
 40
1.0
 10
12.7694870683
 20
7.3406896929
 30
0.0
 10
12.7706658938
 20
7.3406179029
 30
0.0
 10
12.7724203955
 20
7.3405676197
 30
0.0
 10
12.7747325461
 20
7.3406311867
 30
0.0
 10
12.7769359417
 20
7.3407796102
 30
0.0
 10
12.7790737971
 20
7.3410598906
 30
0.0
 10
12.7811247223
 20
7.3414887929
 30
0.0
 10
12.7825768421
 20
7.3418780633
 30
0.0
 10
12.7839549557
 20
7.3423421328
 30
0.0
 10
12.7852498845
 20
7.3428838219
 30
0.0
 10
12.7864523742
 20
7.343506093
 30
0.0
 10
12.7875531089
 20
7.3442120334
 30
0.0
 10
12.7885421174
 20
7.3450047659
 30
0.0
 10
12.7894092196
 20
7.3458860896
 30
0.0
 10
12.7901437707
 20
7.3468569638
 30
0.0
 10
12.7907344109
 20
7.3479179722
 30
0.0
 10
12.791169621
 20
7.3490688244
 30
0.0
 10
12.7913910569
 20
7.3500906975
 30
0.0
 10
12.7914821788
 20
7.3509446863
 30
0.0
 10
12.7915168048
 20
7.3518508495
 30
0.0
 10
12.7914484715
 20
7.3530395835
 30
0.0
 10
12.7912039558
 20
7.354519226
 30
0.0
 10
12.7908027506
 20
7.3560690949
 30
0.0
 10
12.7902513886
 20
7.3576841533
 30
0.0
 10
12.7895562944
 20
7.3593595011
 30
0.0
 10
12.7887234419
 20
7.3610897378
 30
0.0
 10
12.7877631387
 20
7.3628714218
 30
0.0
 10
12.7866862775
 20
7.3647016581
 30
0.0
 10
12.7855035464
 20
7.366577374
 30
0.0
 10
12.7842257319
 20
7.368495484
 30
0.0
 10
12.7828635208
 20
7.3704528422
 30
0.0
 10
12.7814273699
 20
7.3724472564
 30
0.0
 10
12.779399914
 20
7.3751861866
 30
0.0
 10
12.7767193875
 20
7.3786848305
 30
0.0
 10
12.7739338121
 20
7.3822180242
 30
0.0
 10
12.7716262215
 20
7.3851129171
 30
0.0
 10
12.7692374481
 20
7.388095149
 30
0.0
 10
12.766181208
 20
7.3918931071
 30
0.0
 10
12.7624477993
 20
7.3965363598
 30
0.0
 10
12.7586483609
 20
7.4012968203
 30
0.0
 10
12.7548028792
 20
7.4061722081
 30
0.0
 10
12.7509286851
 20
7.41116078
 30
0.0
 10
12.7470428942
 20
7.4162625501
 30
0.0
 10
12.7431580683
 20
7.4214755248
 30
0.0
 10
12.739285357
 20
7.4267981592
 30
0.0
 10
12.7341266538
 20
7.4340767286
 30
0.0
 10
12.7277686135
 20
7.4434338901
 30
0.0
 10
12.7228771986
 20
7.4510996589
 30
0.0
 10
12.7204706178
 20
7.4550024397
 30
0.0
 11
12.7694870683
 21
7.3406896929
 31
0.0
 11
12.7730288271
 21
7.3405948444
 31
0.0
 11
12.774745133
 21
7.3406430502
 31
0.0
 11
12.7764188081
 21
7.340756878
 31
0.0
 11
12.7796195205
 21
7.3411870054
 31
0.0
 11
12.7811366715
 21
7.3415062379
 31
0.0
 11
12.7825883303
 21
7.3418977392
 31
0.0
 11
12.7839650588
 21
7.3423641126
 31
0.0
 11
12.7852574169
 21
7.3429079618
 31
0.0
 11
12.7864559646
 21
7.3435318904
 31
0.0
 11
12.7875512618
 21
7.3442385022
 31
0.0
 11
12.7885338444
 21
7.3450303248
 31
0.0
 11
12.7893938563
 21
7.3459086536
 31
0.0
 11
12.7901211237
 21
7.3468737848
 31
0.0
 11
12.7907054636
 21
7.3479259856
 31
0.0
 11
12.7911366931
 21
7.3490655235
 31
0.0
 11
12.7914046292
 21
7.3502926657
 31
0.0
 11
12.7914742683
 21
7.3509391411
 31
0.0
 11
12.7915005942
 21
7.3516071512
 31
0.0
 11
12.791426429
 21
7.353005026
 31
0.0
 11
12.7911884618
 21
7.3544807606
 31
0.0
 11
12.7907930373
 21
7.3560288197
 31
0.0
 11
12.7902465006
 21
7.3576436681
 31
0.0
 11
12.7895551964
 21
7.3593197705
 31
0.0
 11
12.7887258884
 21
7.3610518062
 31
0.0
 11
12.7877682409
 21
7.3628359416
 31
0.0
 11
12.786693146
 21
7.3646689728
 31
0.0
 11
12.7855115001
 21
7.3665476977
 31
0.0
 11
12.7842341997
 21
7.3684689146
 31
0.0
 11
12.7828721412
 21
7.3704294215
 31
0.0
 11
12.7814360586
 21
7.3724260939
 31
0.0
 11
12.7799339742
 21
7.3744570965
 31
0.0
 11
12.7767548606
 21
7.3786190443
 31
0.0
 11
12.7733805861
 21
7.3829093285
 31
0.0
 11
12.7716345104
 21
7.3851007596
 31
0.0
 11
12.7698556021
 21
7.3873222998
 31
0.0
 11
12.7662126243
 21
7.3918546742
 31
0.0
 11
12.7624780112
 21
7.3965044487
 31
0.0
 11
12.758677408
 21
7.4012697006
 31
0.0
 11
12.7548309657
 21
7.4061490807
 31
0.0
 11
12.7509560771
 21
7.4111415269
 31
0.0
 11
12.7470695219
 21
7.4162459627
 31
0.0
 11
12.7431841021
 21
7.4214611971
 31
0.0
 11
12.7393109837
 21
7.4267859922
 31
0.0
 11
12.7354609975
 21
7.4322190848
 31
0.0
 11
12.7278665139
 21
7.4434045654
 31
0.0
 11
12.7204706178
 21
7.4550024397
 31
0.0
  0
SPLINE
  5
2A2
100
AcDbEntity
  8
0
100
AcDbSpline
 62
6
  6
CONTINUOUS
 70
0
 71
3
 72
61
 73
57
 74
55
 42
0.0000001
 43
0.0000001
 44
0.0000000001
 12
0.212846913
 22
-0.0145277823
 32
0.0
 13
-0.1073396836
 23
0.1843720617
 33
0.0
 40
0.0
 40
0.0
 40
0.0
 40
0.0
 40
0.0227296328
 40
0.0454560667
 40
0.0681875105
 40
0.0908874214
 40
0.1022168466
 40
0.1135283154
 40
0.1248213528
 40
0.13608924
 40
0.1585064333
 40
0.1696562036
 40
0.1807688162
 40
0.1918518427
 40
0.2029023155
 40
0.213924378
 40
0.2249389488
 40
0.235985799
 40
0.2471217356
 40
0.2584008421
 40
0.2698863406
 40
0.2816598806
 40
0.2876871824
 40
0.2938249171
 40
0.3000852618
 40
0.3064761852
 40
0.3196681341
 40
0.3334305204
 40
0.3477665465
 40
0.3551465764
 40
0.3626635862
 40
0.3703157053
 40
0.378100869
 40
0.3940560967
 40
0.410495181
 40
0.4273713951
 40
0.4359565353
 40
0.4446299589
 40
0.462226509
 40
0.4801382916
 40
0.516809064
 40
0.5355151542
 40
0.5544368252
 40
0.5735583653
 40
0.5928639395
 40
0.6123373503
 40
0.6319624841
 40
0.6716189333
 40
0.711745561
 40
0.7522606306
 40
0.7930969147
 40
0.834192284
 40
0.8754892935
 40
0.9169338876
 40
0.9584632794
 40
1.0
 40
1.0
 40
1.0
 40
1.0
 10
12.7426955754
 20
7.453401277
 30
0.0
 10
12.7443082195
 20
7.4532912066
 30
0.0
 10
12.7475423072
 20
7.4531857778
 30
0.0
 10
12.7523916723
 20
7.4533746421
 30
0.0
 10
12.7572131752
 20
7.4539107776
 30
0.0
 10
12.7611843543
 20
7.4546584238
 30
0.0
 10
12.7643123066
 20
7.4554441587
 30
0.0
 10
12.7666271741
 20
7.4561284475
 30
0.0
 10
12.7689067892
 20
7.4569092833
 30
0.0
 10
12.7718841641
 20
7.4580800612
 30
0.0
 10
12.7747668952
 20
7.4594575083
 30
0.0
 10
12.7775152332
 20
7.4610546181
 30
0.0
 10
12.7794952604
 20
7.462362046
 30
0.0
 10
12.7813871476
 20
7.4637825658
 30
0.0
 10
12.7831755939
 20
7.4653220267
 30
0.0
 10
12.7848426181
 20
7.4669858958
 30
0.0
 10
12.7863698308
 20
7.4687792103
 30
0.0
 10
12.7877384715
 20
7.4707068388
 30
0.0
 10
12.7889285859
 20
7.4727717738
 30
0.0
 10
12.7899212298
 20
7.4749732851
 30
0.0
 10
12.7906962311
 20
7.4773085881
 30
0.0
 10
12.7911399782
 20
7.4793478541
 30
0.0
 10
12.7913681676
 20
7.4810355346
 30
0.0
 10
12.7914736565
 20
7.4823422418
 30
0.0
 10
12.7915111738
 20
7.4836784581
 30
0.0
 10
12.7914728689
 20
7.485516486
 30
0.0
 10
12.7912586282
 20
7.4878814009
 30
0.0
 10
12.7907591088
 20
7.4907775739
 30
0.0
 10
12.7901547632
 20
7.4932292287
 30
0.0
 10
12.7895633689
 20
7.4952224622
 30
0.0
 10
12.7890614678
 20
7.4967457068
 30
0.0
 10
12.7885080504
 20
7.4982816043
 30
0.0
 10
12.7876984815
 20
7.5003623024
 30
0.0
 10
12.7865699353
 20
7.5029883545
 30
0.0
 10
12.7850640046
 20
7.5061527768
 30
0.0
 10
12.7836990143
 20
7.5088019402
 30
0.0
 10
12.7825458984
 20
7.5109380797
 30
0.0
 10
12.781343358
 20
7.5131055754
 30
0.0
 10
12.7797753675
 20
7.5158285557
 30
0.0
 10
12.7771343846
 20
7.5202302041
 30
0.0
 10
12.7743525516
 20
7.5246383138
 30
0.0
 10
12.7714700275
 20
7.5290664327
 30
0.0
 10
12.7692431181
 20
7.5324321224
 30
0.0
 10
12.7669720659
 20
7.5358196018
 30
0.0
 10
12.7646633359
 20
7.5392290004
 30
0.0
 10
12.7623232332
 20
7.5426603697
 30
0.0
 10
12.7591588424
 20
7.5472813239
 30
0.0
 10
12.7551563451
 20
7.5531084402
 30
0.0
 10
12.7503229421
 20
7.5601670901
 30
0.0
 10
12.7454757056
 20
7.5673178799
 30
0.0
 10
12.7406369032
 20
7.5745574318
 30
0.0
 10
12.7358286369
 20
7.5818839563
 30
0.0
 10
12.7310692019
 20
7.5892938053
 30
0.0
 10
12.7263756666
 20
7.5967820777
 30
0.0
 10
12.7217654365
 20
7.6043419206
 30
0.0
 10
12.7187567102
 20
7.6094257013
 30
0.0
 10
12.7172705308
 20
7.6119784383
 30
0.0
 11
12.7426955754
 21
7.453401277
 31
0.0
 11
12.7475421999
 21
7.4532436115
 31
0.0
 11
12.7523870237
 21
7.4534325324
 31
0.0
 11
12.75720657
 21
7.4539713716
 31
0.0
 11
12.7619650957
 21
7.4548711513
 31
0.0
 11
12.7643091763
 21
7.4554605466
 31
0.0
 11
12.766623242
 21
7.4561451603
 31
0.0
 11
12.768902241
 21
7.4569266953
 31
0.0
 11
12.7711389646
 21
7.4578075332
 31
0.0
 11
12.7754496665
 21
7.4598788756
 31
0.0
 11
12.7775056085
 21
7.4610752831
 31
0.0
 11
12.7794832538
 21
7.4623827834
 31
0.0
 11
12.7813725484
 21
7.463804513
 31
0.0
 11
12.7831574414
 21
7.4653446791
 31
0.0
 11
12.7848197283
 21
7.4670078732
 31
0.0
 11
12.7863412021
 21
7.4687986875
 31
0.0
 11
12.7877036554
 21
7.4707217143
 31
0.0
 11
12.7888887216
 21
7.4727808099
 31
0.0
 11
12.78987695
 21
7.4749748303
 31
0.0
 11
12.7906484387
 21
7.4773005506
 31
0.0
 11
12.7911832841
 21
7.4797547389
 31
0.0
 11
12.7913557459
 21
7.4810289985
 31
0.0
 11
12.7914616257
 21
7.4823341483
 31
0.0
 11
12.7915001357
 21
7.4836691882
 31
0.0
 11
12.7914726404
 21
7.4850323642
 31
0.0
 11
12.7912256674
 21
7.4878359054
 31
0.0
 11
12.7907327734
 21
7.4907303345
 31
0.0
 11
12.7900060251
 21
7.4937012143
 31
0.0
 11
12.7895587264
 21
7.4952108115
 31
0.0
 11
12.7890575784
 21
7.496734192
 31
0.0
 11
12.7885048892
 21
7.4982703086
 31
0.0
 11
12.7879033066
 21
7.499818436
 31
0.0
 11
12.786564061
 21
7.5029478302
 31
0.0
 11
12.7850610408
 21
7.5061165881
 31
0.0
 11
12.7834154452
 21
7.509318923
 31
0.0
 11
12.7825458065
 21
7.5109308736
 31
0.0
 11
12.7816483853
 21
7.5125490949
 31
0.0
 11
12.779776965
 21
7.515803468
 31
0.0
 11
12.7778127224
 21
7.5190813292
 31
0.0
 11
12.7736502811
 21
7.5257055268
 31
0.0
 11
12.7714742562
 21
7.5290508784
 31
0.0
 11
12.7692475777
 21
7.5324180097
 31
0.0
 11
12.7669767526
 21
7.5358069777
 31
0.0
 11
12.76466817
 21
7.5392178533
 31
0.0
 11
12.7623282186
 21
7.5426507077
 31
0.0
 11
12.7599631649
 21
7.5461056148
 31
0.0
 11
12.7551769459
 21
7.5530820272
 31
0.0
 11
12.7503440669
 21
7.5601480636
 31
0.0
 11
12.7454962824
 21
7.5673042015
 31
0.0
 11
12.7406572891
 21
7.5745488428
 31
0.0
 11
12.735848516
 21
7.5818797733
 31
0.0
 11
12.7310885709
 21
7.5892936745
 31
0.0
 11
12.7263942248
 21
7.5967864658
 31
0.0
 11
12.721782441
 21
7.60435155
 31
0.0
 11
12.7172705308
 21
7.6119784383
 31
0.0
  0
SPLINE
  5
2A3
100
AcDbEntity
  8
0
100
AcDbSpline
 62
6
  6
CONTINUOUS
 70
0
 71
3
 72
11
 73
7
 74
5
 42
0.0000001
 43
0.0000001
 44
0.0000000001
 12
-0.3461367571
 22
0.1389542414
 32
0.0
 13
-0.3227822239
 23
0.1868972224
 33
0.0
 40
0.0
 40
0.0
 40
0.0
 40
0.0
 40
0.250635293
 40
0.5006335669
 40
0.7503147526
 40
1.0
 40
1.0
 40
1.0
 40
1.0
 10
11.8283653178
 20
7.8097738715
 30
0.0
 10
11.7994472886
 20
7.8213828171
 30
0.0
 10
11.7420901948
 20
7.8455965798
 30
0.0
 10
11.6574817981
 20
7.884931564
 30
0.0
 10
11.5744429786
 20
7.9272205431
 30
0.0
 10
11.5201517349
 20
7.9573707961
 30
0.0
 10
11.4932870818
 20
7.9729259559
 30
0.0
 11
11.8283653178
 21
7.8097738715
 31
0.0
 11
11.7422437161
 21
7.846136627
 31
0.0
 11
11.6576901428
 21
7.8854495596
 31
0.0
 11
11.5747045981
 21
7.9277126692
 31
0.0
 11
11.4932870818
 21
7.9729259559
 31
0.0
  0
SPLINE
  5
2A4
100
AcDbEntity
  8
0
100
AcDbSpline
 62
6
  6
CONTINUOUS
 70
0
 71
3
 72
11
 73
7
 74
5
 42
0.0000001
 43
0.0000001
 44
0.0000000001
 12
-0.346132325
 22
-0.1389531503
 32
0.0
 13
-0.3227783128
 23
-0.1868949577
 33
0.0
 40
0.0
 40
0.0
 40
0.0
 40
0.0
 40
0.2506352719
 40
0.5006335438
 40
0.7503147391
 40
1.0
 40
1.0
 40
1.0
 40
1.0
 10
11.828361123
 20
8.7641961704
 30
0.0
 10
11.7994434666
 20
8.7525873169
 30
0.0
 10
11.7420871072
 20
8.7283737624
 30
0.0
 10
11.6574797801
 20
8.6890391643
 30
0.0
 10
11.5744419923
 20
8.6467506427
 30
0.0
 10
11.5201514108
 20
8.616600742
 30
0.0
 10
11.4932870818
 20
8.6010457699
 30
0.0
 11
11.828361123
 21
8.7641961704
 31
0.0
 11
11.7422406268
 21
8.727833729
 31
0.0
 11
11.6576881211
 21
8.6885211818
 31
0.0
 11
11.5747036061
 21
8.6462585288
 31
0.0
 11
11.4932870818
 21
8.6010457699
 31
0.0
  0
SPLINE
  5
2A5
100
AcDbEntity
  8
0
100
AcDbSpline
 62
6
  6
CONTINUOUS
 70
0
 71
3
 72
33
 73
29
 74
27
 42
0.0000001
 43
0.0000001
 44
0.0000000001
 12
0.0495762433
 22
0.0408290297
 32
0.0
 13
0.0642247115
 23
-0.0
 33
0.0
 40
0.0
 40
0.0
 40
0.0
 40
0.0
 40
0.0027470023
 40
0.005940979
 40
0.0096033879
 40
0.0137476138
 40
0.0183821536
 40
0.0235124247
 40
0.0291418297
 40
0.0352724064
 40
0.0490397569
 40
0.0648054846
 40
0.0825410862
 40
0.1022135543
 40
0.1237874997
 40
0.1472259949
 40
0.1724890245
 40
0.1995214082
 40
0.2586455345
 40
0.324098703
 40
0.395347005
 40
0.4717599119
 40
0.5526860932
 40
0.6374502827
 40
0.7253424939
 40
0.8156405952
 40
0.9075024788
 40
1.0
 40
1.0
 40
1.0
 40
1.0
 10
12.884803473
 20
8.3639081056
 30
0.0
 10
12.8848488684
 20
8.3639454914
 30
0.0
 10
12.8849528587
 20
8.3640193142
 30
0.0
 10
12.8851313545
 20
8.3641217214
 30
0.0
 10
12.8853437324
 20
8.3642238828
 30
0.0
 10
12.8855899418
 20
8.3643257432
 30
0.0
 10
12.8858699541
 20
8.3644272627
 30
0.0
 10
12.8861836842
 20
8.3645283725
 30
0.0
 10
12.886531033
 20
8.3646290154
 30
0.0
 10
12.8870596292
 20
8.3647679163
 30
0.0
 10
12.8878042156
 20
8.3649376817
 30
0.0
 10
12.8887974834
 20
8.3651317524
 30
0.0
 10
12.8899197964
 20
8.3653227599
 30
0.0
 10
12.8911685696
 20
8.3655102188
 30
0.0
 10
12.8925412093
 20
8.3656936416
 30
0.0
 10
12.8940350453
 20
8.3658725669
 30
0.0
 10
12.8956470501
 20
8.3660465073
 30
0.0
 10
12.8980210906
 20
8.3662782983
 30
0.0
 10
12.9012555738
 20
8.366549712
 30
0.0
 10
12.9054377901
 20
8.3668415465
 30
0.0
 10
12.9099926559
 20
8.3671052969
 30
0.0
 10
12.9148807941
 20
8.3673390516
 30
0.0
 10
12.9200599451
 20
8.3675404801
 30
0.0
 10
12.925486179
 20
8.3677076909
 30
0.0
 10
12.9311140771
 20
8.3678394638
 30
0.0
 10
12.9368946868
 20
8.3679342674
 30
0.0
 10
12.9427743817
 20
8.3679914572
 30
0.0
 10
12.9467212033
 20
8.3680042926
 30
0.0
 10
12.9487014122
 20
8.3680042926
 30
0.0
 11
12.884803473
 21
8.3639081056
 31
0.0
 11
12.8849464103
 21
8.3640115216
 31
0.0
 11
12.8851237181
 21
8.3641146777
 31
0.0
 11
12.8853352618
 21
8.3642175191
 31
0.0
 11
12.8855809072
 21
8.3643199905
 31
0.0
 11
12.8858605198
 21
8.364422037
 31
0.0
 11
12.8861739653
 21
8.3645236035
 31
0.0
 11
12.8865211091
 21
8.3646246349
 31
0.0
 11
12.8869018169
 21
8.3647250762
 31
0.0
 11
12.8877633612
 21
8.3649239686
 31
0.0
 11
12.888756782
 21
8.3651198545
 31
0.0
 11
12.8898794675
 21
8.3653123221
 31
0.0
 11
12.8911287645
 21
8.3655009609
 31
0.0
 11
12.8925020198
 21
8.3656853601
 31
0.0
 11
12.8939965801
 21
8.3658651091
 31
0.0
 11
12.895609659
 21
8.3660398027
 31
0.0
 11
12.8973375343
 21
8.3662090756
 31
0.0
 11
12.9011211814
 21
8.3665299654
 31
0.0
 11
12.9053145267
 21
8.3668249914
 31
0.0
 11
12.9098826599
 21
8.3670915141
 31
0.0
 11
12.9147845864
 21
8.3673273626
 31
0.0
 11
12.9199780772
 21
8.3675304647
 31
0.0
 11
12.9254194221
 21
8.367699042
 31
0.0
 11
12.9310627138
 21
8.3678317523
 31
0.0
 11
12.9368612957
 21
8.3679273249
 31
0.0
 11
12.9427608169
 21
8.3679849808
 31
0.0
 11
12.9487014122
 21
8.3680042926
 31
0.0
  0
SPLINE
  5
2A6
100
AcDbEntity
  8
0
100
AcDbSpline
 62
6
  6
CONTINUOUS
 70
0
 71
3
 72
29
 73
25
 74
23
 42
0.0000001
 43
0.0000001
 44
0.0000000001
 12
0.0497591635
 22
0.0393546847
 32
0.0
 13
0.06344104
 23
0.0
 33
0.0
 40
0.0
 40
0.0
 40
0.0
 40
0.0
 40
0.0140776424
 40
0.0294502753
 40
0.046148401
 40
0.0641869568
 40
0.0835709978
 40
0.1042983958
 40
0.1263617251
 40
0.1497488154
 40
0.1744358621
 40
0.200391149
 40
0.2275807628
 40
0.255969148
 40
0.3161918393
 40
0.3807327361
 40
0.4491896839
 40
0.5211416562
 40
0.5961542748
 40
0.6737627742
 40
0.7534935007
 40
0.8348478863
 40
0.9172261186
 40
1.0
 40
1.0
 40
1.0
 40
1.0
 10
12.886684068
 20
8.5185226407
 30
0.0
 10
12.8869175653
 20
8.5187073144
 30
0.0
 10
12.8874224705
 20
8.5190730951
 30
0.0
 10
12.8882501257
 20
8.5195912315
 30
0.0
 10
12.8891791694
 20
8.5201019296
 30
0.0
 10
12.8902078933
 20
8.5206043697
 30
0.0
 10
12.8913346059
 20
8.5210977615
 30
0.0
 10
12.8925575598
 20
8.5215812619
 30
0.0
 10
12.8938749733
 20
8.5220540306
 30
0.0
 10
12.8952848697
 20
8.5225151131
 30
0.0
 10
12.8967848469
 20
8.5229638156
 30
0.0
 10
12.8983721902
 20
8.5233994686
 30
0.0
 10
12.9000440845
 20
8.5238213453
 30
0.0
 10
12.9024295351
 20
8.5243754492
 30
0.0
 10
12.9056032429
 20
8.5250242463
 30
0.0
 10
12.9096297467
 20
8.5257221665
 30
0.0
 10
12.9139185586
 20
8.5263500377
 30
0.0
 10
12.9184407401
 20
8.5269033613
 30
0.0
 10
12.9231663796
 20
8.5273777769
 30
0.0
 10
12.9280645009
 20
8.5277706779
 30
0.0
 10
12.9331030049
 20
8.5280792543
 30
0.0
 10
12.9382470381
 20
8.5283006807
 30
0.0
 10
12.9434584451
 20
8.5284342796
 30
0.0
 10
12.9469509918
 20
8.5284642204
 30
0.0
 10
12.9487014122
 20
8.5284642204
 30
0.0
 11
12.886684068
 21
8.5185226407
 31
0.0
 11
12.887405587
 21
8.5190489852
 31
0.0
 11
12.8882308166
 21
8.519568716
 31
0.0
 11
12.8891580708
 21
8.52008098
 31
0.0
 11
12.8901855184
 21
8.5205849324
 31
0.0
 11
12.8913113278
 21
8.5210797281
 31
0.0
 11
12.8925336677
 21
8.5215645221
 31
0.0
 11
12.8938507065
 21
8.5220384696
 31
0.0
 11
12.8952605586
 21
8.5225007324
 31
0.0
 11
12.8967607456
 21
8.5229505473
 31
0.0
 11
12.8983484259
 21
8.5233871967
 31
0.0
 11
12.9000207527
 21
8.5238099641
 31
0.0
 11
12.9017748789
 21
8.5242181325
 31
0.0
 11
12.9055171391
 21
8.5249878064
 31
0.0
 11
12.9095508733
 21
8.5256908423
 31
0.0
 11
12.9138476269
 21
8.5263228101
 31
0.0
 11
12.9183782701
 21
8.526879435
 31
0.0
 11
12.9231131506
 21
8.5273567513
 31
0.0
 11
12.9280208367
 21
8.5277518457
 31
0.0
 11
12.9330695172
 21
8.5280620295
 31
0.0
 11
12.9382259101
 21
8.5282848935
 31
0.0
 11
12.9434503436
 21
8.5284192448
 31
0.0
 11
12.9487014122
 21
8.5284642204
 31
0.0
  0
SPLINE
  5
2A7
100
AcDbEntity
  8
0
100
AcDbSpline
 62
6
  6
CONTINUOUS
 70
0
 71
3
 72
23
 73
19
 74
17
 42
0.0000001
 43
0.0000001
 44
0.0000000001
 12
0.048801352
 22
0.0345056349
 32
0.0
 13
0.0597679746
 23
0.0
 33
0.0
 40
0.0
 40
0.0
 40
0.0
 40
0.0
 40
0.0417725593
 40
0.0870084475
 40
0.135686563
 40
0.187712272
 40
0.2429595412
 40
0.30127835
 40
0.3624699573
 40
0.4263034652
 40
0.4925379817
 40
0.5609209054
 40
0.6311791047
 40
0.703031904
 40
0.7761937076
 40
0.8503314125
 40
0.9250623082
 40
1.0
 40
1.0
 40
1.0
 40
1.0
 10
12.8909769505
 20
8.6718434544
 30
0.0
 10
12.8916564697
 20
8.6723239173
 30
0.0
 10
12.8931156862
 20
8.6732634501
 30
0.0
 10
12.8954883064
 20
8.6745625895
 30
0.0
 10
12.8981203519
 20
8.6758016276
 30
0.0
 10
12.9009984234
 20
8.6769753562
 30
0.0
 10
12.9041088762
 20
8.6780779628
 30
0.0
 10
12.9074371069
 20
8.6791031601
 30
0.0
 10
12.9109667076
 20
8.6800464669
 30
0.0
 10
12.9146801253
 20
8.6809037376
 30
0.0
 10
12.9185593739
 20
8.6816704604
 30
0.0
 10
12.9225859381
 20
8.6823423304
 30
0.0
 10
12.9267405321
 20
8.6829167415
 30
0.0
 10
12.931003534
 20
8.6833909449
 30
0.0
 10
12.9353543124
 20
8.6837618782
 30
0.0
 10
12.9397701969
 20
8.6840278023
 30
0.0
 10
12.9442265356
 20
8.6841881533
 30
0.0
 10
12.9472084541
 20
8.6842240466
 30
0.0
 10
12.9487014122
 20
8.6842240466
 30
0.0
 11
12.8909769505
 21
8.6718434544
 31
0.0
 11
12.8930719433
 21
8.6732015129
 31
0.0
 11
12.8954400802
 21
8.6745060017
 31
0.0
 11
12.8980698556
 21
8.675750528
 31
0.0
 11
12.9009472682
 21
8.6769292169
 31
0.0
 11
12.9040581948
 21
8.6780362194
 31
0.0
 11
12.9073882694
 21
8.6790657778
 31
0.0
 11
12.9109207693
 21
8.6800130246
 31
0.0
 11
12.9146376454
 21
8.6808735934
 31
0.0
 11
12.9185208338
 21
8.6816431238
 31
0.0
 11
12.9225519037
 21
8.6823176117
 31
0.0
 11
12.9267113316
 21
8.682894117
 31
0.0
 11
12.9309793912
 21
8.6833698965
 31
0.0
 11
12.9353362422
 21
8.6837422428
 31
0.0
 11
12.9397592461
 21
8.6840093247
 31
0.0
 11
12.9442228616
 21
8.6841702194
 31
0.0
 11
12.9487014122
 21
8.6842240466
 31
0.0
  0
SPLINE
  5
2A8
100
AcDbEntity
  8
0
100
AcDbSpline
 62
6
  6
CONTINUOUS
 70
0
 71
3
 72
20
 73
16
 74
14
 42
0.0000001
 43
0.0000001
 44
0.0000000001
 12
0.0444832841
 22
0.0253236492
 32
0.0
 13
0.0511864218
 23
0.0
 33
0.0
 40
0.0
 40
0.0
 40
0.0
 40
0.0
 40
0.0515051394
 40
0.1049462936
 40
0.1602678983
 40
0.2173906215
 40
0.2762153345
 40
0.3366352067
 40
0.4617890465
 40
0.5262908075
 40
0.5918929133
 40
0.7258332032
 40
0.7938795507
 40
0.8623898948
 40
1.0
 40
1.0
 40
1.0
 40
1.0
 10
12.8992287531
 20
8.821300431
 30
0.0
 10
12.899992459
 20
8.8217351971
 30
0.0
 10
12.9015704587
 20
8.8225830933
 30
0.0
 10
12.904035214
 20
8.8237692114
 30
0.0
 10
12.9066353118
 20
8.8248894233
 30
0.0
 10
12.9093626697
 20
8.825940534
 30
0.0
 10
12.9122087463
 20
8.8269198689
 30
0.0
 10
12.9161967963
 20
8.8281402819
 30
0.0
 10
12.9203371475
 20
8.8291853038
 30
0.0
 10
12.9246037247
 20
8.8300618228
 30
0.0
 10
12.9290416628
 20
8.8308403034
 30
0.0
 10
12.9335707491
 20
8.8314380835
 30
0.0
 10
12.938167297
 20
8.8318579525
 30
0.0
 10
12.9428357445
 20
8.8321609074
 30
0.0
 10
12.9463534892
 20
8.8322520834
 30
0.0
 10
12.9487014122
 20
8.8322520834
 30
0.0
 11
12.8992287531
 21
8.821300431
 31
0.0
 11
12.9015500111
 21
8.8225503011
 31
0.0
 11
12.9040140431
 21
8.8237382809
 31
0.0
 11
12.9066138951
 21
8.8248605017
 31
0.0
 11
12.9093415553
 21
8.825913643
 31
0.0
 11
12.912188246
 21
8.8268947817
 31
0.0
 11
12.9151451723
 21
8.8278010035
 31
0.0
 11
12.9213544082
 21
8.8293772322
 31
0.0
 11
12.9245882995
 21
8.830042517
 31
0.0
 11
12.9278956093
 21
8.8306234155
 31
0.0
 11
12.9346920287
 21
8.8315247369
 31
0.0
 11
12.938160592
 21
8.8318420685
 31
0.0
 11
12.9416600111
 21
8.8320694623
 31
0.0
 11
12.9487014122
 21
8.8322520834
 31
0.0
  0
SPLINE
  5
2A9
100
AcDbEntity
  8
0
100
AcDbSpline
 62
6
  6
CONTINUOUS
 70
0
 71
3
 72
15
 73
11
 74
9
 42
0.0000001
 43
0.0000001
 44
0.0000000001
 12
0.030543953
 22
0.0102084583
 32
0.0
 13
0.0322047463
 23
0.0
 33
0.0
 40
0.0
 40
0.0
 40
0.0
 40
0.0
 40
0.1191358177
 40
0.2405597782
 40
0.3639974885
 40
0.4891637457
 40
0.615756718
 40
0.7433861866
 40
0.8716145365
 40
1.0
 40
1.0
 40
1.0
 40
1.0
 10
12.9170114181
 20
8.9647428671
 30
0.0
 10
12.9182243777
 20
8.9651482647
 30
0.0
 10
12.920692666
 20
8.9659108206
 30
0.0
 10
12.9244736201
 20
8.9669015204
 30
0.0
 10
12.9283559132
 20
8.9677473005
 30
0.0
 10
12.9323239262
 20
8.9684444546
 30
0.0
 10
12.9363611372
 20
8.9689889036
 30
0.0
 10
12.940449144
 20
8.9693792446
 30
0.0
 10
12.9445681935
 20
8.96961449
 30
0.0
 10
12.9473232051
 20
8.9696671335
 30
0.0
 10
12.9487014122
 20
8.9696671335
 30
0.0
 11
12.9170114181
 21
8.9647428671
 31
0.0
 11
12.9206766641
 21
8.9658771229
 31
0.0
 11
12.9244589999
 21
8.9668697867
 31
0.0
 11
12.928342921
 21
8.9677171409
 31
0.0
 11
12.9323129163
 21
8.968415479
 31
0.0
 11
12.9363531092
 21
8.9689612906
 31
0.0
 11
12.9404447115
 21
8.9693526324
 31
0.0
 11
12.9445675423
 21
8.9695883099
 31
0.0
 11
12.9487014122
 21
8.9696671335
 31
0.0
  0
SPLINE
  5
2AA
100
AcDbEntity
  8
0
100
AcDbSpline
 62
6
  6
CONTINUOUS
 70
0
 71
3
 72
11
 73
7
 74
5
 42
0.0000001
 43
0.0000001
 44
0.0000000001
 12
0.0252351613
 22
0.0
 32
0.0
 13
0.0244883677
 23
0.0060937025
 33
0.0
 40
0.0
 40
0.0
 40
0.0
 40
0.0
 40
0.2540814652
 40
0.5065401076
 40
0.7557109811
 40
1.0
 40
1.0
 40
1.0
 40
1.0
 10
12.9487014122
 20
7.6043045923
 30
0.0
 10
12.9508386744
 20
7.6043045923
 30
0.0
 10
12.9551006023
 20
7.6044297945
 30
0.0
 10
12.9614362517
 20
7.6049911936
 30
0.0
 10
12.9676451708
 20
7.6059212782
 30
0.0
 10
12.9717073324
 20
7.6067907659
 30
0.0
 10
12.9737014122
 20
7.6072869741
 30
0.0
 11
12.9487014122
 21
7.6043045923
 31
0.0
 11
12.9551104192
 21
7.604493372
 31
0.0
 11
12.9614562127
 21
7.6050576755
 31
0.0
 11
12.9676742493
 21
7.6059921773
 31
0.0
 11
12.9737014122
 21
7.6072869741
 31
0.0
  0
ENDSEC
  0
SECTION
  2
OBJECTS
  0
DICTIONARY
  5
C
100
AcDbDictionary
280
0
281
1
  3
ACAD_GROUP
350
D
  3
ACAD_MLINESTYLE
350
17
  3
ACAD_LAYOUT
350
1A
  3
ACAD_PLOTSETTINGS
350
19
  3
ACAD_PLOTSTYLENAME
350
E
  0
DICTIONARY
  5
D
102
{ACAD_REACTORS
330
C
102
}
100
AcDbDictionary
280
0
281
1
  0
ACDBDICTIONARYWDFLT
  5
E
102
{ACAD_REACTORS
330
C
102
}
100
AcDbDictionary
281
1
  3
Normal
350
F
100
AcDbDictionaryWithDefault
340
F
  0
DICTIONARY
  5
17
102
{ACAD_REACTORS
330
C
102
}
100
AcDbDictionary
280
0
281
1
  3
Standard
350
18
  0
DICTIONARY
  5
19
102
{ACAD_REACTORS
330
C
102
}
100
AcDbDictionary
281
1
  0
DICTIONARY
  5
1A
102
{ACAD_REACTORS
330
C
102
}
100
AcDbDictionary
281
1
  3
Model
350
2AB
  3
Layout1
350
2AC
  0
ACDBPLACEHOLDER
  5
F
102
{ACAD_REACTORS
330
E
102
}
  0
MLINESTYLE
  5
18
102
{ACAD_REACTORS
330
17
102
}
100
AcDbMlineStyle
  2
STANDARD
 70
0
  3

 62
256
 51
90.0
 52
90.0
 71
2
 49
0.5
 62
256
  6
BYLAYER
 49
-0.5
 62
256
  6
BYLAYER
  0
LAYOUT
  5
2AB
102
{ACAD_REACTORS
330
1A
102
}
100
AcDbPlotSettings
  1

  2
none_device
  4
ISO_A2_(594.00_x_420.00_MM)
  6

 40
0.0
 41
0.0
 42
0.0
 43
0.0
 44
594.0
 45
420.0
 46
0.0
 47
0.0
 48
0.0
 49
0.0
140
0.0
141
0.0
142
1.0
143
1.0
 70
1024
 72
0
 73
0
 74
0
  7

 75
0
147
1.0
148
0.0
149
0.0
100
AcDbLayout
  1
Model
 70
0
 71
0
 10
0.0
 20
0.0
 11
23.3858267717
 21
16.5354330709
 12
0.0
 22
0.0
 32
0.0
 14
0.0
 24
0.0
 34
0.0
 15
0.0
 25
0.0
 35
0.0
146
0.0
 13
0.0
 23
0.0
 33
0.0
 16
1.0
 26
0.0
 36
0.0
 17
0.0
 27
1.0
 37
0.0
 76
0
330
204
345
0
346
0
  0
LAYOUT
  5
2AC
102
{ACAD_REACTORS
330
1A
102
}
100
AcDbPlotSettings
  1

  2
none_device
  4
ISO_A2_(594.00_x_420.00_MM)
  6

 40
0.0
 41
0.0
 42
0.0
 43
0.0
 44
594.0
 45
420.0
 46
0.0
 47
0.0
 48
0.0
 49
0.0
140
0.0
141
0.0
142
1.0
143
1.0
 70
0
 72
0
 73
0
 74
0
  7

 75
0
147
1.0
148
0.0
149
0.0
100
AcDbLayout
  1
Layout1
 70
0
 71
1
 10
0.0
 20
0.0
 11
23.3858267717
 21
16.5354330709
 12
0.0
 22
0.0
 32
0.0
 14
0.0
 24
0.0
 34
0.0
 15
0.0
 25
0.0
 35
0.0
146
0.0
 13
0.0
 23
0.0
 33
0.0
 16
1.0
 26
0.0
 36
0.0
 17
0.0
 27
1.0
 37
0.0
 76
0
330
205
345
0
346
0
  0
ENDSEC
  0
EOF
