  0
SECTION
  2
HEADER
  9
$ACADVER
  1
AC1015
  9
$DWGCODEPAGE
  3
ANSI_1252
  9
$EXTMAX
 10
11.6929133858
 20
8.2677165354
 30
0.0
  9
$EXTMIN
 10
0.0
 20
0.0
 30
0.0
  9
$LIMMIN
 10
0.0
 20
0.0
  9
$LIMMAX
 10
11.6929133858
 20
8.2677165354
  9
$VIEWCTR
 10
5.8464566929
 20
4.1338582677
  9
$VIEWSIZE
 40
8.2677165354
  9
$CLAYER
  8
0
  9
$LTSCALE
 40
0.6431102362
  9
$CELTYPE
  6
BYLAYER
  9
$DIMSCALE
 40
1.0
  9
$DIMASZ
 40
0.1
  9
$DIMEXO
 40
0.0730807087
  9
$DIMDLI
 40
0.4443307087
  9
$DIMEXE
 40
0.2104724409
  9
$DIMCEN
 40
0.1052362205
  9
$DIMLFAC
 40
1.0
  9
$DIMBLK
  1
_FILLED
  9
$DIMTXT
 40
0.08
  9
$DIMTOL
 70
1
  9
$DIMLIM
 70
0
  9
$DIMTFAC
 40
1.0
  9
$DIMTP
 40
0.01
  9
$DIMTM
 40
0.01
  9
$PDMODE
 70
3
  9
$PDSIZE
 40
0.06
  9
$HANDSEED
  5
2B0
  9
$TILEMODE
 70
1
  9
$MEASUREMENT
 70
0
  9
$INSUNITS
 70
1
  0
ENDSEC
  0
SECTION
  2
CLASSES
  0
CLASS
  1
ACDBDICTIONARYWDFLT
  2
AcDbDictionaryWithDefault
  3
AutoCAD 2000
 90
0
280
0
281
0
  0
CLASS
  1
ACDBPLACEHOLDER
  2
AcDbPlaceHolder
  3
AutoCAD 2000
 90
0
280
0
281
0
  0
CLASS
  1
LAYOUT
  2
AcDbLayout
  3
AutoCAD 2000
 90
0
280
0
281
0
  0
ENDSEC
  0
SECTION
  2
TABLES
  0
TABLE
  2
VPORT
  5
8
100
AcDbSymbolTable
 70
2
  0
VPORT
  5
1F4
100
AcDbSymbolTableRecord
100
AcDbViewportTableRecord
  2
*ACTIVE
 70
0
 10
0.0
 20
0.0
 11
1.0
 21
1.0
 12
5.8464566929
 22
4.1338582677
 13
0.0
 23
0.0
 14
1.0
 24
1.0
 15
0.0
 25
0.0
 16
0.0
 26
0.0
 36
1.0
 17
0.0
 27
0.0
 37
0.0
 40
8.2677165354
 41
1.4142857143
 42
50.0
 43
0.0
 44
0.0
 50
0.0
 51
0.0
 71
0
 72
100
 73
1
 74
1
 75
0
 76
0
 77
0
 78
0
  0
ENDTAB
  0
TABLE
  2
LTYPE
  5
5
100
AcDbSymbolTable
 70
6
  0
LTYPE
  5
14
100
AcDbSymbolTableRecord
100
AcDbLinetypeTableRecord
  2
BYBLOCK
 70
0
  3

 72
65
 73
0
 40
0.0
  0
LTYPE
  5
15
100
AcDbSymbolTableRecord
100
AcDbLinetypeTableRecord
  2
BYLAYER
 70
0
  3

 72
65
 73
0
 40
0.0
  0
LTYPE
  5
16
100
AcDbSymbolTableRecord
100
AcDbLinetypeTableRecord
  2
CONTINUOUS
 70
64
  3
Solid line
 72
65
 73
0
 40
0.0
  0
LTYPE
  5
1F5
100
AcDbSymbolTableRecord
100
AcDbLinetypeTableRecord
  2
CENTER
 70
64
  3
____ _ ____ _ ____ _ ____ _ ____ _ ____ _ ____
 72
65
 73
4
 40
0.6
 49
0.375
 74
0
 49
-0.075
 74
0
 49
0.075
 74
0
 49
-0.075
 74
0
  0
LTYPE
  5
1F6
100
AcDbSymbolTableRecord
100
AcDbLinetypeTableRecord
  2
HIDDEN
 70
64
  3
- - - - - - - - - - - - - - - - - - - -
 72
65
 73
2
 40
0.2
 49
0.1
 74
0
 49
-0.1
 74
0
  0
LTYPE
  5
1F7
100
AcDbSymbolTableRecord
100
AcDbLinetypeTableRecord
  2
PHANTOM
 70
64
  3
_____ _ _ _____ _ _ _____ _ _ _____
 72
65
 73
6
 40
0.8
 49
0.45
 74
0
 49
-0.05
 74
0
 49
0.1
 74
0
 49
-0.05
 74
0
 49
0.1
 74
0
 49
-0.05
 74
0
  0
LTYPE
  5
1F8
100
AcDbSymbolTableRecord
100
AcDbLinetypeTableRecord
  2
DOT
 70
64
  3
. . . . . . . . . . . . . . . . . . . .
 72
65
 73
2
 40
0.2
 49
0.1
 74
0
 49
-0.1
 74
0
  0
LTYPE
  5
1F9
100
AcDbSymbolTableRecord
100
AcDbLinetypeTableRecord
  2
DASHED
 70
64
  3
- - - - - - - - - - - - - - - - - - - -
 72
65
 73
2
 40
0.2
 49
0.1
 74
0
 49
-0.1
 74
0
  0
ENDTAB
  0
TABLE
  2
LAYER
  5
2
100
AcDbSymbolTable
 70
36
  0
LAYER
  5
10
100
AcDbSymbolTableRecord
100
AcDbLayerTableRecord
  2
0
 70
0
 62
7
  6
CONTINUOUS
370
-3
390
F
  0
LAYER
  5
1FA
100
AcDbSymbolTableRecord
100
AcDbLayerTableRecord
  2
DEFAULT_1
 70
0
 62
7
  6
CENTER
370
-3
390
F
  0
LAYER
  5
1FB
100
AcDbSymbolTableRecord
100
AcDbLayerTableRecord
  2
DEFAULT_2
 70
0
 62
8
  6
HIDDEN
370
-3
390
F
  0
LAYER
  5
1FC
100
AcDbSymbolTableRecord
100
AcDbLayerTableRecord
  2
DEFAULT_3
 70
0
 62
7
  6
PHANTOM
370
-3
390
F
  0
LAYER
  5
1FD
100
AcDbSymbolTableRecord
100
AcDbLayerTableRecord
  2
3_ALL_SYMBOLS
 70
0
 62
7
  6
CONTINUOUS
370
-3
390
F
  0
LAYER
  5
1FE
100
AcDbSymbolTableRecord
100
AcDbLayerTableRecord
  2
DEFAULT_COORDINATE_SYSTEM
 70
0
 62
7
  6
CONTINUOUS
370
-3
390
F
  0
LAYER
  5
1FF
100
AcDbSymbolTableRecord
100
AcDbLayerTableRecord
  2
DEFAULT_DATUM_AXES
 70
0
 62
7
  6
CONTINUOUS
370
-3
390
F
  0
LAYER
  5
200
100
AcDbSymbolTableRecord
100
AcDbLayerTableRecord
  2
DEFAULT_DATUM_CURVES
 70
0
 62
7
  6
CONTINUOUS
370
-3
390
F
  0
LAYER
  5
201
100
AcDbSymbolTableRecord
100
AcDbLayerTableRecord
  2
DEFAULT_DATUM_PLANES
 70
0
 62
7
  6
CONTINUOUS
370
-3
390
F
  0
ENDTAB
  0
TABLE
  2
STYLE
  5
3
100
AcDbSymbolTable
 70
1
  0
STYLE
  5
11
100
AcDbSymbolTableRecord
100
AcDbTextStyleTableRecord
  2
STANDARD
 70
0
 40
0.0
 41
0.8
 50
0.0
 71
0
 42
0.2
  3
txt
  4

  0
STYLE
  5
202
100
AcDbSymbolTableRecord
100
AcDbTextStyleTableRecord
  2
TEXTSTYLE_1
 70
0
 40
0.0
 41
0.8
 50
0.0
 71
0
 42
0.2
  3
gdt
  4

  0
ENDTAB
  0
TABLE
  2
VIEW
  5
6
100
AcDbSymbolTable
 70
0
  0
ENDTAB
  0
TABLE
  2
UCS
  5
7
100
AcDbSymbolTable
 70
0
  0
ENDTAB
  0
TABLE
  2
APPID
  5
9
100
AcDbSymbolTable
 70
1
  0
APPID
  5
203
100
AcDbSymbolTableRecord
100
AcDbRegAppTableRecord
  2
ACAD
 70
0
  0
ENDTAB
  0
TABLE
  2
BLOCK_RECORD
  5
1
100
AcDbSymbolTable
 70
0
  0
BLOCK_RECORD
  5
204
100
AcDbSymbolTableRecord
100
AcDbBlockTableRecord
  2
*Model_Space
  0
BLOCK_RECORD
  5
205
100
AcDbSymbolTableRecord
100
AcDbBlockTableRecord
  2
*Paper_Space
  0
ENDTAB
  0
TABLE
  2
DIMSTYLE
  5
A
100
AcDbSymbolTable
 70
1
100
AcDbDimStyleTable
 71
0
  0
DIMSTYLE
105
206
100
AcDbSymbolTableRecord
100
AcDbDimStyleTableRecord
  2
STANDARD
 70
0
  3

  4

 40
1.0
 41
0.1
 42
0.0625
 43
0.38
 44
0.18
 45
0.0
 46
0.0
 47
0.01
 48
0.01
140
0.08
141
0.09
142
0.0
143
25.4
144
1.0
145
0.0
146
1.0
147
0.09
 71
1.0
 72
0.0
 73
1
 74
1
 75
0
 76
0
 77
0
 78
4
170
0
171
2
172
0
173
0
174
0
175
0
176
0
177
0
178
0
270
2
271
2
272
2
273
2
274
2
275
0
280
0
281
0
282
0
283
1
284
4
285
0
286
0
287
3
288
0
340
11
  0
ENDTAB
  0
ENDSEC
  0
SECTION
  2
BLOCKS
  0
BLOCK
  5
20
100
AcDbEntity
  8
0
100
AcDbBlockBegin
  2
*Model_Space
 70
0
 10
0.0
 20
0.0
 30
0.0
  3
*Model_Space
  1

  0
ENDBLK
  5
21
100
AcDbEntity
  8
0
100
AcDbBlockEnd
  0
BLOCK
  5
1C
100
AcDbEntity
  8
0
100
AcDbBlockBegin
  2
*Paper_Space
 70
0
 10
0.0
 20
0.0
 30
0.0
  3
*Paper_Space
  1

  0
ENDBLK
  5
1D
100
AcDbEntity
  8
0
100
AcDbBlockEnd
  0
ENDSEC
  0
SECTION
  2
ENTITIES
  0
LINE
  5
207
100
AcDbEntity
  8
0
100
AcDbLine
 62
6
  6
CONTINUOUS
 10
5.835744378
 20
2.7497751148
 11
6.1757351106
 21
2.7497751148
  0
LINE
  5
208
100
AcDbEntity
  8
0
100
AcDbLine
 62
6
  6
CONTINUOUS
 10
5.8257397443
 20
2.7597751148
 11
6.1857397443
 21
2.7597751148
  0
LINE
  5
209
100
AcDbEntity
  8
0
100
AcDbLine
 62
6
  6
CONTINUOUS
 10
5.7332445072
 20
2.8157751148
 11
6.2782349814
 21
2.8157751148
  0
LINE
  5
20A
100
AcDbEntity
  8
0
100
AcDbLine
 62
6
  6
CONTINUOUS
 10
4.7207397443
 20
5.8847751148
 11
4.7207397443
 21
5.7347751148
  0
LINE
  5
20B
100
AcDbEntity
  8
0
100
AcDbLine
 62
9
  6
CONTINUOUS
 10
6.3012397432
 20
2.8397751148
 11
5.7102397454
 21
2.8397751148
  0
LINE
  5
20C
100
AcDbEntity
  8
0
100
AcDbLine
 62
9
  6
CONTINUOUS
 10
6.3362397443
 20
2.8747751148
 11
5.6752397443
 21
2.8747751148
  0
LINE
  5
20D
100
AcDbEntity
  8
0
100
AcDbLine
 62
6
  6
CONTINUOUS
 10
5.6752397443
 20
2.9577781954
 11
6.3362397443
 21
2.9577781954
  0
LINE
  5
20E
100
AcDbEntity
  8
0
100
AcDbLine
 62
6
  6
CONTINUOUS
 10
5.2932532234
 20
5.6825400092
 11
5.2938055489
 21
5.6847751148
  0
LINE
  5
20F
100
AcDbEntity
  8
0
100
AcDbLine
 62
6
  6
CONTINUOUS
 10
2.6932398542
 20
3.1387815875
 11
5.8901351615
 21
3.1387815875
  0
LINE
  5
210
100
AcDbEntity
  8
0
100
AcDbLine
 62
6
  6
CONTINUOUS
 10
6.1213443272
 20
3.1387815875
 11
9.3182396344
 21
3.1387815875
  0
LINE
  5
211
100
AcDbEntity
  8
0
100
AcDbLine
 62
6
  6
CONTINUOUS
 10
5.8357397443
 20
2.7497751148
 11
5.8257397443
 21
2.7597751148
  0
LWPOLYLINE
  5
212
100
AcDbEntity
  8
0
100
AcDbPolyline
 62
6
  6
CONTINUOUS
 90
28
 70
0
 10
5.1721569407
 20
5.453767632
 10
5.1767424687
 20
5.3957488028
 10
5.1820173371
 20
5.3431058982
 10
5.1882952407
 20
5.2911281506
 10
5.1955676156
 20
5.2397896012
 10
5.2038273122
 20
5.1890634515
 10
5.2130689515
 20
5.1389214585
 10
5.2232890937
 20
5.0893344725
 10
5.2344864884
 20
5.0402722955
 10
5.2466622564
 20
4.9917038475
 10
5.2598237289
 20
4.9435844048
 10
5.2739861383
 20
4.8958556031
 10
5.2891693603
 20
4.8484606784
 10
5.3053898579
 20
4.8013679159
 10
5.3226504831
 20
4.7545893719
 10
5.3409505764
 20
4.7081422525
 10
5.3603062911
 20
4.6619999886
 10
5.3808049079
 20
4.6159857607
 10
5.4025621592
 20
4.5699016294
 10
5.4256315008
 20
4.523712201
 10
5.4496603033
 20
4.478138026
 10
5.4741018059
 20
4.4340939881
 10
5.4983393874
 20
4.3924356146
 10
5.5217917813
 20
4.3538123552
 10
5.5443141342
 20
4.3181001251
 10
5.5659187565
 20
4.2849630145
 10
5.5866318731
 20
4.2540889356
 10
5.6055141185
 20
4.2265858043
  0
LWPOLYLINE
  5
213
100
AcDbEntity
  8
0
100
AcDbPolyline
 62
6
  6
CONTINUOUS
 90
37
 70
0
 10
5.0594442389
 20
5.4805595914
 10
5.0615527561
 20
5.4492132537
 10
5.0660898817
 20
5.3962318209
 10
5.0717825008
 20
5.3440325688
 10
5.0786154675
 20
5.2925523491
 10
5.0865784638
 20
5.2417301239
 10
5.0956664049
 20
5.1915045708
 10
5.1058785808
 20
5.1418191023
 10
5.1172047398
 20
5.0926775415
 10
5.1296241803
 20
5.0441196043
 10
5.1431134039
 20
4.9961791191
 10
5.157695407
 20
4.9487321682
 10
5.1734737148
 20
4.9014589749
 10
5.1905864877
 20
4.8540392903
 10
5.2090658011
 20
4.8065069965
 10
5.228551887
 20
4.7597988717
 10
5.2485289854
 20
4.7149582713
 10
5.2684672994
 20
4.67281528
 10
5.2882313882
 20
4.6332603145
 10
5.3078671424
 20
4.5958760518
 10
5.3274570607
 20
4.5602607318
 10
5.3470696582
 20
4.5261066731
 10
5.3666788985
 20
4.4933109141
 10
5.3862485031
 20
4.4618026679
 10
5.4057478489
 20
4.4315130282
 10
5.4251497137
 20
4.4023776927
 10
5.4444100454
 20
4.3743649001
 10
5.4634729745
 20
4.3474634038
 10
5.4822837676
 20
4.3216619915
 10
5.5007883672
 20
4.2969500194
 10
5.5189323679
 20
4.2733185629
 10
5.5366572247
 20
4.2507648317
 10
5.5538989009
 20
4.2292929211
 10
5.5705879155
 20
4.2089127325
 10
5.5866486383
 20
4.1896398209
 10
5.6020152465
 20
4.171475523
 10
5.6163146012
 20
4.1547751148
  0
LWPOLYLINE
  5
214
100
AcDbEntity
  8
0
100
AcDbPolyline
 62
6
  6
CONTINUOUS
 90
29
 70
0
 10
5.0008854203
 20
5.4997355227
 10
5.0042200886
 20
5.4481855394
 10
5.0090445255
 20
5.3941838546
 10
5.0151618109
 20
5.3409854237
 10
5.0225517578
 20
5.2885387431
 10
5.0311984466
 20
5.2367943739
 10
5.0410906793
 20
5.1857020946
 10
5.0522221277
 20
5.135211328
 10
5.0645902305
 20
5.0852761608
 10
5.0781965724
 20
5.0358523993
 10
5.0930472058
 20
4.9868963405
 10
5.1091517773
 20
4.9383676242
 10
5.1265235242
 20
4.8902284707
 10
5.1451795089
 20
4.8424426386
 10
5.1651426982
 20
4.7949705136
 10
5.1864437285
 20
4.7477669732
 10
5.209117844
 20
4.7007898342
 10
5.2331994473
 20
4.6540098357
 10
5.2587147166
 20
4.6074205151
 10
5.2856884144
 20
4.5610207814
 10
5.3141665282
 20
4.5147778229
 10
5.3442645083
 20
4.4685635756
 10
5.37612203
 20
4.4222441396
 10
5.4098260099
 20
4.3757865411
 10
5.44517786
 20
4.3295320608
 10
5.4818638023
 20
4.2838979406
 10
5.5195239486
 20
4.239275051
 10
5.5577632633
 20
4.1960166043
 10
5.5958341334
 20
4.1547751148
  0
LINE
  5
215
100
AcDbEntity
  8
0
100
AcDbLine
 62
6
  6
CONTINUOUS
 10
2.6932398542
 20
3.5137815875
 11
5.8901351615
 21
3.5137815875
  0
LINE
  5
216
100
AcDbEntity
  8
0
100
AcDbLine
 62
6
  6
CONTINUOUS
 10
6.1213443272
 20
3.5137815875
 11
9.3182396344
 21
3.5137815875
  0
LWPOLYLINE
  5
217
100
AcDbEntity
  8
0
100
AcDbPolyline
 62
6
  6
CONTINUOUS
 90
19
 70
0
 10
5.3334289254
 20
5.3923651325
 10
5.3366427429
 20
5.3549401219
 10
5.3418036133
 20
5.3029986641
 10
5.3477417841
 20
5.2515463946
 10
5.3544602189
 20
5.2005713586
 10
5.3619615158
 20
5.1500618849
 10
5.3702478468
 20
5.1000080368
 10
5.3793214267
 20
5.0503992242
 10
5.3891846688
 20
5.001224297
 10
5.3998402948
 20
4.9524716753
 10
5.4112917254
 20
4.9041281879
 10
5.4235428632
 20
4.8561806771
 10
5.4366002635
 20
4.8086090991
 10
5.4504785329
 20
4.7613706425
 10
5.4651956506
 20
4.7144204307
 10
5.4807658525
 20
4.667732599
 10
5.4971744099
 20
4.6213636619
 10
5.5143910344
 20
4.575394233
 10
5.5285197716
 20
4.5394589022
  0
LINE
  5
218
100
AcDbEntity
  8
0
100
AcDbLine
 62
6
  6
CONTINUOUS
 10
5.3307323197
 20
5.4283442334
 11
5.3334289254
 21
5.3923651325
  0
LINE
  5
219
100
AcDbEntity
  8
0
100
AcDbLine
 62
6
  6
CONTINUOUS
 10
7.2907397443
 20
5.7347751148
 11
7.2057397443
 21
5.6847751148
  0
LINE
  5
21A
100
AcDbEntity
  8
0
100
AcDbLine
 62
9
  6
CONTINUOUS
 10
5.627405396
 20
3.6454807743
 11
6.3840740927
 21
3.6454807743
  0
LINE
  5
21B
100
AcDbEntity
  8
0
100
AcDbLine
 62
6
  6
CONTINUOUS
 10
4.9704437976
 20
5.5622736547
 11
4.9887318355
 21
5.5139604758
  0
LINE
  5
21C
100
AcDbEntity
  8
0
100
AcDbLine
 62
6
  6
CONTINUOUS
 10
5.6182397443
 20
4.1356982186
 11
5.6182397443
 21
4.1247751148
  0
LINE
  5
21D
100
AcDbEntity
  8
0
100
AcDbLine
 62
6
  6
CONTINUOUS
 10
5.6532397443
 20
4.0307751148
 11
5.6532397443
 21
4.0747751148
  0
LINE
  5
21E
100
AcDbEntity
  8
0
100
AcDbLine
 62
6
  6
CONTINUOUS
 10
5.6752397443
 20
2.8747751148
 11
5.6752397443
 21
2.9577781954
  0
LINE
  5
21F
100
AcDbEntity
  8
0
100
AcDbLine
 62
6
  6
CONTINUOUS
 10
5.7332397443
 20
2.8157751148
 11
5.7332397443
 21
2.8397751148
  0
LINE
  5
220
100
AcDbEntity
  8
0
100
AcDbLine
 62
6
  6
CONTINUOUS
 10
5.6532397443
 20
4.0307751148
 11
6.3582397443
 21
4.0307751148
  0
LINE
  5
221
100
AcDbEntity
  8
0
100
AcDbLine
 62
7
  6
CONTINUOUS
 10
5.6532397443
 20
4.0747751148
 11
6.3582397443
 21
4.0747751148
  0
LINE
  5
222
100
AcDbEntity
  8
0
100
AcDbLine
 62
6
  6
CONTINUOUS
 10
5.6055141185
 20
4.2265858043
 11
5.6210964839
 21
4.2043607844
  0
LINE
  5
223
100
AcDbEntity
  8
0
100
AcDbLine
 62
6
  6
CONTINUOUS
 10
6.0057397443
 20
5.4283442334
 11
6.0057397443
 21
4.2043607844
  0
LINE
  5
224
100
AcDbEntity
  8
0
100
AcDbLine
 62
9
  6
CONTINUOUS
 10
6.3932397443
 20
4.1247751148
 11
5.6182397443
 21
4.1247751148
  0
LINE
  5
225
100
AcDbEntity
  8
0
100
AcDbLine
 62
6
  6
CONTINUOUS
 10
5.6182397443
 20
4.1356982186
 11
6.3932397443
 21
4.1356982186
  0
LINE
  5
226
100
AcDbEntity
  8
0
100
AcDbLine
 62
6
  6
CONTINUOUS
 10
6.4156409149
 20
4.1547751148
 11
6.3964519807
 21
4.1547751148
  0
LINE
  5
227
100
AcDbEntity
  8
0
100
AcDbLine
 62
6
  6
CONTINUOUS
 10
6.3951413142
 20
4.1547751148
 11
6.3568800488
 21
4.1547751148
  0
LINE
  5
228
100
AcDbEntity
  8
0
100
AcDbLine
 62
6
  6
CONTINUOUS
 10
6.3537552149
 20
4.1547751148
 11
6.2933784855
 21
4.1547751148
  0
LINE
  5
229
100
AcDbEntity
  8
0
100
AcDbLine
 62
6
  6
CONTINUOUS
 10
6.288959303
 20
4.1547751148
 11
6.2102748173
 21
4.1547751148
  0
LINE
  5
22A
100
AcDbEntity
  8
0
100
AcDbLine
 62
6
  6
CONTINUOUS
 10
6.2048624463
 20
4.1547751148
 11
6.113232422
 21
4.1547751148
  0
LINE
  5
22B
100
AcDbEntity
  8
0
100
AcDbLine
 62
6
  6
CONTINUOUS
 10
6.1071957064
 20
4.1547751148
 11
6.0088645782
 21
4.1547751148
  0
LINE
  5
22C
100
AcDbEntity
  8
0
100
AcDbLine
 62
6
  6
CONTINUOUS
 10
6.0026149104
 20
4.1547751148
 11
5.9042837822
 21
4.1547751148
  0
LINE
  5
22D
100
AcDbEntity
  8
0
100
AcDbLine
 62
6
  6
CONTINUOUS
 10
5.8982470667
 20
4.1547751148
 11
5.8066170424
 21
4.1547751148
  0
LINE
  5
22E
100
AcDbEntity
  8
0
100
AcDbLine
 62
6
  6
CONTINUOUS
 10
5.8012046713
 20
4.1547751148
 11
5.7225201856
 21
4.1547751148
  0
LINE
  5
22F
100
AcDbEntity
  8
0
100
AcDbLine
 62
6
  6
CONTINUOUS
 10
5.7181010031
 20
4.1547751148
 11
5.6577242737
 21
4.1547751148
  0
LINE
  5
230
100
AcDbEntity
  8
0
100
AcDbLine
 62
6
  6
CONTINUOUS
 10
5.6545994398
 20
4.1547751148
 11
5.6163381745
 21
4.1547751148
  0
LINE
  5
231
100
AcDbEntity
  8
0
100
AcDbLine
 62
6
  6
CONTINUOUS
 10
5.615027508
 20
4.1547751148
 11
5.5958385737
 21
4.1547751148
  0
LINE
  5
232
100
AcDbEntity
  8
0
100
AcDbLine
 62
6
  6
CONTINUOUS
 10
6.2782397443
 20
2.8157751148
 11
6.2782397443
 21
2.8397751148
  0
LINE
  5
233
100
AcDbEntity
  8
0
100
AcDbLine
 62
6
  6
CONTINUOUS
 10
6.3362397443
 20
2.8747751148
 11
6.3362397443
 21
2.9577781954
  0
LINE
  5
234
100
AcDbEntity
  8
0
100
AcDbLine
 62
6
  6
CONTINUOUS
 10
6.3582397443
 20
4.0307751148
 11
6.3582397443
 21
4.0747751148
  0
LINE
  5
235
100
AcDbEntity
  8
0
100
AcDbLine
 62
6
  6
CONTINUOUS
 10
6.3932397443
 20
4.1247751148
 11
6.3932397443
 21
4.1356982186
  0
LINE
  5
236
100
AcDbEntity
  8
0
100
AcDbLine
 62
6
  6
CONTINUOUS
 10
7.0400976431
 20
5.5597955277
 11
7.0227476531
 21
5.5139604758
  0
LWPOLYLINE
  5
237
100
AcDbEntity
  8
0
100
AcDbPolyline
 62
6
  6
CONTINUOUS
 90
19
 70
0
 10
6.4829622102
 20
4.5394651126
 10
6.4968086322
 20
4.5746676249
 10
6.5140785137
 20
4.6207417605
 10
6.530536557
 20
4.6672174666
 10
6.5461524538
 20
4.714014316
 10
6.5609112888
 20
4.7610753339
 10
6.5748271967
 20
4.808425981
 10
6.587918214
 20
4.8561111909
 10
6.6001990148
 20
4.9041738992
 10
6.6116762515
 20
4.9526344592
 10
6.6223539107
 20
5.0015063835
 10
6.6322354681
 20
5.0508031675
 10
6.6413236295
 20
5.1005364178
 10
6.6496207704
 20
5.1507171508
 10
6.6571290807
 20
5.2013558056
 10
6.6638507244
 20
5.2524621574
 10
6.6697883135
 20
5.3040477399
 10
6.6749448462
 20
5.35612436
 10
6.6780503777
 20
5.3923628229
  0
LWPOLYLINE
  5
238
100
AcDbEntity
  8
0
100
AcDbPolyline
 62
6
  6
CONTINUOUS
 90
28
 70
0
 10
6.4059668536
 20
4.2265879445
 10
6.4247456299
 20
4.2539388607
 10
6.4454437614
 20
4.2847863293
 10
6.4670330165
 20
4.3178939555
 10
6.4895374675
 20
4.3535698405
 10
6.5129675426
 20
4.3921456341
 10
6.5371804551
 20
4.4337472468
 10
6.5616017081
 20
4.4777363076
 10
6.5856201723
 20
4.5232685283
 10
6.6086935455
 20
4.569440979
 10
6.6304675833
 20
4.6155346037
 10
6.6509883825
 20
4.661572683
 10
6.6703661159
 20
4.7077420487
 10
6.6886845547
 20
4.7542107643
 10
6.7059606602
 20
4.8010063925
 10
6.7221951216
 20
4.8481147095
 10
6.7373917705
 20
4.895526401
 10
6.7515670837
 20
4.9432734201
 10
6.76474067
 20
4.9914117697
 10
6.7769275679
 20
5.039999074
 10
6.7881351035
 20
5.0890798939
 10
6.7983644845
 20
5.1386855642
 10
6.8076145259
 20
5.1888465511
 10
6.8158818163
 20
5.2395921896
 10
6.8231609673
 20
5.2909507419
 10
6.8294448159
 20
5.3429490069
 10
6.8347247843
 20
5.3956129371
 10
6.8393225476
 20
5.4537676262
  0
LINE
  5
239
100
AcDbEntity
  8
0
100
AcDbLine
 62
6
  6
CONTINUOUS
 10
6.4059668536
 20
4.2265879445
 11
6.3903830048
 21
4.2043607844
  0
LWPOLYLINE
  5
23A
100
AcDbEntity
  8
0
100
AcDbPolyline
 62
6
  6
CONTINUOUS
 90
27
 70
0
 10
6.491955439
 20
4.2392749341
 10
6.529615542
 20
4.2838977654
 10
6.5663014456
 20
4.3295318274
 10
6.6016532616
 20
4.3757862494
 10
6.6353572114
 20
4.4222437896
 10
6.667214707
 20
4.4685631672
 10
6.6973126646
 20
4.5147773559
 10
6.7257907594
 20
4.5610202553
 10
6.7527644414
 20
4.6074199293
 10
6.7782796982
 20
4.6540091894
 10
6.8023612918
 20
4.7007891265
 10
6.8250354006
 20
4.7477662032
 10
6.8463364271
 20
4.79496968
 10
6.8662996155
 20
4.84244174
 10
6.884955602
 20
4.8902275059
 10
6.9023273537
 20
4.9383665914
 10
6.9184319327
 20
4.9868952378
 10
6.9332825765
 20
5.0358512249
 10
6.9468889317
 20
5.0852749124
 10
6.9592570508
 20
5.1352100031
 10
6.9703885188
 20
5.1857006908
 10
6.9802807741
 20
5.2367928883
 10
6.9889274891
 20
5.2885371727
 10
6.9963174655
 20
5.3409837652
 10
7.0024347844
 20
5.3941821044
 10
7.0072592586
 20
5.4481836939
 10
7.0105940683
 20
5.4997355227
  0
LWPOLYLINE
  5
23B
100
AcDbEntity
  8
0
100
AcDbPolyline
 62
6
  6
CONTINUOUS
 90
37
 70
0
 10
6.3951648874
 20
4.1547751148
 10
6.4094642422
 20
4.171475523
 10
6.4248308504
 20
4.1896398209
 10
6.4408915731
 20
4.2089127325
 10
6.4575805877
 20
4.2292929211
 10
6.474822264
 20
4.2507648317
 10
6.4925471208
 20
4.2733185629
 10
6.5106911214
 20
4.2969500194
 10
6.529195721
 20
4.3216619915
 10
6.5480065141
 20
4.3474634038
 10
6.5670694432
 20
4.3743649001
 10
6.5863297749
 20
4.4023776927
 10
6.6057316398
 20
4.4315130282
 10
6.6252309856
 20
4.4618026679
 10
6.6448005901
 20
4.4933109141
 10
6.6644098304
 20
4.5261066731
 10
6.6840224279
 20
4.5602607318
 10
6.7036123462
 20
4.5958760518
 10
6.7232481004
 20
4.6332603145
 10
6.7430121892
 20
4.67281528
 10
6.7629505032
 20
4.7149582713
 10
6.7829276017
 20
4.7597988717
 10
6.8024136876
 20
4.8065069965
 10
6.8208930009
 20
4.8540392903
 10
6.8380057739
 20
4.9014589749
 10
6.8537840816
 20
4.9487321682
 10
6.8683660847
 20
4.9961791191
 10
6.8818553084
 20
5.0441196043
 10
6.8942747488
 20
5.0926775415
 10
6.9056009078
 20
5.1418191023
 10
6.9158130838
 20
5.1915045708
 10
6.9249010249
 20
5.2417301239
 10
6.9328640212
 20
5.2925523491
 10
6.9396969879
 20
5.3440325688
 10
6.945389607
 20
5.3962318209
 10
6.9499267325
 20
5.4492132537
 10
6.9520352498
 20
5.4805595914
  0
LINE
  5
23C
100
AcDbEntity
  8
0
100
AcDbLine
 62
6
  6
CONTINUOUS
 10
6.4537162253
 20
4.1960166043
 11
6.4919555401
 21
4.239275051
  0
LINE
  5
23D
100
AcDbEntity
  8
0
100
AcDbLine
 62
6
  6
CONTINUOUS
 10
6.4156453553
 20
4.1547751148
 11
6.4537161724
 21
4.1960165457
  0
LINE
  5
23E
100
AcDbEntity
  8
0
100
AcDbLine
 62
6
  6
CONTINUOUS
 10
6.680747169
 20
5.4283442334
 11
6.6780503777
 21
5.3923628229
  0
LINE
  5
23F
100
AcDbEntity
  8
0
100
AcDbLine
 62
6
  6
CONTINUOUS
 10
4.8057397443
 20
5.6847751148
 11
4.7207397443
 21
5.7347751148
  0
LINE
  5
240
100
AcDbEntity
  8
0
100
AcDbLine
 62
6
  6
CONTINUOUS
 10
7.2907397443
 20
5.8847751148
 11
7.2907397443
 21
5.7347751148
  0
LINE
  5
241
100
AcDbEntity
  8
0
100
AcDbLine
 62
6
  6
CONTINUOUS
 10
6.1757397443
 20
2.7497751148
 11
6.1857397443
 21
2.7597751148
  0
LINE
  5
242
100
AcDbEntity
  8
0
100
AcDbLine
 62
9
  6
CONTINUOUS
 10
4.9887318355
 20
5.5139604758
 11
7.0227476531
 21
5.5139604758
  0
LINE
  5
243
100
AcDbEntity
  8
0
100
AcDbLine
 62
7
  6
CONTINUOUS
 10
4.976385228
 20
5.6847751148
 11
4.976059539
 21
5.6847751148
  0
LINE
  5
244
100
AcDbEntity
  8
0
100
AcDbLine
 62
6
  6
CONTINUOUS
 10
4.8057397443
 20
5.6847751148
 11
4.976059539
 21
5.6847751148
  0
LINE
  5
245
100
AcDbEntity
  8
0
100
AcDbLine
 62
6
  6
CONTINUOUS
 10
4.976385228
 20
5.6847751148
 11
7.2057397443
 21
5.6847751148
  0
LINE
  5
246
100
AcDbEntity
  8
0
100
AcDbLine
 62
6
  6
CONTINUOUS
 10
4.7207397443
 20
5.7347751148
 11
7.2907397443
 21
5.7347751148
  0
LINE
  5
247
100
AcDbEntity
  8
0
100
AcDbLine
 62
6
  6
CONTINUOUS
 10
4.7207397443
 20
5.8847751148
 11
7.2907397443
 21
5.8847751148
  0
LINE
  5
248
100
AcDbEntity
  8
0
100
AcDbLine
 62
7
  6
CONTINUOUS
 10
6.7795041895
 20
5.6847751148
 11
6.7797977976
 21
5.6847524438
  0
ARC
  5
249
100
AcDbEntity
  8
0
100
AcDbCircle
 62
6
  6
CONTINUOUS
 10
5.3782397443
 20
3.8557008448
 40
0.326
100
AcDbArc
 50
319.8458068178
 51
32.4822048034
  0
ARC
  5
24A
100
AcDbEntity
  8
0
100
AcDbCircle
 62
6
  6
CONTINUOUS
 10
2.6932397443
 20
3.3262815875
 40
0.1875
100
AcDbArc
 50
90.0
 51
270.0
  0
ARC
  5
24B
100
AcDbEntity
  8
0
100
AcDbCircle
 62
6
  6
CONTINUOUS
 10
5.7697397443
 20
2.7597751148
 40
0.056
100
AcDbArc
 50
0.0
 51
90.0
  0
ARC
  5
24C
100
AcDbEntity
  8
0
100
AcDbCircle
 62
6
  6
CONTINUOUS
 10
5.6682397443
 20
4.1247751148
 40
0.05
100
AcDbArc
 50
180.0
 51
270.0
  0
ARC
  5
24D
100
AcDbEntity
  8
0
100
AcDbCircle
 62
6
  6
CONTINUOUS
 10
5.7102397443
 20
2.8747751148
 40
0.035
100
AcDbArc
 50
180.0
 51
270.0000017894
  0
ARC
  5
24E
100
AcDbEntity
  8
0
100
AcDbCircle
 62
6
  6
CONTINUOUS
 10
3.7679782523
 20
6.2271796759
 40
3.3471980529
100
AcDbArc
 50
321.7461963409
 51
322.1186411136
  0
ARC
  5
24F
100
AcDbEntity
  8
0
100
AcDbCircle
 62
6
  6
CONTINUOUS
 10
4.5653404004
 20
5.7014451148
 40
2.4068193439
100
AcDbArc
 50
319.4172131634
 51
320.0123584086
  0
ARC
  5
250
100
AcDbEntity
  8
0
100
AcDbCircle
 62
6
  6
CONTINUOUS
 10
4.3346756504
 20
5.6601907939
 40
1.7115977987
100
AcDbArc
 50
359.9860851346
 51
0.8229892121
  0
ARC
  5
251
100
AcDbEntity
  8
0
100
AcDbCircle
 62
6
  6
CONTINUOUS
 10
5.1758357481
 20
5.5847851148
 40
0.20006
100
AcDbArc
 50
200.73321
 51
209.5000442413
  0
ARC
  5
252
100
AcDbEntity
  8
0
100
AcDbCircle
 62
6
  6
CONTINUOUS
 10
5.6658210506
 20
5.6597751191
 40
0.100000002
100
AcDbArc
 50
214.1488129442
 51
318.1376137975
  0
ARC
  5
253
100
AcDbEntity
  8
0
100
AcDbCircle
 62
6
  6
CONTINUOUS
 10
5.390627552
 20
5.6597751176
 40
0.100000001
100
AcDbArc
 50
193.1583684729
 51
311.666016865
  0
ARC
  5
254
100
AcDbEntity
  8
0
100
AcDbCircle
 62
6
  6
CONTINUOUS
 10
4.9057397443
 20
5.6597751148
 40
0.1
100
AcDbArc
 50
165.5222821653
 51
272.9900401317
  0
ARC
  5
255
100
AcDbEntity
  8
0
100
AcDbCircle
 62
6
  6
CONTINUOUS
 10
5.5235314834
 20
5.6597751154
 40
0.1
100
AcDbArc
 50
207.6219645208
 51
315.3670703616
  0
ARC
  5
256
100
AcDbEntity
  8
0
100
AcDbCircle
 62
6
  6
CONTINUOUS
 10
5.1630908564
 20
5.6597751151
 40
0.0999999995
100
AcDbArc
 50
165.5225030311
 51
302.2166697545
  0
ARC
  5
257
100
AcDbEntity
  8
0
100
AcDbCircle
 62
6
  6
CONTINUOUS
 10
5.8147267479
 20
5.6597751145
 40
0.099999999
100
AcDbArc
 50
217.7385711562
 51
319.7460422329
  0
ARC
  5
258
100
AcDbEntity
  8
0
100
AcDbCircle
 62
6
  6
CONTINUOUS
 10
5.0008397395
 20
5.659775116
 40
0.0999999986
100
AcDbArc
 50
165.5224877382
 51
291.1090306583
  0
ARC
  5
259
100
AcDbEntity
  8
0
100
AcDbCircle
 62
6
  6
CONTINUOUS
 10
5.2696960758
 20
5.6597751151
 40
0.0999999984
100
AcDbArc
 50
165.5225048655
 51
307.2057570793
  0
ARC
  5
25A
100
AcDbEntity
  8
0
100
AcDbCircle
 62
6
  6
CONTINUOUS
 10
4.9164448666
 20
5.6597751149
 40
0.0999999979
100
AcDbArc
 50
165.522487567
 51
279.2111554247
  0
ARC
  5
25B
100
AcDbEntity
  8
0
100
AcDbCircle
 62
6
  6
CONTINUOUS
 10
5.9673502981
 20
5.659775115
 40
0.0999999979
100
AcDbArc
 50
219.5069132207
 51
320.1557495131
  0
ARC
  5
25C
100
AcDbEntity
  8
0
100
AcDbCircle
 62
6
  6
CONTINUOUS
 10
5.0728868282
 20
5.6597751132
 40
0.0999999896
100
AcDbArc
 50
165.5224854574
 51
296.8163403612
  0
ARC
  5
25D
100
AcDbEntity
  8
0
100
AcDbCircle
 62
6
  6
CONTINUOUS
 10
4.9483518745
 20
5.659775115
 40
0.0999999957
100
AcDbArc
 50
165.5224873076
 51
285.1916000133
  0
ARC
  5
25E
100
AcDbEntity
  8
0
100
AcDbCircle
 62
6
  6
CONTINUOUS
 10
5.3906208063
 20
5.6597766834
 40
0.099993076
100
AcDbArc
 50
165.5223919446
 51
166.8414442453
  0
ARC
  5
25F
100
AcDbEntity
  8
0
100
AcDbCircle
 62
6
  6
CONTINUOUS
 10
6.0057397443
 20
3.3262815875
 40
0.495
100
AcDbArc
 50
311.8880088583
 51
337.7381030514
  0
ARC
  5
260
100
AcDbEntity
  8
0
100
AcDbCircle
 62
6
  6
CONTINUOUS
 10
6.0057397443
 20
3.3262815875
 40
0.495
100
AcDbArc
 50
22.2625659067
 51
40.1541931822
  0
ARC
  5
261
100
AcDbEntity
  8
0
100
AcDbCircle
 62
6
  6
CONTINUOUS
 10
6.0057397443
 20
3.3262815875
 40
0.495
100
AcDbArc
 50
202.2618969486
 51
228.1119911417
  0
ARC
  5
262
100
AcDbEntity
  8
0
100
AcDbCircle
 62
6
  6
CONTINUOUS
 10
6.0057397443
 20
3.3262815875
 40
0.495
100
AcDbArc
 50
139.8458068178
 51
157.7374340933
  0
ARC
  5
263
100
AcDbEntity
  8
0
100
AcDbCircle
 62
6
  6
CONTINUOUS
 10
6.6332397443
 20
3.8557008448
 40
0.326
100
AcDbArc
 50
147.5177951966
 51
220.1541931822
  0
ARC
  5
264
100
AcDbEntity
  8
0
100
AcDbCircle
 62
6
  6
CONTINUOUS
 10
9.3182397443
 20
3.3262815875
 40
0.1875
100
AcDbArc
 50
270.0
 51
90.0
  0
ARC
  5
265
100
AcDbEntity
  8
0
100
AcDbCircle
 62
6
  6
CONTINUOUS
 10
6.2417397443
 20
2.7597751148
 40
0.056
100
AcDbArc
 50
90.0
 51
180.0
  0
ARC
  5
266
100
AcDbEntity
  8
0
100
AcDbCircle
 62
6
  6
CONTINUOUS
 10
6.3432397443
 20
4.1247751148
 40
0.05
100
AcDbArc
 50
270.0
 51
360.0
  0
ARC
  5
267
100
AcDbEntity
  8
0
100
AcDbCircle
 62
6
  6
CONTINUOUS
 10
6.3012397443
 20
2.8747751148
 40
0.035
100
AcDbArc
 50
269.9999982106
 51
360.0
  0
ARC
  5
268
100
AcDbEntity
  8
0
100
AcDbCircle
 62
6
  6
CONTINUOUS
 10
8.3157706002
 20
6.2837799104
 40
3.438993264
100
AcDbArc
 50
217.8864006742
 51
218.2488305049
  0
ARC
  5
269
100
AcDbEntity
  8
0
100
AcDbCircle
 62
6
  6
CONTINUOUS
 10
7.4461390883
 20
5.7014451148
 40
2.4068193439
100
AcDbArc
 50
219.9876415914
 51
220.5827868366
  0
ARC
  5
26A
100
AcDbEntity
  8
0
100
AcDbCircle
 62
6
  6
CONTINUOUS
 10
6.4562050584
 20
5.6601867443
 40
0.5718689571
100
AcDbArc
 50
177.53571769
 51
180.0412412742
  0
ARC
  5
26B
100
AcDbEntity
  8
0
100
AcDbCircle
 62
6
  6
CONTINUOUS
 10
6.8356437405
 20
5.5847851148
 40
0.20006
100
AcDbArc
 50
330.499952011
 51
339.26679
  0
ARC
  5
26C
100
AcDbEntity
  8
0
100
AcDbCircle
 62
6
  6
CONTINUOUS
 10
6.4178069971
 20
5.6597751177
 40
0.1000000007
100
AcDbArc
 50
223.1108928397
 51
328.6188454473
  0
ARC
  5
26D
100
AcDbEntity
  8
0
100
AcDbCircle
 62
6
  6
CONTINUOUS
 10
6.976982096
 20
5.6597751171
 40
0.1000000004
100
AcDbArc
 50
245.9976737746
 51
14.4775117611
  0
ARC
  5
26E
100
AcDbEntity
  8
0
100
AcDbCircle
 62
6
  6
CONTINUOUS
 10
6.5557397442
 20
5.6597751156
 40
0.1000000004
100
AcDbArc
 50
226.3747479401
 51
337.7524375165
  0
ARC
  5
26F
100
AcDbEntity
  8
0
100
AcDbCircle
 62
6
  6
CONTINUOUS
 10
6.2718538279
 20
5.6597751169
 40
0.1000000002
100
AcDbArc
 50
220.9135428633
 51
323.7853594296
  0
ARC
  5
270
100
AcDbEntity
  8
0
100
AcDbCircle
 62
6
  6
CONTINUOUS
 10
6.7970135247
 20
5.6597751148
 40
0.1
100
AcDbArc
 50
235.2159292582
 51
14.4774889032
  0
ARC
  5
271
100
AcDbEntity
  8
0
100
AcDbCircle
 62
6
  6
CONTINUOUS
 10
6.6829673683
 20
5.6597751142
 40
0.0999999989
100
AcDbArc
 50
230.4771911179
 51
14.4774901455
  0
ARC
  5
272
100
AcDbEntity
  8
0
100
AcDbCircle
 62
6
  6
CONTINUOUS
 10
6.1207210542
 20
5.6597751147
 40
0.0999999981
100
AcDbArc
 50
219.9137513919
 51
321.1835840124
  0
ARC
  5
273
100
AcDbEntity
  8
0
100
AcDbCircle
 62
6
  6
CONTINUOUS
 10
7.1030602086
 20
5.6597751153
 40
0.099999991
100
AcDbArc
 50
263.8514209609
 51
14.4775132108
  0
ARC
  5
274
100
AcDbEntity
  8
0
100
AcDbCircle
 62
6
  6
CONTINUOUS
 10
7.0394016371
 20
5.6597751153
 40
0.0999999901
100
AcDbArc
 50
251.7858592818
 51
14.4775133345
  0
ARC
  5
275
100
AcDbEntity
  8
0
100
AcDbCircle
 62
6
  6
CONTINUOUS
 10
6.8956584536
 20
5.6597751144
 40
0.0999999846
100
AcDbArc
 50
240.4371605296
 51
14.4775146165
  0
ARC
  5
276
100
AcDbEntity
  8
0
100
AcDbCircle
 62
6
  6
CONTINUOUS
 10
7.0817020992
 20
5.6597750731
 40
0.0999999568
100
AcDbArc
 50
257.7769304675
 51
14.4775123831
  0
SPLINE
  5
277
100
AcDbEntity
  8
0
100
AcDbSpline
 62
6
  6
CONTINUOUS
 70
0
 71
3
 72
23
 73
19
 74
17
 42
0.0000001
 43
0.0000001
 44
0.0000000001
 12
-0.0703249707
 22
-0.8754393064
 32
0.0
 13
-0.3271824279
 23
-0.8150406368
 33
0.0
 40
0.0
 40
0.0
 40
0.0
 40
0.0
 40
0.0652565347
 40
0.1300469082
 40
0.1943909875
 40
0.2583090555
 40
0.3218218033
 40
0.3849503206
 40
0.4477160844
 40
0.5101409461
 40
0.5722471169
 40
0.6340571515
 40
0.6955939305
 40
0.7568806402
 40
0.817940752
 40
0.8787979995
 40
0.9394763541
 40
1.0
 40
1.0
 40
1.0
 40
1.0
 10
6.6780503777
 20
5.3923628229
 30
0.0
 10
6.6765206564
 20
5.3733201111
 30
0.0
 10
6.6731481102
 20
5.3353959014
 30
0.0
 10
6.6671220662
 20
5.2788044904
 30
0.0
 10
6.6601473513
 20
5.222716756
 30
0.0
 10
6.6522239661
 20
5.1671329272
 30
0.0
 10
6.6433518894
 20
5.1120529596
 30
0.0
 10
6.6335311063
 20
5.0574768831
 30
0.0
 10
6.6227616013
 20
5.0034047102
 30
0.0
 10
6.6110433602
 20
4.9498364594
 30
0.0
 10
6.5983763697
 20
4.89677215
 30
0.0
 10
6.5847606177
 20
4.844211802
 30
0.0
 10
6.5701960941
 20
4.7921554388
 30
0.0
 10
6.5546827879
 20
4.7406030781
 30
0.0
 10
6.5382206994
 20
4.6895547631
 30
0.0
 10
6.5208097945
 20
4.6390104477
 30
0.0
 10
6.5024501757
 20
4.5889704209
 30
0.0
 10
6.489562968
 20
4.5559081896
 30
0.0
 10
6.4829622102
 20
4.5394651126
 30
0.0
 11
6.6780503777
 21
5.3923628229
 31
0.0
 11
6.672970124
 21
5.3352762632
 31
0.0
 11
6.6669415027
 21
5.2786937638
 31
0.0
 11
6.6599645139
 21
5.2226153248
 31
0.0
 11
6.6520391575
 21
5.1670409462
 31
0.0
 11
6.6431654335
 21
5.1119706279
 31
0.0
 11
6.6333433419
 21
5.0574043701
 31
0.0
 11
6.6225728828
 21
5.0033421726
 31
0.0
 11
6.6108540561
 21
4.9497840355
 31
0.0
 11
6.5981868619
 21
4.8967299588
 31
0.0
 11
6.5845713
 21
4.8441799425
 31
0.0
 11
6.5700073707
 21
4.7921339866
 31
0.0
 11
6.5544950737
 21
4.740592091
 31
0.0
 11
6.5380344092
 21
4.6895542559
 31
0.0
 11
6.5206253771
 21
4.6390204811
 31
0.0
 11
6.5022679774
 21
4.5889907667
 31
0.0
 11
6.4829622102
 21
4.5394651126
 31
0.0
  0
SPLINE
  5
278
100
AcDbEntity
  8
0
100
AcDbSpline
 62
6
  6
CONTINUOUS
 70
0
 71
3
 72
72
 73
68
 74
66
 42
0.0000001
 43
0.0000001
 44
0.0000000001
 12
-0.2246420127
 22
0.1912508855
 32
0.0
 13
-0.1856788895
 23
-0.2292690234
 33
0.0
 40
0.0
 40
0.0
 40
0.0
 40
0.0
 40
0.0277946752
 40
0.0566154809
 40
0.0713765227
 40
0.0863531351
 40
0.1015317659
 40
0.1169006276
 40
0.1481759692
 40
0.164067199
 40
0.1801174879
 40
0.1963196815
 40
0.2126663745
 40
0.229149573
 40
0.245761902
 40
0.262496855
 40
0.2793488969
 40
0.2963127608
 40
0.3133791223
 40
0.3305387035
 40
0.3477850742
 40
0.3651150265
 40
0.3825247557
 40
0.3999961295
 40
0.4175138187
 40
0.4350728356
 40
0.4438701462
 40
0.4526783405
 40
0.461491291
 40
0.4703030337
 40
0.4791085275
 40
0.4879037397
 40
0.4966857381
 40
0.5054527871
 40
0.5098306862
 40
0.5142047869
 40
0.522941104
 40
0.5316609645
 40
0.5403623776
 40
0.5490426265
 40
0.5576983342
 40
0.5663255271
 40
0.5749196986
 40
0.5834758715
 40
0.5919909018
 40
0.6004674436
 40
0.6089082392
 40
0.6256869264
 40
0.6423302067
 40
0.6505980246
 40
0.6588262601
 40
0.6670141381
 40
0.6751627951
 40
0.6913449286
 40
0.707375884
 40
0.7232529729
 40
0.7389707354
 40
0.7545265264
 40
0.7851341971
 40
0.8150328517
 40
0.8441807103
 40
0.8725279281
 40
0.9000161647
 40
0.926581568
 40
0.9521545748
 40
0.9766590564
 40
1.0
 40
1.0
 40
1.0
 40
1.0
 10
6.0057397443
 20
5.4283442334
 30
0.0
 10
6.0036584604
 20
5.4301161521
 30
0.0
 10
5.9994027636
 20
5.4337063153
 30
0.0
 10
5.9939960185
 20
5.438182887
 30
0.0
 10
5.989533994
 20
5.4418235003
 30
0.0
 10
5.9860976458
 20
5.4445989439
 30
0.0
 10
5.9826005716
 20
5.4473942475
 30
0.0
 10
5.9778313568
 20
5.451165031
 30
0.0
 10
5.9729728903
 20
5.4549358309
 30
0.0
 10
5.9680214022
 20
5.4586952363
 30
0.0
 10
5.9642285846
 20
5.4615291618
 30
0.0
 10
5.9603764872
 20
5.4643583197
 30
0.0
 10
5.9564646851
 20
5.4671778106
 30
0.0
 10
5.952490672
 20
5.4699795609
 30
0.0
 10
5.948452341
 20
5.472755799
 30
0.0
 10
5.9443475379
 20
5.4754986735
 30
0.0
 10
5.9401741117
 20
5.4782001754
 30
0.0
 10
5.9359307273
 20
5.480852512
 30
0.0
 10
5.9316136865
 20
5.4834426465
 30
0.0
 10
5.9272194177
 20
5.4859561037
 30
0.0
 10
5.922744709
 20
5.4883785542
 30
0.0
 10
5.9181866289
 20
5.4906952684
 30
0.0
 10
5.9135444319
 20
5.4928911324
 30
0.0
 10
5.9088146482
 20
5.4949391051
 30
0.0
 10
5.9039960936
 20
5.4968101612
 30
0.0
 10
5.8999085277
 20
5.4981967969
 30
0.0
 10
5.8965951806
 20
5.4991881335
 30
0.0
 10
5.8940876983
 20
5.499869297
 30
0.0
 10
5.8915615992
 20
5.500483893
 30
0.0
 10
5.8890196107
 20
5.501027948
 30
0.0
 10
5.8864645499
 20
5.501497481
 30
0.0
 10
5.8838992193
 20
5.5018885046
 30
0.0
 10
5.8813264492
 20
5.5021970332
 30
0.0
 10
5.8791776001
 20
5.5023821388
 30
0.0
 10
5.8774577254
 20
5.5024849385
 30
0.0
 10
5.8757393023
 20
5.5025567397
 30
0.0
 10
5.873592213
 20
5.5025887954
 30
0.0
 10
5.8710198303
 20
5.5025374151
 30
0.0
 10
5.8684562119
 20
5.5023985562
 30
0.0
 10
5.8659049763
 20
5.5021746487
 30
0.0
 10
5.8633697146
 20
5.5018681098
 30
0.0
 10
5.8608540255
 20
5.501481354
 30
0.0
 10
5.8583615037
 20
5.5010168104
 30
0.0
 10
5.8558955351
 20
5.5004767974
 30
0.0
 10
5.8534586862
 20
5.499863636
 30
0.0
 10
5.8510519487
 20
5.4991818781
 30
0.0
 10
5.8478900163
 20
5.4981891485
 30
0.0
 10
5.8440129664
 20
5.4967987574
 30
0.0
 10
5.8402233207
 20
5.4952305389
 30
0.0
 10
5.8372531396
 20
5.493888799
 30
0.0
 10
5.8350610061
 20
5.492845748
 30
0.0
 10
5.8328993596
 20
5.4917669353
 30
0.0
 10
5.8300641295
 20
5.490287289
 30
0.0
 10
5.8265933022
 20
5.4883599036
 30
0.0
 10
5.822532563
 20
5.4859343864
 30
0.0
 10
5.8185807734
 20
5.4834194369
 30
0.0
 10
5.8147324157
 20
5.4808319069
 30
0.0
 10
5.8097632273
 20
5.4773181171
 30
0.0
 10
5.8037978161
 20
5.472801549
 30
0.0
 10
5.7969667152
 20
5.467224723
 30
0.0
 10
5.7904872636
 20
5.4615763145
 30
0.0
 10
5.7843421439
 20
5.455910523
 30
0.0
 10
5.7785305016
 20
5.4502620086
 30
0.0
 10
5.7730521472
 20
5.4446656206
 30
0.0
 10
5.7679160307
 20
5.4391481349
 30
0.0
 10
5.7631330716
 20
5.4337384197
 30
0.0
 10
5.7601145193
 20
5.4301280185
 30
0.0
 10
5.7586698792
 20
5.4283442334
 30
0.0
 11
6.0057397443
 21
5.4283442334
 31
0.0
 11
5.9994719655
 21
5.4336317562
 31
0.0
 11
5.9929224552
 21
5.4390542553
 31
0.0
 11
5.9895481644
 21
5.4418073205
 31
0.0
 11
5.9861107772
 21
5.4445835693
 31
0.0
 11
5.9826127322
 21
5.4473794796
 31
0.0
 11
5.9790556586
 21
5.4501913228
 31
0.0
 11
5.9717645285
 21
5.4558462544
 31
0.0
 11
5.9680302576
 21
5.458680998
 31
0.0
 11
5.9642367064
 21
5.4615150302
 31
0.0
 11
5.9603837641
 21
5.4643441724
 31
0.0
 11
5.9564707208
 21
5.4671631581
 31
0.0
 11
5.9524955962
 21
5.4699644157
 31
0.0
 11
5.9484562481
 21
5.4727400793
 31
0.0
 11
5.9443505344
 21
5.4754822832
 31
0.0
 11
5.9401763129
 21
5.4781831615
 31
0.0
 11
5.9359313443
 21
5.4808342453
 31
0.0
 11
5.9316127189
 21
5.4834228893
 31
0.0
 11
5.9272172432
 21
5.4859346821
 31
0.0
 11
5.9227417225
 21
5.4883552059
 31
0.0
 11
5.9181829622
 21
5.4906700426
 31
0.0
 11
5.9135381561
 21
5.492862705
 31
0.0
 11
5.9088063282
 21
5.4949069542
 31
0.0
 11
5.9039870407
 21
5.4967736815
 31
0.0
 11
5.8990798562
 21
5.498433778
 31
0.0
 11
5.8965931734
 21
5.4991772423
 31
0.0
 11
5.8940852769
 21
5.4998580243
 31
0.0
 11
5.8915587915
 21
5.5004721701
 31
0.0
 11
5.8890165436
 21
5.5010157021
 31
0.0
 11
5.88646136
 21
5.5014846428
 31
0.0
 11
5.8838960672
 21
5.5018750145
 31
0.0
 11
5.8813234916
 21
5.5021828397
 31
0.0
 11
5.87874646
 21
5.5024041407
 31
0.0
 11
5.8774571565
 21
5.5024811017
 31
0.0
 11
5.8761678039
 21
5.5025349812
 31
0.0
 11
5.8735906469
 21
5.502573811
 31
0.0
 11
5.8710185597
 21
5.5025227328
 31
0.0
 11
5.8684551507
 21
5.502384158
 31
0.0
 11
5.8659040283
 21
5.5021604982
 31
0.0
 11
5.863368801
 21
5.5018541647
 31
0.0
 11
5.8608530771
 21
5.5014675691
 31
0.0
 11
5.8583604652
 21
5.5010031228
 31
0.0
 11
5.8558945729
 21
5.5004632377
 31
0.0
 11
5.8534582207
 21
5.4998507382
 31
0.0
 11
5.8510519463
 21
5.499169645
 31
0.0
 11
5.8486758755
 21
5.4984241949
 31
0.0
 11
5.8440148489
 21
5.4967571697
 31
0.0
 11
5.8394761485
 21
5.4948835552
 31
0.0
 11
5.8372529855
 21
5.4938798683
 31
0.0
 11
5.8350607639
 21
5.4928371931
 31
0.0
 11
5.8328992326
 21
5.4917587109
 31
0.0
 11
5.830767811
 21
5.4906466797
 31
0.0
 11
5.8265929255
 21
5.4883308654
 31
0.0
 11
5.8225313641
 21
5.4859075409
 31
0.0
 11
5.8185783837
 21
5.4833944959
 31
0.0
 11
5.8147295942
 21
5.4808079706
 31
0.0
 11
5.8109817466
 21
5.4781591911
 31
0.0
 11
5.8037768027
 21
5.4727157271
 31
0.0
 11
5.7969405898
 21
5.4671412623
 31
0.0
 11
5.7904549627
 21
5.4614944565
 31
0.0
 11
5.7843056601
 21
5.4558262023
 31
0.0
 11
5.7784895759
 21
5.450174515
 31
0.0
 11
5.7730080566
 21
5.4445727714
 31
0.0
 11
5.7678688072
 21
5.4390490923
 31
0.0
 11
5.7630830855
 21
5.4336303927
 31
0.0
 11
5.7586698792
 21
5.4283442334
 31
0.0
  0
SPLINE
  5
279
100
AcDbEntity
  8
0
100
AcDbSpline
 62
6
  6
CONTINUOUS
 70
0
 71
3
 72
80
 73
76
 74
74
 42
0.0000001
 43
0.0000001
 44
0.0000000001
 12
-0.2337744782
 22
0.1601999763
 32
0.0
 13
-0.1029626872
 23
-0.2640326193
 33
0.0
 40
0.0
 40
0.0
 40
0.0
 40
0.0
 40
0.0329439619
 40
0.0666488203
 40
0.0837512875
 40
0.1010016096
 40
0.118385679
 40
0.1358912792
 40
0.1712327616
 40
0.1890522567
 40
0.2069601304
 40
0.2249484445
 40
0.2430087238
 40
0.2611311642
 40
0.2793062197
 40
0.2975249546
 40
0.3157791576
 40
0.3249172327
 40
0.3340607936
 40
0.3523563799
 40
0.3706515519
 40
0.3889342942
 40
0.4071954829
 40
0.4163158645
 40
0.4254255609
 40
0.4435958535
 40
0.4616794316
 40
0.479659154
 40
0.4886086316
 40
0.497528841
 40
0.5064126101
 40
0.5152527916
 40
0.5240432653
 40
0.5327790516
 40
0.5414564359
 40
0.550073103
 40
0.5543585473
 40
0.5586286631
 40
0.5671232149
 40
0.5755583214
 40
0.5839344873
 40
0.5922515449
 40
0.6005087067
 40
0.6087046193
 40
0.6168374193
 40
0.6249047899
 40
0.6329058758
 40
0.6408455422
 40
0.6487288384
 40
0.6643386852
 40
0.6797542106
 40
0.6873901648
 40
0.6949761529
 40
0.7025121941
 40
0.7100001689
 40
0.7248368346
 40
0.7394941307
 40
0.7539725317
 40
0.7682686258
 40
0.7823818669
 40
0.7963104185
 40
0.8100498582
 40
0.8369380047
 40
0.8630155437
 40
0.8757380118
 40
0.8882415543
 40
0.9125681482
 40
0.9243810881
 40
0.9359523064
 40
0.9472764248
 40
0.9583482974
 40
0.9691626947
 40
0.9797132954
 40
0.9899941025
 40
1.0
 40
1.0
 40
1.0
 40
1.0
 10
5.7586698792
 20
5.4283442334
 30
0.0
 10
5.7561027267
 20
5.4301034407
 30
0.0
 10
5.7509145653
 20
5.4336704199
 30
0.0
 10
5.7444023031
 20
5.438163161
 30
0.0
 10
5.7391111908
 20
5.4418152768
 30
0.0
 10
5.7350885029
 20
5.4445909642
 30
0.0
 10
5.7310332511
 20
5.4473865134
 30
0.0
 10
5.7255678375
 20
5.4511475383
 30
0.0
 10
5.7200597271
 20
5.454919093
 30
0.0
 10
5.7145040599
 20
5.4586883192
 30
0.0
 10
5.7102949195
 20
5.4615223763
 30
0.0
 10
5.7060551398
 20
5.4643515825
 30
0.0
 10
5.7017846062
 20
5.4671711257
 30
0.0
 10
5.6974813458
 20
5.4699729565
 30
0.0
 10
5.6931437672
 20
5.4727492623
 30
0.0
 10
5.6887702495
 20
5.4754921368
 30
0.0
 10
5.6850957958
 20
5.4777424928
 30
0.0
 10
5.6821363665
 20
5.479518462
 30
0.0
 10
5.679162068
 20
5.4812771058
 30
0.0
 10
5.6754195143
 20
5.4834358666
 30
0.0
 10
5.6708856602
 20
5.485949378
 30
0.0
 10
5.6663060808
 20
5.4883718078
 30
0.0
 10
5.6624483566
 20
5.4903031435
 30
0.0
 10
5.659337308
 20
5.4917881074
 30
0.0
 10
5.6562140184
 20
5.4932267249
 30
0.0
 10
5.6522816734
 20
5.4949318971
 30
0.0
 10
5.6475111789
 20
5.4968032222
 30
0.0
 10
5.6434909914
 20
5.498193227
 30
0.0
 10
5.6402531578
 20
5.4991867714
 30
0.0
 10
5.637819089
 20
5.4998679123
 30
0.0
 10
5.63537799
 20
5.5004824771
 30
0.0
 10
5.6329327299
 20
5.5010265288
 30
0.0
 10
5.6304862815
 20
5.501496119
 30
0.0
 10
5.6280416019
 20
5.5018872915
 30
0.0
 10
5.625601677
 20
5.502196091
 30
0.0
 10
5.623571147
 20
5.5023817993
 30
0.0
 10
5.6219521553
 20
5.5024849893
 30
0.0
 10
5.6203430251
 20
5.5025570049
 30
0.0
 10
5.6183401063
 20
5.5025893865
 30
0.0
 10
5.6159495707
 20
5.5025382502
 30
0.0
 10
5.6135793139
 20
5.5023994719
 30
0.0
 10
5.6112324884
 20
5.5021755339
 30
0.0
 10
5.6089122171
 20
5.501868901
 30
0.0
 10
5.6066216299
 20
5.5014820395
 30
0.0
 10
5.6043638548
 20
5.5010174189
 30
0.0
 10
5.6021418456
 20
5.5004774455
 30
0.0
 10
5.5999578568
 20
5.4998643726
 30
0.0
 10
5.5978125658
 20
5.4991826834
 30
0.0
 10
5.5950131359
 20
5.4981913491
 30
0.0
 10
5.5916074061
 20
5.496802739
 30
0.0
 10
5.5883078082
 20
5.4952328654
 30
0.0
 10
5.5857438489
 20
5.4938897847
 30
0.0
 10
5.5838637907
 20
5.4928466383
 30
0.0
 10
5.5820202116
 20
5.4917677594
 30
0.0
 10
5.5796177281
 20
5.4902891837
 30
0.0
 10
5.5767017624
 20
5.4883631525
 30
0.0
 10
5.5733283567
 20
5.4859376589
 30
0.0
 10
5.57008565
 20
5.483422745
 30
0.0
 10
5.5669672835
 20
5.4808351747
 30
0.0
 10
5.5639706306
 20
5.4781854623
 30
0.0
 10
5.5610923865
 20
5.4754839298
 30
0.0
 10
5.5574345654
 20
5.4718526022
 30
0.0
 10
5.5531379665
 20
5.4672391934
 30
0.0
 10
5.5491349405
 20
5.4624945916
 30
0.0
 10
5.5461384649
 20
5.4586850387
 30
0.0
 10
5.5433283888
 20
5.4549409115
 30
0.0
 10
5.540694459
 20
5.4511732825
 30
0.0
 10
5.5382415305
 20
5.447391823
 30
0.0
 10
5.536522343
 20
5.4445995495
 30
0.0
 10
5.5349067954
 20
5.4418267994
 30
0.0
 10
5.5333959508
 20
5.4390769129
 30
0.0
 10
5.5319909416
 20
5.4363534227
 30
0.0
 10
5.5306938842
 20
5.4336595562
 30
0.0
 10
5.5295070448
 20
5.4309987596
 30
0.0
 10
5.5287808284
 20
5.4292248612
 30
0.0
 10
5.528437417
 20
5.4283442334
 30
0.0
 11
5.7586698792
 21
5.4283442334
 31
0.0
 11
5.750975198
 21
5.4336317302
 31
0.0
 11
5.7431116299
 21
5.4390541851
 31
0.0
 11
5.7391226153
 21
5.4418072404
 31
0.0
 11
5.7350987012
 21
5.4445834976
 31
0.0
 11
5.731042321
 21
5.4473794419
 31
0.0
 11
5.7269551092
 21
5.4501913402
 31
0.0
 11
5.7186886186
 21
5.4558463936
 31
0.0
 11
5.7145093103
 21
5.4586811795
 31
0.0
 11
5.7102992737
 21
5.4615152256
 31
0.0
 11
5.7060584925
 21
5.4643443436
 31
0.0
 11
5.7017865207
 21
5.467163341
 31
0.0
 11
5.6974818972
 21
5.4699646525
 31
0.0
 11
5.6931430146
 21
5.4727403706
 31
0.0
 11
5.6887682651
 21
5.4754825876
 31
0.0
 11
5.6843560414
 21
5.4781833959
 31
0.0
 11
5.6821353726
 21
5.4795157806
 31
0.0
 11
5.6799046954
 21
5.4808343982
 31
0.0
 11
5.6754122422
 21
5.4834231098
 31
0.0
 11
5.6708765291
 21
5.485935012
 31
0.0
 11
5.6662954022
 21
5.4883555713
 31
0.0
 11
5.6616667077
 21
5.4906702544
 31
0.0
 11
5.6593338912
 21
5.4917831963
 31
0.0
 11
5.6569887709
 21
5.4928627511
 31
0.0
 11
5.652262528
 21
5.49490707
 31
0.0
 11
5.6474898006
 21
5.4967739378
 31
0.0
 11
5.6426724106
 21
5.4984340788
 31
0.0
 11
5.640247539
 21
5.4991774779
 31
0.0
 11
5.6378129264
 21
5.4998581395
 31
0.0
 11
5.6353713016
 21
5.5004721431
 31
0.0
 11
5.6329256516
 21
5.5010155413
 31
0.0
 11
5.6304789633
 21
5.5014843865
 31
0.0
 11
5.6280342237
 21
5.5018747313
 31
0.0
 11
5.6255944198
 21
5.5021826283
 31
0.0
 11
5.6231625385
 21
5.50240413
 31
0.0
 11
5.6219505022
 21
5.502481249
 31
0.0
 11
5.6207415673
 21
5.5025353103
 31
0.0
 11
5.6183345432
 21
5.5025743543
 31
0.0
 11
5.6159445943
 21
5.5025233092
 31
0.0
 11
5.613574858
 21
5.5023846347
 31
0.0
 11
5.611228472
 21
5.5021607904
 31
0.0
 11
5.6089085739
 21
5.5018542358
 31
0.0
 11
5.6066183012
 21
5.5014674307
 31
0.0
 11
5.6043607916
 21
5.5010028346
 31
0.0
 11
5.6021391825
 21
5.5004629072
 31
0.0
 11
5.5999559701
 21
5.4998504454
 31
0.0
 11
5.5978114201
 21
5.4991694185
 31
0.0
 11
5.595705314
 21
5.4984240506
 31
0.0
 11
5.5916075588
 21
5.4967571881
 31
0.0
 11
5.5876609556
 21
5.4948836504
 31
0.0
 11
5.5857437894
 21
5.4938799384
 31
0.0
 11
5.5838637468
 21
5.4928371931
 31
0.0
 11
5.5820203816
 21
5.4917586657
 31
0.0
 11
5.5802130162
 21
5.4906466191
 31
0.0
 11
5.5767035305
 21
5.4883308296
 31
0.0
 11
5.5733297812
 21
5.4859075475
 31
0.0
 11
5.5700862596
 21
5.4833944956
 31
0.0
 11
5.5669678765
 21
5.4808079464
 31
0.0
 11
5.5639709905
 21
5.478159171
 31
0.0
 11
5.5610922714
 21
5.4754583633
 31
0.0
 11
5.5583283895
 21
5.4727157169
 31
0.0
 11
5.5531331457
 21
5.4671412538
 31
0.0
 11
5.5483654808
 21
5.4614944571
 31
0.0
 11
5.5461365722
 21
5.4586604186
 31
0.0
 11
5.5440097321
 21
5.4558261971
 31
0.0
 11
5.5400616639
 21
5.4501745115
 31
0.0
 11
5.5382403219
 21
5.4473655526
 31
0.0
 11
5.5365216272
 21
5.4445727672
 31
0.0
 11
5.5349066439
 21
5.441799499
 31
0.0
 11
5.5333964362
 21
5.4390490917
 31
0.0
 11
5.5319922612
 21
5.4363249087
 31
0.0
 11
5.530696183
 21
5.4336303942
 31
0.0
 11
5.5295104766
 21
5.4309690139
 31
0.0
 11
5.528437417
 21
5.4283442334
 31
0.0
  0
SPLINE
  5
27A
100
AcDbEntity
  8
0
100
AcDbSpline
 62
6
  6
CONTINUOUS
 70
0
 71
3
 72
73
 73
69
 74
67
 42
0.0000001
 43
0.0000001
 44
0.0000000001
 12
-0.2249174376
 22
0.1367700529
 32
0.0
 13
0.0148556987
 23
-0.2628178253
 33
0.0
 40
0.0
 40
0.0
 40
0.0
 40
0.0
 40
0.0383420875
 40
0.0770985737
 40
0.0965970732
 40
0.1161567916
 40
0.1357634623
 40
0.1554045537
 40
0.1947537229
 40
0.2144441061
 40
0.2341331642
 40
0.253811998
 40
0.273470438
 40
0.2930956689
 40
0.3126747652
 40
0.3321951607
 40
0.3516447673
 40
0.3710109144
 40
0.3902736711
 40
0.4094112567
 40
0.4284039878
 40
0.4472347697
 40
0.4658838565
 40
0.4843092739
 40
0.5024692698
 40
0.5203327346
 40
0.5378788502
 40
0.5465206814
 40
0.5550640651
 40
0.5635025501
 40
0.5718311491
 40
0.5800465335
 40
0.5881472495
 40
0.5921549486
 40
0.5961344382
 40
0.6040109122
 40
0.6117827048
 40
0.6194549331
 40
0.6270321438
 40
0.634518345
 40
0.6419170431
 40
0.6492312848
 40
0.6564637056
 40
0.6636185229
 40
0.6707046808
 40
0.6777305525
 40
0.6916243863
 40
0.7053384309
 40
0.7121335537
 40
0.7188866635
 40
0.7255988798
 40
0.7322729525
 40
0.7455136944
 40
0.7586207711
 40
0.7715956703
 40
0.7844349289
 40
0.7971395743
 40
0.8097089286
 40
0.8221388878
 40
0.8465569786
 40
0.8703751749
 40
0.8820512766
 40
0.8935675382
 40
0.9161127859
 40
0.938008756
 40
0.9592679865
 40
0.9799177734
 40
1.0
 40
1.0
 40
1.0
 40
1.0
 10
5.528437417
 20
5.4283442334
 30
0.0
 10
5.5255628156
 20
5.4300922498
 30
0.0
 10
5.5198013136
 20
5.4336381041
 30
0.0
 10
5.5126228197
 20
5.4381451094
 30
0.0
 10
5.5068604179
 20
5.4418077939
 30
0.0
 10
5.5025253727
 20
5.4445836233
 30
0.0
 10
5.4981881774
 20
5.4473792492
 30
0.0
 10
5.4924011477
 20
5.4511306173
 30
0.0
 10
5.4866185611
 20
5.4549022978
 30
0.0
 10
5.4808355608
 20
5.458681026
 30
0.0
 10
5.4764970822
 20
5.4615150899
 30
0.0
 10
5.4721587966
 20
5.4643443223
 30
0.0
 10
5.4678208022
 20
5.4671637431
 30
0.0
 10
5.4634817144
 20
5.4699653932
 30
0.0
 10
5.4591406015
 20
5.472741504
 30
0.0
 10
5.4547965173
 20
5.4754842328
 30
0.0
 10
5.4504485384
 20
5.4781855701
 30
0.0
 10
5.4460967257
 20
5.4808375921
 30
0.0
 10
5.4417393434
 20
5.4834273641
 30
0.0
 10
5.4373750061
 20
5.4859404859
 30
0.0
 10
5.4330027348
 20
5.4883626596
 30
0.0
 10
5.4286219001
 20
5.4906791455
 30
0.0
 10
5.4242345676
 20
5.4928745311
 30
0.0
 10
5.4198409644
 20
5.4949222257
 30
0.0
 10
5.4154438022
 20
5.4967934509
 30
0.0
 10
5.4110468066
 20
5.4984591434
 30
0.0
 10
5.4073696895
 20
5.4996566516
 30
0.0
 10
5.4044352882
 20
5.500480604
 30
0.0
 10
5.4022534533
 20
5.5010249898
 30
0.0
 10
5.4000824544
 20
5.5014949039
 30
0.0
 10
5.3979251284
 20
5.5018863658
 30
0.0
 10
5.3957843593
 20
5.5021953862
 30
0.0
 10
5.3940102397
 20
5.5023815188
 30
0.0
 10
5.3926022756
 20
5.5024847353
 30
0.0
 10
5.3912120592
 20
5.5025564207
 30
0.0
 10
5.3894895151
 20
5.5025888406
 30
0.0
 10
5.3874432372
 20
5.5025379356
 30
0.0
 10
5.3854273235
 20
5.502399474
 30
0.0
 10
5.3834442983
 20
5.5021758843
 30
0.0
 10
5.3814966528
 20
5.5018695846
 30
0.0
 10
5.3795868862
 20
5.5014829901
 30
0.0
 10
5.3777174919
 20
5.5010185319
 30
0.0
 10
5.3758908067
 20
5.5004785271
 30
0.0
 10
5.3741085685
 20
5.4998653001
 30
0.0
 10
5.3723709329
 20
5.49918342
 30
0.0
 10
5.3701216594
 20
5.4981922609
 30
0.0
 10
5.3674151856
 20
5.4968031575
 30
0.0
 10
5.3648343417
 20
5.4952325185
 30
0.0
 10
5.3628543734
 20
5.493889522
 30
0.0
 10
5.3614144789
 20
5.4928463645
 30
0.0
 10
5.36001462
 20
5.4917674231
 30
0.0
 10
5.3582057995
 20
5.4902881569
 30
0.0
 10
5.3560401881
 20
5.4883607765
 30
0.0
 10
5.3535844977
 20
5.4859349777
 30
0.0
 10
5.351272223
 20
5.4834200034
 30
0.0
 10
5.3490965433
 20
5.4808321435
 30
0.0
 10
5.3470548928
 20
5.4781821798
 30
0.0
 10
5.3451438297
 20
5.4754804873
 30
0.0
 10
5.3427793805
 20
5.4718446346
 30
0.0
 10
5.3401276061
 20
5.4672230682
 30
0.0
 10
5.33784184
 20
5.4624839284
 30
0.0
 10
5.3362445301
 20
5.4586799881
 30
0.0
 10
5.3348196009
 20
5.4549274592
 30
0.0
 10
5.333316855
 20
5.4502483937
 30
0.0
 10
5.3319518642
 20
5.4446421214
 30
0.0
 10
5.3310455349
 20
5.4391113466
 30
0.0
 10
5.3306053187
 20
5.4336836062
 30
0.0
 10
5.3306328745
 20
5.4301035558
 30
0.0
 10
5.3307323197
 20
5.4283442334
 30
0.0
 11
5.528437417
 21
5.4283442334
 31
0.0
 11
5.5198401993
 21
5.4336317562
 31
0.0
 11
5.5111984135
 21
5.4390542553
 31
0.0
 11
5.5068664874
 21
5.4418073205
 31
0.0
 11
5.5025302353
 21
5.4445835693
 31
0.0
 11
5.498191923
 21
5.4473794796
 31
0.0
 11
5.4938531194
 21
5.4501913228
 31
0.0
 11
5.4851747869
 21
5.4558462544
 31
0.0
 11
5.4808354034
 21
5.458680998
 31
0.0
 11
5.4764959718
 21
5.4615150302
 31
0.0
 11
5.4721565631
 21
5.4643441724
 31
0.0
 11
5.4678169499
 21
5.4671631581
 31
0.0
 11
5.4634762725
 21
5.4699644157
 31
0.0
 11
5.4591335906
 21
5.4727400793
 31
0.0
 11
5.454787964
 21
5.4754822832
 31
0.0
 11
5.4504384523
 21
5.4781831615
 31
0.0
 11
5.4460841131
 21
5.4808342453
 31
0.0
 11
5.4417239885
 21
5.4834228893
 31
0.0
 11
5.437357114
 21
5.4859346821
 31
0.0
 11
5.4329825252
 21
5.4883552059
 31
0.0
 11
5.4285992578
 21
5.4906700426
 31
0.0
 11
5.424207009
 21
5.492862705
 31
0.0
 11
5.4198085947
 21
5.4949069542
 31
0.0
 11
5.4154077482
 21
5.4967736815
 31
0.0
 11
5.4110082031
 21
5.498433778
 31
0.0
 11
5.4066144837
 21
5.4998580243
 31
0.0
 11
5.4044241002
 21
5.5004721701
 31
0.0
 11
5.4022418322
 21
5.5010157021
 31
0.0
 11
5.4000705706
 21
5.5014846428
 31
0.0
 11
5.3979132065
 21
5.5018750145
 31
0.0
 11
5.3957726306
 21
5.5021828397
 31
0.0
 11
5.393651734
 21
5.5024041407
 31
0.0
 11
5.3925995688
 21
5.5024811017
 31
0.0
 11
5.391553405
 21
5.5025349812
 31
0.0
 11
5.3894803865
 21
5.502573811
 31
0.0
 11
5.3874351982
 21
5.5025227328
 31
0.0
 11
5.3854203409
 21
5.502384158
 31
0.0
 11
5.3834383155
 21
5.5021604982
 31
0.0
 11
5.3814916228
 21
5.5018541647
 31
0.0
 11
5.3795827638
 21
5.5014675691
 31
0.0
 11
5.3777142392
 21
5.5010031228
 31
0.0
 11
5.3758885494
 21
5.5004632377
 31
0.0
 11
5.3741075113
 21
5.4998507382
 31
0.0
 11
5.3723709599
 21
5.499169645
 31
0.0
 11
5.3706783731
 21
5.4984241949
 31
0.0
 11
5.3674230043
 21
5.4967571697
 31
0.0
 11
5.3643372272
 21
5.4948835552
 31
0.0
 11
5.36285663
 21
5.4938798683
 31
0.0
 11
5.3614168586
 21
5.4928371931
 31
0.0
 11
5.3600172755
 21
5.4917587109
 31
0.0
 11
5.3586571425
 21
5.4906466797
 31
0.0
 11
5.3560522585
 21
5.4883308654
 31
0.0
 11
5.3535962708
 21
5.4859075409
 31
0.0
 11
5.3512832435
 21
5.4833944959
 31
0.0
 11
5.3491077555
 21
5.4808079706
 31
0.0
 11
5.3470660508
 21
5.4781591911
 31
0.0
 11
5.3451547093
 21
5.4754583718
 31
0.0
 11
5.3433703111
 21
5.4727157271
 31
0.0
 11
5.3401700991
 21
5.4671412623
 31
0.0
 11
5.3374453123
 21
5.4614944565
 31
0.0
 11
5.336255695
 21
5.4586604237
 31
0.0
 11
5.3351799427
 21
5.4558262023
 31
0.0
 11
5.3333689479
 21
5.450174515
 31
0.0
 11
5.3320116392
 21
5.4445727714
 31
0.0
 11
5.3311134825
 21
5.4390490923
 31
0.0
 11
5.330682712
 21
5.4336303927
 31
0.0
 11
5.3307323197
 21
5.4283442334
 31
0.0
  0
SPLINE
  5
27B
100
AcDbEntity
  8
0
100
AcDbSpline
 62
6
  6
CONTINUOUS
 70
0
 71
3
 72
65
 73
61
 74
59
 42
0.0000001
 43
0.0000001
 44
0.0000000001
 12
-0.1843672595
 22
0.1073368878
 32
0.0
 13
0.0145693343
 23
-0.212838503
 33
0.0
 40
0.0
 40
0.0
 40
0.0
 40
0.0
 40
0.0415170884
 40
0.0830450975
 40
0.1245097064
 40
0.1658349331
 40
0.1864213081
 40
0.2069456046
 40
0.2477804142
 40
0.2882834523
 40
0.328397148
 40
0.3680533413
 40
0.3876773344
 40
0.4071461414
 40
0.4264455874
 40
0.4455617223
 40
0.4644808815
 40
0.4831855026
 40
0.5016494544
 40
0.5198466837
 40
0.5377528532
 40
0.5553457938
 40
0.5726060056
 40
0.58950332
 40
0.6059744342
 40
0.6219582349
 40
0.6374054113
 40
0.6449172895
 40
0.6522839884
 40
0.659504571
 40
0.6665798035
 40
0.6735122257
 40
0.6803051313
 40
0.6934849219
 40
0.7061581456
 40
0.7183711029
 40
0.7243246519
 40
0.7301861285
 40
0.7359649842
 40
0.7416725935
 40
0.7473231441
 40
0.7529298161
 40
0.7585040535
 40
0.7640555468
 40
0.7751175092
 40
0.7861628271
 40
0.7972105112
 40
0.8082622516
 40
0.8193323868
 40
0.8415758479
 40
0.8639891686
 40
0.8752451823
 40
0.8865249998
 40
0.9091495607
 40
0.9318448084
 40
0.943205613
 40
0.9545644947
 40
0.9659217139
 40
0.9772794058
 40
1.0
 40
1.0
 40
1.0
 40
1.0
 10
5.3307323197
 20
5.4283442334
 30
0.0
 10
5.3281808557
 20
5.4298296717
 30
0.0
 10
5.3230986372
 20
5.4328378052
 30
0.0
 10
5.3155393045
 20
5.4374482873
 30
0.0
 10
5.308048019
 20
5.4421428418
 30
0.0
 10
5.3018622683
 20
5.4461152947
 30
0.0
 10
5.2969538156
 20
5.4493203948
 30
0.0
 10
5.2920894864
 20
5.4525291655
 30
0.0
 10
5.2860677445
 20
5.4565553304
 30
0.0
 10
5.2789184239
 20
5.4614009659
 30
0.0
 10
5.2718591586
 20
5.4662299036
 30
0.0
 10
5.2660343166
 20
5.4702335892
 30
0.0
 10
5.2614142784
 20
5.4733983049
 30
0.0
 10
5.2579833808
 20
5.4757374103
 30
0.0
 10
5.2545745769
 20
5.478044779
 30
0.0
 10
5.2511877606
 20
5.4803148393
 30
0.0
 10
5.2478232161
 20
5.4825420507
 30
0.0
 10
5.2444815188
 20
5.4847196029
 30
0.0
 10
5.2411619568
 20
5.4868368058
 30
0.0
 10
5.2378647078
 20
5.4888829289
 30
0.0
 10
5.2345899546
 20
5.4908471058
 30
0.0
 10
5.2313378612
 20
5.4927184526
 30
0.0
 10
5.2281095479
 20
5.4944857638
 30
0.0
 10
5.2249090258
 20
5.4961356637
 30
0.0
 10
5.2217406267
 20
5.4976466462
 30
0.0
 10
5.2186118063
 20
5.4989958993
 30
0.0
 10
5.2160200319
 20
5.4999752687
 30
0.0
 10
5.2139723271
 20
5.5006525545
 30
0.0
 10
5.2124657424
 20
5.5011005682
 30
0.0
 10
5.2109751275
 20
5.501490538
 30
0.0
 10
5.2095013998
 20
5.5018192147
 30
0.0
 10
5.2080460608
 20
5.5020858938
 30
0.0
 10
5.2061516135
 20
5.5023564299
 30
0.0
 10
5.2038347627
 20
5.5025451588
 30
0.0
 10
5.201124332
 20
5.5025279887
 30
0.0
 10
5.1989384832
 20
5.5023071734
 30
0.0
 10
5.1972559701
 20
5.502005538
 30
0.0
 10
5.1960371501
 20
5.5017202946
 30
0.0
 10
5.1948524002
 20
5.5013741603
 30
0.0
 10
5.1937029984
 20
5.5009673191
 30
0.0
 10
5.1925889117
 20
5.5005029447
 30
0.0
 10
5.1915097545
 20
5.499983954
 30
0.0
 10
5.1904650612
 20
5.4994132656
 30
0.0
 10
5.1891193428
 20
5.4985884926
 30
0.0
 10
5.1875179889
 20
5.4974411937
 30
0.0
 10
5.1857269168
 20
5.4959038647
 30
0.0
 10
5.1840638702
 20
5.4942305213
 30
0.0
 10
5.1825225909
 20
5.4924425061
 30
0.0
 10
5.1806242651
 20
5.4899201912
 30
0.0
 10
5.1785413071
 20
5.4865374099
 30
0.0
 10
5.1768295233
 20
5.4829412395
 30
0.0
 10
5.1756594204
 20
5.4799657332
 30
0.0
 10
5.1746179375
 20
5.4769268448
 30
0.0
 10
5.1735595906
 20
5.4730384186
 30
0.0
 10
5.1728138792
 20
5.469073047
 30
0.0
 10
5.1723960963
 20
5.4658700284
 30
0.0
 10
5.1721704365
 20
5.4634567248
 30
0.0
 10
5.1720323571
 20
5.4610370337
 30
0.0
 10
5.1719645467
 20
5.4578062568
 30
0.0
 10
5.1720440839
 20
5.4553814548
 30
0.0
 10
5.1721544252
 20
5.4537695157
 30
0.0
 11
5.3307323197
 21
5.4283442334
 31
0.0
 11
5.3231093824
 21
5.4328541431
 31
0.0
 11
5.3155448824
 21
5.4374658753
 31
0.0
 11
5.3080483808
 21
5.4421619078
 31
0.0
 11
5.3006294386
 21
5.4469247186
 31
0.0
 11
5.2969519966
 21
5.4493256689
 31
0.0
 11
5.2932968047
 21
5.451736387
 31
0.0
 11
5.2860532762
 21
5.4565760714
 31
0.0
 11
5.2788990031
 21
5.4614216307
 31
0.0
 11
5.2718341234
 21
5.4662509183
 31
0.0
 11
5.2648586519
 21
5.4710380226
 31
0.0
 11
5.2614043056
 21
5.4734032718
 31
0.0
 11
5.2579721214
 21
5.4757422704
 31
0.0
 11
5.2545620262
 21
5.4780494821
 31
0.0
 11
5.2511739466
 21
5.4803193705
 31
0.0
 11
5.2478078101
 21
5.4825463911
 31
0.0
 11
5.2444636304
 21
5.4847234517
 31
0.0
 11
5.2411416091
 21
5.4868400955
 31
0.0
 11
5.2378419729
 21
5.4888854243
 31
0.0
 11
5.2345649481
 21
5.4908485393
 31
0.0
 11
5.2313107613
 21
5.4927185422
 31
0.0
 11
5.2280796413
 21
5.4944845304
 31
0.0
 11
5.224873663
 21
5.4961326795
 31
0.0
 11
5.2217000017
 21
5.4976410909
 31
0.0
 11
5.2185667067
 21
5.4989864829
 31
0.0
 11
5.2154818269
 21
5.500145574
 31
0.0
 11
5.2139600581
 21
5.5006479811
 31
0.0
 11
5.2124534114
 21
5.5010950824
 31
0.0
 11
5.2109628932
 21
5.5014839676
 31
0.0
 11
5.2094895437
 21
5.5018119119
 31
0.0
 11
5.2080347383
 21
5.502077999
 31
0.0
 11
5.2066000411
 21
5.5022823339
 31
0.0
 11
5.203797237
 21
5.5025062134
 31
0.0
 11
5.2010936622
 21
5.5024844823
 31
0.0
 11
5.1985018477
 21
5.5022180728
 31
0.0
 11
5.1972517664
 21
5.5019934049
 31
0.0
 11
5.1960343244
 21
5.5017079169
 31
0.0
 11
5.1948510876
 21
5.5013617257
 31
0.0
 11
5.1937031894
 21
5.5009555466
 31
0.0
 11
5.1925904403
 21
5.500491925
 31
0.0
 11
5.1915123986
 21
5.4999737542
 31
0.0
 11
5.1904686229
 21
5.4994039278
 31
0.0
 11
5.1894586717
 21
5.4987853393
 31
0.0
 11
5.187538477
 21
5.4974134501
 31
0.0
 11
5.1857482822
 21
5.4958812348
 31
0.0
 11
5.1840845557
 21
5.4942118415
 31
0.0
 11
5.182543754
 21
5.4924272211
 31
0.0
 11
5.1811222582
 21
5.4905412704
 31
0.0
 11
5.178622583
 21
5.4865076725
 31
0.0
 11
5.1765563275
 21
5.4821955842
 31
0.0
 11
5.1756767367
 21
5.4799611593
 31
0.0
 11
5.1748959418
 21
5.4776849543
 31
0.0
 11
5.1736235124
 21
5.4730290508
 31
0.0
 11
5.1727246079
 21
5.4682715004
 31
0.0
 11
5.1724107192
 21
5.465868237
 31
0.0
 11
5.1721850211
 21
5.4634555055
 31
0.0
 11
5.1720468955
 21
5.4610365357
 31
0.0
 11
5.1719959895
 21
5.4586140594
 31
0.0
 11
5.1721544252
 21
5.4537695157
 31
0.0
  0
SPLINE
  5
27C
100
AcDbEntity
  8
0
100
AcDbSpline
 62
6
  6
CONTINUOUS
 70
0
 71
3
 72
66
 73
62
 74
60
 42
0.0000001
 43
0.0000001
 44
0.0000000001
 12
-0.1307129946
 22
0.0806196038
 32
0.0
 13
0.0092833312
 23
-0.1532945767
 33
0.0
 40
0.0
 40
0.0
 40
0.0
 40
0.0
 40
0.0895863173
 40
0.1338445547
 40
0.1776859959
 40
0.2210662528
 40
0.2639467616
 40
0.306289196
 40
0.3480535959
 40
0.368706188
 40
0.3891973407
 40
0.4296542335
 40
0.4693382625
 40
0.4888629318
 40
0.5081612123
 40
0.5272219086
 40
0.5460304878
 40
0.5828077501
 40
0.6007340261
 40
0.6183241645
 40
0.6355577069
 40
0.6524146886
 40
0.6688688851
 40
0.684877529
 40
0.7003969598
 40
0.7153860774
 40
0.729807172
 40
0.743627008
 40
0.756815994
 40
0.7693378389
 40
0.7811605168
 40
0.7868040112
 40
0.7922672069
 40
0.797550772
 40
0.8026569849
 40
0.8123529099
 40
0.8214252788
 40
0.8257653593
 40
0.8299945111
 40
0.8341292067
 40
0.8381862337
 40
0.8421825311
 40
0.8461350037
 40
0.8500603227
 40
0.8539747258
 40
0.8578938286
 40
0.8618324575
 40
0.8698185582
 40
0.8780293439
 40
0.886525825
 40
0.8953417367
 40
0.9044884507
 40
0.9139596485
 40
0.9237381571
 40
0.9338167787
 40
0.9441902367
 40
0.9548481801
 40
0.9657760827
 40
0.976956009
 40
0.9883681557
 40
1.0
 40
1.0
 40
1.0
 40
1.0
 10
5.1737351097
 20
5.4315575818
 30
0.0
 10
5.1698317445
 20
5.433965053
 30
0.0
 10
5.1640550255
 20
5.4376521098
 30
0.0
 10
5.1564949821
 20
5.4427105126
 30
0.0
 10
5.1509530078
 20
5.4465304459
 30
0.0
 10
5.1455199164
 20
5.4503829388
 30
0.0
 10
5.1401968233
 20
5.4542569907
 30
0.0
 10
5.1349844058
 20
5.4581417789
 30
0.0
 10
5.1307178381
 20
5.4613909764
 30
0.0
 10
5.1273595133
 20
5.4639861903
 30
0.0
 10
5.1240654528
 20
5.4665550357
 30
0.0
 10
5.1200214535
 20
5.4697464071
 30
0.0
 10
5.1160339193
 20
5.4729292911
 30
0.0
 10
5.1128991122
 20
5.4754441782
 30
0.0
 10
5.1105897019
 20
5.4773007858
 30
0.0
 10
5.1083096735
 20
5.4791354346
 30
0.0
 10
5.1053317746
 20
5.4815300876
 30
0.0
 10
5.1023938656
 20
5.4838818282
 30
0.0
 10
5.0994906679
 20
5.4861769949
 30
0.0
 10
5.0973632426
 20
5.4878401623
 30
0.0
 10
5.095267718
 20
5.4894551711
 30
0.0
 10
5.0932049091
 20
5.4910172332
 30
0.0
 10
5.091176415
 20
5.4925205531
 30
0.0
 10
5.0891833798
 20
5.4939564056
 30
0.0
 10
5.0872279181
 20
5.4953156023
 30
0.0
 10
5.0853122116
 20
5.4965888381
 30
0.0
 10
5.0834384255
 20
5.4977668304
 30
0.0
 10
5.0816088034
 20
5.4988402624
 30
0.0
 10
5.0798262594
 20
5.4997993992
 30
0.0
 10
5.0780951502
 20
5.5006347032
 30
0.0
 10
5.0766783605
 20
5.501228324
 30
0.0
 10
5.0755747572
 20
5.5016287462
 30
0.0
 10
5.0747762132
 20
5.5018869013
 30
0.0
 10
5.0739946351
 20
5.5021063175
 30
0.0
 10
5.0729934001
 20
5.5023413816
 30
0.0
 10
5.0717846831
 20
5.5025373009
 30
0.0
 10
5.070599743
 20
5.5025911117
 30
0.0
 10
5.0696972402
 20
5.5025456182
 30
0.0
 10
5.0690507564
 20
5.5024705453
 30
0.0
 10
5.0684250406
 20
5.5023547675
 30
0.0
 10
5.0678203333
 20
5.5021990545
 30
0.0
 10
5.0672369069
 20
5.5020041806
 30
0.0
 10
5.0666750269
 20
5.5017709296
 30
0.0
 10
5.0661349568
 20
5.5015000925
 30
0.0
 10
5.0656169606
 20
5.5011924729
 30
0.0
 10
5.0651212717
 20
5.5008488604
 30
0.0
 10
5.0644876858
 20
5.5003416073
 30
0.0
 10
5.0637500551
 20
5.4996171656
 30
0.0
 10
5.0629596445
 20
5.4986273438
 30
0.0
 10
5.062255786
 20
5.4975239976
 30
0.0
 10
5.0616351929
 20
5.4963181673
 30
0.0
 10
5.0610946115
 20
5.495020556
 30
0.0
 10
5.0606310315
 20
5.4936416908
 30
0.0
 10
5.0602411526
 20
5.4921909409
 30
0.0
 10
5.0599234708
 20
5.4906755918
 30
0.0
 10
5.0596763053
 20
5.489101677
 30
0.0
 10
5.0594978114
 20
5.4874748456
 30
0.0
 10
5.0593861813
 20
5.4858007554
 30
0.0
 10
5.0593396359
 20
5.4840850227
 30
0.0
 10
5.0593563273
 20
5.4823327653
 30
0.0
 10
5.0594084047
 20
5.481153988
 30
0.0
 10
5.0594443987
 20
5.4805596218
 30
0.0
 11
5.1737351097
 21
5.4315575818
 31
0.0
 11
5.1621354089
 21
5.4389559966
 31
0.0
 11
5.156486064
 21
5.442735388
 31
0.0
 11
5.1509421748
 21
5.4465561397
 31
0.0
 11
5.1455070875
 21
5.4504089239
 31
0.0
 11
5.1401819921
 21
5.4542832941
 31
0.0
 11
5.1349674892
 21
5.4581684976
 31
0.0
 11
5.1298641794
 21
5.4620537818
 31
0.0
 11
5.1273544098
 21
5.4639930934
 31
0.0
 11
5.1248726857
 21
5.4659281023
 31
0.0
 11
5.1199940072
 21
5.4697754587
 31
0.0
 11
5.1152294577
 21
5.4735757075
 31
0.0
 11
5.1128903949
 21
5.4754518318
 31
0.0
 11
5.1105803608
 21
5.4773085777
 31
0.0
 11
5.1082995216
 21
5.4791434048
 31
0.0
 11
5.1060481493
 21
5.4809530896
 31
0.0
 11
5.1016357041
 21
5.4844788763
 31
0.0
 11
5.0994756131
 21
5.4861856891
 31
0.0
 11
5.0973469312
 21
5.4878489222
 31
0.0
 11
5.0952501494
 21
5.4894639311
 31
0.0
 11
5.0931857596
 21
5.4910260684
 31
0.0
 11
5.091154691
 21
5.4925294936
 31
0.0
 11
5.0891589912
 21
5.4939653112
 31
0.0
 11
5.0872008842
 21
5.4953241441
 31
0.0
 11
5.0852825943
 21
5.4965966154
 31
0.0
 11
5.0834063454
 21
5.4977733479
 31
0.0
 11
5.0815743617
 21
5.4988449647
 31
0.0
 11
5.0797892144
 21
5.4998019993
 31
0.0
 11
5.0780556673
 21
5.5006344213
 31
0.0
 11
5.0763793385
 21
5.5013319806
 31
0.0
 11
5.0755643872
 21
5.5016269834
 31
0.0
 11
5.0747658479
 21
5.5018844265
 31
0.0
 11
5.073984423
 21
5.5021030286
 31
0.0
 11
5.0732208152
 21
5.5022815084
 31
0.0
 11
5.07174986
 21
5.5025129769
 31
0.0
 11
5.0703578186
 21
5.5025720163
 31
0.0
 11
5.069692157
 21
5.5025380109
 31
0.0
 11
5.0690470453
 21
5.5024626911
 31
0.0
 11
5.0684227166
 21
5.5023468338
 31
0.0
 11
5.0678194039
 21
5.5021912158
 31
0.0
 11
5.06723734
 21
5.5019966139
 31
0.0
 11
5.066676758
 21
5.5017638049
 31
0.0
 11
5.0661378909
 21
5.5014935658
 31
0.0
 11
5.0656209715
 21
5.5011866732
 31
0.0
 11
5.065126233
 21
5.5008439041
 31
0.0
 11
5.0646539079
 21
5.5004660356
 31
0.0
 11
5.0637764949
 21
5.4996090805
 31
0.0
 11
5.0629866725
 21
5.4986261065
 31
0.0
 11
5.0622817849
 21
5.4975280315
 31
0.0
 11
5.0616591767
 21
5.4963257736
 31
0.0
 11
5.0611161923
 21
5.4950302509
 31
0.0
 11
5.0606501761
 21
5.4936523813
 31
0.0
 11
5.0602585528
 21
5.4922026056
 31
0.0
 11
5.0599393023
 21
5.4906880587
 31
0.0
 11
5.0596906398
 21
5.4891144767
 31
0.0
 11
5.0595107811
 21
5.4874875905
 31
0.0
 11
5.0593979422
 21
5.485813131
 31
0.0
 11
5.059350339
 21
5.4840968293
 31
0.0
 11
5.059366236
 21
5.4823442762
 31
0.0
 11
5.0594443987
 21
5.4805596218
 31
0.0
  0
SPLINE
  5
27D
100
AcDbEntity
  8
0
100
AcDbSpline
 62
6
  6
CONTINUOUS
 70
0
 71
3
 72
60
 73
56
 74
54
 42
0.0000001
 43
0.0000001
 44
0.0000000001
 12
-0.0680612677
 22
0.0544006882
 32
0.0
 13
0.0044613351
 23
-0.0870164784
 33
0.0
 40
0.0
 40
0.0
 40
0.0
 40
0.0
 40
0.0480268301
 40
0.0955109558
 40
0.1887715575
 40
0.2796210929
 40
0.3240881026
 40
0.3678843257
 40
0.4532805616
 40
0.4947672526
 40
0.5353672376
 40
0.5750201982
 40
0.6136592386
 40
0.6511791044
 40
0.6874580004
 40
0.7223729573
 40
0.7558002128
 40
0.7719170869
 40
0.7876093287
 40
0.8175893855
 40
0.8318106107
 40
0.8454752397
 40
0.8585506674
 40
0.8710048031
 40
0.8828062665
 40
0.8939246593
 40
0.9043300654
 40
0.9139916236
 40
0.9228804435
 40
0.9309713508
 40
0.9382448762
 40
0.9415718882
 40
0.9446917977
 40
0.9476057708
 40
0.9503165754
 40
0.9528291215
 40
0.9551512013
 40
0.9572944929
 40
0.9592768991
 40
0.9611234286
 40
0.9628638442
 40
0.9645321193
 40
0.9661652466
 40
0.9678011406
 40
0.96947612
 40
0.9730617196
 40
0.9750288886
 40
0.977134772
 40
0.979392536
 40
0.9818119765
 40
0.9844002332
 40
0.9871623796
 40
0.9901018878
 40
0.9932209882
 40
1.0
 40
1.0
 40
1.0
 40
1.0
 10
5.0617442144
 20
5.4442865214
 30
0.0
 10
5.0606546254
 20
5.4451574189
 30
0.0
 10
5.0584998697
 20
5.4469045953
 30
0.0
 10
5.0542898703
 20
5.4504169123
 30
0.0
 10
5.0492132326
 20
5.4548308613
 30
0.0
 10
5.0443187594
 20
5.459317136
 30
0.0
 10
5.0405513195
 20
5.4629045089
 30
0.0
 10
5.0369419515
 20
5.4664276311
 30
0.0
 10
5.0334559098
 20
5.4699526289
 30
0.0
 10
5.0300909269
 20
5.4734653057
 30
0.0
 10
5.0276703105
 20
5.4760426305
 30
0.0
 10
5.0253295882
 20
5.4785813082
 30
0.0
 10
5.0230709098
 20
5.4810737709
 30
0.0
 10
5.0208955581
 20
5.4835093643
 30
0.0
 10
5.018805475
 20
5.4858760145
 30
0.0
 10
5.0168029999
 20
5.4881614123
 30
0.0
 10
5.0151902088
 20
5.490009679
 30
0.0
 10
5.0139444579
 20
5.4914372603
 30
0.0
 10
5.0127635517
 20
5.4927885452
 30
0.0
 10
5.0116153852
 20
5.4940953365
 30
0.0
 10
5.0104976743
 20
5.495350437
 30
0.0
 10
5.0097011551
 20
5.4962341092
 30
0.0
 10
5.0089324296
 20
5.4970736997
 30
0.0
 10
5.008192354
 20
5.4978660911
 30
0.0
 10
5.0074817912
 20
5.4986081781
 30
0.0
 10
5.0068016171
 20
5.4992968416
 30
0.0
 10
5.0061527974
 20
5.4999289123
 30
0.0
 10
5.0055365766
 20
5.5005013445
 30
0.0
 10
5.0049542414
 20
5.5010110655
 30
0.0
 10
5.0044070834
 20
5.5014549805
 30
0.0
 10
5.003969335
 20
5.5017765905
 30
0.0
 10
5.003636924
 20
5.5019964951
 30
0.0
 10
5.0034046713
 20
5.5021379668
 30
0.0
 10
5.0031821429
 20
5.5022605755
 30
0.0
 10
5.0029694698
 20
5.5023639331
 30
0.0
 10
5.0027667725
 20
5.5024476505
 30
0.0
 10
5.0025741552
 20
5.50251134
 30
0.0
 10
5.0023916532
 20
5.5025545521
 30
0.0
 10
5.002219291
 20
5.5025769341
 30
0.0
 10
5.0020571194
 20
5.5025786759
 30
0.0
 10
5.0019051423
 20
5.502559904
 30
0.0
 10
5.0017634551
 20
5.5025207723
 30
0.0
 10
5.0016322328
 20
5.5024615255
 30
0.0
 10
5.0015116412
 20
5.5023825238
 30
0.0
 10
5.001361842
 20
5.5022485937
 30
0.0
 10
5.0012368
 20
5.502076802
 30
0.0
 10
5.0011356755
 20
5.5018785143
 30
0.0
 10
5.001067628
 20
5.5017073995
 30
0.0
 10
5.0010097665
 20
5.501518907
 30
0.0
 10
5.0009619482
 20
5.5013132275
 30
0.0
 10
5.0009241226
 20
5.501090638
 30
0.0
 10
5.0008962307
 20
5.5008513946
 30
0.0
 10
5.0008782225
 20
5.5005957609
 30
0.0
 10
5.0008670418
 20
5.5002230031
 30
0.0
 10
5.0008741742
 20
5.4999353484
 30
0.0
 10
5.0008842553
 20
5.4997387198
 30
0.0
 11
5.0617442144
 21
5.4442865214
 31
0.0
 11
5.058493862
 21
5.4469220875
 31
0.0
 11
5.0553168959
 21
5.4495724409
 31
0.0
 11
5.0491843611
 21
5.454903646
 31
0.0
 11
5.0433486905
 21
5.4602519803
 31
0.0
 11
5.0405428048
 21
5.4629237452
 31
0.0
 11
5.0378119128
 21
5.4655890922
 31
0.0
 11
5.0325782187
 21
5.4708779074
 31
0.0
 11
5.0300774718
 21
5.4734880429
 31
0.0
 11
5.0276555008
 21
5.4760664182
 31
0.0
 11
5.0253133379
 21
5.4786063492
 31
0.0
 11
5.0230521375
 21
5.4811006027
 31
0.0
 11
5.0208738682
 21
5.4835383034
 31
0.0
 11
5.0187808296
 21
5.4859070926
 31
0.0
 11
5.0167753227
 21
5.4881946071
 31
0.0
 11
5.0148596483
 21
5.4903884838
 31
0.0
 11
5.0139362192
 21
5.4914464389
 31
0.0
 11
5.0130363043
 21
5.4924758075
 31
0.0
 11
5.0113103297
 21
5.4944365534
 31
0.0
 11
5.0104859796
 21
5.4953616649
 31
0.0
 11
5.0096885275
 21
5.4962457585
 31
0.0
 11
5.0089188282
 21
5.4970857012
 31
0.0
 11
5.0081777365
 21
5.4978783604
 31
0.0
 11
5.0074661074
 21
5.4986206033
 31
0.0
 11
5.0067847957
 21
5.4993092969
 31
0.0
 11
5.0061347523
 21
5.4999412964
 31
0.0
 11
5.0055172285
 21
5.5005134184
 31
0.0
 11
5.0049335346
 21
5.5010224722
 31
0.0
 11
5.004384981
 21
5.5014652671
 31
0.0
 11
5.0038728778
 21
5.5018386124
 31
0.0
 11
5.0036309046
 21
5.5019982443
 31
0.0
 11
5.0033985353
 21
5.5021393173
 31
0.0
 11
5.0031759339
 21
5.5022614325
 31
0.0
 11
5.0029632639
 21
5.5023641911
 31
0.0
 11
5.0027606893
 21
5.5024471942
 31
0.0
 11
5.0025683737
 21
5.5025100431
 31
0.0
 11
5.0023864804
 21
5.502552341
 31
0.0
 11
5.0022151047
 21
5.5025739178
 31
0.0
 11
5.002054219
 21
5.5025750163
 31
0.0
 11
5.0019037819
 21
5.5025559235
 31
0.0
 11
5.0017637527
 21
5.5025169264
 31
0.0
 11
5.00163409
 21
5.502458312
 31
0.0
 11
5.001514753
 21
5.5023803672
 31
0.0
 11
5.0014057005
 21
5.5022833791
 31
0.0
 11
5.001218285
 21
5.5020334207
 31
0.0
 11
5.0011398399
 21
5.5018810243
 31
0.0
 11
5.001071515
 21
5.5017107326
 31
0.0
 11
5.0010132695
 21
5.5015228324
 31
0.0
 11
5.0009650621
 21
5.5013176107
 31
0.0
 11
5.0009268519
 21
5.5010953545
 31
0.0
 11
5.0008985978
 21
5.5008563508
 31
0.0
 11
5.0008802587
 21
5.5006008866
 31
0.0
 11
5.0008717936
 21
5.5003292488
 31
0.0
 11
5.0008842553
 21
5.4997387198
 31
0.0
  0
SPLINE
  5
27E
100
AcDbEntity
  8
0
100
AcDbSpline
 62
6
  6
CONTINUOUS
 70
0
 71
3
 72
15
 73
11
 74
9
 42
0.0000001
 43
0.0000001
 44
0.0000000001
 12
0.1389649717
 22
-0.3461716122
 32
0.0
 13
0.1869154335
 23
-0.3228136756
 33
0.0
 40
0.0
 40
0.0
 40
0.0
 40
0.0
 40
0.1254171858
 40
0.2506352917
 40
0.3756941075
 40
0.5006335749
 40
0.6254937502
 40
0.750314766
 40
0.8751367928
 40
1.0
 40
1.0
 40
1.0
 40
1.0
 10
5.5285197716
 20
4.5394589022
 30
0.0
 10
5.5343293035
 20
4.5249869457
 30
0.0
 10
5.5461957059
 20
4.4961682253
 30
0.0
 10
5.5647489986
 20
4.4532938933
 30
0.0
 10
5.5840402331
 20
4.4108115452
 30
0.0
 10
5.604069336
 20
4.3687213708
 30
0.0
 10
5.6248363151
 20
4.3270233479
 30
0.0
 10
5.6463411861
 20
4.2857174573
 30
0.0
 10
5.6685838458
 20
4.2448038786
 30
0.0
 10
5.6839002171
 20
4.2177966347
 30
0.0
 10
5.6916798373
 20
4.2043607844
 30
0.0
 11
5.5285197716
 21
4.5394589022
 31
0.0
 11
5.5463330796
 21
4.4961994556
 31
0.0
 11
5.5648840163
 21
4.4533320609
 31
0.0
 11
5.5841725815
 21
4.4108567183
 31
0.0
 11
5.6041987755
 21
4.3687734276
 31
0.0
 11
5.624962598
 21
4.3270821888
 31
0.0
 11
5.6464640491
 21
4.2857830021
 31
0.0
 11
5.6687031289
 21
4.2448758673
 31
0.0
 11
5.6916798373
 21
4.2043607844
 31
0.0
  0
SPLINE
  5
27F
100
AcDbEntity
  8
0
100
AcDbSpline
 62
6
  6
CONTINUOUS
 70
0
 71
3
 72
71
 73
67
 74
65
 42
0.0000001
 43
0.0000001
 44
0.0000000001
 12
0.0148559713
 22
0.2628226475
 32
0.0
 13
-0.2249215644
 23
-0.1367725624
 33
0.0
 40
0.0
 40
0.0
 40
0.0
 40
0.0
 40
0.0200870475
 40
0.0303462811
 40
0.0407557189
 40
0.0513196941
 40
0.0620412571
 40
0.0729223026
 40
0.0839634917
 40
0.1065216518
 40
0.1180415663
 40
0.1297205094
 40
0.1415583918
 40
0.1535529016
 40
0.1656976181
 40
0.1779873476
 40
0.1904189652
 40
0.2029915579
 40
0.2157051742
 40
0.2285535555
 40
0.2415316329
 40
0.2546403404
 40
0.2678871445
 40
0.281282175
 40
0.2948255528
 40
0.308527848
 40
0.3224185453
 40
0.3294507002
 40
0.3365478771
 40
0.3509427921
 40
0.3582502919
 40
0.3656365774
 40
0.3731081789
 40
0.380672988
 40
0.3844934471
 40
0.3883407528
 40
0.3961182388
 40
0.4040090182
 40
0.4120139996
 40
0.4201324499
 40
0.428362177
 40
0.436699698
 40
0.4451403922
 40
0.4536786402
 40
0.462309551
 40
0.4710317662
 40
0.4798433638
 40
0.497719647
 40
0.5159010827
 40
0.5250903123
 40
0.5343349814
 40
0.5436303716
 40
0.5529745787
 40
0.5718004684
 40
0.5907928685
 40
0.6099278082
 40
0.6291814029
 40
0.6485379054
 40
0.6874986256
 40
0.7266888071
 40
0.766012472
 40
0.8447106675
 40
0.8839224483
 40
0.9229360486
 40
0.9616658656
 40
1.0
 40
1.0
 40
1.0
 40
1.0
 10
6.680747169
 20
5.4283442334
 30
0.0
 10
6.6808466398
 20
5.4301040104
 30
0.0
 10
6.680867423
 20
5.4327717214
 30
0.0
 10
6.6806590011
 20
5.4363425048
 30
0.0
 10
6.6803827818
 20
5.4390700321
 30
0.0
 10
6.6799892964
 20
5.4418239397
 30
0.0
 10
6.6794800539
 20
5.4446008679
 30
0.0
 10
6.6788566695
 20
5.4473973347
 30
0.0
 10
6.6778678333
 20
5.4511737311
 30
0.0
 10
6.6766557727
 20
5.4549469832
 30
0.0
 10
6.6752287618
 20
5.4587005188
 30
0.0
 10
6.6740364097
 20
5.4615349891
 30
0.0
 10
6.6727295409
 20
5.4643643792
 30
0.0
 10
6.6713075459
 20
5.4671836
 30
0.0
 10
6.6697670119
 20
5.4699852257
 30
0.0
 10
6.6681051496
 20
5.4727614856
 30
0.0
 10
6.6663191163
 20
5.4755045238
 30
0.0
 10
6.6644060511
 20
5.4782062934
 30
0.0
 10
6.6623640874
 20
5.4808584277
 30
0.0
 10
6.6601879707
 20
5.4834484963
 30
0.0
 10
6.6578723816
 20
5.4859622299
 30
0.0
 10
6.6554124421
 20
5.488385243
 30
0.0
 10
6.6528034382
 20
5.4907026783
 30
0.0
 10
6.6500424589
 20
5.4928990641
 30
0.0
 10
6.6471207311
 20
5.4949479691
 30
0.0
 10
6.6440313031
 20
5.496820201
 30
0.0
 10
6.6413223835
 20
5.4982030002
 30
0.0
 10
6.6390702829
 20
5.4991909802
 30
0.0
 10
6.6367390444
 20
5.5001034596
 30
0.0
 10
6.6343296343
 20
5.5008774888
 30
0.0
 10
6.6318536169
 20
5.5015000402
 30
0.0
 10
6.6299476182
 20
5.5018907926
 30
0.0
 10
6.6280037033
 20
5.5021989166
 30
0.0
 10
6.626358675
 20
5.5023828897
 30
0.0
 10
6.6250258727
 20
5.5024851967
 30
0.0
 10
6.6236723939
 20
5.5025571687
 30
0.0
 10
6.6219596151
 20
5.502588738
 30
0.0
 10
6.6198824022
 20
5.5025366249
 30
0.0
 10
6.6177792752
 20
5.5023970516
 30
0.0
 10
6.6156536694
 20
5.5021724602
 30
0.0
 10
6.6135089819
 20
5.5018652743
 30
0.0
 10
6.6113486234
 20
5.5014779124
 30
0.0
 10
6.6091760013
 20
5.501012804
 30
0.0
 10
6.6069943989
 20
5.5004722805
 30
0.0
 10
6.6048065702
 20
5.4998587495
 30
0.0
 10
6.6026140272
 20
5.499176724
 30
0.0
 10
6.5996718282
 20
5.4981769161
 30
0.0
 10
6.5959906715
 20
5.4967764119
 30
0.0
 10
6.5923383788
 20
5.4952172529
 30
0.0
 10
6.5894153968
 20
5.4938832637
 30
0.0
 10
6.5872170231
 20
5.4928402352
 30
0.0
 10
6.5850208392
 20
5.4917614349
 30
0.0
 10
6.5820886617
 20
5.4902746712
 30
0.0
 10
6.5784308358
 20
5.4883383
 30
0.0
 10
6.5740608815
 20
5.4859132171
 30
0.0
 10
6.5696984953
 20
5.4833986828
 30
0.0
 10
6.5653417499
 20
5.4808113641
 30
0.0
 10
6.5595281324
 20
5.4772710632
 30
0.0
 10
6.5522820609
 20
5.472720687
 30
0.0
 10
6.5436127993
 20
5.4671437397
 30
0.0
 10
6.532057018
 20
5.4596094713
 30
0.0
 10
6.5205153967
 20
5.4520500534
 30
0.0
 10
6.5089520368
 20
5.4445738793
 30
0.0
 10
6.5003019617
 20
5.4390514725
 30
0.0
 10
6.4916753983
 20
5.433635841
 30
0.0
 10
6.4859161295
 20
5.4300919193
 30
0.0
 10
6.4830420717
 20
5.4283442334
 30
0.0
 11
6.680747169
 21
5.4283442334
 31
0.0
 11
6.680797052
 21
5.4336317562
 31
0.0
 11
6.6806407748
 21
5.4363278938
 31
0.0
 11
6.6803657003
 21
5.4390542553
 31
0.0
 11
6.6799733397
 21
5.4418073205
 31
0.0
 11
6.6794652042
 21
5.4445835693
 31
0.0
 11
6.6788428002
 21
5.4473794796
 31
0.0
 11
6.6781070566
 21
5.4501913228
 31
0.0
 11
6.6762946904
 21
5.4558462544
 31
0.0
 11
6.675217448
 21
5.458680998
 31
0.0
 11
6.6740257528
 21
5.4615150302
 31
0.0
 11
6.6727192905
 21
5.4643441724
 31
0.0
 11
6.6712970112
 21
5.4671631581
 31
0.0
 11
6.669756305
 21
5.4699644157
 31
0.0
 11
6.6680943634
 21
5.4727400793
 31
0.0
 11
6.6663083777
 21
5.4754822832
 31
0.0
 11
6.6643955392
 21
5.4781831615
 31
0.0
 11
6.6623528553
 21
5.4808342453
 31
0.0
 11
6.6601760592
 21
5.4834228893
 31
0.0
 11
6.6578603452
 21
5.4859346821
 31
0.0
 11
6.6554009059
 21
5.4883552059
 31
0.0
 11
6.6527929335
 21
5.4906700426
 31
0.0
 11
6.6500314351
 21
5.492862705
 31
0.0
 11
6.6471105426
 21
5.4949069542
 31
0.0
 11
6.6440241309
 21
5.4967736815
 31
0.0
 11
6.6407660747
 21
5.498433778
 31
0.0
 11
6.6390707714
 21
5.4991772423
 31
0.0
 11
6.6373309461
 21
5.4998580243
 31
0.0
 11
6.6337227684
 21
5.5010157021
 31
0.0
 11
6.6318571602
 21
5.5014846428
 31
0.0
 11
6.6299523687
 21
5.5018750145
 31
0.0
 11
6.6280097658
 21
5.5021828397
 31
0.0
 11
6.6260307238
 21
5.5024041407
 31
0.0
 11
6.6250279669
 21
5.5024811017
 31
0.0
 11
6.6240166279
 21
5.5025349812
 31
0.0
 11
6.6219696338
 21
5.502573811
 31
0.0
 11
6.619893076
 21
5.5025227328
 31
0.0
 11
6.6177903886
 21
5.502384158
 31
0.0
 11
6.6156650058
 21
5.5021604982
 31
0.0
 11
6.6135203619
 21
5.5018541647
 31
0.0
 11
6.6113598909
 21
5.5014675691
 31
0.0
 11
6.6091870272
 21
5.5010031228
 31
0.0
 11
6.6070052043
 21
5.5004632377
 31
0.0
 11
6.6048173016
 21
5.4998507382
 31
0.0
 11
6.6026245909
 21
5.499169645
 31
0.0
 11
6.6004280539
 21
5.4984241949
 31
0.0
 11
6.5960274287
 21
5.4967571697
 31
0.0
 11
6.5916232806
 21
5.4948835552
 31
0.0
 11
6.5894223402
 21
5.4938798683
 31
0.0
 11
6.5872234374
 21
5.4928371931
 31
0.0
 11
6.585026989
 21
5.4917587109
 31
0.0
 11
6.5828329174
 21
5.4906466797
 31
0.0
 11
6.57845152
 21
5.4883308654
 31
0.0
 11
6.574078477
 21
5.4859075409
 31
0.0
 11
6.5697130199
 21
5.4833944959
 31
0.0
 11
6.5653543342
 21
5.4808079706
 31
0.0
 11
6.5610014551
 21
5.4781591911
 31
0.0
 11
6.5523091375
 21
5.4727157271
 31
0.0
 11
6.5436283717
 21
5.4671412623
 31
0.0
 11
6.5349525326
 21
5.4614944565
 31
0.0
 11
6.5176020302
 21
5.450174515
 31
0.0
 11
6.5089320724
 21
5.4445727714
 31
0.0
 11
6.5002739904
 21
5.4390490923
 31
0.0
 11
6.4916378875
 21
5.4336303927
 31
0.0
 11
6.4830420717
 21
5.4283442334
 31
0.0
  0
SPLINE
  5
280
100
AcDbEntity
  8
0
100
AcDbSpline
 62
6
  6
CONTINUOUS
 70
0
 71
3
 72
82
 73
78
 74
76
 42
0.0000001
 43
0.0000001
 44
0.0000000001
 12
-0.102963318
 22
0.2640342368
 32
0.0
 13
-0.2337759103
 23
-0.1602009577
 33
0.0
 40
0.0
 40
0.0
 40
0.0
 40
0.0
 40
0.0100047272
 40
0.0202866421
 40
0.0308409156
 40
0.0416619244
 40
0.052743374
 40
0.0640784042
 40
0.0756596824
 40
0.0874801395
 40
0.1118146969
 40
0.1243201912
 40
0.1370443101
 40
0.1499827238
 40
0.1631304488
 40
0.1764806236
 40
0.1900274178
 40
0.2037666318
 40
0.2176957918
 40
0.2247314988
 40
0.2318140267
 40
0.2461153495
 40
0.2605951388
 40
0.2752528765
 40
0.2826500194
 40
0.2900937323
 40
0.2975852538
 40
0.305124258
 40
0.3203397766
 40
0.3357415515
 40
0.3513439902
 40
0.3592301439
 40
0.3671778686
 40
0.3751862327
 40
0.3832532268
 40
0.3913777713
 40
0.3995597786
 40
0.4078002129
 40
0.4161011479
 40
0.4244658193
 40
0.4328978208
 40
0.4413976246
 40
0.4499636971
 40
0.4585932875
 40
0.4672825502
 40
0.4760266578
 40
0.4848199055
 40
0.4936558077
 40
0.502528039
 40
0.5114353076
 40
0.5203776544
 40
0.5383613596
 40
0.5564608283
 40
0.5746430189
 40
0.5837524408
 40
0.5928700307
 40
0.6111271305
 40
0.6294077404
 40
0.6477011528
 40
0.6659934693
 40
0.6842694383
 40
0.7025194526
 40
0.7207354644
 40
0.7389085316
 40
0.7570289445
 40
0.7750863674
 40
0.7930711717
 40
0.8109755667
 40
0.8287918105
 40
0.8465120247
 40
0.8641282205
 40
0.8816323259
 40
0.8990152048
 40
0.9162637686
 40
0.9333639635
 40
0.9670630249
 40
1.0
 40
1.0
 40
1.0
 40
1.0
 10
6.4830420717
 20
5.4283442334
 30
0.0
 10
6.4826986983
 20
5.4292247636
 30
0.0
 10
6.4819726105
 20
5.4309987182
 30
0.0
 10
6.480785943
 20
5.4336599848
 30
0.0
 10
6.4794886107
 20
5.4363549365
 30
0.0
 10
6.478082576
 20
5.4390800363
 30
0.0
 10
6.4765697872
 20
5.4418318012
 30
0.0
 10
6.4749521745
 20
5.4446067059
 30
0.0
 10
6.4732317273
 20
5.4474013766
 30
0.0
 10
6.4707789263
 20
5.4511858223
 30
0.0
 10
6.4681442835
 20
5.4549550539
 30
0.0
 10
6.4653326588
 20
5.4586994031
 30
0.0
 10
6.4631019932
 20
5.4615325932
 30
0.0
 10
6.4607685447
 20
5.4643608206
 30
0.0
 10
6.4583319028
 20
5.4671793464
 30
0.0
 10
6.4557887736
 20
5.4699803632
 30
0.0
 10
6.4531363706
 20
5.4727560146
 30
0.0
 10
6.4503718868
 20
5.475498336
 30
0.0
 10
6.4479804824
 20
5.4777415758
 30
0.0
 10
6.4460090796
 20
5.4795119154
 30
0.0
 10
6.4439849109
 20
5.4812756644
 30
0.0
 10
6.4413783118
 20
5.483440858
 30
0.0
 10
6.4381336909
 20
5.4859544233
 30
0.0
 10
6.4353288312
 20
5.4879670424
 30
0.0
 10
6.4330178823
 20
5.4895245136
 30
0.0
 10
6.4312447525
 20
5.4906679001
 30
0.0
 10
6.4294367613
 20
5.4917811388
 30
0.0
 10
6.4269713654
 20
5.4932256807
 30
0.0
 10
6.4237980281
 20
5.494938491
 30
0.0
 10
6.4198514173
 20
5.4968109613
 30
0.0
 10
6.4164453849
 20
5.4981943789
 30
0.0
 10
6.4136446968
 20
5.4991831499
 30
0.0
 10
6.4114974316
 20
5.4998642998
 30
0.0
 10
6.4093123813
 20
5.5004787471
 30
0.0
 10
6.4070914974
 20
5.5010227286
 30
0.0
 10
6.4048369333
 20
5.5014923966
 30
0.0
 10
6.4025508367
 20
5.5018839089
 30
0.0
 10
6.4002353571
 20
5.5021934179
 30
0.0
 10
6.3978926499
 20
5.50241708
 30
0.0
 10
6.3955249345
 20
5.502551023
 30
0.0
 10
6.3931349983
 20
5.5025914613
 30
0.0
 10
6.390726279
 20
5.5025411419
 30
0.0
 10
6.3883023575
 20
5.5024027071
 30
0.0
 10
6.3858668971
 20
5.5021788149
 30
0.0
 10
6.3834235568
 20
5.5018721132
 30
0.0
 10
6.3809759969
 20
5.5014852522
 30
0.0
 10
6.3785278837
 20
5.5010208639
 30
0.0
 10
6.3760827874
 20
5.5004816204
 30
0.0
 10
6.3736437569
 20
5.4998698095
 30
0.0
 10
6.371212534
 20
5.4991894718
 30
0.0
 10
6.3679765794
 20
5.4981948828
 30
0.0
 10
6.3639563991
 20
5.4968010438
 30
0.0
 10
6.3591845492
 20
5.4949249288
 30
0.0
 10
6.3552502788
 20
5.4932176941
 30
0.0
 10
6.3521255751
 20
5.4917801149
 30
0.0
 10
6.3490143485
 20
5.4902970381
 30
0.0
 10
6.3451573349
 20
5.488366078
 30
0.0
 10
6.3405791674
 20
5.4859425158
 30
0.0
 10
6.3360468556
 20
5.4834275469
 30
0.0
 10
6.3315579355
 20
5.4808369876
 30
0.0
 10
6.3271089084
 20
5.4781866091
 30
0.0
 10
6.3226987711
 20
5.4754858436
 30
0.0
 10
6.3183261524
 20
5.4727430513
 30
0.0
 10
6.3139893525
 20
5.469966653
 30
0.0
 10
6.309686749
 20
5.467164948
 30
0.0
 10
6.3054164334
 20
5.4643464596
 30
0.0
 10
6.3011769605
 20
5.4615184113
 30
0.0
 10
6.2969685846
 20
5.4586848939
 30
0.0
 10
6.2927910866
 20
5.4558503357
 30
0.0
 10
6.2886443101
 20
5.4530190331
 30
0.0
 10
6.2845280778
 20
5.4501953138
 30
0.0
 10
6.2804422954
 20
5.4473835527
 30
0.0
 10
6.2763872546
 20
5.4445883847
 30
0.0
 10
6.2723649208
 20
5.4418129997
 30
0.0
 10
6.2670745199
 20
5.4381614183
 30
0.0
 10
6.2605634113
 20
5.4336694244
 30
0.0
 10
6.2553762333
 20
5.4301030784
 30
0.0
 10
6.2528096095
 20
5.4283442334
 30
0.0
 11
6.4830420717
 21
5.4283442334
 31
0.0
 11
6.4819692805
 21
5.4309687841
 31
0.0
 11
6.48078372
 21
5.4336305926
 31
0.0
 11
6.4794873492
 21
5.4363261417
 31
0.0
 11
6.4780821275
 21
5.4390519144
 31
0.0
 11
6.4765700142
 21
5.4418043934
 31
0.0
 11
6.4749529684
 21
5.4445800619
 31
0.0
 11
6.4732329463
 21
5.4473754015
 31
0.0
 11
6.4714112595
 21
5.4501867001
 31
0.0
 11
6.4674622892
 21
5.45584056
 31
0.0
 11
6.4653344219
 21
5.4586747293
 31
0.0
 11
6.4631039105
 21
5.46150813
 31
0.0
 11
6.4607704624
 21
5.4643365648
 31
0.0
 11
6.4583331875
 21
5.4671549414
 31
0.0
 11
6.4557895671
 21
5.4699557276
 31
0.0
 11
6.4531368074
 21
5.472730979
 31
0.0
 11
6.4503721148
 21
5.4754727512
 31
0.0
 11
6.4474926956
 21
5.4781730999
 31
0.0
 11
6.446009088
 21
5.4795052489
 31
0.0
 11
6.4444956497
 21
5.480823698
 31
0.0
 11
6.4413769768
 21
5.4834122573
 31
0.0
 11
6.438132026
 21
5.4859241474
 31
0.0
 11
6.4347561378
 21
5.4883447075
 31
0.0
 11
6.4330176362
 21
5.4895161573
 31
0.0
 11
6.4312446529
 21
5.4906592767
 31
0.0
 11
6.4294366079
 21
5.4917721617
 31
0.0
 11
6.4275929535
 21
5.492851883
 31
0.0
 11
6.4237967229
 21
5.4948970337
 31
0.0
 11
6.4198517778
 21
5.4967650349
 31
0.0
 11
6.4157539352
 21
5.4984261741
 31
0.0
 11
6.4136463702
 21
5.4991698853
 31
0.0
 11
6.4114993502
 21
5.4998507241
 31
0.0
 11
6.409314458
 21
5.500464885
 31
0.0
 11
6.4070938529
 21
5.5010085371
 31
0.0
 11
6.4048396944
 21
5.5014778498
 31
0.0
 11
6.402554142
 21
5.5018689923
 31
0.0
 11
6.4002393552
 21
5.5021781339
 31
0.0
 11
6.3978974937
 21
5.5024014438
 31
0.0
 11
6.3955307168
 21
5.5025350915
 31
0.0
 11
6.3931414444
 21
5.5025763535
 31
0.0
 11
6.3907331098
 21
5.5025268196
 31
0.0
 11
6.3883093934
 21
5.5023891296
 31
0.0
 11
6.3858739751
 21
5.502165923
 31
0.0
 11
6.3834305351
 21
5.5018598394
 31
0.0
 11
6.3809827536
 21
5.5014735185
 31
0.0
 11
6.3785343108
 21
5.5010095998
 31
0.0
 11
6.3760888867
 21
5.500470723
 31
0.0
 11
6.3736498774
 21
5.4998596665
 31
0.0
 11
6.371218734
 21
5.4991801595
 31
0.0
 11
6.3687960923
 21
5.4984363292
 31
0.0
 11
6.3639788464
 21
5.4967722143
 31
0.0
 11
6.3592032045
 21
5.494900352
 31
0.0
 11
6.3544742314
 21
5.4928537726
 31
0.0
 11
6.35212876
 21
5.491775129
 31
0.0
 11
6.3497961455
 21
5.490663565
 31
0.0
 11
6.3451683105
 21
5.4883496831
 31
0.0
 11
6.3405883626
 21
5.4859281186
 31
0.0
 11
6.3360539358
 21
5.4834148582
 31
0.0
 11
6.3315626641
 21
5.4808258886
 31
0.0
 11
6.3271122639
 21
5.4781763209
 31
0.0
 11
6.3227009176
 21
5.4754762922
 31
0.0
 11
6.3183269726
 21
5.4727341854
 31
0.0
 11
6.3139887762
 21
5.4699583817
 31
0.0
 11
6.3096846756
 21
5.4671572624
 31
0.0
 11
6.3054130242
 21
5.4643391924
 31
0.0
 11
6.3011726793
 21
5.4615111565
 31
0.0
 11
6.2969633806
 21
5.458677724
 31
0.0
 11
6.2927849567
 21
5.4558432205
 31
0.0
 11
6.2886372363
 21
5.4530119715
 31
0.0
 11
6.2845200482
 21
5.4501883025
 31
0.0
 11
6.2804332208
 21
5.4473765392
 31
0.0
 11
6.2763770255
 21
5.4445808679
 31
0.0
 11
6.2723534582
 21
5.441804933
 31
0.0
 11
6.2683649352
 21
5.4390522468
 31
0.0
 11
6.2605026866
 21
5.4336306693
 31
0.0
 11
6.2528096095
 21
5.4283442334
 31
0.0
  0
SPLINE
  5
281
100
AcDbEntity
  8
0
100
AcDbSpline
 62
6
  6
CONTINUOUS
 70
0
 71
3
 72
72
 73
68
 74
66
 42
0.0000001
 43
0.0000001
 44
0.0000000001
 12
-0.1856791994
 22
0.2292694061
 32
0.0
 13
-0.2246423877
 23
-0.1912512047
 33
0.0
 40
0.0
 40
0.0
 40
0.0
 40
0.0
 40
0.023345591
 40
0.0354655863
 40
0.0478677933
 40
0.0605403325
 40
0.0734712757
 40
0.0866486753
 40
0.1000619395
 40
0.1275648319
 40
0.1416408873
 40
0.1559242358
 40
0.1704085909
 40
0.1850873935
 40
0.1999534778
 40
0.2150005964
 40
0.2302236976
 40
0.2456190175
 40
0.2611833669
 40
0.2769098986
 40
0.2927924107
 40
0.3088281651
 40
0.325018237
 40
0.3413640291
 40
0.3578551341
 40
0.3744855919
 40
0.3912608534
 40
0.3997086923
 40
0.4081976418
 40
0.4252794098
 40
0.4338664963
 40
0.4424802688
 40
0.4511194106
 40
0.459783734
 40
0.4641257825
 40
0.468474589
 40
0.4771919803
 40
0.4859346196
 40
0.4946997568
 40
0.5034837835
 40
0.5122823169
 40
0.5210902778
 40
0.5299019658
 40
0.5387111309
 40
0.5475132098
 40
0.5563091852
 40
0.5651001042
 40
0.582664705
 40
0.6001974082
 40
0.6089450055
 40
0.6176746638
 40
0.6263845712
 40
0.6350750708
 40
0.652397527
 40
0.6696396896
 40
0.6867942033
 40
0.7038518135
 40
0.7208069821
 40
0.7543833713
 40
0.7874647202
 40
0.8199985834
 40
0.8519278201
 40
0.8831873044
 40
0.9137069037
 40
0.943409743
 40
0.9722106408
 40
1.0
 40
1.0
 40
1.0
 40
1.0
 10
6.2528096095
 20
5.4283442334
 30
0.0
 10
6.2513646793
 20
5.4301283766
 30
0.0
 10
6.2491274697
 20
5.4328049308
 30
0.0
 10
6.2460348169
 20
5.43635405
 30
0.0
 10
6.2435948674
 20
5.4390793387
 30
0.0
 10
6.2410657186
 20
5.4418313584
 30
0.0
 10
6.2384496042
 20
5.4446065764
 30
0.0
 10
6.2357487926
 20
5.4474016615
 30
0.0
 10
6.2320056492
 20
5.4511817515
 30
0.0
 10
6.2281271082
 20
5.4549516404
 30
0.0
 10
6.2241124476
 20
5.4587018364
 30
0.0
 10
6.2209942194
 20
5.4615356117
 30
0.0
 10
6.2177921292
 20
5.4643646148
 30
0.0
 10
6.2145055971
 20
5.4671839397
 30
0.0
 10
6.2111316543
 20
5.469985558
 30
0.0
 10
6.2076678008
 20
5.4727616954
 30
0.0
 10
6.2041114789
 20
5.4755044956
 30
0.0
 10
6.2004601286
 20
5.4782059433
 30
0.0
 10
6.1967120057
 20
5.4808582051
 30
0.0
 10
6.1928626428
 20
5.4834482914
 30
0.0
 10
6.1889076341
 20
5.4859617314
 30
0.0
 10
6.1848429429
 20
5.4883841791
 30
0.0
 10
6.1806647734
 20
5.4907008923
 30
0.0
 10
6.1763712808
 20
5.4928967865
 30
0.0
 10
6.1719571234
 20
5.4949447752
 30
0.0
 10
6.1674190524
 20
5.4968157684
 30
0.0
 10
6.1635407031
 20
5.498199849
 30
0.0
 10
6.1603761087
 20
5.4991894287
 30
0.0
 10
6.1571564305
 20
5.5000993627
 30
0.0
 10
6.1538852977
 20
5.5008736789
 30
0.0
 10
6.150571798
 20
5.5014983988
 30
0.0
 10
6.1480603907
 20
5.5018892858
 30
0.0
 10
6.1455298786
 20
5.5021976481
 30
0.0
 10
6.1434087567
 20
5.5023823757
 30
0.0
 10
6.1417050132
 20
5.502485018
 30
0.0
 10
6.1399944682
 20
5.5025568681
 30
0.0
 10
6.1378494775
 20
5.5025887778
 30
0.0
 10
6.1352704524
 20
5.5025371901
 30
0.0
 10
6.1326881109
 20
5.5023981379
 30
0.0
 10
6.1301062691
 20
5.5021740522
 30
0.0
 10
6.1275287149
 20
5.5018673501
 30
0.0
 10
6.1249592447
 20
5.5014804457
 30
0.0
 10
6.1224016514
 20
5.5010157675
 30
0.0
 10
6.1198595269
 20
5.5004756361
 30
0.0
 10
6.1173356649
 20
5.4998623906
 30
0.0
 10
6.1148313465
 20
5.4991805737
 30
0.0
 10
6.1115202629
 20
5.4981860782
 30
0.0
 10
6.1074333633
 20
5.4967931487
 30
0.0
 10
6.1034146876
 20
5.4952271845
 30
0.0
 10
6.1002429429
 20
5.4938873928
 30
0.0
 10
6.0978881766
 20
5.4928443406
 30
0.0
 10
6.0955557831
 20
5.4917655272
 30
0.0
 10
6.0924790337
 20
5.4902840441
 30
0.0
 10
6.088687444
 20
5.4883542774
 30
0.0
 10
6.0842162867
 20
5.4859287647
 30
0.0
 10
6.0798249444
 20
5.4834137929
 30
0.0
 10
6.0755089487
 20
5.4808262335
 30
0.0
 10
6.0698711259
 20
5.477304846
 30
0.0
 10
6.0630052024
 20
5.4727778653
 30
0.0
 10
6.0550014251
 20
5.4672001819
 30
0.0
 10
6.0472481097
 20
5.4615505816
 30
0.0
 10
6.0397310685
 20
5.4558834553
 30
0.0
 10
6.0324505072
 20
5.4502333499
 30
0.0
 10
6.0254076232
 20
5.4446352166
 30
0.0
 10
6.0186116972
 20
5.4391157909
 30
0.0
 10
6.0120748047
 20
5.4337039628
 30
0.0
 10
6.0078206337
 20
5.4301158162
 30
0.0
 10
6.0057397443
 20
5.4283442334
 30
0.0
 11
6.2528096095
 21
5.4283442334
 31
0.0
 11
6.248395879
 21
5.4336317562
 31
0.0
 11
6.2460471132
 21
5.4363278938
 31
0.0
 11
6.2436067902
 21
5.4390542553
 31
0.0
 11
6.2410771924
 21
5.4418073205
 31
0.0
 11
6.2384606021
 21
5.4445835693
 31
0.0
 11
6.2357592951
 21
5.4473794796
 31
0.0
 11
6.2329747633
 21
5.4501913228
 31
0.0
 11
6.2271557837
 21
5.4558462544
 31
0.0
 11
6.2241209573
 21
5.458680998
 31
0.0
 11
6.2210023208
 21
5.4615150302
 31
0.0
 11
6.2177996809
 21
5.4643441724
 31
0.0
 11
6.214512151
 21
5.4671631581
 31
0.0
 11
6.2111373759
 21
5.4699644157
 31
0.0
 11
6.2076728126
 21
5.4727400793
 31
0.0
 11
6.2041159185
 21
5.4754822832
 31
0.0
 11
6.2004641506
 21
5.4781831615
 31
0.0
 11
6.1967148304
 21
5.4808342453
 31
0.0
 11
6.1928643384
 21
5.4834228893
 31
0.0
 11
6.1889086575
 21
5.4859346821
 31
0.0
 11
6.1848437692
 21
5.4883552059
 31
0.0
 11
6.1806656548
 21
5.4906700426
 31
0.0
 11
6.1763705024
 21
5.492862705
 31
0.0
 11
6.1719554739
 21
5.4949069542
 31
0.0
 11
6.167418018
 21
5.4967736815
 31
0.0
 11
6.1627555831
 21
5.498433778
 31
0.0
 11
6.1603767088
 21
5.4991772423
 31
0.0
 11
6.1579665379
 21
5.4998580243
 31
0.0
 11
6.1530617176
 21
5.5010157021
 31
0.0
 11
6.1505720699
 21
5.5014846428
 31
0.0
 11
6.1480609318
 21
5.5018750145
 31
0.0
 11
6.1455308043
 21
5.5021828397
 31
0.0
 11
6.1429841881
 21
5.5024041407
 31
0.0
 11
6.1417054783
 21
5.5024811017
 31
0.0
 11
6.1404235926
 21
5.5025349812
 31
0.0
 11
6.1378520155
 21
5.502573811
 31
0.0
 11
6.1352732023
 21
5.5025227328
 31
0.0
 11
6.1326909614
 21
5.502384158
 31
0.0
 11
6.1301091014
 21
5.5021604982
 31
0.0
 11
6.1275314308
 21
5.5018541647
 31
0.0
 11
6.1249617582
 21
5.5014675691
 31
0.0
 11
6.122403892
 21
5.5010031228
 31
0.0
 11
6.1198616402
 21
5.5004632377
 31
0.0
 11
6.1173380511
 21
5.4998507382
 31
0.0
 11
6.1148339703
 21
5.499169645
 31
0.0
 11
6.1123498463
 21
5.4984241949
 31
0.0
 11
6.1074432621
 21
5.4967571697
 31
0.0
 11
6.1026218862
 21
5.4948835552
 31
0.0
 11
6.1002442725
 21
5.4938798683
 31
0.0
 11
6.0978892834
 21
5.4928371931
 31
0.0
 11
6.0955568941
 21
5.4917587109
 31
0.0
 11
6.0932466655
 21
5.4906466797
 31
0.0
 11
6.0886908728
 21
5.4883308654
 31
0.0
 11
6.0842182704
 21
5.4859075409
 31
0.0
 11
6.079825223
 21
5.4833944959
 31
0.0
 11
6.0755083281
 21
5.4808079706
 31
0.0
 11
6.0712649353
 21
5.4781591911
 31
0.0
 11
6.0629886616
 21
5.4727157271
 31
0.0
 11
6.0549773483
 21
5.4671412623
 31
0.0
 11
6.0472157399
 21
5.4614944565
 31
0.0
 11
6.0396919543
 21
5.4558262023
 31
0.0
 11
6.0324042091
 21
5.450174515
 31
0.0
 11
6.0253547648
 21
5.4445727714
 31
0.0
 11
6.0185516887
 21
5.4390490923
 31
0.0
 11
6.0120066395
 21
5.4336303927
 31
0.0
 11
6.0057397443
 21
5.4283442334
 31
0.0
  0
SPLINE
  5
282
100
AcDbEntity
  8
0
100
AcDbSpline
 62
6
  6
CONTINUOUS
 70
0
 71
3
 72
61
 73
57
 74
55
 42
0.0000001
 43
0.0000001
 44
0.0000000001
 12
0.0045281509
 22
0.0871176475
 32
0.0
 13
-0.068157213
 23
-0.0544479841
 33
0.0
 40
0.0
 40
0.0
 40
0.0
 40
0.0
 40
0.0068112806
 40
0.009952776
 40
0.0129170525
 40
0.0157046534
 40
0.0183174044
 40
0.0207588088
 40
0.0230345712
 40
0.0251532849
 40
0.0271272958
 40
0.0307081147
 40
0.0323744813
 40
0.03400119
 40
0.0356288406
 40
0.0372998297
 40
0.0390528747
 40
0.0409202246
 40
0.0429273558
 40
0.0450936553
 40
0.0474334934
 40
0.0499573036
 40
0.0526725056
 40
0.0555842333
 40
0.0586958887
 40
0.0620095538
 40
0.0692456874
 40
0.0772936975
 40
0.0861456023
 40
0.0957861281
 40
0.1061881755
 40
0.1173197551
 40
0.1291467528
 40
0.1416335721
 40
0.1547435673
 40
0.1684393449
 40
0.1826829793
 40
0.1974361728
 40
0.2126631725
 40
0.244451171
 40
0.2778908364
 40
0.3128296436
 40
0.3491155271
 40
0.3866097898
 40
0.4252199511
 40
0.4648648133
 40
0.5054643206
 40
0.5469413932
 40
0.5892370707
 40
0.6323030892
 40
0.6760923222
 40
0.720559038
 40
0.7656673349
 40
0.8113920549
 40
0.9045940184
 40
1.0
 40
1.0
 40
1.0
 40
1.0
 10
7.0105932847
 20
5.4997333603
 30
0.0
 10
7.0106035656
 20
5.4999311545
 30
0.0
 10
7.0106110822
 20
5.5002207222
 30
0.0
 10
7.0106008828
 20
5.5005962618
 30
0.0
 10
7.0105837128
 20
5.5008543741
 30
0.0
 10
7.0105567385
 20
5.5010961965
 30
0.0
 10
7.0105198593
 20
5.5013213354
 30
0.0
 10
7.0104729653
 20
5.5015294078
 30
0.0
 10
7.0104159563
 20
5.5017200083
 30
0.0
 10
7.0103486305
 20
5.5018928332
 30
0.0
 10
7.0102483622
 20
5.5020923254
 30
0.0
 10
7.0101235852
 20
5.5022646364
 30
0.0
 10
7.0099729499
 20
5.5023971118
 30
0.0
 10
7.0098513965
 20
5.5024738196
 30
0.0
 10
7.0097186938
 20
5.5025294093
 30
0.0
 10
7.0095752485
 20
5.5025637004
 30
0.0
 10
7.0094214822
 20
5.5025771669
 30
0.0
 10
7.0092575959
 20
5.5025702559
 30
0.0
 10
7.0090836969
 20
5.5025433954
 30
0.0
 10
7.0088998443
 20
5.5024969397
 30
0.0
 10
7.0087060946
 20
5.502431192
 30
0.0
 10
7.0085025169
 20
5.5023464222
 30
0.0
 10
7.0082891956
 20
5.5022428833
 30
0.0
 10
7.0080662302
 20
5.50212082
 30
0.0
 10
7.0078337255
 20
5.5019804793
 30
0.0
 10
7.0075013142
 20
5.5017628309
 30
0.0
 10
7.0070636288
 20
5.5014446444
 30
0.0
 10
7.006516632
 20
5.5010045874
 30
0.0
 10
7.0059345175
 20
5.5004976367
 30
0.0
 10
7.0053185512
 20
5.49992605
 30
0.0
 10
7.0046695065
 20
5.4992931156
 30
0.0
 10
7.0039884192
 20
5.4986022759
 30
0.0
 10
7.003276355
 20
5.4978570465
 30
0.0
 10
7.0025343855
 20
5.4970609544
 30
0.0
 10
7.0017635812
 20
5.4962175383
 30
0.0
 10
7.0009650129
 20
5.4953303442
 30
0.0
 10
7.00013975
 20
5.4944029231
 30
0.0
 10
6.9992888085
 20
5.4934387683
 30
0.0
 10
6.9981038401
 20
5.4920889882
 30
0.0
 10
6.996565088
 20
5.4903267495
 30
0.0
 10
6.9946505617
 20
5.488131686
 30
0.0
 10
6.9926456388
 20
5.4858419168
 30
0.0
 10
6.9905531678
 20
5.4834721176
 30
0.0
 10
6.9883749635
 20
5.4810356701
 30
0.0
 10
6.9861137161
 20
5.4785425535
 30
0.0
 10
6.9837709611
 20
5.4760016022
 30
0.0
 10
6.9813480607
 20
5.4734213373
 30
0.0
 10
6.978845849
 20
5.4708100471
 30
0.0
 10
6.9762655968
 20
5.4681744858
 30
0.0
 10
6.9736084078
 20
5.4655204745
 30
0.0
 10
6.9708751114
 20
5.4628536852
 30
0.0
 10
6.9680662767
 20
5.4601796861
 30
0.0
 10
6.9651825002
 20
5.4575032245
 30
0.0
 10
6.9612133745
 20
5.4539136038
 30
0.0
 10
6.9560690867
 20
5.4494438426
 30
0.0
 10
6.9518314298
 20
5.4459610082
 30
0.0
 10
6.9496638945
 20
5.4442294537
 30
0.0
 11
7.0105932847
 21
5.4997333603
 31
0.0
 11
7.0106066526
 21
5.5003273936
 31
0.0
 11
7.0105988985
 21
5.5006013331
 31
0.0
 11
7.0105813946
 21
5.5008593294
 31
0.0
 11
7.0105540477
 21
5.5011009638
 31
0.0
 11
7.0105167645
 21
5.5013258178
 31
0.0
 11
7.0104694517
 21
5.5015334726
 31
0.0
 11
7.010412016
 21
5.5017235094
 31
0.0
 11
7.0103443642
 21
5.5018955096
 31
0.0
 11
7.0102664029
 21
5.5020490544
 31
0.0
 11
7.010079179
 21
5.5022991034
 31
0.0
 11
7.0099697297
 21
5.5023947701
 31
0.0
 11
7.009849598
 21
5.5024703066
 31
0.0
 11
7.0097186947
 21
5.5025253073
 31
0.0
 11
7.0095770369
 21
5.5025596833
 31
0.0
 11
7.0094247508
 21
5.5025736732
 31
0.0
 11
7.0092619679
 21
5.502567531
 31
0.0
 11
7.0090888196
 21
5.5025415104
 31
0.0
 11
7.0089054372
 21
5.5024958654
 31
0.0
 11
7.0087119522
 21
5.5024308498
 31
0.0
 11
7.0085084959
 21
5.5023467174
 31
0.0
 11
7.0082951998
 21
5.502243722
 31
0.0
 11
7.0080721952
 21
5.5021221175
 31
0.0
 11
7.0078396136
 21
5.5019821578
 31
0.0
 11
7.0075975863
 21
5.5018240967
 31
0.0
 11
7.0070857202
 21
5.5014546855
 31
0.0
 11
7.0065376483
 21
5.5010159149
 31
0.0
 11
7.0059544217
 21
5.5005098155
 31
0.0
 11
7.0053370936
 21
5.4999386969
 31
0.0
 11
7.0046867256
 21
5.4993058921
 31
0.0
 11
7.0040043809
 21
5.4986149687
 31
0.0
 11
7.0032911227
 21
5.4978694945
 31
0.0
 11
7.0025480143
 21
5.4970730371
 31
0.0
 11
7.0017761189
 21
5.4962291644
 31
0.0
 11
7.0009764998
 21
5.4953414438
 31
0.0
 11
7.0001502202
 21
5.4944134433
 31
0.0
 11
6.9992983434
 21
5.4934487304
 31
0.0
 11
6.9984218364
 21
5.4924506326
 31
0.0
 11
6.9965968672
 21
5.4903627617
 31
0.0
 11
6.9946785239
 21
5.4881651418
 31
0.0
 11
6.9926698856
 21
5.4858727544
 31
0.0
 11
6.9905740318
 21
5.4835005814
 31
0.0
 11
6.9883937268
 21
5.4810624382
 31
0.0
 11
6.9861305888
 21
5.478567893
 31
0.0
 11
6.983785975
 21
5.4760255476
 31
0.0
 11
6.9813612425
 21
5.4734440038
 31
0.0
 11
6.9788577174
 21
5.4708316892
 31
0.0
 11
6.9762764157
 21
5.4681952948
 31
0.0
 11
6.9736181751
 21
5.4655405131
 31
0.0
 11
6.9708838312
 21
5.4628730249
 31
0.0
 11
6.9680742132
 21
5.4601984797
 31
0.0
 11
6.9651899656
 21
5.457521615
 31
0.0
 11
6.962231523
 21
5.4548461335
 31
0.0
 11
6.9560937456
 21
5.4495139049
 31
0.0
 11
6.9496638945
 21
5.4442294537
 31
0.0
  0
SPLINE
  5
283
100
AcDbEntity
  8
0
100
AcDbSpline
 62
6
  6
CONTINUOUS
 70
0
 71
3
 72
63
 73
59
 74
57
 42
0.0000001
 43
0.0000001
 44
0.0000000001
 12
0.0093419074
 22
0.1534007352
 32
0.0
 13
-0.1308292319
 23
-0.0806397476
 33
0.0
 40
0.0
 40
0.0
 40
0.0
 40
0.0
 40
0.0116464442
 40
0.0230652008
 40
0.0342407662
 40
0.0451596976
 40
0.055811036
 40
0.0661868109
 40
0.0762787129
 40
0.0860646639
 40
0.0955248582
 40
0.1046499107
 40
0.113443755
 40
0.1219271343
 40
0.1301409053
 40
0.1381421593
 40
0.1420883259
 40
0.1460125225
 40
0.1499285471
 40
0.1538518002
 40
0.1577991585
 40
0.1617887891
 40
0.1658399145
 40
0.1699725414
 40
0.1742069455
 40
0.1785608236
 40
0.183048421
 40
0.1876814405
 40
0.1974164146
 40
0.2078215505
 40
0.2189236641
 40
0.2307307401
 40
0.2432368358
 40
0.2564242111
 40
0.2702637326
 40
0.2847175294
 40
0.2997412762
 40
0.3152858574
 40
0.3312999295
 40
0.3477478238
 40
0.3646055562
 40
0.3818483915
 40
0.4173864471
 40
0.4356292915
 40
0.4541585855
 40
0.4920172743
 40
0.5308447747
 40
0.550585268
 40
0.5705269707
 40
0.6109763763
 40
0.6521191735
 40
0.6938858095
 40
0.7362239115
 40
0.7790886375
 40
0.8224379778
 40
0.8662372
 40
0.9104546887
 40
1.0
 40
1.0
 40
1.0
 40
1.0
 10
6.9520359583
 20
5.4805606946
 30
0.0
 10
6.9520722249
 20
5.481156219
 30
0.0
 10
6.9521247904
 20
5.4823369064
 30
0.0
 10
6.9521416208
 20
5.4840912847
 30
0.0
 10
6.9520943087
 20
5.4858078859
 30
0.0
 10
6.9519814516
 20
5.4874820726
 30
0.0
 10
6.9518016546
 20
5.4891092499
 30
0.0
 10
6.9515534952
 20
5.4906846068
 30
0.0
 10
6.9512359792
 20
5.492202305
 30
0.0
 10
6.9508463847
 20
5.493654778
 30
0.0
 10
6.9503818894
 20
5.495033108
 30
0.0
 10
6.9498396833
 20
5.4963281227
 30
0.0
 10
6.9492168142
 20
5.4975306124
 30
0.0
 10
6.9485101607
 20
5.4986313133
 30
0.0
 10
6.9477167901
 20
5.4996201792
 30
0.0
 10
6.9469780908
 20
5.5003461921
 30
0.0
 10
6.9463450619
 20
5.5008572719
 30
0.0
 10
6.9458504283
 20
5.5012043988
 30
0.0
 10
6.9453338282
 20
5.5015156521
 30
0.0
 10
6.9447952133
 20
5.5017897269
 30
0.0
 10
6.9442345663
 20
5.5020252924
 30
0.0
 10
6.9436518761
 20
5.5022210348
 30
0.0
 10
6.9430471414
 20
5.5023756311
 30
0.0
 10
6.9424203793
 20
5.5024878314
 30
0.0
 10
6.941771756
 20
5.5025561428
 30
0.0
 10
6.9411018889
 20
5.5025809772
 30
0.0
 10
6.9404114149
 20
5.5025632973
 30
0.0
 10
6.9394483868
 20
5.5024827411
 30
0.0
 10
6.9381941578
 20
5.502274712
 30
0.0
 10
6.9366433055
 20
5.501872433
 30
0.0
 10
6.9350271104
 20
5.5013198924
 30
0.0
 10
6.9333507047
 20
5.5006234029
 30
0.0
 10
6.9316194157
 20
5.4997889188
 30
0.0
 10
6.9298365889
 20
5.4988269942
 30
0.0
 10
6.92800516
 20
5.4977484994
 30
0.0
 10
6.9261282279
 20
5.4965641837
 30
0.0
 10
6.9242089125
 20
5.4952848719
 30
0.0
 10
6.9222503766
 20
5.4939212904
 30
0.0
 10
6.9202547845
 20
5.4924838783
 30
0.0
 10
6.9182241924
 20
5.4909803725
 30
0.0
 10
6.9161600267
 20
5.4894167191
 30
0.0
 10
6.9133355697
 20
5.4872373758
 30
0.0
 10
6.910478499
 20
5.4849844001
 30
0.0
 10
6.9075819118
 20
5.4826753299
 30
0.0
 10
6.9045980012
 20
5.4802850877
 30
0.0
 10
6.9007979165
 20
5.4772270509
 30
0.0
 10
6.8969481383
 20
5.4741317915
 30
0.0
 10
6.8938069488
 20
5.4716200608
 30
0.0
 10
6.8905947353
 20
5.4690641293
 30
0.0
 10
6.8865106399
 20
5.4658430671
 30
0.0
 10
6.8815191825
 20
5.4619672509
 30
0.0
 10
6.876414453
 20
5.4580799646
 30
0.0
 10
6.8711984632
 20
5.4541937384
 30
0.0
 10
6.8658727446
 20
5.4503197533
 30
0.0
 10
6.8604381441
 20
5.446469056
 30
0.0
 10
6.8548964078
 20
5.4426506095
 30
0.0
 10
6.8473355477
 20
5.4375931772
 30
0.0
 10
6.8415571302
 20
5.4339074666
 30
0.0
 10
6.8376520821
 20
5.4315004961
 30
0.0
 11
6.9520359583
 21
5.4805606946
 31
0.0
 11
6.9521147978
 21
5.4823488404
 31
0.0
 11
6.9521307569
 21
5.4841036586
 31
0.0
 11
6.9520824448
 21
5.4858204949
 31
0.0
 11
6.9519684707
 21
5.4874946951
 31
0.0
 11
6.9517874439
 21
5.4891216048
 31
0.0
 11
6.9515379734
 21
5.4906965696
 31
0.0
 11
6.9512185022
 21
5.4922142837
 31
0.0
 11
6.9508266708
 21
5.4936662973
 31
0.0
 11
6.950359878
 21
5.4950432136
 31
0.0
 11
6.9498155226
 21
5.4963356358
 31
0.0
 11
6.9491910034
 21
5.4975341672
 31
0.0
 11
6.9484837191
 21
5.4986294109
 31
0.0
 11
6.9476911683
 21
5.4996119318
 31
0.0
 11
6.9468121272
 21
5.5004718041
 31
0.0
 11
6.9463400659
 21
5.5008525395
 31
0.0
 11
6.9458462571
 21
5.5011987624
 31
0.0
 11
6.9453306607
 21
5.5015091887
 31
0.0
 11
6.9447932366
 21
5.5017825344
 31
0.0
 11
6.9442339447
 21
5.5020175155
 31
0.0
 11
6.9436527447
 21
5.5022128479
 31
0.0
 11
6.9430495966
 21
5.5023672476
 31
0.0
 11
6.9424244602
 21
5.5024794306
 31
0.0
 11
6.9417773458
 21
5.5025482552
 31
0.0
 11
6.9411087096
 21
5.502573838
 31
0.0
 11
6.9404192403
 21
5.502556952
 31
0.0
 11
6.9397096286
 21
5.5024983754
 31
0.0
 11
6.9382327408
 21
5.5022592647
 31
0.0
 11
6.936683572
 21
5.5018627336
 31
0.0
 11
6.9350676478
 21
5.5013150099
 31
0.0
 11
6.9333904939
 21
5.5006223211
 31
0.0
 11
6.9316573808
 21
5.4997914199
 31
0.0
 11
6.9298720849
 21
5.4988321313
 31
0.0
 11
6.9280378407
 21
5.4977553946
 31
0.0
 11
6.926157882
 21
5.496572151
 31
0.0
 11
6.9242354425
 21
5.4952933415
 31
0.0
 11
6.922273756
 21
5.4939299071
 31
0.0
 11
6.9202759555
 21
5.4924925789
 31
0.0
 11
6.9182438008
 21
5.4909892204
 31
0.0
 11
6.9161780577
 21
5.4894256209
 31
0.0
 11
6.9140794703
 21
5.4878075234
 31
0.0
 11
6.9097867379
 21
5.4844308067
 31
0.0
 11
6.9075940698
 21
5.48268362
 31
0.0
 11
6.9053712723
 21
5.480903616
 31
0.0
 11
6.9008363197
 21
5.4772584914
 31
0.0
 11
6.8961838922
 21
5.4735218601
 31
0.0
 11
6.8938142479
 21
5.4716274402
 31
0.0
 11
6.8914159183
 21
5.4697193938
 31
0.0
 11
6.8865337392
 21
5.4658711797
 31
0.0
 11
6.8815384179
 21
5.4619946548
 31
0.0
 11
6.8764310337
 21
5.4581066046
 31
0.0
 11
6.8712127802
 21
5.4542197883
 31
0.0
 11
6.8658848958
 21
5.4503453924
 31
0.0
 11
6.8604486454
 21
5.4464942507
 31
0.0
 11
6.8549054201
 21
5.442675509
 31
0.0
 11
6.8492566496
 21
5.4388978049
 31
0.0
 11
6.8376520821
 21
5.4315004961
 31
0.0
  0
SPLINE
  5
284
100
AcDbEntity
  8
0
100
AcDbSpline
 62
6
  6
CONTINUOUS
 70
0
 71
3
 72
73
 73
69
 74
67
 42
0.0000001
 43
0.0000001
 44
0.0000000001
 12
0.0145353252
 22
0.2128527913
 32
0.0
 13
-0.184377574
 23
-0.1073428928
 33
0.0
 40
0.0
 40
0.0
 40
0.0
 40
0.0
 40
0.0227302753
 40
0.0340944425
 40
0.04545974
 40
0.0568278623
 40
0.0681945951
 40
0.0908953799
 40
0.1022249828
 40
0.1135360933
 40
0.1248283497
 40
0.1360967347
 40
0.1585163001
 40
0.1696663719
 40
0.1807779011
 40
0.1863228969
 40
0.1918614429
 40
0.2029141971
 40
0.2139393284
 40
0.22495543
 40
0.2360003561
 40
0.2415527689
 40
0.247135208
 40
0.2527543373
 40
0.2584173711
 40
0.2641325705
 40
0.2699092405
 40
0.27575771
 40
0.2816892966
 40
0.287716256
 40
0.2938517166
 40
0.3001087747
 40
0.3064964939
 40
0.3196833789
 40
0.3334434231
 40
0.3405411526
 40
0.3477815986
 40
0.3551622467
 40
0.3626798176
 40
0.3703319996
 40
0.3781167456
 40
0.3940699258
 40
0.4105058027
 40
0.427378295
 40
0.4359616032
 40
0.444633441
 40
0.4622281884
 40
0.4801395266
 40
0.4983429204
 40
0.5168116578
 40
0.5261367262
 40
0.5355177353
 40
0.5544392802
 40
0.5735606969
 40
0.5928661176
 40
0.6123393106
 40
0.6319641975
 40
0.6517281711
 40
0.6716204647
 40
0.7117470103
 40
0.7522618766
 40
0.7930979082
 40
0.8136168611
 40
0.8341931204
 40
0.875489899
 40
0.9169343128
 40
0.9584635106
 40
1.0
 40
1.0
 40
1.0
 40
1.0
 10
6.8393244146
 20
5.4537690255
 30
0.0
 10
6.8394345452
 20
5.4553817597
 30
0.0
 10
6.8395136705
 20
5.4578078554
 30
0.0
 10
6.8394456413
 20
5.4610405307
 30
0.0
 10
6.8393076381
 20
5.4634620452
 30
0.0
 10
6.8390826119
 20
5.4658772206
 30
0.0
 10
6.8386649977
 20
5.4690818567
 30
0.0
 10
6.8380669487
 20
5.4722584113
 30
0.0
 10
6.8372812013
 20
5.4753864553
 30
0.0
 10
6.8365968771
 20
5.4777013296
 30
0.0
 10
6.8358158637
 20
5.4799809082
 30
0.0
 10
6.8346451908
 20
5.4829585751
 30
0.0
 10
6.833268047
 20
5.4858418376
 30
0.0
 10
6.831670889
 20
5.4885903397
 30
0.0
 10
6.8305802639
 20
5.4902414688
 30
0.0
 10
6.8296509348
 20
5.4915175902
 30
0.0
 10
6.8286844394
 20
5.4927605048
 30
0.0
 10
6.8274020084
 20
5.4942502262
 30
0.0
 10
6.8257380525
 20
5.4959179247
 30
0.0
 10
6.8239449736
 20
5.4974457012
 30
0.0
 10
6.8223413883
 20
5.4985844591
 30
0.0
 10
6.8209933331
 20
5.4994044523
 30
0.0
 10
6.8199459513
 20
5.499973494
 30
0.0
 10
6.8188644827
 20
5.5004931594
 30
0.0
 10
6.8177493709
 20
5.500961096
 30
0.0
 10
6.8166011297
 20
5.5013749178
 30
0.0
 10
6.8154202664
 20
5.5017322423
 30
0.0
 10
6.8142072953
 20
5.5020306862
 30
0.0
 10
6.8129627335
 20
5.5022678689
 30
0.0
 10
6.8116871031
 20
5.5024414082
 30
0.0
 10
6.8103809823
 20
5.5025489345
 30
0.0
 10
6.8090453708
 20
5.5025880286
 30
0.0
 10
6.8072080711
 20
5.5025507013
 30
0.0
 10
6.8048438668
 20
5.5023361741
 30
0.0
 10
6.8024558997
 20
5.5019228523
 30
0.0
 10
6.800507327
 20
5.5014787557
 30
0.0
 10
6.7990134058
 20
5.5010853659
 30
0.0
 10
6.7975039833
 20
5.5006368289
 30
0.0
 10
6.7959807263
 20
5.500134594
 30
0.0
 10
6.7944448325
 20
5.4995809672
 30
0.0
 10
6.7923642668
 20
5.4987713534
 30
0.0
 10
6.7897384554
 20
5.4976430609
 30
0.0
 10
6.7865743481
 20
5.4961377144
 30
0.0
 10
6.7839254808
 20
5.4947733152
 30
0.0
 10
6.7817895849
 20
5.4936206641
 30
0.0
 10
6.7796222296
 20
5.4924184819
 30
0.0
 10
6.7768993551
 20
5.4908506665
 30
0.0
 10
6.7736239186
 20
5.4888854174
 30
0.0
 10
6.7703254943
 20
5.4868386059
 30
0.0
 10
6.7675671495
 20
5.485080097
 30
0.0
 10
6.7653480949
 20
5.4836430383
 30
0.0
 10
6.763108079
 20
5.482179146
 30
0.0
 10
6.7602953903
 20
5.4803181018
 30
0.0
 10
6.7569078215
 20
5.4780470118
 30
0.0
 10
6.7534983569
 20
5.4757382234
 30
0.0
 10
6.7500669152
 20
5.4733980842
 30
0.0
 10
6.7466130574
 20
5.4710329546
 30
0.0
 10
6.7431368726
 20
5.4686476827
 30
0.0
 10
6.7384588873
 20
5.4654369207
 30
0.0
 10
6.7325597717
 20
5.4613974914
 30
0.0
 10
6.7254088083
 20
5.4565501238
 30
0.0
 10
6.7193856333
 20
5.4525243831
 30
0.0
 10
6.7145211773
 20
5.4493170515
 30
0.0
 10
6.7096145738
 20
5.4461142336
 30
0.0
 10
6.7034323678
 20
5.4421432428
 30
0.0
 10
6.695943902
 20
5.4374496043
 30
0.0
 10
6.6883838745
 20
5.4328392502
 30
0.0
 10
6.683299968
 20
5.429830449
 30
0.0
 10
6.680747169
 20
5.4283442334
 30
0.0
 11
6.8393244146
 21
5.4537690255
 31
0.0
 11
6.8394822023
 21
5.4586159282
 31
0.0
 11
6.8394311497
 21
5.4610399188
 31
0.0
 11
6.8392931511
 21
5.463460758
 31
0.0
 11
6.8390678668
 21
5.4658756443
 31
0.0
 11
6.8387540694
 21
5.4682803319
 31
0.0
 11
6.8378542159
 21
5.4730391808
 31
0.0
 11
6.8372647944
 21
5.4753833683
 31
0.0
 11
6.836580133
 21
5.4776974155
 31
0.0
 11
6.8357985353
 21
5.479976293
 31
0.0
 11
6.8349177483
 21
5.482213228
 31
0.0
 11
6.8328465759
 21
5.4865247316
 31
0.0
 11
6.8316500981
 21
5.4885807895
 31
0.0
 11
6.8303422976
 21
5.4905580441
 31
0.0
 11
6.8296456987
 21
5.4915142231
 31
0.0
 11
6.8289200631
 21
5.4924468149
 31
0.0
 11
6.8273794642
 21
5.4942320703
 31
0.0
 11
6.8257160106
 21
5.4958951232
 31
0.0
 11
6.8239252012
 21
5.4974172156
 31
0.0
 11
6.8220025349
 21
5.4987795895
 31
0.0
 11
6.8209903492
 21
5.4993950202
 31
0.0
 11
6.8199437626
 21
5.4999634826
 31
0.0
 11
6.8188631605
 21
5.5004826157
 31
0.0
 11
6.8177490482
 21
5.5009500563
 31
0.0
 11
6.8166019314
 21
5.5013634411
 31
0.0
 11
6.8154223156
 21
5.5017204068
 31
0.0
 11
6.8142107063
 21
5.5020185903
 31
0.0
 11
6.8129676089
 21
5.5022556284
 31
0.0
 11
6.8116935292
 21
5.5024291578
 31
0.0
 11
6.8103889724
 21
5.5025368153
 31
0.0
 11
6.8090546385
 21
5.5025768373
 31
0.0
 11
6.80769209
 21
5.5025501235
 31
0.0
 11
6.804889558
 21
5.5023030471
 31
0.0
 11
6.8019957941
 21
5.5018087024
 31
0.0
 11
6.8005192058
 21
5.5014729032
 31
0.0
 11
6.7990252161
 21
5.5010802055
 31
0.0
 11
6.7975156273
 21
5.5006322488
 31
0.0
 11
6.7959921984
 21
5.5001307119
 31
0.0
 11
6.79445609
 21
5.4995778162
 31
0.0
 11
6.7929080261
 21
5.498976179
 31
0.0
 11
6.7897788883
 21
5.4976371857
 31
0.0
 11
6.7866104978
 21
5.4961347433
 31
0.0
 11
6.7834085671
 21
5.4944898629
 31
0.0
 11
6.7817968093
 21
5.4936205745
 31
0.0
 11
6.7801787501
 21
5.4927234447
 31
0.0
 11
6.7769245349
 21
5.4908522963
 31
0.0
 11
6.7736466626
 21
5.4888880344
 31
0.0
 11
6.7703456972
 21
5.4868419414
 31
0.0
 11
6.767022203
 21
5.4847252994
 31
0.0
 11
6.7653521838
 21
5.4836440482
 31
0.0
 11
6.7636767276
 21
5.482549267
 31
0.0
 11
6.7603094979
 21
5.4803225672
 31
0.0
 11
6.7569204474
 21
5.4780516936
 31
0.0
 11
6.7535094984
 21
5.475743058
 31
0.0
 11
6.7500765735
 21
5.4734030721
 31
0.0
 11
6.7466215921
 21
5.4710379985
 31
0.0
 11
6.7431444459
 21
5.4686527751
 31
0.0
 11
6.7396450124
 21
5.466251645
 31
0.0
 11
6.7325787917
 21
5.4614186131
 31
0.0
 11
6.7254224764
 21
5.456570707
 31
0.0
 11
6.7181776695
 21
5.4517315897
 31
0.0
 11
6.7145227404
 21
5.4493220989
 31
0.0
 11
6.7108465705
 21
5.4469226985
 31
0.0
 11
6.7034324944
 21
5.4421626297
 31
0.0
 11
6.6959395148
 21
5.4374681587
 31
0.0
 11
6.6883742418
 21
5.432856255
 31
0.0
 11
6.680747169
 21
5.4283442334
 31
0.0
  0
SPLINE
  5
285
100
AcDbEntity
  8
0
100
AcDbSpline
 62
6
  6
CONTINUOUS
 70
0
 71
3
 72
15
 73
11
 74
9
 42
0.0000001
 43
0.0000001
 44
0.0000000001
 12
-0.1389665872
 22
-0.3461781748
 32
0.0
 13
-0.1869187868
 23
-0.3228194668
 33
0.0
 40
0.0
 40
0.0
 40
0.0
 40
0.0
 40
0.1254172056
 40
0.250635323
 40
0.3756941431
 40
0.500633609
 40
0.6254937786
 40
0.7503147859
 40
0.8751368027
 40
1.0
 40
1.0
 40
1.0
 40
1.0
 10
6.4829622102
 20
4.5394651126
 30
0.0
 10
6.4771526098
 20
4.5249928795
 30
0.0
 10
6.4652860616
 20
4.4961736102
 30
0.0
 10
6.4467325231
 20
4.4532984665
 30
0.0
 10
6.4274410164
 20
4.4108153208
 30
0.0
 10
6.4074116149
 20
4.3687243626
 30
0.0
 10
6.3866443108
 20
4.32702557
 30
0.0
 10
6.3651390885
 20
4.2857189238
 30
0.0
 10
6.3428960511
 20
4.2448046034
 30
0.0
 10
6.3275794105
 20
4.2177968747
 30
0.0
 10
6.3197996514
 20
4.2043607844
 30
0.0
 11
6.4829622102
 21
4.5394651126
 31
0.0
 11
6.4651486827
 21
4.4962048407
 31
0.0
 11
6.4465975003
 21
4.4533366348
 31
0.0
 11
6.427308663
 21
4.4108604948
 31
0.0
 11
6.4072821706
 21
4.3687764208
 31
0.0
 11
6.3865180232
 21
4.3270844127
 31
0.0
 11
6.3650162209
 21
4.2857844706
 31
0.0
 11
6.3427767636
 21
4.2448765945
 31
0.0
 11
6.3197996514
 21
4.2043607844
 31
0.0
  0
SPLINE
  5
286
100
AcDbEntity
  8
0
100
AcDbSpline
 62
6
  6
CONTINUOUS
 70
0
 71
3
 72
10
 73
6
 74
4
 42
0.0000001
 43
0.0000001
 44
0.0000000001
 12
-0.0337626958
 22
0.0494096065
 32
0.0
 13
-0.03312515
 23
0.0498392745
 33
0.0
 40
0.0
 40
0.0
 40
0.0
 40
0.0
 40
0.2485224615
 40
0.4981944769
 40
1.0
 40
1.0
 40
1.0
 40
1.0
 10
5.6545994398
 20
4.1547751148
 30
0.0
 10
5.6518025104
 20
4.1588682471
 30
0.0
 10
5.6462000277
 20
4.1670764008
 30
0.0
 10
5.634992799
 20
4.1835782972
 30
0.0
 10
5.6266372783
 20
4.1960242433
 30
0.0
 10
5.6210964839
 20
4.2043607844
 30
0.0
 11
5.6545994398
 21
4.1547751148
 31
0.0
 11
5.6462177089
 21
4.167060696
 31
0.0
 11
5.637825853
 21
4.1794225991
 31
0.0
 11
5.6210964839
 21
4.2043607844
 31
0.0
  0
SPLINE
  5
287
100
AcDbEntity
  8
0
100
AcDbSpline
 62
6
  6
CONTINUOUS
 70
0
 71
3
 72
9
 73
5
 74
3
 42
0.0000001
 43
0.0000001
 44
0.0000000001
 12
0.0357337719
 22
-0.0502371482
 32
0.0
 13
0.0376306816
 23
-0.0488324207
 33
0.0
 40
0.0
 40
0.0
 40
0.0
 40
0.0
 40
0.4994384963
 40
1.0
 40
1.0
 40
1.0
 40
1.0
 10
5.6210964839
 20
4.2043607844
 30
0.0
 10
5.6270454243
 20
4.1959973292
 30
0.0
 10
5.6390926485
 20
4.1793478938
 30
0.0
 10
5.6514454502
 20
4.1629229914
 30
0.0
 10
5.6577242737
 20
4.1547751148
 30
0.0
 11
5.6210964839
 21
4.2043607844
 31
0.0
 11
5.6391553423
 21
4.1794225985
 31
0.0
 11
5.6577242737
 21
4.1547751148
 31
0.0
  0
LINE
  5
288
100
AcDbEntity
  8
0
100
AcDbLine
 62
6
  6
CONTINUOUS
 10
5.7181010031
 20
4.1547751148
 11
5.6916798373
 21
4.2043607844
  0
SPLINE
  5
289
100
AcDbEntity
  8
0
100
AcDbSpline
 62
6
  6
CONTINUOUS
 70
0
 71
3
 72
9
 73
5
 74
3
 42
0.0000001
 43
0.0000001
 44
0.0000000001
 12
0.0298501588
 22
-0.0501918805
 32
0.0
 13
0.0320071735
 23
-0.0488446281
 33
0.0
 40
0.0
 40
0.0
 40
0.0
 40
0.0
 40
0.4996007281
 40
1.0
 40
1.0
 40
1.0
 40
1.0
 10
5.6916798373
 20
4.2043607844
 30
0.0
 10
5.696650891
 20
4.1960021511
 30
0.0
 10
5.7067445759
 20
4.1793565123
 30
0.0
 10
5.7171813968
 20
4.1629223869
 30
0.0
 10
5.7225201856
 20
4.1547751148
 30
0.0
 11
5.6916798373
 21
4.2043607844
 31
0.0
 11
5.7068221627
 21
4.1794225985
 31
0.0
 11
5.7225201856
 21
4.1547751148
 31
0.0
  0
LINE
  5
28A
100
AcDbEntity
  8
0
100
AcDbLine
 62
6
  6
CONTINUOUS
 10
5.8012046713
 20
4.1547751148
 11
5.7836658544
 21
4.2043607844
  0
SPLINE
  5
28B
100
AcDbEntity
  8
0
100
AcDbSpline
 62
6
  6
CONTINUOUS
 70
0
 71
3
 72
10
 73
6
 74
4
 42
0.0000001
 43
0.0000001
 44
0.0000000001
 12
0.0219068734
 22
-0.0500601829
 32
0.0
 13
0.0242533381
 23
-0.0489664028
 33
0.0
 40
0.0
 40
0.0
 40
0.0
 40
0.0
 40
0.2502760319
 40
0.5002513172
 40
1.0
 40
1.0
 40
1.0
 40
1.0
 10
5.7836658544
 20
4.2043607844
 30
0.0
 10
5.7854934428
 20
4.2001844964
 30
0.0
 10
5.7891821721
 20
4.1918524579
 30
0.0
 10
5.796719314
 20
4.1752704554
 30
0.0
 10
5.8025768511
 20
4.1629320799
 30
0.0
 10
5.8066170424
 20
4.1547751148
 30
0.0
 11
5.7836658544
 21
4.2043607844
 31
0.0
 11
5.7892048483
 21
4.1918566773
 31
0.0
 11
5.7948597223
 21
4.1794225985
 31
0.0
 11
5.8066170424
 21
4.1547751148
 31
0.0
  0
SPLINE
  5
28C
100
AcDbEntity
  8
0
100
AcDbSpline
 62
6
  6
CONTINUOUS
 70
0
 71
3
 72
11
 73
7
 74
5
 42
0.0000001
 43
0.0000001
 44
0.0000000001
 12
-0.0066085578
 22
0.0497078543
 32
0.0
 13
-0.007948227
 23
0.0495113068
 33
0.0
 40
0.0
 40
0.0
 40
0.0
 40
0.0
 40
0.2473581347
 40
0.496591265
 40
0.7475089584
 40
1.0
 40
1.0
 40
1.0
 40
1.0
 10
5.8982470667
 20
4.1547751148
 30
0.0
 10
5.8977021732
 20
4.1588736622
 30
0.0
 10
5.8965532418
 20
4.1670945469
 30
0.0
 10
5.8947075078
 20
4.1794522268
 30
0.0
 10
5.8927785895
 20
4.1918839838
 30
0.0
 10
5.8914547921
 20
4.2001937306
 30
0.0
 10
5.89078584
 20
4.2043607844
 30
0.0
 11
5.8982470667
 21
4.1547751148
 31
0.0
 11
5.896538415
 21
4.167060696
 31
0.0
 11
5.8947000321
 21
4.1794225992
 31
0.0
 11
5.8927742669
 21
4.1918566784
 31
0.0
 11
5.89078584
 21
4.2043607844
 31
0.0
  0
SPLINE
  5
28D
100
AcDbEntity
  8
0
100
AcDbSpline
 62
6
  6
CONTINUOUS
 70
0
 71
3
 72
11
 73
7
 74
5
 42
0.0000001
 43
0.0000001
 44
0.0000000001
 12
0.0124967745
 22
-0.0498518693
 32
0.0
 13
0.0148389898
 23
-0.0492055142
 33
0.0
 40
0.0
 40
0.0
 40
0.0
 40
0.0
 40
0.2510844128
 40
0.5013634967
 40
0.7509430006
 40
1.0
 40
1.0
 40
1.0
 40
1.0
 10
5.89078584
 20
4.2043607844
 30
0.0
 10
5.8918317551
 20
4.200188442
 30
0.0
 10
5.8939519817
 20
4.191865042
 30
0.0
 10
5.8972428988
 20
4.1794281309
 30
0.0
 10
5.9006590527
 20
4.1670609766
 30
0.0
 10
5.9030518641
 20
4.1588601074
 30
0.0
 10
5.9042837822
 20
4.1547751148
 30
0.0
 11
5.89078584
 21
4.2043607844
 31
0.0
 11
5.8939746838
 21
4.1918566773
 31
0.0
 11
5.897268407
 21
4.1794225985
 31
0.0
 11
5.9006910724
 21
4.1670606964
 31
0.0
 11
5.9042837822
 21
4.1547751148
 31
0.0
  0
SPLINE
  5
28E
100
AcDbEntity
  8
0
100
AcDbSpline
 62
6
  6
CONTINUOUS
 70
0
 71
3
 72
11
 73
7
 74
5
 42
0.0000001
 43
0.0000001
 44
0.0000000001
 12
0.0043205609
 22
0.0494988625
 32
0.0
 13
0.0023159912
 23
0.0496330617
 33
0.0
 40
0.0
 40
0.0
 40
0.0
 40
0.0
 40
0.2480369789
 40
0.4973790336
 40
0.7480322991
 40
1.0
 40
1.0
 40
1.0
 40
1.0
 10
6.0026149104
 20
4.1547751148
 30
0.0
 10
6.00297213
 20
4.1588676309
 30
0.0
 10
6.0036183367
 20
4.1670803963
 30
0.0
 10
6.004430145
 20
4.1794431529
 30
0.0
 10
6.0051345536
 20
4.1918776268
 30
0.0
 10
6.005545226
 20
4.2001921416
 30
0.0
 10
6.0057397443
 20
4.2043607844
 30
0.0
 11
6.0026149104
 21
4.1547751148
 31
0.0
 11
6.0035901751
 21
4.1670606959
 31
0.0
 11
6.004410257
 21
4.1794225993
 31
0.0
 11
6.0051183602
 21
4.1918566785
 31
0.0
 11
6.0057397443
 21
4.2043607844
 31
0.0
  0
SPLINE
  5
28F
100
AcDbEntity
  8
0
100
AcDbSpline
 62
6
  6
CONTINUOUS
 70
0
 71
3
 72
13
 73
9
 74
7
 42
0.0000001
 43
0.0000001
 44
0.0000000001
 12
0.0
 22
0.0252143508
 32
0.0
 13
-0.005808596
 23
0.0245361712
 33
0.0
 40
0.0
 40
0.0
 40
0.0
 40
0.0
 40
0.1272306574
 40
0.2543056664
 40
0.5068785718
 40
0.7559935349
 40
0.8787632262
 40
1.0
 40
1.0
 40
1.0
 40
1.0
 10
6.6552125243
 20
5.6597751148
 30
0.0
 10
6.6552125243
 20
5.6608444609
 30
0.0
 10
6.6551825492
 20
5.6629819813
 30
0.0
 10
6.6550036755
 20
5.6672388637
 30
0.0
 10
6.6545595333
 20
5.6725078024
 30
0.0
 10
6.6538187856
 20
5.6777069541
 30
0.0
 10
6.6530509717
 20
5.6817803013
 30
0.0
 10
6.6526099566
 20
5.6837835527
 30
0.0
 10
6.6523752181
 20
5.6847751148
 30
0.0
 11
6.6552125243
 21
5.6597751148
 31
0.0
 11
6.6551675707
 21
5.6629828382
 31
0.0
 11
6.6550329277
 21
5.6661841219
 31
0.0
 11
6.6544960743
 21
5.6725299153
 31
0.0
 11
6.6536070306
 21
5.678747952
 31
0.0
 11
6.6530331211
 21
5.6817898441
 31
0.0
 11
6.6523752181
 21
5.6847751148
 31
0.0
  0
SPLINE
  5
290
100
AcDbEntity
  8
0
100
AcDbSpline
 62
6
  6
CONTINUOUS
 70
0
 71
3
 72
11
 73
7
 74
5
 42
0.0000001
 43
0.0000001
 44
0.0000000001
 12
0.0023159912
 22
-0.0496330616
 32
0.0
 13
0.0043205608
 23
-0.0494988624
 33
0.0
 40
0.0
 40
0.0
 40
0.0
 40
0.0
 40
0.2519677198
 40
0.5026209872
 40
0.7519630249
 40
1.0
 40
1.0
 40
1.0
 40
1.0
 10
6.0057397443
 20
4.2043607844
 30
0.0
 10
6.0059342627
 20
4.2001921413
 30
0.0
 10
6.0063449259
 20
4.1918776257
 30
0.0
 10
6.0070493462
 20
4.1794431523
 30
0.0
 10
6.0078611651
 20
4.1670803969
 30
0.0
 10
6.0085073586
 20
4.1588676308
 30
0.0
 10
6.0088645782
 20
4.1547751148
 30
0.0
 11
6.0057397443
 21
4.2043607844
 31
0.0
 11
6.0063611236
 21
4.1918566773
 31
0.0
 11
6.007069234
 21
4.1794225985
 31
0.0
 11
6.0078893217
 21
4.1670606964
 31
0.0
 11
6.0088645782
 21
4.1547751148
 31
0.0
  0
SPLINE
  5
291
100
AcDbEntity
  8
0
100
AcDbSpline
 62
6
  6
CONTINUOUS
 70
0
 71
3
 72
13
 73
9
 74
7
 42
0.0000001
 43
0.0000001
 44
0.0000000001
 12
0.0
 22
0.0251321274
 32
0.0
 13
-0.0045858606
 23
0.0247101945
 33
0.0
 40
0.0
 40
0.0
 40
0.0
 40
0.0
 40
0.12764208
 40
0.2550894384
 40
0.5081413935
 40
0.757104558
 40
0.8794572605
 40
1.0
 40
1.0
 40
1.0
 40
1.0
 10
6.5148844878
 20
5.6597751148
 30
0.0
 10
6.5148844878
 20
5.6608444205
 30
0.0
 10
6.5148609986
 20
5.6629814844
 30
0.0
 10
6.5147208565
 20
5.667236335
 30
0.0
 10
6.5143732298
 20
5.6724999624
 30
0.0
 10
6.5137928062
 20
5.6777002436
 30
0.0
 10
6.513190529
 20
5.6817767935
 30
0.0
 10
6.5128444869
 20
5.6837822366
 30
0.0
 10
6.5126602228
 20
5.6847751148
 30
0.0
 11
6.5148844878
 21
5.6597751148
 31
0.0
 11
6.514849247
 21
5.6629828382
 31
0.0
 11
6.5147436956
 21
5.6661841219
 31
0.0
 11
6.5143228372
 21
5.6725299153
 31
0.0
 11
6.5136258843
 21
5.678747952
 31
0.0
 11
6.5131759763
 21
5.6817898441
 31
0.0
 11
6.5126602228
 21
5.6847751148
 31
0.0
  0
SPLINE
  5
292
100
AcDbEntity
  8
0
100
AcDbSpline
 62
6
  6
CONTINUOUS
 70
0
 71
3
 72
10
 73
6
 74
4
 42
0.0000001
 43
0.0000001
 44
0.0000000001
 12
0.0148389103
 22
0.0492052506
 32
0.0
 13
0.0124967076
 23
0.0498516023
 33
0.0
 40
0.0
 40
0.0
 40
0.0
 40
0.0
 40
0.2490583613
 40
0.4986391985
 40
1.0
 40
1.0
 40
1.0
 40
1.0
 10
6.1071957064
 20
4.1547751148
 30
0.0
 10
6.1084276246
 20
4.1588601078
 30
0.0
 10
6.1108204452
 20
4.1670609846
 30
0.0
 10
6.1153818817
 20
4.1835742549
 30
0.0
 10
6.1186051955
 20
4.1960295713
 30
0.0
 10
6.1206936486
 20
4.2043607844
 30
0.0
 11
6.1071957064
 21
4.1547751148
 31
0.0
 11
6.1107884226
 21
4.167060696
 31
0.0
 11
6.1142110837
 21
4.1794225991
 31
0.0
 11
6.1206936486
 21
4.2043607844
 31
0.0
  0
SPLINE
  5
293
100
AcDbEntity
  8
0
100
AcDbSpline
 62
6
  6
CONTINUOUS
 70
0
 71
3
 72
12
 73
8
 74
6
 42
0.0000001
 43
0.0000001
 44
0.0000000001
 12
0.0
 22
0.0250656239
 32
0.0
 13
-0.0032514617
 23
0.0248538428
 33
0.0
 40
0.0
 40
0.0
 40
0.0
 40
0.0
 40
0.2557197654
 40
0.509163467
 40
0.7580068845
 40
0.8800218216
 40
1.0
 40
1.0
 40
1.0
 40
1.0
 10
6.3646465279
 20
5.6597751148
 30
0.0
 10
6.3646465279
 20
5.6619117066
 30
0.0
 10
6.3645808991
 20
5.6661661775
 30
0.0
 10
6.3642865095
 20
5.6724935968
 30
0.0
 10
6.3638775072
 20
5.6776947583
 30
0.0
 10
6.3634527461
 20
5.6817738996
 30
0.0
 10
6.3632086319
 20
5.6837811419
 30
0.0
 10
6.363078597
 20
5.6847751148
 30
0.0
 11
6.3646465279
 21
5.6597751148
 31
0.0
 11
6.3645472806
 21
5.6661841219
 31
0.0
 11
6.3642506087
 21
5.6725299153
 31
0.0
 11
6.363759312
 21
5.678747952
 31
0.0
 11
6.3634421624
 21
5.6817898441
 31
0.0
 11
6.363078597
 21
5.6847751148
 31
0.0
  0
SPLINE
  5
294
100
AcDbEntity
  8
0
100
AcDbSpline
 62
6
  6
CONTINUOUS
 70
0
 71
3
 72
11
 73
7
 74
5
 42
0.0000001
 43
0.0000001
 44
0.0000000001
 12
-0.007948227
 22
-0.0495113068
 32
0.0
 13
-0.0066085578
 23
-0.0497078542
 33
0.0
 40
0.0
 40
0.0
 40
0.0
 40
0.0
 40
0.2524910767
 40
0.5034087447
 40
0.7526418377
 40
1.0
 40
1.0
 40
1.0
 40
1.0
 10
6.1206936486
 20
4.2043607844
 30
0.0
 10
6.1200246965
 20
4.20019373
 30
0.0
 10
6.1187008912
 20
4.1918839843
 30
0.0
 10
6.1167719829
 20
4.1794522263
 30
0.0
 10
6.1149262581
 20
4.1670945456
 30
0.0
 10
6.1137773155
 20
4.1588736626
 30
0.0
 10
6.113232422
 20
4.1547751148
 30
0.0
 11
6.1206936486
 21
4.2043607844
 31
0.0
 11
6.1187052173
 21
4.1918566773
 31
0.0
 11
6.1167794585
 21
4.1794225985
 31
0.0
 11
6.1149410808
 21
4.1670606964
 31
0.0
 11
6.113232422
 21
4.1547751148
 31
0.0
  0
SPLINE
  5
295
100
AcDbEntity
  8
0
100
AcDbSpline
 62
6
  6
CONTINUOUS
 70
0
 71
3
 72
11
 73
7
 74
5
 42
0.0000001
 43
0.0000001
 44
0.0000000001
 12
0.0
 22
0.0250206842
 32
0.0
 13
-0.0018344326
 23
0.0249533464
 33
0.0
 40
0.0
 40
0.0
 40
0.0
 40
0.0
 40
0.2561580514
 40
0.5098674566
 40
0.7586281401
 40
1.0
 40
1.0
 40
1.0
 40
1.0
 10
6.2074228558
 20
5.6597751148
 30
0.0
 10
6.2074228558
 20
5.6619115314
 30
0.0
 10
6.2073860024
 20
5.6661640343
 30
0.0
 10
6.2072206972
 20
5.6724893273
 30
0.0
 10
6.2069468678
 20
5.6786874253
 30
0.0
 10
6.2066893704
 20
5.6827674363
 30
0.0
 10
6.2065417769
 20
5.6847751148
 30
0.0
 11
6.2074228558
 21
5.6597751148
 31
0.0
 11
6.207367085
 21
5.6661841219
 31
0.0
 11
6.207200374
 21
5.6725299153
 31
0.0
 11
6.2069242961
 21
5.678747952
 31
0.0
 11
6.2065417769
 21
5.6847751148
 31
0.0
  0
SPLINE
  5
296
100
AcDbEntity
  8
0
100
AcDbSpline
 62
6
  6
CONTINUOUS
 70
0
 71
3
 72
23
 73
19
 74
17
 42
0.0000001
 43
0.0000001
 44
0.0000000001
 12
0.0313945272
 22
-1.2323921796
 32
0.0
 13
0.2555956232
 23
-1.2060045514
 33
0.0
 40
0.0
 40
0.0
 40
0.0
 40
0.0
 40
0.0688024002
 40
0.1367311251
 40
0.20379243
 40
0.2699928158
 40
0.3353390407
 40
0.3998381312
 40
0.4634973943
 40
0.5263244301
 40
0.5883271447
 40
0.6495137638
 40
0.7098928466
 40
0.7694733003
 40
0.8282643951
 40
0.8862757796
 40
0.9435174967
 40
1.0
 40
1.0
 40
1.0
 40
1.0
 10
5.7586698792
 20
5.4283442334
 30
0.0
 10
5.7593898854
 20
5.4000803867
 30
0.0
 10
5.7610784363
 20
5.3439177868
 30
0.0
 10
5.7643878927
 20
5.2602374188
 30
0.0
 10
5.7684577331
 20
5.177660989
 30
0.0
 10
5.7732879596
 20
5.096188581
 30
0.0
 10
5.7788785779
 20
5.0158201605
 30
0.0
 10
5.7852295935
 20
4.9365557239
 30
0.0
 10
5.792341013
 20
4.8583952592
 30
0.0
 10
5.8002128435
 20
4.7813387563
 30
0.0
 10
5.8088450931
 20
4.7053862043
 30
0.0
 10
5.8182377711
 20
4.6305375919
 30
0.0
 10
5.8283908874
 20
4.5567929092
 30
0.0
 10
5.8393044538
 20
4.4841521412
 30
0.0
 10
5.85097848
 20
4.4126152902
 30
0.0
 10
5.8634129901
 20
4.3421822953
 30
0.0
 10
5.8766079606
 20
4.2728533276
 30
0.0
 10
5.8859736132
 20
4.2270668364
 30
0.0
 10
5.89078584
 20
4.2043607844
 30
0.0
 11
5.7586698792
 21
5.4283442334
 31
0.0
 11
5.7612238988
 21
5.3435636465
 31
0.0
 11
5.7645383488
 21
5.2598872758
 31
0.0
 11
5.7686132293
 21
5.1773151212
 31
0.0
 11
5.7734485401
 21
5.0958471828
 31
0.0
 11
5.7790442813
 21
5.0154834607
 31
0.0
 11
5.7854004529
 21
4.9362239547
 31
0.0
 11
5.7925170548
 21
4.8580686648
 31
0.0
 11
5.8003940872
 21
4.7810175912
 31
0.0
 11
5.8090315499
 21
4.7050707337
 31
0.0
 11
5.8184294431
 21
4.6302280924
 31
0.0
 11
5.8285877666
 21
4.5564896673
 31
0.0
 11
5.8395065205
 21
4.4838554584
 31
0.0
 11
5.8511857048
 21
4.4123254656
 31
0.0
 11
5.8636253195
 21
4.341899689
 31
0.0
 11
5.8768253646
 21
4.2725781286
 31
0.0
 11
5.89078584
 21
4.2043607844
 31
0.0
  0
SPLINE
  5
297
100
AcDbEntity
  8
0
100
AcDbSpline
 62
6
  6
CONTINUOUS
 70
0
 71
3
 72
22
 73
18
 74
16
 42
0.0000001
 43
0.0000001
 44
0.0000000001
 12
0.0617524141
 22
-1.2548018599
 32
0.0
 13
0.4760205546
 23
-1.1626459048
 33
0.0
 40
0.0
 40
0.0
 40
0.0
 40
0.0
 40
0.1343908814
 40
0.2004142832
 40
0.2656856196
 40
0.3302292852
 40
0.3940705087
 40
0.4572353606
 40
0.5197507577
 40
0.5816444637
 40
0.6429450875
 40
0.7036820759
 40
0.7638857025
 40
0.8235870528
 40
0.8828180026
 40
0.9416111933
 40
1.0
 40
1.0
 40
1.0
 40
1.0
 10
5.528437417
 20
5.4283442334
 30
0.0
 10
5.5312037375
 20
5.372132924
 30
0.0
 10
5.5368045993
 20
5.2883670153
 30
0.0
 10
5.5473523084
 20
5.1776012813
 30
0.0
 10
5.5566862579
 20
5.0961167228
 30
0.0
 10
5.567489697
 20
5.0157362084
 30
0.0
 10
5.5797627328
 20
4.9364591526
 30
0.0
 10
5.5935054083
 20
4.8582857268
 30
0.0
 10
5.6087177847
 20
4.7812159096
 30
0.0
 10
5.6253999193
 20
4.7052497379
 30
0.0
 10
5.6435518705
 20
4.6303872399
 30
0.0
 10
5.6631736944
 20
4.5566284575
 30
0.0
 10
5.6842654509
 20
4.4839734247
 30
0.0
 10
5.7068271772
 20
4.412422232
 30
0.0
 10
5.7308589826
 20
4.3419747927
 30
0.0
 10
5.7563606934
 20
4.2726317052
 30
0.0
 10
5.774401097
 20
4.2269892867
 30
0.0
 10
5.7836658544
 20
4.2043607844
 30
0.0
 11
5.528437417
 21
5.4283442334
 31
0.0
 11
5.5397744299
 21
5.2598872758
 31
0.0
 11
5.5476464943
 21
5.1773151212
 31
0.0
 11
5.5569875975
 21
5.0958471828
 31
0.0
 11
5.5677977394
 21
5.0154834607
 31
0.0
 11
5.58007692
 21
4.9362239547
 31
0.0
 11
5.5938251393
 21
4.8580686648
 31
0.0
 11
5.6090423973
 21
4.7810175912
 31
0.0
 11
5.6257286939
 21
4.7050707337
 31
0.0
 11
5.6438840293
 21
4.6302280924
 31
0.0
 11
5.6635084034
 21
4.5564896673
 31
0.0
 11
5.6846018162
 21
4.4838554584
 31
0.0
 11
5.7071642677
 21
4.4123254656
 31
0.0
 11
5.7311957579
 21
4.341899689
 31
0.0
 11
5.7566962868
 21
4.2725781286
 31
0.0
 11
5.7836658544
 21
4.2043607844
 31
0.0
  0
SPLINE
  5
298
100
AcDbEntity
  8
0
100
AcDbSpline
 62
6
  6
CONTINUOUS
 70
0
 71
3
 72
12
 73
8
 74
6
 42
0.0000001
 43
0.0000001
 44
0.0000000001
 12
0.0
 22
0.0250402584
 32
0.0
 13
0.002551237
 23
0.0249099524
 33
0.0
 40
0.0
 40
0.0
 40
0.0
 40
0.0
 40
0.2559669283
 40
0.5095602519
 40
0.7583564465
 40
0.8802405055
 40
1.0
 40
1.0
 40
1.0
 40
1.0
 10
5.7247603451
 20
5.6597751148
 30
0.0
 10
5.7247603451
 20
5.6619116075
 30
0.0
 10
5.7248117017
 20
5.6661649676
 30
0.0
 10
5.7250420847
 20
5.6724911756
 30
0.0
 10
5.7253622323
 20
5.6776926324
 30
0.0
 10
5.725694829
 20
5.6817727743
 30
0.0
 10
5.7258859951
 20
5.6837807137
 30
0.0
 10
5.7259878401
 20
5.6847751148
 30
0.0
 11
5.7247603451
 21
5.6597751148
 31
0.0
 11
5.7248380434
 21
5.6661841219
 31
0.0
 11
5.7250703006
 21
5.6725299153
 31
0.0
 11
5.7254549249
 21
5.678747952
 31
0.0
 11
5.7257032136
 21
5.6817898441
 31
0.0
 11
5.7259878401
 21
5.6847751148
 31
0.0
  0
SPLINE
  5
299
100
AcDbEntity
  8
0
100
AcDbSpline
 62
6
  6
CONTINUOUS
 70
0
 71
3
 72
13
 73
9
 74
7
 42
0.0000001
 43
0.0000001
 44
0.0000000001
 12
0.0
 22
0.025096611
 32
0.0
 13
0.003930966
 23
0.0247868391
 33
0.0
 40
0.0
 40
0.0
 40
0.0
 40
0.0
 40
0.1278206367
 40
0.2554296616
 40
0.5086900087
 40
0.7575879266
 40
0.8797594884
 40
1.0
 40
1.0
 40
1.0
 40
1.0
 10
5.5706541341
 20
5.6597751148
 30
0.0
 10
5.5706541341
 20
5.6608444031
 30
0.0
 10
5.5706742032
 20
5.6629812707
 30
0.0
 10
5.5707939298
 20
5.6672352457
 30
0.0
 10
5.5710907876
 20
5.6724965707
 30
0.0
 10
5.5715866789
 20
5.6776973123
 30
0.0
 10
5.5721014832
 20
5.6817752511
 30
0.0
 10
5.5723973083
 20
5.6837816541
 30
0.0
 10
5.5725548621
 20
5.6847751148
 30
0.0
 11
5.5706541341
 21
5.6597751148
 31
0.0
 11
5.5706842488
 21
5.6629828382
 31
0.0
 11
5.5707744469
 21
5.6661841219
 31
0.0
 11
5.5711340882
 21
5.6725299153
 31
0.0
 11
5.5717296638
 21
5.678747952
 31
0.0
 11
5.5721141291
 21
5.6817898441
 31
0.0
 11
5.5725548621
 21
5.6847751148
 31
0.0
  0
SPLINE
  5
29A
100
AcDbEntity
  8
0
100
AcDbSpline
 62
6
  6
CONTINUOUS
 70
0
 71
3
 72
9
 73
5
 74
3
 42
0.0000001
 43
0.0000001
 44
0.0000000001
 12
0.0242531915
 22
0.0489661068
 32
0.0
 13
0.021906741
 23
0.0500598803
 33
0.0
 40
0.0
 40
0.0
 40
0.0
 40
0.0
 40
0.4997517306
 40
1.0
 40
1.0
 40
1.0
 40
1.0
 10
6.2048624463
 20
4.1547751148
 30
0.0
 10
6.2089026377
 20
4.1629320803
 30
0.0
 10
6.2167154451
 20
4.1793889201
 30
0.0
 10
6.2241606979
 20
4.1960133282
 30
0.0
 10
6.2278136343
 20
4.2043607844
 30
0.0
 11
6.2048624463
 21
4.1547751148
 31
0.0
 11
6.2166197683
 21
4.1794225991
 31
0.0
 11
6.2278136343
 21
4.2043607844
 31
0.0
  0
LINE
  5
29B
100
AcDbEntity
  8
0
100
AcDbLine
 62
6
  6
CONTINUOUS
 10
6.2278136343
 20
4.2043607844
 11
6.2102748173
 21
4.1547751148
  0
SPLINE
  5
29C
100
AcDbEntity
  8
0
100
AcDbSpline
 62
6
  6
CONTINUOUS
 70
0
 71
3
 72
13
 73
9
 74
7
 42
0.0000001
 43
0.0000001
 44
0.0000000001
 12
0.0
 22
0.0251716405
 32
0.0
 13
0.0052127419
 23
0.0246259783
 33
0.0
 40
0.0
 40
0.0
 40
0.0
 40
0.0
 40
0.1274440283
 40
0.2547121169
 40
0.507533271
 40
0.7565692555
 40
0.8791227571
 40
1.0
 40
1.0
 40
1.0
 40
1.0
 10
5.4250163697
 20
5.6597751148
 30
0.0
 10
5.4250163697
 20
5.6608444399
 30
0.0
 10
5.4250431662
 20
5.6629817229
 30
0.0
 10
5.4252030559
 20
5.667237549
 30
0.0
 10
5.4255998568
 20
5.6725037321
 30
0.0
 10
5.4262620324
 20
5.6777034816
 30
0.0
 10
5.4269487837
 20
5.6817784901
 30
0.0
 10
5.4273433012
 20
5.6837828747
 30
0.0
 10
5.4275533351
 20
5.6847751148
 30
0.0
 11
5.4250163697
 21
5.6597751148
 31
0.0
 11
5.4250565647
 21
5.6629828382
 31
0.0
 11
5.4251769552
 21
5.6661841219
 31
0.0
 11
5.4256569804
 21
5.6725299153
 31
0.0
 11
5.4264519152
 21
5.678747952
 31
0.0
 11
5.426965074
 21
5.6817898441
 31
0.0
 11
5.4275533351
 21
5.6847751148
 31
0.0
  0
SPLINE
  5
29D
100
AcDbEntity
  8
0
100
AcDbSpline
 62
6
  6
CONTINUOUS
 70
0
 71
3
 72
9
 73
5
 74
3
 42
0.0000001
 43
0.0000001
 44
0.0000000001
 12
0.0320071735
 22
0.0488446281
 32
0.0
 13
0.0298501588
 23
0.0501918805
 33
0.0
 40
0.0
 40
0.0
 40
0.0
 40
0.0
 40
0.5003992978
 40
1.0
 40
1.0
 40
1.0
 40
1.0
 10
6.288959303
 20
4.1547751148
 30
0.0
 10
6.2942980921
 20
4.1629223873
 30
0.0
 10
6.304734915
 20
4.1793565115
 30
0.0
 10
6.3148285979
 20
4.1960021515
 30
0.0
 10
6.3197996514
 20
4.2043607844
 30
0.0
 11
6.288959303
 21
4.1547751148
 31
0.0
 11
6.3046573278
 21
4.1794225991
 31
0.0
 11
6.3197996514
 21
4.2043607844
 31
0.0
  0
LINE
  5
29E
100
AcDbEntity
  8
0
100
AcDbLine
 62
6
  6
CONTINUOUS
 10
6.3197996514
 20
4.2043607844
 11
6.2933784855
 21
4.1547751148
  0
SPLINE
  5
29F
100
AcDbEntity
  8
0
100
AcDbSpline
 62
6
  6
CONTINUOUS
 70
0
 71
3
 72
11
 73
7
 74
5
 42
0.0000001
 43
0.0000001
 44
0.0000000001
 12
0.0
 22
0.0229562423
 32
0.0
 13
0.0052252482
 23
0.0223536539
 33
0.0
 40
0.0
 40
0.0
 40
0.0
 40
0.0
 40
0.2531517374
 40
0.5050721103
 40
0.7544052791
 40
1.0
 40
1.0
 40
1.0
 40
1.0
 10
5.2906817251
 20
5.6597751148
 30
0.0
 10
5.2906817251
 20
5.6617122523
 30
0.0
 10
5.2907896075
 20
5.6655779647
 30
0.0
 10
5.2912733324
 20
5.6713334005
 30
0.0
 10
5.2920756558
 20
5.6769948032
 30
0.0
 10
5.2928254492
 20
5.6807097568
 30
0.0
 10
5.2932532137
 20
5.6825397366
 30
0.0
 11
5.2906817251
 21
5.6597751148
 31
0.0
 11
5.2908441266
 21
5.6655842578
 31
0.0
 11
5.2913298235
 21
5.6713469712
 31
0.0
 11
5.2921350245
 21
5.6770138042
 31
0.0
 11
5.2932532137
 21
5.6825397366
 31
0.0
  0
SPLINE
  5
2A0
100
AcDbEntity
  8
0
100
AcDbSpline
 62
6
  6
CONTINUOUS
 70
0
 71
3
 72
9
 73
5
 74
3
 42
0.0000001
 43
0.0000001
 44
0.0000000001
 12
0.0376306816
 22
0.0488324207
 32
0.0
 13
0.0357337719
 23
0.0502371482
 33
0.0
 40
0.0
 40
0.0
 40
0.0
 40
0.0
 40
0.5005615267
 40
1.0
 40
1.0
 40
1.0
 40
1.0
 10
6.3537552149
 20
4.1547751148
 30
0.0
 10
6.3600340387
 20
4.1629229918
 30
0.0
 10
6.3723868418
 20
4.1793478932
 30
0.0
 10
6.3844340646
 20
4.1959973295
 30
0.0
 10
6.3903830048
 20
4.2043607844
 30
0.0
 11
6.3537552149
 21
4.1547751148
 31
0.0
 11
6.3723241479
 21
4.1794225991
 31
0.0
 11
6.3903830048
 21
4.2043607844
 31
0.0
  0
SPLINE
  5
2A1
100
AcDbEntity
  8
0
100
AcDbSpline
 62
6
  6
CONTINUOUS
 70
0
 71
3
 72
10
 73
6
 74
4
 42
0.0000001
 43
0.0000001
 44
0.0000000001
 12
-0.03312515
 22
-0.0498392745
 32
0.0
 13
-0.0337626958
 23
-0.0494096065
 33
0.0
 40
0.0
 40
0.0
 40
0.0
 40
0.0
 40
0.5018055281
 40
0.7514775018
 40
1.0
 40
1.0
 40
1.0
 40
1.0
 10
6.3903830048
 20
4.2043607844
 30
0.0
 10
6.3848422103
 20
4.1960242433
 30
0.0
 10
6.3764866889
 20
4.1835782985
 30
0.0
 10
6.365279465
 20
4.1670763989
 30
0.0
 10
6.3596769787
 20
4.1588682477
 30
0.0
 10
6.3568800488
 20
4.1547751148
 30
0.0
 11
6.3903830048
 21
4.2043607844
 31
0.0
 11
6.3736536361
 21
4.1794225985
 31
0.0
 11
6.3652617831
 21
4.1670606964
 31
0.0
 11
6.3568800488
 21
4.1547751148
 31
0.0
  0
SPLINE
  5
2A2
100
AcDbEntity
  8
0
100
AcDbSpline
 62
6
  6
CONTINUOUS
 70
0
 71
3
 72
22
 73
18
 74
16
 42
0.0000001
 43
0.0000001
 44
0.0000000001
 12
-0.0617524141
 22
-1.2548018599
 32
0.0
 13
-0.4760205546
 23
-1.1626459048
 33
0.0
 40
0.0
 40
0.0
 40
0.0
 40
0.0
 40
0.1343908814
 40
0.2004142832
 40
0.2656856196
 40
0.3302292852
 40
0.3940705087
 40
0.4572353606
 40
0.5197507577
 40
0.5816444637
 40
0.6429450875
 40
0.7036820759
 40
0.7638857025
 40
0.8235870528
 40
0.8828180026
 40
0.9416111933
 40
1.0
 40
1.0
 40
1.0
 40
1.0
 10
6.4830420717
 20
5.4283442334
 30
0.0
 10
6.4802757512
 20
5.372132924
 30
0.0
 10
6.4746748893
 20
5.2883670153
 30
0.0
 10
6.4641271802
 20
5.1776012813
 30
0.0
 10
6.4547932307
 20
5.0961167228
 30
0.0
 10
6.4439897917
 20
5.0157362084
 30
0.0
 10
6.4317167559
 20
4.9364591526
 30
0.0
 10
6.4179740804
 20
4.8582857268
 30
0.0
 10
6.4027617039
 20
4.7812159096
 30
0.0
 10
6.3860795694
 20
4.7052497379
 30
0.0
 10
6.3679276181
 20
4.6303872399
 30
0.0
 10
6.3483057943
 20
4.5566284575
 30
0.0
 10
6.3272140377
 20
4.4839734247
 30
0.0
 10
6.3046523115
 20
4.412422232
 30
0.0
 10
6.2806205061
 20
4.3419747927
 30
0.0
 10
6.2551187952
 20
4.2726317052
 30
0.0
 10
6.2370783917
 20
4.2269892867
 30
0.0
 10
6.2278136343
 20
4.2043607844
 30
0.0
 11
6.4830420717
 21
5.4283442334
 31
0.0
 11
6.4717050588
 21
5.2598872758
 31
0.0
 11
6.4638329943
 21
5.1773151212
 31
0.0
 11
6.4544918911
 21
5.0958471828
 31
0.0
 11
6.4436817492
 21
5.0154834607
 31
0.0
 11
6.4314025687
 21
4.9362239547
 31
0.0
 11
6.4176543494
 21
4.8580686648
 31
0.0
 11
6.4024370914
 21
4.7810175912
 31
0.0
 11
6.3857507947
 21
4.7050707337
 31
0.0
 11
6.3675954593
 21
4.6302280924
 31
0.0
 11
6.3479710852
 21
4.5564896673
 31
0.0
 11
6.3268776724
 21
4.4838554584
 31
0.0
 11
6.304315221
 21
4.4123254656
 31
0.0
 11
6.2802837308
 21
4.341899689
 31
0.0
 11
6.2547832019
 21
4.2725781286
 31
0.0
 11
6.2278136343
 21
4.2043607844
 31
0.0
  0
SPLINE
  5
2A3
100
AcDbEntity
  8
0
100
AcDbSpline
 62
6
  6
CONTINUOUS
 70
0
 71
3
 72
23
 73
19
 74
17
 42
0.0000001
 43
0.0000001
 44
0.0000000001
 12
-0.0313945272
 22
-1.2323921796
 32
0.0
 13
-0.2555956232
 23
-1.2060045514
 33
0.0
 40
0.0
 40
0.0
 40
0.0
 40
0.0
 40
0.0688024002
 40
0.1367311251
 40
0.20379243
 40
0.2699928158
 40
0.3353390407
 40
0.3998381312
 40
0.4634973943
 40
0.5263244301
 40
0.5883271447
 40
0.6495137638
 40
0.7098928466
 40
0.7694733003
 40
0.8282643951
 40
0.8862757796
 40
0.9435174967
 40
1.0
 40
1.0
 40
1.0
 40
1.0
 10
6.2528096095
 20
5.4283442334
 30
0.0
 10
6.2520896032
 20
5.4000803867
 30
0.0
 10
6.2504010523
 20
5.3439177868
 30
0.0
 10
6.247091596
 20
5.2602374188
 30
0.0
 10
6.2430217556
 20
5.177660989
 30
0.0
 10
6.238191529
 20
5.096188581
 30
0.0
 10
6.2326009107
 20
5.0158201605
 30
0.0
 10
6.2262498951
 20
4.9365557239
 30
0.0
 10
6.2191384757
 20
4.8583952592
 30
0.0
 10
6.2112666452
 20
4.7813387563
 30
0.0
 10
6.2026343955
 20
4.7053862043
 30
0.0
 10
6.1932417175
 20
4.6305375919
 30
0.0
 10
6.1830886013
 20
4.5567929092
 30
0.0
 10
6.1721750348
 20
4.4841521412
 30
0.0
 10
6.1605010086
 20
4.4126152902
 30
0.0
 10
6.1480664985
 20
4.3421822953
 30
0.0
 10
6.134871528
 20
4.2728533276
 30
0.0
 10
6.1255058755
 20
4.2270668364
 30
0.0
 10
6.1206936486
 20
4.2043607844
 30
0.0
 11
6.2528096095
 21
5.4283442334
 31
0.0
 11
6.2502555898
 21
5.3435636465
 31
0.0
 11
6.2469411398
 21
5.2598872758
 31
0.0
 11
6.2428662594
 21
5.1773151212
 31
0.0
 11
6.2380309486
 21
5.0958471828
 31
0.0
 11
6.2324352074
 21
5.0154834607
 31
0.0
 11
6.2260790358
 21
4.9362239547
 31
0.0
 11
6.2189624338
 21
4.8580686648
 31
0.0
 11
6.2110854015
 21
4.7810175912
 31
0.0
 11
6.2024479387
 21
4.7050707337
 31
0.0
 11
6.1930500456
 21
4.6302280924
 31
0.0
 11
6.182891722
 21
4.5564896673
 31
0.0
 11
6.1719729681
 21
4.4838554584
 31
0.0
 11
6.1602937838
 21
4.4123254656
 31
0.0
 11
6.1478541691
 21
4.341899689
 31
0.0
 11
6.1346541241
 21
4.2725781286
 31
0.0
 11
6.1206936486
 21
4.2043607844
 31
0.0
  0
SPLINE
  5
2A4
100
AcDbEntity
  8
0
100
AcDbSpline
 62
6
  6
CONTINUOUS
 70
0
 71
3
 72
18
 73
14
 74
12
 42
0.0000001
 43
0.0000001
 44
0.0000000001
 12
0.0146652639
 22
0.0358346612
 32
0.0
 13
0.0
 23
0.0387194125
 33
0.0
 40
0.0
 40
0.0
 40
0.0
 40
0.0
 40
0.1158717454
 40
0.2352555359
 40
0.3577560383
 40
0.4200466945
 40
0.4829543863
 40
0.5464230874
 40
0.6103919507
 40
0.6747812921
 40
0.7395055525
 40
0.8696044426
 40
1.0
 40
1.0
 40
1.0
 40
1.0
 10
6.6482949746
 20
5.6219147423
 30
0.0
 10
6.6488614045
 20
5.6232988172
 30
0.0
 10
6.6499289907
 20
5.6261433156
 30
0.0
 10
6.6513136638
 20
5.6305502489
 30
0.0
 10
6.6522973201
 20
5.6343527068
 30
0.0
 10
6.6529844211
 20
5.6374751621
 30
0.0
 10
6.6534503683
 20
5.6398654428
 30
0.0
 10
6.6538631328
 20
5.6422874323
 30
0.0
 10
6.6542217716
 20
5.6447373511
 30
0.0
 10
6.6545260566
 20
5.6472109415
 30
0.0
 10
6.6548594424
 20
5.65054005
 30
0.0
 10
6.6551377158
 20
5.6547296732
 30
0.0
 10
6.6552125243
 20
5.6580921683
 30
0.0
 10
6.6552125243
 20
5.6597751148
 30
0.0
 11
6.6482949746
 21
5.6219147423
 31
0.0
 11
6.6498749556
 21
5.6261138155
 31
0.0
 11
6.6512640911
 21
5.6305226173
 31
0.0
 11
6.6524546814
 21
5.6351139072
 31
0.0
 11
6.65297328
 21
5.6374693504
 31
0.0
 11
6.6534395518
 21
5.6398600539
 31
0.0
 11
6.6538525998
 21
5.6422825638
 31
0.0
 11
6.6542116236
 21
5.6447332418
 31
0.0
 11
6.6545162235
 21
5.6472076818
 31
0.0
 11
6.654766104
 21
5.6497012783
 31
0.0
 11
6.6551005254
 21
5.6547275178
 31
0.0
 11
6.6552125243
 21
5.6597751148
 31
0.0
  0
SPLINE
  5
2A5
100
AcDbEntity
  8
0
100
AcDbSpline
 62
6
  6
CONTINUOUS
 70
0
 71
3
 72
23
 73
19
 74
17
 42
0.0000001
 43
0.0000001
 44
0.0000000001
 12
0.0281092545
 22
0.0460673915
 32
0.0
 13
-0.0
 23
0.0539660518
 33
0.0
 40
0.0
 40
0.0
 40
0.0
 40
0.0
 40
0.0492732443
 40
0.1008491503
 40
0.1546726395
 40
0.2106492609
 40
0.2686692002
 40
0.3286127447
 40
0.3903526184
 40
0.4537482805
 40
0.5186447906
 40
0.5848819202
 40
0.652296037
 40
0.7207180988
 40
0.7899384674
 40
0.8597191921
 40
0.9298200215
 40
1.0
 40
1.0
 40
1.0
 40
1.0
 10
6.5031789398
 20
5.6077031221
 30
0.0
 10
6.5036406179
 20
5.608459752
 30
0.0
 10
6.5045418654
 20
5.6100353635
 30
0.0
 10
6.505799834
 20
5.6125182438
 30
0.0
 10
6.5069905856
 20
5.6151667965
 30
0.0
 10
6.5081108145
 20
5.6179710115
 30
0.0
 10
6.5091567322
 20
5.6209207766
 30
0.0
 10
6.5101246352
 20
5.624005816
 30
0.0
 10
6.5110105656
 20
5.6272157664
 30
0.0
 10
6.5118113926
 20
5.630539663
 30
0.0
 10
6.5125249589
 20
5.633966013
 30
0.0
 10
6.5131488214
 20
5.6374832336
 30
0.0
 10
6.5136806559
 20
5.6410796434
 30
0.0
 10
6.5141177828
 20
5.6447428223
 30
0.0
 10
6.5144590546
 20
5.6484588986
 30
0.0
 10
6.5147038867
 20
5.6522128281
 30
0.0
 10
6.5148514516
 20
5.6559890805
 30
0.0
 10
6.5148844878
 20
5.6585126693
 30
0.0
 10
6.5148844878
 20
5.6597751148
 30
0.0
 11
6.5031789398
 21
5.6077031221
 31
0.0
 11
6.5045019442
 21
5.6100097167
 31
0.0
 11
6.5057625155
 21
5.6124912457
 31
0.0
 11
6.5069561354
 21
5.6151393039
 31
0.0
 11
6.5080789764
 21
5.6179437086
 31
0.0
 11
6.5091272734
 21
5.6208941161
 31
0.0
 11
6.5100972616
 21
5.6239801828
 31
0.0
 11
6.5109851975
 21
5.6271915442
 31
0.0
 11
6.5117879633
 21
5.6305172426
 31
0.0
 11
6.5125031467
 21
5.6339456499
 31
0.0
 11
6.5131283736
 21
5.6374651022
 31
0.0
 11
6.5136612696
 21
5.6410639356
 31
0.0
 11
6.5140995358
 21
5.6447303026
 31
0.0
 11
6.5144417792
 21
5.6484501417
 31
0.0
 11
6.514687207
 21
5.6522079258
 31
0.0
 11
6.5148350372
 21
5.6559881013
 31
0.0
 11
6.5148844878
 21
5.6597751148
 31
0.0
  0
SPLINE
  5
2A6
100
AcDbEntity
  8
0
100
AcDbSpline
 62
6
  6
CONTINUOUS
 70
0
 71
3
 72
28
 73
24
 74
22
 42
0.0000001
 43
0.0000001
 44
0.0000000001
 12
0.0360768287
 22
0.049249796
 32
0.0
 13
0.0
 23
0.0610498155
 33
0.0
 40
0.0
 40
0.0
 40
0.0
 40
0.0
 40
0.0190070636
 40
0.0389815408
 40
0.0599286
 40
0.0818476285
 40
0.1047339304
 40
0.1285795102
 40
0.1533736953
 40
0.1791036338
 40
0.2333045265
 40
0.2617335709
 40
0.2910092224
 40
0.3519763149
 40
0.4159570936
 40
0.482688221
 40
0.5518794295
 40
0.6232204945
 40
0.6963961218
 40
0.7710792384
 40
0.8468679641
 40
0.9233221504
 40
1.0
 40
1.0
 40
1.0
 40
1.0
 10
6.352534776
 20
5.6006940505
 30
0.0
 10
6.3527633475
 20
5.6010060818
 30
0.0
 10
6.3532161505
 20
5.6016578447
 30
0.0
 10
6.3538672006
 20
5.602689461
 30
0.0
 10
6.3545061746
 20
5.6037975447
 30
0.0
 10
6.3551322403
 20
5.6049804007
 30
0.0
 10
6.3557445979
 20
5.6062363471
 30
0.0
 10
6.3563424264
 20
5.6075636863
 30
0.0
 10
6.3569249137
 20
5.6089607278
 30
0.0
 10
6.3576933637
 20
5.6109487172
 30
0.0
 10
6.358411598
 20
5.6130345675
 30
0.0
 10
6.3590849816
 20
5.6152101063
 30
0.0
 10
6.3597526814
 20
5.6175310894
 30
0.0
 10
6.3605337963
 20
5.6205715316
 30
0.0
 10
6.3613758091
 20
5.6243808998
 30
0.0
 10
6.3621293256
 20
5.6283791496
 30
0.0
 10
6.3627906431
 20
5.6325453274
 30
0.0
 10
6.3633567428
 20
5.636857767
 30
0.0
 10
6.3638244064
 20
5.6412943556
 30
0.0
 10
6.3641900985
 20
5.6458312927
 30
0.0
 10
6.3644525954
 20
5.6504421751
 30
0.0
 10
6.3646110122
 20
5.6550983838
 30
0.0
 10
6.3646465279
 20
5.6582147253
 30
0.0
 10
6.3646465279
 20
5.6597751148
 30
0.0
 11
6.352534776
 21
5.6006940505
 31
0.0
 11
6.3531979433
 21
5.6016462508
 31
0.0
 11
6.3538498528
 21
5.6026768057
 31
0.0
 11
6.3544896727
 21
5.6037840528
 31
0.0
 11
6.3551165784
 21
5.6049662717
 31
0.0
 11
6.3557297458
 21
5.6062217423
 31
0.0
 11
6.3563283502
 21
5.6075487441
 31
0.0
 11
6.3569115674
 21
5.608945557
 31
0.0
 11
6.3574785729
 21
5.6104104606
 31
0.0
 11
6.3585607039
 21
5.6135374675
 31
0.0
 11
6.359074411
 21
5.6151952885
 31
0.0
 11
6.3595690375
 21
5.6169127546
 31
0.0
 11
6.3604985418
 21
5.6205168533
 31
0.0
 11
6.3613442035
 21
5.6243302255
 31
0.0
 11
6.3621010935
 21
5.6283332201
 31
0.0
 11
6.3627653275
 21
5.6325047789
 31
0.0
 11
6.3633337306
 21
5.6368228883
 31
0.0
 11
6.3638031416
 21
5.6412655165
 31
0.0
 11
6.3641705586
 21
5.6458100788
 31
0.0
 11
6.3644342918
 21
5.650429444
 31
0.0
 11
6.3645932953
 21
5.6550942489
 31
0.0
 11
6.3646465279
 21
5.6597751148
 31
0.0
  0
SPLINE
  5
2A7
100
AcDbEntity
  8
0
100
AcDbSpline
 62
6
  6
CONTINUOUS
 70
0
 71
3
 72
32
 73
28
 74
26
 42
0.0000001
 43
0.0000001
 44
0.0000000001
 12
0.0399989068
 22
0.0497623657
 32
0.0
 13
0.0
 23
0.0638451688
 33
0.0
 40
0.0
 40
0.0
 40
0.0
 40
0.0
 40
0.0122286766
 40
0.025865902
 40
0.0409578993
 40
0.0575322966
 40
0.0756041283
 40
0.0951769281
 40
0.1162351871
 40
0.1387548227
 40
0.1627080788
 40
0.1880644971
 40
0.2147915983
 40
0.2428553714
 40
0.2722179754
 40
0.3028293587
 40
0.3346355925
 40
0.3675820136
 40
0.401613381
 40
0.4366739986
 40
0.5096555122
 40
0.586042711
 40
0.6653225099
 40
0.7469780469
 40
0.8304349299
 40
0.9150083787
 40
1.0
 40
1.0
 40
1.0
 40
1.0
 10
6.1986368702
 20
5.5970930242
 30
0.0
 10
6.1987999147
 20
5.5972958668
 30
0.0
 10
6.1991223677
 20
5.597743101
 30
0.0
 10
6.1995751588
 20
5.5984886745
 30
0.0
 10
6.2000221659
 20
5.599343561
 30
0.0
 10
6.200462594
 20
5.6003065383
 30
0.0
 10
6.2008956618
 20
5.6013764078
 30
0.0
 10
6.2013204267
 20
5.6025515464
 30
0.0
 10
6.2017363185
 20
5.6038297442
 30
0.0
 10
6.2021426148
 20
5.6052084675
 30
0.0
 10
6.2025385731
 20
5.6066850881
 30
0.0
 10
6.2029234514
 20
5.6082569634
 30
0.0
 10
6.2032965112
 20
5.6099214401
 30
0.0
 10
6.2036570039
 20
5.6116758031
 30
0.0
 10
6.2040041371
 20
5.6135170367
 30
0.0
 10
6.2043374285
 20
5.6154416992
 30
0.0
 10
6.2046563281
 20
5.6174460585
 30
0.0
 10
6.2049602776
 20
5.6195263171
 30
0.0
 10
6.205248721
 20
5.6216786778
 30
0.0
 10
6.2056168293
 20
5.624679808
 30
0.0
 10
6.2060319874
 20
5.628583061
 30
0.0
 10
6.2064543012
 20
5.6334309931
 30
0.0
 10
6.2068044784
 20
5.6384697168
 30
0.0
 10
6.2070794444
 20
5.643663755
 30
0.0
 10
6.2072768279
 20
5.6489740447
 30
0.0
 10
6.2073960899
 20
5.6543576537
 30
0.0
 10
6.2074228558
 20
5.6579663467
 30
0.0
 10
6.2074228558
 20
5.6597751148
 30
0.0
 11
6.1986368702
 21
5.5970930242
 31
0.0
 11
6.199096649
 21
5.5977240244
 31
0.0
 11
6.1995513851
 21
5.5984665088
 31
0.0
 11
6.2000002601
 21
5.5993191177
 31
0.0
 11
6.2004424555
 21
5.6002804919
 31
0.0
 11
6.200877153
 21
5.6013492718
 31
0.0
 11
6.2013035482
 21
5.6025239033
 31
0.0
 11
6.2017209013
 21
5.6038019529
 31
0.0
 11
6.2021284903
 21
5.6051807399
 31
0.0
 11
6.2025255933
 21
5.6066575834
 31
0.0
 11
6.2029114883
 21
5.6082298026
 31
0.0
 11
6.2032854535
 21
5.6098947165
 31
0.0
 11
6.2036467668
 21
5.6116496443
 31
0.0
 11
6.2039947338
 21
5.6134917276
 31
0.0
 11
6.2043287751
 21
5.615417358
 31
0.0
 11
6.2046483422
 21
5.6174227296
 31
0.0
 11
6.2049528861
 21
5.6195040364
 31
0.0
 11
6.2052418583
 21
5.6216574726
 31
0.0
 11
6.2055147098
 21
5.6238792321
 31
0.0
 11
6.2060099135
 21
5.6285123598
 31
0.0
 11
6.2064350346
 21
5.6333707493
 31
0.0
 11
6.2067872869
 21
5.6384201095
 31
0.0
 11
6.2070639068
 21
5.6436260771
 31
0.0
 11
6.207262715
 21
5.6489506856
 31
0.0
 11
6.2073826686
 21
5.6543489592
 31
0.0
 11
6.2074228558
 21
5.6597751148
 31
0.0
  0
SPLINE
  5
2A8
100
AcDbEntity
  8
0
100
AcDbSpline
 62
6
  6
CONTINUOUS
 70
0
 71
3
 72
36
 73
32
 74
30
 42
0.0000001
 43
0.0000001
 44
0.0000000001
 12
-0.040868785
 22
0.0495287323
 32
0.0
 13
-0.0
 23
0.0642133391
 33
0.0
 40
0.0
 40
0.0
 40
0.0
 40
0.0
 40
0.0038704258
 40
0.0081510701
 40
0.0128573058
 40
0.0179997509
 40
0.0235856885
 40
0.0296200167
 40
0.0361058981
 40
0.0430452101
 40
0.0504388623
 40
0.0582870246
 40
0.0753442319
 40
0.0942092861
 40
0.1148600142
 40
0.1372572779
 40
0.1613584224
 40
0.1871191222
 40
0.2144938595
 40
0.243436248
 40
0.2738975801
 40
0.3058156597
 40
0.3391217799
 40
0.4096209035
 40
0.4848395669
 40
0.5641986269
 40
0.6470717886
 40
0.7328251896
 40
0.8207822869
 40
0.9101238509
 40
1.0
 40
1.0
 40
1.0
 40
1.0
 10
5.8901955151
 20
5.5961580155
 30
0.0
 10
5.8901427886
 20
5.5962219146
 30
0.0
 10
5.8900380063
 20
5.5963616992
 30
0.0
 10
5.889889095
 20
5.5965933393
 30
0.0
 10
5.8897407609
 20
5.5968570665
 30
0.0
 10
5.8895930708
 20
5.597152707
 30
0.0
 10
5.8894460794
 20
5.5974801069
 30
0.0
 10
5.8892998591
 20
5.5978390903
 30
0.0
 10
5.8891544835
 20
5.5982294761
 30
0.0
 10
5.8890100302
 20
5.5986510764
 30
0.0
 10
5.8888665711
 20
5.5991036983
 30
0.0
 10
5.8886712647
 20
5.599766922
 30
0.0
 10
5.8884318496
 20
5.6006728958
 30
0.0
 10
5.8881570309
 20
5.6018523484
 30
0.0
 10
5.8878879341
 20
5.6031500693
 30
0.0
 10
5.8876249953
 20
5.6045631892
 30
0.0
 10
5.8873687989
 20
5.606088559
 30
0.0
 10
5.8871198951
 20
5.6077229774
 30
0.0
 10
5.8868788358
 20
5.6094632388
 30
0.0
 10
5.8866461623
 20
5.611306094
 30
0.0
 10
5.8864224736
 20
5.6132479803
 30
0.0
 10
5.8862081468
 20
5.6152848618
 30
0.0
 10
5.8859301007
 20
5.6181766402
 30
0.0
 10
5.8856112624
 20
5.6219954295
 30
0.0
 10
5.885278914
 20
5.6268017357
 30
0.0
 10
5.8849931203
 20
5.6318763254
 30
0.0
 10
5.8847557368
 20
5.6371791172
 30
0.0
 10
5.8845689542
 20
5.6426680712
 30
0.0
 10
5.8844347935
 20
5.6482970496
 30
0.0
 10
5.8843537098
 20
5.6540152853
 30
0.0
 10
5.8843355005
 20
5.6578513656
 30
0.0
 10
5.8843355005
 20
5.6597751148
 30
0.0
 11
5.8901955151
 21
5.5961580155
 31
0.0
 11
5.8900456196
 21
5.5963562577
 31
0.0
 11
5.8898962334
 21
5.5965869951
 31
0.0
 11
5.8897474308
 21
5.5968500246
 31
0.0
 11
5.8895992859
 21
5.5971451416
 31
0.0
 11
5.8894518727
 21
5.5974721418
 31
0.0
 11
5.8893052654
 21
5.5978308205
 31
0.0
 11
5.8891595381
 21
5.5982209733
 31
0.0
 11
5.8890147649
 21
5.5986423958
 31
0.0
 11
5.8888710199
 21
5.5990948833
 31
0.0
 11
5.8887283772
 21
5.5995782314
 31
0.0
 11
5.8884466952
 21
5.6006366915
 31
0.0
 11
5.8881703112
 21
5.6018161292
 31
0.0
 11
5.8878997912
 21
5.6031142945
 31
0.0
 11
5.8876356613
 21
5.6045280355
 31
0.0
 11
5.8873784447
 21
5.6060541258
 31
0.0
 11
5.8871286641
 21
5.6076893393
 31
0.0
 11
5.8868868427
 21
5.6094304496
 31
0.0
 11
5.8866535033
 21
5.6112742305
 31
0.0
 11
5.8864291589
 21
5.6132173463
 31
0.0
 11
5.8862142436
 21
5.6152556137
 31
0.0
 11
5.8860091553
 21
5.6173844548
 31
0.0
 11
5.8856300496
 21
5.6218955372
 31
0.0
 11
5.8852950204
 21
5.6267139453
 31
0.0
 11
5.8850069129
 21
5.6318017047
 31
0.0
 11
5.8847678325
 21
5.6371178938
 31
0.0
 11
5.8845797846
 21
5.6426211942
 31
0.0
 11
5.8844445116
 21
5.6482675929
 31
0.0
 11
5.8843628633
 21
5.654003932
 31
0.0
 11
5.8843355005
 21
5.6597751148
 31
0.0
  0
SPLINE
  5
2A9
100
AcDbEntity
  8
0
100
AcDbSpline
 62
6
  6
CONTINUOUS
 70
0
 71
3
 72
37
 73
33
 74
31
 42
0.0000001
 43
0.0000001
 44
0.0000000001
 12
0.0412409594
 22
0.0491732974
 32
0.0
 13
0.0
 23
0.0641781108
 33
0.0
 40
0.0
 40
0.0
 40
0.0
 40
0.0
 40
0.0007036375
 40
0.0015260976
 40
0.0024738361
 40
0.0035510711
 40
0.0061042633
 40
0.0092008608
 40
0.0128479084
 40
0.0170468272
 40
0.0217969454
 40
0.0270966011
 40
0.0329435216
 40
0.0393350369
 40
0.0537397579
 40
0.070285493
 40
0.0889450549
 40
0.1096861289
 40
0.1324563544
 40
0.1571972903
 40
0.1838502133
 40
0.212356207
 40
0.2426562189
 40
0.3083792039
 40
0.3803927094
 40
0.4580221875
 40
0.5405834035
 40
0.6273359082
 40
0.7175178626
 40
0.8103377092
 40
0.9048372733
 40
1.0
 40
1.0
 40
1.0
 40
1.0
 10
6.0441291899
 20
5.5957060149
 30
0.0
 10
6.0441388628
 20
5.5957175483
 30
0.0
 10
6.0441579731
 20
5.595744135
 30
0.0
 10
6.0441844649
 20
5.5957900095
 30
0.0
 10
6.0442109571
 20
5.5958449119
 30
0.0
 10
6.0442484192
 20
5.5959354455
 30
0.0
 10
6.0442941375
 20
5.596072058
 30
0.0
 10
6.0443464521
 20
5.5962639977
 30
0.0
 10
6.0443987292
 20
5.596492231
 30
0.0
 10
6.044450941
 20
5.5967566178
 30
0.0
 10
6.0445030085
 20
5.5970569785
 30
0.0
 10
6.0445548804
 20
5.5973930879
 30
0.0
 10
6.0446065127
 20
5.5977647173
 30
0.0
 10
6.0446778519
 20
5.5983302164
 30
0.0
 10
6.0447649202
 20
5.5991243542
 30
0.0
 10
6.0448643389
 20
5.600181008
 30
0.0
 10
6.0449620579
 20
5.6013738806
 30
0.0
 10
6.0450577711
 20
5.6027004515
 30
0.0
 10
6.0451512781
 20
5.6041575669
 30
0.0
 10
6.0452423501
 20
5.605741531
 30
0.0
 10
6.045330757
 20
5.607448525
 30
0.0
 10
6.0454162803
 20
5.6092747277
 30
0.0
 10
6.0455292451
 20
5.6119363504
 30
0.0
 10
6.0456601485
 20
5.615528755
 30
0.0
 10
6.0457990334
 20
5.6201339449
 30
0.0
 10
6.0459222762
 20
5.6250999126
 30
0.0
 10
6.0460284969
 20
5.6303816444
 30
0.0
 10
6.0461168425
 20
5.6359322702
 30
0.0
 10
6.0461864971
 20
5.6417026371
 30
0.0
 10
6.0462365788
 20
5.6476389428
 30
0.0
 10
6.0462668484
 20
5.6536819344
 30
0.0
 10
6.0462736513
 20
5.6577393268
 30
0.0
 10
6.0462736513
 20
5.6597751148
 30
0.0
 11
6.0441291899
 21
5.5957060149
 31
0.0
 11
6.0441558968
 21
5.5957424291
 31
0.0
 11
6.0441825864
 21
5.5957879682
 31
0.0
 11
6.044209255
 21
5.595842634
 31
0.0
 11
6.0442358986
 21
5.5959064287
 31
0.0
 11
6.0442890955
 21
5.5960614121
 31
0.0
 11
6.0443421464
 21
5.5962529342
 31
0.0
 11
6.0443950207
 21
5.5964809445
 31
0.0
 11
6.0444476891
 21
5.5967452262
 31
0.0
 11
6.0445001222
 21
5.5970455368
 31
0.0
 11
6.0445522907
 21
5.5973816341
 31
0.0
 11
6.0446041652
 21
5.5977532755
 31
0.0
 11
6.0446557164
 21
5.5981602186
 31
0.0
 11
6.0447577316
 21
5.5990790404
 31
0.0
 11
6.0448581016
 21
5.6001361603
 31
0.0
 11
6.0449565917
 21
5.6013296387
 31
0.0
 11
6.0450529714
 21
5.6026572679
 31
0.0
 11
6.0451470281
 21
5.6041155879
 31
0.0
 11
6.045238555
 21
5.6057007743
 31
0.0
 11
6.0453273451
 21
5.6074090026
 31
0.0
 11
6.0454131913
 21
5.6092364481
 31
0.0
 11
6.0454958867
 21
5.6111792865
 31
0.0
 11
6.0456510414
 21
5.6153944089
 31
0.0
 11
6.0457914567
 21
5.6200139662
 31
0.0
 11
6.0459158738
 21
5.6249945256
 31
0.0
 11
6.0460230832
 21
5.6302920638
 31
0.0
 11
6.046112177
 21
5.6358589628
 31
0.0
 11
6.046182361
 21
5.6416462447
 31
0.0
 11
6.0462329035
 21
5.6476030326
 31
0.0
 11
6.0462634208
 21
5.6536677593
 31
0.0
 11
6.0462736513
 21
5.6597751148
 31
0.0
  0
SPLINE
  5
2AA
100
AcDbEntity
  8
0
100
AcDbSpline
 62
6
  6
CONTINUOUS
 70
0
 71
3
 72
31
 73
27
 74
25
 42
0.0000001
 43
0.0000001
 44
0.0000000001
 12
-0.0384781961
 22
0.0497031191
 32
0.0
 13
0.0
 23
0.0628567548
 33
0.0
 40
0.0
 40
0.0
 40
0.0
 40
0.0
 40
0.0158209224
 40
0.0328150021
 40
0.0510097022
 40
0.0704220273
 40
0.0910524736
 40
0.1128922017
 40
0.1359277326
 40
0.1601420188
 40
0.1855152403
 40
0.2120254038
 40
0.239648653
 40
0.2683541806
 40
0.2981027373
 40
0.3288534355
 40
0.3605644422
 40
0.3931931644
 40
0.4610288691
 40
0.5320020912
 40
0.605716106
 40
0.6817629454
 40
0.759728747
 40
0.8391295277
 40
0.9194074792
 40
1.0
 40
1.0
 40
1.0
 40
1.0
 10
5.7356456652
 20
5.5985701351
 30
0.0
 10
5.735442745
 20
5.5988322515
 30
0.0
 10
5.7350406234
 20
5.599390605
 30
0.0
 10
5.7344669285
 20
5.600292909
 30
0.0
 10
5.733902349
 20
5.6012884107
 30
0.0
 10
5.7333479427
 20
5.6023757856
 30
0.0
 10
5.7328043537
 20
5.6035532307
 30
0.0
 10
5.7322723524
 20
5.6048186851
 30
0.0
 10
5.7317527555
 20
5.6061700215
 30
0.0
 10
5.7312463824
 20
5.607605098
 30
0.0
 10
5.7307540578
 20
5.6091217655
 30
0.0
 10
5.7302765976
 20
5.6107178618
 30
0.0
 10
5.7298148927
 20
5.6123911158
 30
0.0
 10
5.7293696908
 20
5.6141389287
 30
0.0
 10
5.7289415284
 20
5.6159583664
 30
0.0
 10
5.728531047
 20
5.6178463581
 30
0.0
 10
5.7281388653
 20
5.6197998198
 30
0.0
 10
5.7276346678
 20
5.6225229965
 30
0.0
 10
5.7270571736
 20
5.6260687754
 30
0.0
 10
5.7264555482
 20
5.6304812208
 30
0.0
 10
5.725939643
 20
5.6350776419
 30
0.0
 10
5.7255126254
 20
5.6398302534
 30
0.0
 10
5.7251780394
 20
5.6447096806
 30
0.0
 10
5.7249378986
 20
5.6496834036
 30
0.0
 10
5.7247928747
 20
5.6547158329
 30
0.0
 10
5.7247603451
 20
5.65808652
 30
0.0
 10
5.7247603451
 20
5.6597751148
 30
0.0
 11
5.7356456652
 21
5.5985701351
 31
0.0
 11
5.7350626838
 21
5.5993757821
 31
0.0
 11
5.7344878731
 21
5.6002761311
 31
0.0
 11
5.7339221605
 21
5.6012700763
 31
0.0
 11
5.733366461
 21
5.6023563892
 31
0.0
 11
5.7328216182
 21
5.6035331391
 31
0.0
 11
5.7322884501
 21
5.6047981456
 31
0.0
 11
5.7317677748
 21
5.6061492281
 31
0.0
 11
5.7312604106
 21
5.6075842058
 31
0.0
 11
5.7307671754
 21
5.6091008983
 31
0.0
 11
5.7302888874
 21
5.6106971248
 31
0.0
 11
5.7298263624
 21
5.6123706945
 31
0.0
 11
5.7293803343
 21
5.6141190332
 31
0.0
 11
5.7289514317
 21
5.6159390772
 31
0.0
 11
5.7285402765
 21
5.6178277306
 31
0.0
 11
5.7281474906
 21
5.6197818976
 31
0.0
 11
5.7277736957
 21
5.6217984824
 31
0.0
 11
5.7270855667
 21
5.6260065219
 31
0.0
 11
5.7264804931
 21
5.6304264443
 31
0.0
 11
5.7259618614
 21
5.6350307506
 31
0.0
 11
5.7255328088
 21
5.6397915136
 31
0.0
 11
5.7251964336
 21
5.6446806331
 31
0.0
 11
5.7249548511
 21
5.6496656582
 31
0.0
 11
5.7248091438
 21
5.6547095655
 31
0.0
 11
5.7247603451
 21
5.6597751148
 31
0.0
  0
SPLINE
  5
2AB
100
AcDbEntity
  8
0
100
AcDbSpline
 62
6
  6
CONTINUOUS
 70
0
 71
3
 72
23
 73
19
 74
17
 42
0.0000001
 43
0.0000001
 44
0.0000000001
 12
-0.0326546297
 22
0.0481659779
 32
0.0
 13
0.0
 23
0.0581918059
 33
0.0
 40
0.0
 40
0.0
 40
0.0
 40
0.0
 40
0.0444353779
 40
0.0919166024
 40
0.1424068078
 40
0.195838599
 40
0.252087793
 40
0.3109917699
 40
0.3723737257
 40
0.4360466969
 40
0.5018060854
 40
0.5694269979
 40
0.6386781465
 40
0.7093245238
 40
0.7811064841
 40
0.8537024569
 40
0.9267786161
 40
1.0
 40
1.0
 40
1.0
 40
1.0
 10
5.5830629731
 20
5.6036414386
 30
0.0
 10
5.5825792995
 20
5.6043548631
 30
0.0
 10
5.5816340639
 20
5.6058685524
 30
0.0
 10
5.5803210022
 20
5.6083004965
 30
0.0
 10
5.5790711561
 20
5.6109596155
 30
0.0
 10
5.5778911236
 20
5.6138349144
 30
0.0
 10
5.5767853826
 20
5.616913419
 30
0.0
 10
5.5757582317
 20
5.6201809184
 30
0.0
 10
5.5748142696
 20
5.6236228745
 30
0.0
 10
5.5739583092
 20
5.6272245153
 30
0.0
 10
5.5731942865
 20
5.6309703001
 30
0.0
 10
5.57252483
 20
5.6348439338
 30
0.0
 10
5.5719528963
 20
5.6388289168
 30
0.0
 10
5.5714815065
 20
5.6429082788
 30
0.0
 10
5.571113409
 20
5.6470633652
 30
0.0
 10
5.5708491834
 20
5.6512735549
 30
0.0
 10
5.5706898372
 20
5.6555169209
 30
0.0
 10
5.5706541341
 20
5.6583548199
 30
0.0
 10
5.5706541341
 20
5.6597751148
 30
0.0
 11
5.5830629731
 21
5.6036414386
 31
0.0
 11
5.5816882237
 21
5.6058314833
 31
0.0
 11
5.5803709622
 21
5.6082602879
 31
0.0
 11
5.5791172164
 21
5.610917476
 31
0.0
 11
5.5779329218
 21
5.6137923926
 31
0.0
 11
5.576823143
 21
5.6168717603
 31
0.0
 11
5.5757924668
 21
5.6201408628
 31
0.0
 11
5.5748454751
 21
5.6235849691
 31
0.0
 11
5.5739867316
 21
5.6271893278
 31
0.0
 11
5.573220095
 21
5.6309384045
 31
0.0
 11
5.5725485151
 21
5.6348156551
 31
0.0
 11
5.5719748813
 21
5.6388044682
 31
0.0
 11
5.5715020823
 21
5.6428882304
 31
0.0
 11
5.5711325326
 21
5.6470489731
 31
0.0
 11
5.5708673902
 21
5.6512651351
 31
0.0
 11
5.5707076068
 21
5.6555145658
 31
0.0
 11
5.5706541341
 21
5.6597751148
 31
0.0
  0
SPLINE
  5
2AC
100
AcDbEntity
  8
0
100
AcDbSpline
 62
6
  6
CONTINUOUS
 70
0
 71
3
 72
23
 73
19
 74
17
 42
0.0000001
 43
0.0000001
 44
0.0000000001
 12
-0.0221738167
 22
0.0423923198
 32
0.0
 13
-0.0
 23
0.0478412681
 33
0.0
 40
0.0
 40
0.0
 40
0.0
 40
0.0
 40
0.0536174688
 40
0.1088236107
 40
0.1655526012
 40
0.2237322229
 40
0.2832853016
 40
0.344128653
 40
0.4061683702
 40
0.4693053023
 40
0.5334372645
 40
0.5984598635
 40
0.6642664676
 40
0.7307280577
 40
0.7976900979
 40
0.864995109
 40
0.9324846441
 40
1.0
 40
1.0
 40
1.0
 40
1.0
 10
5.4349290133
 20
5.6134117461
 30
0.0
 10
5.434532712
 20
5.6141694024
 30
0.0
 10
5.4337607484
 20
5.6157242966
 30
0.0
 10
5.4326794811
 20
5.6181334481
 30
0.0
 10
5.4316601205
 20
5.62064812
 30
0.0
 10
5.4307053403
 20
5.6232618849
 30
0.0
 10
5.4298178196
 20
5.6259683564
 30
0.0
 10
5.4290001944
 20
5.6287609237
 30
0.0
 10
5.4282540375
 20
5.6316324867
 30
0.0
 10
5.4275810358
 20
5.634575869
 30
0.0
 10
5.4269828735
 20
5.6375838635
 30
0.0
 10
5.4264611995
 20
5.6406492442
 30
0.0
 10
5.4260178787
 20
5.6437644526
 30
0.0
 10
5.4256540401
 20
5.6469210608
 30
0.0
 10
5.4253700254
 20
5.6501098259
 30
0.0
 10
5.4251664298
 20
5.653321159
 30
0.0
 10
5.4250437962
 20
5.6565454077
 30
0.0
 10
5.4250163697
 20
5.6586984414
 30
0.0
 10
5.4250163697
 20
5.6597751148
 30
0.0
 11
5.4349290133
 21
5.6134117461
 31
0.0
 11
5.4337868765
 21
5.6157085708
 31
0.0
 11
5.4327041047
 21
5.6181175504
 31
0.0
 11
5.4316833615
 21
5.6206322686
 31
0.0
 11
5.4307273106
 21
5.6232463094
 31
0.0
 11
5.4298386157
 21
5.6259532565
 31
0.0
 11
5.4290197314
 21
5.6287465198
 31
0.0
 11
5.4282724632
 21
5.6316189687
 31
0.0
 11
5.4275984908
 21
5.6345633683
 31
0.0
 11
5.426999494
 21
5.6375724835
 31
0.0
 11
5.4264771527
 21
5.6406390793
 31
0.0
 11
5.4260331283
 21
5.6437558813
 31
0.0
 11
5.4256685707
 21
5.6469145198
 31
0.0
 11
5.4253840627
 21
5.65010541
 31
0.0
 11
5.4251801577
 21
5.6533189045
 31
0.0
 11
5.4250574089
 21
5.6565453553
 31
0.0
 11
5.4250163697
 21
5.6597751148
 31
0.0
  0
SPLINE
  5
2AD
100
AcDbEntity
  8
0
100
AcDbSpline
 62
6
  6
CONTINUOUS
 70
0
 71
3
 72
12
 73
8
 74
6
 42
0.0000001
 43
0.0000001
 44
0.0000000001
 12
-0.0052271611
 22
0.0223532668
 32
0.0
 13
0.0
 23
0.0229563009
 33
0.0
 40
0.0
 40
0.0
 40
0.0
 40
0.0
 40
0.2456657275
 40
0.370070932
 40
0.4952781017
 40
0.7472616972
 40
1.0
 40
1.0
 40
1.0
 40
1.0
 10
5.2932530696
 20
5.6370108905
 30
0.0
 10
5.2928250249
 20
5.6388413677
 30
0.0
 10
5.292264267
 20
5.6416193704
 30
0.0
 10
5.2916783076
 20
5.6453640784
 30
0.0
 10
5.2911943578
 20
5.6491722124
 30
0.0
 10
5.2907904212
 20
5.6539781588
 30
0.0
 10
5.2906817251
 20
5.657841136
 30
0.0
 10
5.2906817251
 20
5.6597751148
 30
0.0
 11
5.2932530696
 21
5.6370108905
 31
0.0
 11
5.2921346967
 21
5.6425384636
 31
0.0
 11
5.2916927898
 21
5.6453599504
 31
0.0
 11
5.2913301228
 21
5.6482112721
 31
0.0
 11
5.2908444827
 21
5.6539754616
 31
0.0
 11
5.2906817251
 21
5.6597751148
 31
0.0
  0
ENDSEC
  0
SECTION
  2
OBJECTS
  0
DICTIONARY
  5
C
100
AcDbDictionary
280
0
281
1
  3
ACAD_GROUP
350
D
  3
ACAD_MLINESTYLE
350
17
  3
ACAD_LAYOUT
350
1A
  3
ACAD_PLOTSETTINGS
350
19
  3
ACAD_PLOTSTYLENAME
350
E
  0
DICTIONARY
  5
D
102
{ACAD_REACTORS
330
C
102
}
100
AcDbDictionary
280
0
281
1
  0
ACDBDICTIONARYWDFLT
  5
E
102
{ACAD_REACTORS
330
C
102
}
100
AcDbDictionary
281
1
  3
Normal
350
F
100
AcDbDictionaryWithDefault
340
F
  0
DICTIONARY
  5
17
102
{ACAD_REACTORS
330
C
102
}
100
AcDbDictionary
280
0
281
1
  3
Standard
350
18
  0
DICTIONARY
  5
19
102
{ACAD_REACTORS
330
C
102
}
100
AcDbDictionary
281
1
  0
DICTIONARY
  5
1A
102
{ACAD_REACTORS
330
C
102
}
100
AcDbDictionary
281
1
  3
Model
350
2AE
  3
Layout1
350
2AF
  0
ACDBPLACEHOLDER
  5
F
102
{ACAD_REACTORS
330
E
102
}
  0
MLINESTYLE
  5
18
102
{ACAD_REACTORS
330
17
102
}
100
AcDbMlineStyle
  2
STANDARD
 70
0
  3

 62
256
 51
90.0
 52
90.0
 71
2
 49
0.5
 62
256
  6
BYLAYER
 49
-0.5
 62
256
  6
BYLAYER
  0
LAYOUT
  5
2AE
102
{ACAD_REACTORS
330
1A
102
}
100
AcDbPlotSettings
  1

  2
none_device
  4
ISO_A4_(297.00_x_210.00_MM)
  6

 40
0.0
 41
0.0
 42
0.0
 43
0.0
 44
297.0
 45
210.0
 46
0.0
 47
0.0
 48
0.0
 49
0.0
140
0.0
141
0.0
142
1.0
143
1.0
 70
1024
 72
0
 73
0
 74
0
  7

 75
0
147
1.0
148
0.0
149
0.0
100
AcDbLayout
  1
Model
 70
0
 71
0
 10
0.0
 20
0.0
 11
11.6929133858
 21
8.2677165354
 12
0.0
 22
0.0
 32
0.0
 14
0.0
 24
0.0
 34
0.0
 15
0.0
 25
0.0
 35
0.0
146
0.0
 13
0.0
 23
0.0
 33
0.0
 16
1.0
 26
0.0
 36
0.0
 17
0.0
 27
1.0
 37
0.0
 76
0
330
204
345
0
346
0
  0
LAYOUT
  5
2AF
102
{ACAD_REACTORS
330
1A
102
}
100
AcDbPlotSettings
  1

  2
none_device
  4
ISO_A4_(297.00_x_210.00_MM)
  6

 40
0.0
 41
0.0
 42
0.0
 43
0.0
 44
297.0
 45
210.0
 46
0.0
 47
0.0
 48
0.0
 49
0.0
140
0.0
141
0.0
142
1.0
143
1.0
 70
0
 72
0
 73
0
 74
0
  7

 75
0
147
1.0
148
0.0
149
0.0
100
AcDbLayout
  1
Layout1
 70
0
 71
1
 10
0.0
 20
0.0
 11
11.6929133858
 21
8.2677165354
 12
0.0
 22
0.0
 32
0.0
 14
0.0
 24
0.0
 34
0.0
 15
0.0
 25
0.0
 35
0.0
146
0.0
 13
0.0
 23
0.0
 33
0.0
 16
1.0
 26
0.0
 36
0.0
 17
0.0
 27
1.0
 37
0.0
 76
0
330
205
345
0
346
0
  0
ENDSEC
  0
EOF
