999
DXF file: E:\BT Custom\CADOUTPUT\_RIGHT.dxf
999
Pro/ENGINEER 2018400 by Parametric Technology Corporation
  0
SECTION
  2
HEADER
  9
$ACADVER
  1
AC1018
  9
$DWGCODEPAGE
  3
ANSI_1252
  9
$EXTMAX
 10
22.0
 20
17.0
 30
0.0
  9
$EXTMIN
 10
0.0
 20
0.0
 30
0.0
  9
$LIMMIN
 10
0.0
 20
0.0
  9
$LIMMAX
 10
22.0
 20
17.0
  9
$VIEWCTR
 10
11.0
 20
8.5
  9
$VIEWSIZE
 40
17.0
  9
$CLAYER
  8
0
  9
$LTSCALE
 40
1.21
  9
$CELTYPE
  6
BYLAYER
  9
$DIMSCALE
 40
1.0
  9
$DIMASZ
 40
0.1
  9
$DIMEXO
 40
0.0625
  9
$DIMDLI
 40
0.836
  9
$DIMEXE
 40
0.125
  9
$DIMCEN
 40
0.198
  9
$DIMLFAC
 40
1.0
  9
$DIMBLK
  1
_FILLED
  9
$DIMALT
 70
1
  9
$DIMALTD
 70
2
  9
$DIMALTTD
 70
2
  9
$DIMALTF
 40
25.4
  9
$DIMTXT
 40
0.08
  9
$DIMTOL
 70
1
  9
$DIMLIM
 70
0
  9
$DIMTFAC
 40
1.0
  9
$DIMTP
 40
0.001
  9
$DIMTM
 40
0.001
  9
$DIMGAP
 40
0.09
  9
$DIMDSEP
 70
46
  9
$AUNITS
 70
0
  9
$PDMODE
 70
3
  9
$PDSIZE
 40
0.06
  9
$HANDSEED
  5
2C3
  9
$TILEMODE
 70
1
  9
$MEASUREMENT
 70
0
  9
$INSUNITS
 70
1
  0
ENDSEC
  0
SECTION
  2
CLASSES
  0
CLASS
  1
ACDBDICTIONARYWDFLT
  2
AcDbDictionaryWithDefault
  3
AutoCAD 2000
 90
0
 91
1
280
0
281
0
  0
CLASS
  1
ACDBPLACEHOLDER
  2
AcDbPlaceHolder
  3
AutoCAD 2000
 90
0
 91
1
280
0
281
0
  0
CLASS
  1
LAYOUT
  2
AcDbLayout
  3
AutoCAD 2000
 90
0
 91
0
280
0
281
0
  0
ENDSEC
  0
SECTION
  2
TABLES
  0
TABLE
  2
VPORT
  5
8
100
AcDbSymbolTable
 70
2
  0
VPORT
  5
1F4
100
AcDbSymbolTableRecord
100
AcDbViewportTableRecord
  2
*ACTIVE
 70
0
 10
0.0
 20
0.0
 11
1.0
 21
1.0
 12
11.0
 22
8.5
 13
0.0
 23
0.0
 14
1.0
 24
1.0
 15
0.0
 25
0.0
 16
0.0
 26
0.0
 36
1.0
 17
0.0
 27
0.0
 37
0.0
 40
17.0
 41
1.2941176471
 42
50.0
 43
0.0
 44
0.0
 50
0.0
 51
0.0
 71
0
 72
100
 73
1
 74
1
 75
0
 76
0
 77
0
 78
0
  0
ENDTAB
  0
TABLE
  2
LTYPE
  5
5
100
AcDbSymbolTable
 70
6
  0
LTYPE
  5
14
100
AcDbSymbolTableRecord
100
AcDbLinetypeTableRecord
  2
BYBLOCK
 70
0
  3

 72
65
 73
0
 40
0.0
  0
LTYPE
  5
15
100
AcDbSymbolTableRecord
100
AcDbLinetypeTableRecord
  2
BYLAYER
 70
0
  3

 72
65
 73
0
 40
0.0
  0
LTYPE
  5
16
100
AcDbSymbolTableRecord
100
AcDbLinetypeTableRecord
  2
CONTINUOUS
 70
64
  3
Solid line
 72
65
 73
0
 40
0.0
  0
LTYPE
  5
1F5
100
AcDbSymbolTableRecord
100
AcDbLinetypeTableRecord
  2
CENTER
 70
64
  3
____ _ ____ _ ____ _ ____ _ ____ _ ____ _ ____
 72
65
 73
4
 40
0.6
 49
0.375
 74
0
 49
-0.075
 74
0
 49
0.075
 74
0
 49
-0.075
 74
0
  0
LTYPE
  5
1F6
100
AcDbSymbolTableRecord
100
AcDbLinetypeTableRecord
  2
HIDDEN
 70
64
  3
- - - - - - - - - - - - - - - - - - - -
 72
65
 73
2
 40
0.2
 49
0.1
 74
0
 49
-0.1
 74
0
  0
LTYPE
  5
1F7
100
AcDbSymbolTableRecord
100
AcDbLinetypeTableRecord
  2
PHANTOM
 70
64
  3
_____ _ _ _____ _ _ _____ _ _ _____
 72
65
 73
6
 40
0.8
 49
0.45
 74
0
 49
-0.05
 74
0
 49
0.1
 74
0
 49
-0.05
 74
0
 49
0.1
 74
0
 49
-0.05
 74
0
  0
LTYPE
  5
1F8
100
AcDbSymbolTableRecord
100
AcDbLinetypeTableRecord
  2
DOT
 70
64
  3
. . . . . . . . . . . . . . . . . . . .
 72
65
 73
2
 40
0.2
 49
0.1
 74
0
 49
-0.1
 74
0
  0
LTYPE
  5
1F9
100
AcDbSymbolTableRecord
100
AcDbLinetypeTableRecord
  2
DASHED
 70
64
  3
- - - - - - - - - - - - - - - - - - - -
 72
65
 73
2
 40
0.2
 49
0.1
 74
0
 49
-0.1
 74
0
  0
ENDTAB
  0
TABLE
  2
LAYER
  5
2
100
AcDbSymbolTable
 70
36
  0
LAYER
  5
10
100
AcDbSymbolTableRecord
100
AcDbLayerTableRecord
  2
0
 70
0
 62
7
  6
CONTINUOUS
370
-3
390
F
  0
LAYER
  5
1FA
100
AcDbSymbolTableRecord
100
AcDbLayerTableRecord
  2
DEFAULT_1
 70
0
 62
7
  6
CENTER
370
-3
390
F
  0
LAYER
  5
1FB
100
AcDbSymbolTableRecord
100
AcDbLayerTableRecord
  2
DEFAULT_2
 70
0
 62
8
  6
HIDDEN
370
-3
390
F
  0
LAYER
  5
1FC
100
AcDbSymbolTableRecord
100
AcDbLayerTableRecord
  2
DEFAULT_3
 70
0
 62
7
  6
PHANTOM
370
-3
390
F
  0
LAYER
  5
1FD
100
AcDbSymbolTableRecord
100
AcDbLayerTableRecord
  2
ALL_FEATURES
 70
0
 62
7
  6
CONTINUOUS
370
-3
390
F
  0
LAYER
  5
1FE
100
AcDbSymbolTableRecord
100
AcDbLayerTableRecord
  2
AXES_FEATURES
 70
0
 62
7
  6
CONTINUOUS
370
-3
390
F
  0
LAYER
  5
1FF
100
AcDbSymbolTableRecord
100
AcDbLayerTableRecord
  2
DEFAULT_COORDINATE_SYSTEM
 70
0
 62
7
  6
CONTINUOUS
370
-3
390
F
  0
LAYER
  5
200
100
AcDbSymbolTableRecord
100
AcDbLayerTableRecord
  2
DEFAULT_DATUM_AXES
 70
0
 62
7
  6
CONTINUOUS
370
-3
390
F
  0
LAYER
  5
201
100
AcDbSymbolTableRecord
100
AcDbLayerTableRecord
  2
DEFAULT_DATUM_PLANES
 70
0
 62
7
  6
CONTINUOUS
370
-3
390
F
  0
LAYER
  5
202
100
AcDbSymbolTableRecord
100
AcDbLayerTableRecord
  2
DIMENSIONS
 70
0
 62
7
  6
CONTINUOUS
370
-3
390
F
  0
ENDTAB
  0
TABLE
  2
STYLE
  5
3
100
AcDbSymbolTable
 70
1
  0
STYLE
  5
11
100
AcDbSymbolTableRecord
100
AcDbTextStyleTableRecord
  2
STANDARD
 70
0
 40
0.0
 41
0.8
 50
0.0
 71
0
 42
0.2
  3
txt
  4

  0
STYLE
  5
203
100
AcDbSymbolTableRecord
100
AcDbTextStyleTableRecord
  2
TEXTSTYLE_1
 70
0
 40
0.0
 41
0.8
 50
0.0
 71
0
 42
0.2
  3
gdt
  4

  0
ENDTAB
  0
TABLE
  2
VIEW
  5
6
100
AcDbSymbolTable
 70
0
  0
ENDTAB
  0
TABLE
  2
UCS
  5
7
100
AcDbSymbolTable
 70
0
  0
ENDTAB
  0
TABLE
  2
APPID
  5
9
100
AcDbSymbolTable
 70
1
  0
APPID
  5
204
100
AcDbSymbolTableRecord
100
AcDbRegAppTableRecord
  2
ACAD
 70
0
  0
ENDTAB
  0
TABLE
  2
BLOCK_RECORD
  5
1
100
AcDbSymbolTable
 70
0
  0
BLOCK_RECORD
  5
205
100
AcDbSymbolTableRecord
100
AcDbBlockTableRecord
  2
*Model_Space
  0
BLOCK_RECORD
  5
206
100
AcDbSymbolTableRecord
100
AcDbBlockTableRecord
  2
*Paper_Space
  0
BLOCK_RECORD
  5
207
100
AcDbSymbolTableRecord
100
AcDbBlockTableRecord
  2
_FILLED
  0
ENDTAB
  0
TABLE
  2
DIMSTYLE
  5
A
100
AcDbSymbolTable
 70
1
100
AcDbDimStyleTable
 71
0
  0
DIMSTYLE
105
208
100
AcDbSymbolTableRecord
100
AcDbDimStyleTableRecord
  2
STANDARD
 70
0
  3

  4

 40
1.0
 41
0.1
 42
0.0625
 43
0.38
 44
0.125
 45
0.0
 46
0.0
 47
0.001
 48
0.001
140
0.08
141
0.09
142
0.0
143
25.4
144
1.0
145
0.0
146
1.0
147
0.09
 71
1.0
 72
0.0
 73
1
 74
1
 75
0
 76
0
 77
0
 78
4
 79
1
170
1
171
2
172
0
173
0
174
0
175
0
176
0
177
0
178
0
270
2
179
3
271
3
272
3
273
2
274
2
275
0
280
0
281
0
282
0
283
1
284
4
285
0
286
0
287
3
288
0
340
11
278
46
341
207
342
207
343
207
344
207
  0
ENDTAB
  0
ENDSEC
  0
SECTION
  2
BLOCKS
  0
BLOCK
  5
20
100
AcDbEntity
  8
0
100
AcDbBlockBegin
  2
*Model_Space
 70
0
 10
0.0
 20
0.0
 30
0.0
  3
*Model_Space
  1

  0
ENDBLK
  5
21
100
AcDbEntity
  8
0
100
AcDbBlockEnd
  0
BLOCK
  5
1C
100
AcDbEntity
  8
0
100
AcDbBlockBegin
  2
*Paper_Space
 70
0
 10
0.0
 20
0.0
 30
0.0
  3
*Paper_Space
  1

  0
ENDBLK
  5
1D
100
AcDbEntity
  8
0
100
AcDbBlockEnd
  0
BLOCK
  5
209
100
AcDbEntity
  8
0
100
AcDbBlockBegin
  2
_FILLED
 70
64
 10
0.0
 20
0.0
  3
_FILLED
  1

  0
SOLID
  5
20A
100
AcDbEntity
  8
0
  6
BYBLOCK
 62
0
100
AcDbTrace
 10
0.0
 20
0.0
 11
-1.0
 21
0.2
 12
-1.0
 22
-0.2
 13
-1.0
 23
-0.2
  0
ENDBLK
  5
20B
100
AcDbEntity
  8
0
  6
BYBLOCK
 62
0
100
AcDbBlockEnd
  0
ENDSEC
  0
SECTION
  2
ENTITIES
  0
LINE
  5
20C
100
AcDbEntity
  8
0
100
AcDbLine
 62
7
  6
CONTINUOUS
 10
9.1424834891
 20
9.179891804
 11
9.1424834891
 21
8.839891804
  0
LINE
  5
20D
100
AcDbEntity
  8
0
100
AcDbLine
 62
7
  6
CONTINUOUS
 10
9.1524834891
 20
9.189891804
 11
9.1524834891
 21
8.829891804
  0
LINE
  5
20E
100
AcDbEntity
  8
0
100
AcDbLine
 62
7
  6
CONTINUOUS
 10
9.2084834891
 20
9.282391804
 11
9.2084834891
 21
8.737391804
  0
LINE
  5
20F
100
AcDbEntity
  8
0
100
AcDbLine
 62
7
  6
CONTINUOUS
 10
9.2324834891
 20
8.714391804
 11
9.2324834891
 21
9.305391804
  0
LINE
  5
210
100
AcDbEntity
  8
0
100
AcDbLine
 62
9
  6
CONTINUOUS
 10
9.2674834891
 20
8.679391804
 11
9.2674834891
 21
9.340391804
  0
LINE
  5
211
100
AcDbEntity
  8
0
100
AcDbLine
 62
7
  6
CONTINUOUS
 10
9.3504865698
 20
9.340391804
 11
9.3504865698
 21
8.679391804
  0
LINE
  5
212
100
AcDbEntity
  8
0
100
AcDbLine
 62
7
  6
CONTINUOUS
 10
9.1524834891
 20
9.189891804
 11
9.1424834891
 21
9.179891804
  0
LINE
  5
213
100
AcDbEntity
  8
0
100
AcDbLine
 62
7
  6
CONTINUOUS
 10
12.1274834891
 20
7.724891804
 11
12.2774834891
 21
7.724891804
  0
LINE
  5
214
100
AcDbEntity
  8
0
100
AcDbLine
 62
7
  6
CONTINUOUS
 10
9.1524834891
 20
8.829891804
 11
9.1424834891
 21
8.839891804
  0
LINE
  5
215
100
AcDbEntity
  8
0
100
AcDbLine
 62
7
  6
CONTINUOUS
 10
9.5939899619
 20
9.009891804
 11
9.5939899619
 21
9.509891804
  0
LINE
  5
216
100
AcDbEntity
  8
0
100
AcDbLine
 62
7
  6
CONTINUOUS
 10
12.0774834891
 20
8.0462553917
 11
12.0524834891
 21
8.0430799751
  0
LINE
  5
217
100
AcDbEntity
  8
0
100
AcDbLine
 62
7
  6
CONTINUOUS
 10
12.0774834891
 20
8.2665034434
 11
12.0581188025
 21
8.2634869394
  0
LINE
  5
218
100
AcDbEntity
  8
0
100
AcDbLine
 62
7
  6
CONTINUOUS
 10
12.0774834891
 20
8.148943013
 11
12.0524834891
 21
8.1457675965
  0
LINE
  5
219
100
AcDbEntity
  8
0
100
AcDbLine
 62
7
  6
CONTINUOUS
 10
9.8439899619
 20
9.009891804
 11
9.8439899619
 21
9.509891804
  0
LINE
  5
21A
100
AcDbEntity
  8
0
100
AcDbLine
 62
9
  6
CONTINUOUS
 10
10.0381891487
 20
9.3882261524
 11
10.0381891487
 21
8.6315574557
  0
LINE
  5
21B
100
AcDbEntity
  8
0
100
AcDbLine
 62
7
  6
CONTINUOUS
 10
12.0524834891
 20
8.2633282243
 11
12.0580942813
 21
8.2634882468
  0
LINE
  5
21C
100
AcDbEntity
  8
0
100
AcDbLine
 62
7
  6
CONTINUOUS
 10
11.6429944383
 20
8.1981447936
 11
11.8464368769
 21
8.1763116784
  0
LINE
  5
21D
100
AcDbEntity
  8
0
100
AcDbLine
 62
7
  6
CONTINUOUS
 10
11.9066688501
 20
10.0268997128
 11
11.9541831129
 21
10.0448853362
  0
LINE
  5
21E
100
AcDbEntity
  8
0
100
AcDbLine
 62
7
  6
CONTINUOUS
 10
11.8210526077
 20
8.3348843794
 11
11.7820276217
 21
8.3378270581
  0
LINE
  5
21F
100
AcDbEntity
  8
0
100
AcDbLine
 62
7
  6
CONTINUOUS
 10
11.9066688501
 20
7.9928838953
 11
11.9544663105
 21
7.9747910728
  0
LINE
  5
220
100
AcDbEntity
  8
0
100
AcDbLine
 62
7
  6
CONTINUOUS
 10
10.6766643572
 20
9.5049207765
 11
10.5474834891
 21
9.3993156185
  0
LINE
  5
221
100
AcDbEntity
  8
0
100
AcDbLine
 62
7
  6
CONTINUOUS
 10
10.5174834891
 20
8.622391804
 11
10.528406593
 21
8.622391804
  0
LWPOLYLINE
  5
222
100
AcDbEntity
  8
0
100
AcDbPolyline
 62
7
  6
CONTINUOUS
 90
8
 70
0
 10
10.5474834891
 20
8.6204679895
 10
10.6766636196
 20
8.5148633986
 10
10.8291868813
 20
8.4066567109
 10
11.0006442159
 20
8.305582096
 10
11.1928773825
 20
8.2157840813
 10
11.4075484091
 20
8.1418677907
 10
11.6452747425
 20
8.0889296857
 10
11.8732488364
 20
8.06359746
  0
LWPOLYLINE
  5
223
100
AcDbEntity
  8
0
100
AcDbPolyline
 62
7
  6
CONTINUOUS
 90
7
 70
0
 10
10.5474834891
 20
8.5999865589
 10
10.7550832762
 20
8.4240416824
 10
10.971612603
 20
8.2792567805
 10
11.1916815558
 20
8.1675555958
 10
11.4180242062
 20
8.0854282588
 10
11.654472815
 20
8.0310076647
 10
11.8924424697
 20
8.0050375556
  0
LINE
  5
224
100
AcDbEntity
  8
0
100
AcDbLine
 62
7
  6
CONTINUOUS
 10
10.4234834891
 20
9.362391804
 11
10.4234834891
 21
8.657391804
  0
LINE
  5
225
100
AcDbEntity
  8
0
100
AcDbLine
 62
7
  6
CONTINUOUS
 10
10.6265678128
 20
9.4151401012
 11
10.5970691587
 21
9.3945350645
  0
LINE
  5
226
100
AcDbEntity
  8
0
100
AcDbLine
 62
7
  6
CONTINUOUS
 10
10.4674834891
 20
8.657391804
 11
10.4234834891
 21
8.657391804
  0
LINE
  5
227
100
AcDbEntity
  8
0
100
AcDbLine
 62
7
  6
CONTINUOUS
 10
9.3504865698
 20
8.679391804
 11
9.2674834891
 21
8.679391804
  0
LINE
  5
228
100
AcDbEntity
  8
0
100
AcDbLine
 62
7
  6
CONTINUOUS
 10
9.2324834891
 20
8.737391804
 11
9.2084834891
 21
8.737391804
  0
LWPOLYLINE
  5
229
100
AcDbEntity
  8
0
100
AcDbPolyline
 62
7
  6
CONTINUOUS
 90
5
 70
0
 10
10.9395628848
 20
8.5297159261
 10
11.1124510302
 20
8.4676324089
 10
11.3553320021
 20
8.4017003598
 10
11.6075503552
 20
8.3566462117
 10
11.7820276217
 20
8.3378270581
  0
LWPOLYLINE
  5
22A
100
AcDbEntity
  8
0
100
AcDbPolyline
 62
7
  6
CONTINUOUS
 90
6
 70
0
 10
10.6271349647
 20
8.6042534554
 10
10.7498589981
 20
8.5238795333
 10
10.936939577
 20
8.4193774413
 10
11.1513017507
 20
8.3252795927
 10
11.3888409868
 20
8.2496583372
 10
11.6429944383
 20
8.1981447936
  0
LINE
  5
22B
100
AcDbEntity
  8
0
100
AcDbLine
 62
7
  6
CONTINUOUS
 10
10.6271349647
 20
8.6042534554
 11
10.5970691587
 21
8.6252485436
  0
LINE
  5
22C
100
AcDbEntity
  8
0
100
AcDbLine
 62
7
  6
CONTINUOUS
 10
10.4674834891
 20
9.362391804
 11
10.4674834891
 21
8.657391804
  0
LINE
  5
22D
100
AcDbEntity
  8
0
100
AcDbLine
 62
9
  6
CONTINUOUS
 10
10.5174834891
 20
8.622391804
 11
10.5174834891
 21
9.397391804
  0
LINE
  5
22E
100
AcDbEntity
  8
0
100
AcDbLine
 62
7
  6
CONTINUOUS
 10
10.528406593
 20
9.397391804
 11
10.528406593
 21
8.622391804
  0
LINE
  5
22F
100
AcDbEntity
  8
0
100
AcDbLine
 62
7
  6
CONTINUOUS
 10
10.5474834891
 20
8.5999934119
 11
10.5474834891
 21
8.6191795677
  0
LINE
  5
230
100
AcDbEntity
  8
0
100
AcDbLine
 62
7
  6
CONTINUOUS
 10
10.5474834891
 20
8.6204766881
 11
10.5474834891
 21
8.6587514995
  0
LINE
  5
231
100
AcDbEntity
  8
0
100
AcDbLine
 62
7
  6
CONTINUOUS
 10
10.5474834891
 20
8.6618763334
 11
10.5474834891
 21
8.7222530628
  0
LINE
  5
232
100
AcDbEntity
  8
0
100
AcDbLine
 62
7
  6
CONTINUOUS
 10
10.5474834891
 20
8.7266722453
 11
10.5474834891
 21
8.805356731
  0
LINE
  5
233
100
AcDbEntity
  8
0
100
AcDbLine
 62
7
  6
CONTINUOUS
 10
10.5474834891
 20
8.8107691021
 11
10.5474834891
 21
8.9023991264
  0
LINE
  5
234
100
AcDbEntity
  8
0
100
AcDbLine
 62
7
  6
CONTINUOUS
 10
10.5474834891
 20
8.908435842
 11
10.5474834891
 21
9.0067669701
  0
LINE
  5
235
100
AcDbEntity
  8
0
100
AcDbLine
 62
7
  6
CONTINUOUS
 10
10.5474834891
 20
9.013016638
 11
10.5474834891
 21
9.1113477661
  0
LINE
  5
236
100
AcDbEntity
  8
0
100
AcDbLine
 62
7
  6
CONTINUOUS
 10
10.5474834891
 20
9.1173844817
 11
10.5474834891
 21
9.209014506
  0
LINE
  5
237
100
AcDbEntity
  8
0
100
AcDbLine
 62
7
  6
CONTINUOUS
 10
10.5474834891
 20
9.2144268771
 11
10.5474834891
 21
9.2931113628
  0
LINE
  5
238
100
AcDbEntity
  8
0
100
AcDbLine
 62
7
  6
CONTINUOUS
 10
10.5474834891
 20
9.2975305452
 11
10.5474834891
 21
9.3579072746
  0
LINE
  5
239
100
AcDbEntity
  8
0
100
AcDbLine
 62
7
  6
CONTINUOUS
 10
10.5474834891
 20
9.3610321085
 11
10.5474834891
 21
9.39930692
  0
LINE
  5
23A
100
AcDbEntity
  8
0
100
AcDbLine
 62
7
  6
CONTINUOUS
 10
10.5474834891
 20
9.4006040404
 11
10.5474834891
 21
9.4197901962
  0
LINE
  5
23B
100
AcDbEntity
  8
0
100
AcDbLine
 62
7
  6
CONTINUOUS
 10
11.8210526077
 20
9.009891804
 11
10.5970691587
 21
9.009891804
  0
LINE
  5
23C
100
AcDbEntity
  8
0
100
AcDbLine
 62
7
  6
CONTINUOUS
 10
9.2324834891
 20
9.282391804
 11
9.2084834891
 21
9.282391804
  0
LINE
  5
23D
100
AcDbEntity
  8
0
100
AcDbLine
 62
7
  6
CONTINUOUS
 10
9.3504865698
 20
9.340391804
 11
9.2674834891
 21
9.340391804
  0
LINE
  5
23E
100
AcDbEntity
  8
0
100
AcDbLine
 62
7
  6
CONTINUOUS
 10
10.4674834891
 20
9.362391804
 11
10.4234834891
 21
9.362391804
  0
LINE
  5
23F
100
AcDbEntity
  8
0
100
AcDbLine
 62
7
  6
CONTINUOUS
 10
10.5174834891
 20
9.397391804
 11
10.528406593
 21
9.397391804
  0
LWPOLYLINE
  5
240
100
AcDbEntity
  8
0
100
AcDbPolyline
 62
7
  6
CONTINUOUS
 90
5
 70
0
 10
11.7822641307
 20
9.6819757573
 10
11.6043084659
 20
9.6626966216
 10
11.3545825361
 20
9.6179153665
 10
11.1139721059
 20
9.5526392045
 10
10.9390182381
 20
9.4898508771
  0
LINE
  5
241
100
AcDbEntity
  8
0
100
AcDbLine
 62
7
  6
CONTINUOUS
 10
9.5833433622
 20
9.509891804
 11
9.8546365615
 21
9.509891804
  0
LINE
  5
242
100
AcDbEntity
  8
0
100
AcDbLine
 62
7
  6
CONTINUOUS
 10
12.0774834891
 20
10.2098933489
 11
12.1274834891
 21
10.294891804
  0
LINE
  5
243
100
AcDbEntity
  8
0
100
AcDbLine
 62
7
  6
CONTINUOUS
 10
11.8210526077
 20
9.6848992287
 11
11.7822641307
 21
9.6819757573
  0
LINE
  5
244
100
AcDbEntity
  8
0
100
AcDbLine
 62
7
  6
CONTINUOUS
 10
12.0774834891
 20
7.8098902592
 11
12.1274834891
 21
7.724891804
  0
LWPOLYLINE
  5
245
100
AcDbEntity
  8
0
100
AcDbPolyline
 62
7
  6
CONTINUOUS
 90
7
 70
0
 10
11.873248832
 20
9.9561861478
 10
11.6452813373
 20
9.9308550013
 10
11.4075535785
 20
9.8779172865
 10
11.1928812237
 20
9.8040010894
 10
11.0006468676
 20
9.7142029166
 10
10.8291884986
 20
9.6131279505
 10
10.6766643572
 20
9.5049207765
  0
LWPOLYLINE
  5
246
100
AcDbEntity
  8
0
100
AcDbPolyline
 62
7
  6
CONTINUOUS
 90
7
 70
0
 10
11.8464424912
 20
9.8434723153
 10
11.6480021807
 20
9.8223741365
 10
11.3952505753
 20
9.7717819216
 10
11.1568317459
 20
9.6965932756
 10
10.9406898708
 20
9.6022807311
 10
10.7521179473
 20
9.4972969602
 10
10.6265678128
 20
9.4151401012
  0
LWPOLYLINE
  5
247
100
AcDbEntity
  8
0
100
AcDbPolyline
 62
7
  6
CONTINUOUS
 90
7
 70
0
 10
11.8924424697
 20
10.0147460525
 10
11.654472815
 20
9.9887759434
 10
11.4180242062
 20
9.9343553492
 10
11.1916815558
 20
9.8522280123
 10
10.971612603
 20
9.7405268276
 10
10.7550832762
 20
9.5957419257
 10
10.5474834891
 20
9.4197970492
  0
LINE
  5
248
100
AcDbEntity
  8
0
100
AcDbLine
 62
7
  6
CONTINUOUS
 10
12.0524834891
 20
9.8740160116
 11
12.0774834891
 21
9.8708405949
  0
LINE
  5
249
100
AcDbEntity
  8
0
100
AcDbLine
 62
9
  6
CONTINUOUS
 10
11.9066688501
 20
7.9928838953
 11
11.9066688501
 21
10.0268997128
  0
LINE
  5
24A
100
AcDbEntity
  8
0
100
AcDbLine
 62
7
  6
CONTINUOUS
 10
12.0774834891
 20
9.9735282167
 11
12.0524834891
 21
9.976703633
  0
LINE
  5
24B
100
AcDbEntity
  8
0
100
AcDbLine
 62
7
  6
CONTINUOUS
 10
12.0774834891
 20
7.8098902592
 11
12.0774834891
 21
10.2098933489
  0
LINE
  5
24C
100
AcDbEntity
  8
0
100
AcDbLine
 62
7
  6
CONTINUOUS
 10
12.1274834891
 20
10.294891804
 11
12.2774834891
 21
10.294891804
  0
LINE
  5
24D
100
AcDbEntity
  8
0
100
AcDbLine
 62
7
  6
CONTINUOUS
 10
12.1274834891
 20
7.724891804
 11
12.1274834891
 21
10.294891804
  0
LINE
  5
24E
100
AcDbEntity
  8
0
100
AcDbLine
 62
7
  6
CONTINUOUS
 10
12.2774834891
 20
7.724891804
 11
12.2774834891
 21
10.294891804
  0
ARC
  5
24F
100
AcDbEntity
  8
0
100
AcDbCircle
 62
7
  6
CONTINUOUS
 10
10.2484092192
 20
8.382391804
 40
0.326
100
AcDbArc
 50
57.5177951966
 51
130.1541931822
  0
ARC
  5
250
100
AcDbEntity
  8
0
100
AcDbCircle
 62
7
  6
CONTINUOUS
 10
9.1524834891
 20
8.773891804
 40
0.056
100
AcDbArc
 50
0.0
 51
90.0
  0
ARC
  5
251
100
AcDbEntity
  8
0
100
AcDbCircle
 62
7
  6
CONTINUOUS
 10
10.5174834891
 20
8.672391804
 40
0.05
100
AcDbArc
 50
180.0
 51
270.0
  0
ARC
  5
252
100
AcDbEntity
  8
0
100
AcDbCircle
 62
7
  6
CONTINUOUS
 10
9.2674834891
 20
8.714391804
 40
0.035
100
AcDbArc
 50
180.0
 51
270.0
  0
ARC
  5
253
100
AcDbEntity
  8
0
100
AcDbCircle
 62
7
  6
CONTINUOUS
 10
9.7189899619
 20
9.009891804
 40
0.495
100
AcDbArc
 50
49.8458068178
 51
75.3192364205
  0
ARC
  5
254
100
AcDbEntity
  8
0
100
AcDbCircle
 62
7
  6
CONTINUOUS
 10
9.7189899619
 20
9.009891804
 40
0.495
100
AcDbArc
 50
104.6340505296
 51
138.1119911417
  0
ARC
  5
255
100
AcDbEntity
  8
0
100
AcDbCircle
 62
7
  6
CONTINUOUS
 10
9.7189899619
 20
9.009891804
 40
0.495
100
AcDbArc
 50
221.8880088583
 51
310.1541931822
  0
ARC
  5
256
100
AcDbEntity
  8
0
100
AcDbCircle
 62
7
  6
CONTINUOUS
 10
10.2484092192
 20
9.637391804
 40
0.326
100
AcDbArc
 50
229.8458068178
 51
302.4822048034
  0
ARC
  5
257
100
AcDbEntity
  8
0
100
AcDbCircle
 62
7
  6
CONTINUOUS
 10
9.7189899619
 20
9.719891804
 40
0.25
100
AcDbArc
 50
302.8598803789
 51
237.1401196211
  0
ARC
  5
258
100
AcDbEntity
  8
0
100
AcDbCircle
 62
7
  6
CONTINUOUS
 10
9.7189899619
 20
9.009891804
 40
0.136
100
AcDbArc
 50
157.9518631338
 51
22.0481368662
  0
ARC
  5
259
100
AcDbEntity
  8
0
100
AcDbCircle
 62
7
  6
CONTINUOUS
 10
9.7189899619
 20
9.009891804
 40
0.125
100
AcDbArc
 50
180.0
 51
360.0
  0
ARC
  5
25A
100
AcDbEntity
  8
0
100
AcDbCircle
 62
7
  6
CONTINUOUS
 10
9.1524834891
 20
9.245891804
 40
0.056
100
AcDbArc
 50
270.0
 51
360.0
  0
ARC
  5
25B
100
AcDbEntity
  8
0
100
AcDbCircle
 62
7
  6
CONTINUOUS
 10
10.5174834891
 20
9.347391804
 40
0.05
100
AcDbArc
 50
90.0
 51
180.0
  0
ARC
  5
25C
100
AcDbEntity
  8
0
100
AcDbCircle
 62
7
  6
CONTINUOUS
 10
9.2674834891
 20
9.305391804
 40
0.035
100
AcDbArc
 50
90.0
 51
180.0
  0
ARC
  5
25D
100
AcDbEntity
  8
0
100
AcDbCircle
 62
7
  6
CONTINUOUS
 10
12.5502613978
 20
6.8606430307
 40
3.2345820877
100
AcDbArc
 50
127.5211968001
 51
128.2560386727
  0
ARC
  5
25E
100
AcDbEntity
  8
0
100
AcDbCircle
 62
7
  6
CONTINUOUS
 10
11.9015779914
 20
7.0704759992
 40
2.6038233578
100
AcDbArc
 50
111.6953703243
 51
120.0660119711
  0
ARC
  5
25F
100
AcDbEntity
  8
0
100
AcDbCircle
 62
7
  6
CONTINUOUS
 10
12.0941534891
 20
7.5694924601
 40
2.4068193439
100
AcDbArc
 50
129.9876618558
 51
130.5827868366
  0
ARC
  5
260
100
AcDbEntity
  8
0
100
AcDbCircle
 62
7
  6
CONTINUOUS
 10
11.5464973484
 20
8.0572254262
 40
1.6400643146
100
AcDbArc
 50
125.3729956136
 51
127.4606837971
  0
ARC
  5
261
100
AcDbEntity
  8
0
100
AcDbCircle
 62
7
  6
CONTINUOUS
 10
11.9774934891
 20
8.1799878079
 40
0.20006
100
AcDbArc
 50
240.2676736665
 51
249.26679
  0
ARC
  5
262
100
AcDbEntity
  8
0
100
AcDbCircle
 62
7
  6
CONTINUOUS
 10
12.0528403143
 20
7.9266162656
 40
0.1003553788
100
AcDbArc
 50
179.9244784876
 51
183.3660230357
  0
ARC
  5
263
100
AcDbEntity
  8
0
100
AcDbCircle
 62
7
  6
CONTINUOUS
 10
12.0526729459
 20
7.9637290966
 40
0.1001875368
100
AcDbArc
 50
173.4378488238
 51
187.9225456236
  0
ARC
  5
264
100
AcDbEntity
  8
0
100
AcDbCircle
 62
7
  6
CONTINUOUS
 10
12.0524837855
 20
7.9159180289
 40
0.1000003097
100
AcDbArc
 50
171.6561665152
 51
284.4774949088
  0
ARC
  5
265
100
AcDbEntity
  8
0
100
AcDbCircle
 62
7
  6
CONTINUOUS
 10
12.0524832932
 20
7.9105615095
 40
0.0999995946
100
AcDbArc
 50
176.0910464268
 51
284.4775793041
  0
ARC
  5
266
100
AcDbEntity
  8
0
100
AcDbCircle
 62
7
  6
CONTINUOUS
 10
12.0524837635
 20
7.9899889495
 40
0.0999994159
100
AcDbArc
 50
159.9371885229
 51
284.4768992633
  0
ARC
  5
267
100
AcDbEntity
  8
0
100
AcDbCircle
 62
7
  6
CONTINUOUS
 10
12.0524836441
 20
8.4934726629
 40
0.0999991666
100
AcDbArc
 50
135.1233254926
 51
244.7943696595
  0
ARC
  5
268
100
AcDbEntity
  8
0
100
AcDbCircle
 62
7
  6
CONTINUOUS
 10
12.0524827996
 20
8.1430790353
 40
0.0999984702
100
AcDbArc
 50
149.1407624225
 51
270.0003951032
  0
ARC
  5
269
100
AcDbEntity
  8
0
100
AcDbCircle
 62
7
  6
CONTINUOUS
 10
12.0524826434
 20
8.2457671275
 40
0.0999983405
100
AcDbArc
 50
143.4561560698
 51
270.0004845748
  0
ARC
  5
26A
100
AcDbEntity
  8
0
100
AcDbCircle
 62
7
  6
CONTINUOUS
 10
12.0524828526
 20
8.0572625014
 40
0.0999982976
100
AcDbArc
 50
154.7095066825
 51
284.4707304312
  0
ARC
  5
26B
100
AcDbEntity
  8
0
100
AcDbCircle
 62
7
  6
CONTINUOUS
 10
12.0524825005
 20
8.6336690496
 40
0.0999981942
100
AcDbArc
 50
131.8201175133
 51
237.1348095666
  0
ARC
  5
26C
100
AcDbEntity
  8
0
100
AcDbCircle
 62
7
  6
CONTINUOUS
 10
12.0524825595
 20
8.3633273143
 40
0.0999981109
100
AcDbArc
 50
139.2883254565
 51
270.0005326331
  0
ARC
  5
26D
100
AcDbEntity
  8
0
100
AcDbCircle
 62
7
  6
CONTINUOUS
 10
12.0524823654
 20
7.9266194156
 40
0.0999974261
100
AcDbArc
 50
174.8615385507
 51
179.926013027
  0
ARC
  5
26E
100
AcDbEntity
  8
0
100
AcDbCircle
 62
7
  6
CONTINUOUS
 10
12.0524812583
 20
8.7811888885
 40
0.0999970601
100
AcDbArc
 50
130.4047479075
 51
232.964515888
  0
ARC
  5
26F
100
AcDbEntity
  8
0
100
AcDbCircle
 62
7
  6
CONTINUOUS
 10
12.0524804489
 20
8.9331596704
 40
0.0999963934
100
AcDbArc
 50
129.8847170451
 51
230.7938889496
  0
ARC
  5
270
100
AcDbEntity
  8
0
100
AcDbCircle
 62
7
  6
CONTINUOUS
 10
12.05248379
 20
7.9425624733
 40
0.0999959681
100
AcDbArc
 50
166.4698194166
 51
284.4779219589
  0
ARC
  5
271
100
AcDbEntity
  8
0
100
AcDbCircle
 62
7
  6
CONTINUOUS
 10
12.4658546431
 20
11.0506708757
 40
3.0971435009
100
AcDbArc
 50
231.7276564147
 51
232.4951043004
  0
ARC
  5
272
100
AcDbEntity
  8
0
100
AcDbCircle
 62
7
  6
CONTINUOUS
 10
11.9015977771
 20
10.9493456996
 40
2.6038662359
100
AcDbArc
 50
239.9340311526
 51
248.3174340647
  0
ARC
  5
273
100
AcDbEntity
  8
0
100
AcDbCircle
 62
7
  6
CONTINUOUS
 10
12.0941534891
 20
10.450291148
 40
2.4068193439
100
AcDbArc
 50
229.4172131634
 51
230.0059898845
  0
ARC
  5
274
100
AcDbEntity
  8
0
100
AcDbCircle
 62
7
  6
CONTINUOUS
 10
11.5464973478
 20
9.9625581811
 40
1.6400643136
100
AcDbArc
 50
232.5393162029
 51
234.6270043871
  0
ARC
  5
275
100
AcDbEntity
  8
0
100
AcDbCircle
 62
7
  6
CONTINUOUS
 10
11.9774934891
 20
9.8397958002
 40
0.20006
100
AcDbArc
 50
110.73321
 51
119.7323263335
  0
ARC
  5
276
100
AcDbEntity
  8
0
100
AcDbCircle
 62
7
  6
CONTINUOUS
 10
12.0528409247
 20
10.0931672817
 40
0.1003559917
100
AcDbArc
 50
176.6339627435
 51
179.909089826
  0
ARC
  5
277
100
AcDbEntity
  8
0
100
AcDbCircle
 62
7
  6
CONTINUOUS
 10
12.0527229921
 20
10.0560565427
 40
0.1002374873
100
AcDbArc
 50
173.1479432505
 51
186.5600354412
  0
ARC
  5
278
100
AcDbEntity
  8
0
100
AcDbCircle
 62
7
  6
CONTINUOUS
 10
12.0524868268
 20
9.7740142685
 40
0.1000022854
100
AcDbArc
 50
90.0019123221
 51
216.2997082754
  0
ARC
  5
279
100
AcDbEntity
  8
0
100
AcDbCircle
 62
7
  6
CONTINUOUS
 10
12.0524850631
 20
10.0297929646
 40
0.1000013435
100
AcDbArc
 50
75.5243073732
 51
200.2437019715
  0
ARC
  5
27A
100
AcDbEntity
  8
0
100
AcDbCircle
 62
7
  6
CONTINUOUS
 10
12.0524852985
 20
9.6564549662
 40
0.1000008154
100
AcDbArc
 50
75.5238584346
 51
220.7647826038
  0
ARC
  5
27B
100
AcDbEntity
  8
0
100
AcDbCircle
 62
7
  6
CONTINUOUS
 10
12.0524839605
 20
10.1038657084
 40
0.1000003171
100
AcDbArc
 50
75.5225264752
 51
188.0372797774
  0
ARC
  5
27C
100
AcDbEntity
  8
0
100
AcDbCircle
 62
7
  6
CONTINUOUS
 10
12.0524842821
 20
9.96251957
 40
0.1000000798
100
AcDbArc
 50
75.5258469459
 51
205.8730130404
  0
ARC
  5
27D
100
AcDbEntity
  8
0
100
AcDbCircle
 62
7
  6
CONTINUOUS
 10
12.0524846373
 20
9.5263102555
 40
0.1000000768
100
AcDbArc
 50
115.2157869729
 51
225.0071709742
  0
ARC
  5
27E
100
AcDbEntity
  8
0
100
AcDbCircle
 62
7
  6
CONTINUOUS
 10
12.0524841208
 20
9.8767034289
 40
0.0999999065
100
AcDbArc
 50
90.0003618955
 51
211.5451611781
  0
ARC
  5
27F
100
AcDbEntity
  8
0
100
AcDbCircle
 62
7
  6
CONTINUOUS
 10
12.0524832517
 20
10.1092221767
 40
0.099999512
100
AcDbArc
 50
75.5224206959
 51
184.1967817307
  0
ARC
  5
280
100
AcDbEntity
  8
0
100
AcDbCircle
 62
7
  6
CONTINUOUS
 10
12.0524838634
 20
9.3861141697
 40
0.0999994122
100
AcDbArc
 50
122.8673061093
 51
227.8780142447
  0
ARC
  5
281
100
AcDbEntity
  8
0
100
AcDbCircle
 62
7
  6
CONTINUOUS
 10
12.0524812631
 20
9.2385947046
 40
0.0999970237
100
AcDbArc
 50
127.0354869623
 51
229.6003219556
  0
ARC
  5
282
100
AcDbEntity
  8
0
100
AcDbCircle
 62
7
  6
CONTINUOUS
 10
12.0524807084
 20
9.0866238624
 40
0.0999965755
100
AcDbArc
 50
129.2061991176
 51
230.1151412143
  0
ARC
  5
283
100
AcDbEntity
  8
0
100
AcDbCircle
 62
7
  6
CONTINUOUS
 10
12.0524839252
 20
10.0772230343
 40
0.0999940687
100
AcDbArc
 50
75.5218801049
 51
193.3169594295
  0
SPLINE
  5
284
100
AcDbEntity
  8
0
100
AcDbSpline
 62
7
  6
CONTINUOUS
 70
0
 71
3
 72
9
 73
5
 74
0
 42
0.0000001
 43
0.0000001
 44
0.0000000001
 40
0.0
 40
0.0
 40
0.0
 40
0.0
 40
0.2539477214
 40
1.0
 40
1.0
 40
1.0
 40
1.0
 10
12.0580944021
 20
8.2634863965
 30
0.0
 10
12.0597555972
 20
8.26358016
 30
0.0
 10
12.0662862749
 20
8.2641138649
 30
0.0
 10
12.0727669494
 20
8.2653061906
 30
0.0
 10
12.0774834891
 20
8.2665896842
 30
0.0
  0
SPLINE
  5
285
100
AcDbEntity
  8
0
100
AcDbSpline
 62
7
  6
CONTINUOUS
 70
0
 71
3
 72
9
 73
5
 74
0
 42
0.0000001
 43
0.0000001
 44
0.0000000001
 40
0.0
 40
0.0
 40
0.0
 40
0.0
 40
0.5026003432
 40
1.0
 40
1.0
 40
1.0
 40
1.0
 10
10.5970691587
 20
9.009891804
 30
0.0
 10
10.5888342439
 20
9.0095075442
 30
0.0
 10
10.5724537109
 20
9.0086547721
 30
0.0
 10
10.55608892
 20
9.007512417
 30
0.0
 10
10.5479607752
 20
9.0068084681
 30
0.0
  0
LINE
  5
286
100
AcDbEntity
  8
0
100
AcDbLine
 62
7
  6
CONTINUOUS
 10
10.5479607752
 20
9.0068084681
 11
10.5474834891
 21
9.0067669701
  0
SPLINE
  5
287
100
AcDbEntity
  8
0
100
AcDbSpline
 62
7
  6
CONTINUOUS
 70
0
 71
3
 72
35
 73
31
 74
0
 42
0.0000001
 43
0.0000001
 44
0.0000000001
 40
0.0
 40
0.0
 40
0.0
 40
0.0
 40
0.0565993102
 40
0.1168809872
 40
0.1481524488
 40
0.180085747
 40
0.2126257512
 40
0.2457171663
 40
0.3133049161
 40
0.3477092403
 40
0.3824292144
 40
0.4174467998
 40
0.4526179653
 40
0.4702069426
 40
0.4877930244
 40
0.5053666079
 40
0.5228891662
 40
0.5576131742
 40
0.5918312592
 40
0.6255810919
 40
0.6587221388
 40
0.6912398331
 40
0.7231594145
 40
0.7850361479
 40
0.8149473154
 40
0.8441019615
 40
0.8724549336
 40
0.8999574476
 40
0.9521495152
 40
1.0
 40
1.0
 40
1.0
 40
1.0
 10
11.8210526077
 20
9.009891804
 30
0.0
 10
11.824660292
 20
9.0141293659
 30
0.0
 10
11.8320301899
 20
9.0229487598
 30
0.0
 10
11.8411568079
 20
9.0343042864
 30
0.0
 10
11.8486056263
 20
9.0438935436
 30
0.0
 10
11.8542727669
 20
9.0514115548
 30
0.0
 10
11.859916467
 20
9.0591699892
 30
0.0
 10
11.8674100795
 20
9.0699142787
 30
0.0
 10
11.8745753363
 20
9.0811117192
 30
0.0
 10
11.8811478313
 20
9.0928429124
 30
0.0
 10
11.8856707223
 20
9.102036905
 30
0.0
 10
11.8896093403
 20
9.1115800094
 30
0.0
 10
11.8922278646
 20
9.11981999
 30
0.0
 10
11.893778124
 20
9.1265647288
 30
0.0
 10
11.8946276113
 20
9.131684939
 30
0.0
 10
11.8951413435
 20
9.1368434393
 30
0.0
 10
11.8953779923
 20
9.1437082576
 30
0.0
 10
11.8948254439
 20
9.152222136
 30
0.0
 10
11.8927672238
 20
9.1621363537
 30
0.0
 10
11.8896325408
 20
9.1715893574
 30
0.0
 10
11.8857035098
 20
9.1805522273
 30
0.0
 10
11.8811738933
 20
9.1890196259
 30
0.0
 10
11.8746284144
 20
9.1995817109
 30
0.0
 10
11.8674678934
 20
9.2094370989
 30
0.0
 10
11.8599438153
 20
9.2186475699
 30
0.0
 10
11.8543019674
 20
9.2251345102
 30
0.0
 10
11.8486349509
 20
9.2312805335
 30
0.0
 10
11.841224617
 20
9.2388948735
 30
0.0
 10
11.8321597072
 20
9.2475686221
 30
0.0
 10
11.82470894
 20
9.2540005029
 30
0.0
 10
11.8210526077
 20
9.2569616692
 30
0.0
  0
SPLINE
  5
288
100
AcDbEntity
  8
0
100
AcDbSpline
 62
7
  6
CONTINUOUS
 70
0
 71
3
 72
34
 73
30
 74
0
 42
0.0000001
 43
0.0000001
 44
0.0000000001
 40
0.0
 40
0.0
 40
0.0
 40
0.0
 40
0.1358798326
 40
0.171219659
 40
0.2069406023
 40
0.2429812426
 40
0.2792764435
 40
0.3523064848
 40
0.3888892543
 40
0.4253636816
 40
0.4616495836
 40
0.4975168053
 40
0.5152068736
 40
0.5327146753
 40
0.5670947634
 40
0.6004592972
 40
0.6327796969
 40
0.6642614935
 40
0.694899687
 40
0.7247591647
 40
0.7539071777
 40
0.8099681725
 40
0.8368705473
 40
0.8629540114
 40
0.8881854045
 40
0.9125285484
 40
0.9359385011
 40
0.9583587158
 40
1.0
 40
1.0
 40
1.0
 40
1.0
 10
11.8210526077
 20
9.2569616692
 30
0.0
 10
11.8283070512
 20
9.2675478364
 30
0.0
 10
11.8375292234
 20
9.2808315899
 30
0.0
 10
11.848576678
 20
9.2969546236
 30
0.0
 10
11.8542447366
 20
9.3053327935
 30
0.0
 10
11.8598890643
 20
9.3138357526
 30
0.0
 10
11.8673451169
 20
9.3253637928
 30
0.0
 10
11.874512242
 20
9.3371417727
 30
0.0
 10
11.8811190027
 20
9.3492581021
 30
0.0
 10
11.8856414625
 20
9.3585476549
 30
0.0
 10
11.8895804997
 20
9.3680283988
 30
0.0
 10
11.8922139011
 20
9.3761092044
 30
0.0
 10
11.8937730529
 20
9.3826413055
 30
0.0
 10
11.8949000926
 20
9.3891190773
 30
0.0
 10
11.8954893203
 20
9.3971759344
 30
0.0
 10
11.8948381978
 20
9.4066403673
 30
0.0
 10
11.8927842659
 20
9.4156195206
 30
0.0
 10
11.8896486674
 20
9.4239924333
 30
0.0
 10
11.8857179566
 20
9.4317561973
 30
0.0
 10
11.8811869433
 20
9.4389216112
 30
0.0
 10
11.8746593206
 20
9.447620397
 30
0.0
 10
11.8674995281
 20
9.4554610689
 30
0.0
 10
11.8599588327
 20
9.4624796563
 30
0.0
 10
11.8543170371
 20
9.4672531641
 30
0.0
 10
11.8486501123
 20
9.4716100043
 30
0.0
 10
11.8429960352
 20
9.4755567699
 30
0.0
 10
11.8373933078
 20
9.4791024645
 30
0.0
 10
11.8302072974
 20
9.4831806007
 30
0.0
 10
11.8247167164
 20
9.4857652682
 30
0.0
 10
11.8210526077
 20
9.4871941314
 30
0.0
  0
SPLINE
  5
289
100
AcDbEntity
  8
0
100
AcDbSpline
 62
7
  6
CONTINUOUS
 70
0
 71
3
 72
30
 73
26
 74
0
 42
0.0000001
 43
0.0000001
 44
0.0000000001
 40
0.0
 40
0.0
 40
0.0
 40
0.0
 40
0.1554115984
 40
0.2341481103
 40
0.2734827709
 40
0.3126916988
 40
0.3902873602
 40
0.4284355959
 40
0.4659048356
 40
0.5025288679
 40
0.5379725867
 40
0.5718562217
 40
0.6040621359
 40
0.6345546794
 40
0.6635789741
 40
0.6916240424
 40
0.718878957
 40
0.7455048784
 40
0.7716030588
 40
0.8221135518
 40
0.8465488286
 40
0.8703703682
 40
0.916108803
 40
0.9592892217
 40
1.0
 40
1.0
 40
1.0
 40
1.0
 10
11.8210526077
 20
9.4871941314
 30
0.0
 10
11.8281352082
 20
9.4988414205
 30
0.0
 10
11.8391820262
 20
9.5161603307
 30
0.0
 10
11.8523328982
 20
9.5362215511
 30
0.0
 10
11.8598604672
 20
9.5477826097
 30
0.0
 10
11.8672738433
 20
9.5592978702
 30
0.0
 10
11.8744381533
 20
9.5708520215
 30
0.0
 10
11.8810835064
 20
9.5825354286
 30
0.0
 10
11.8856044453
 20
9.5912851747
 30
0.0
 10
11.889541847
 20
9.6000562041
 30
0.0
 10
11.8926930859
 20
9.6088125549
 30
0.0
 10
11.8947613761
 20
9.6175017835
 30
0.0
 10
11.8954891439
 20
9.6259762045
 30
0.0
 10
11.8948516686
 20
9.6340405685
 30
0.0
 10
11.8927958708
 20
9.6414859966
 30
0.0
 10
11.8896514667
 20
9.6482122519
 30
0.0
 10
11.8857128574
 20
9.654247164
 30
0.0
 10
11.8811768469
 20
9.6596191138
 30
0.0
 10
11.8746360028
 20
9.6658973583
 30
0.0
 10
11.867463344
 20
9.6711821108
 30
0.0
 10
11.8599436579
 20
9.6754943826
 30
0.0
 10
11.8525183125
 20
9.6790908683
 30
0.0
 10
11.8431856721
 20
9.682466058
 30
0.0
 10
11.8320163629
 20
9.6847902114
 30
0.0
 10
11.8246177965
 20
9.6851007499
 30
0.0
 10
11.8210526077
 20
9.6848992287
 30
0.0
  0
SPLINE
  5
28A
100
AcDbEntity
  8
0
100
AcDbSpline
 62
7
  6
CONTINUOUS
 70
0
 71
3
 72
34
 73
30
 74
0
 42
0.0000001
 43
0.0000001
 44
0.0000000001
 40
0.0
 40
0.0
 40
0.0
 40
0.0
 40
0.0830791547
 40
0.1659080785
 40
0.2478938298
 40
0.3285396427
 40
0.4073124353
 40
0.4457431826
 40
0.4833863401
 40
0.5200705708
 40
0.5555713847
 40
0.589692635
 40
0.6221167369
 40
0.6524286111
 40
0.6804421785
 40
0.7062543022
 40
0.7184388742
 40
0.7302154337
 40
0.7529153044
 40
0.7751095711
 40
0.7971600306
 40
0.8192570012
 40
0.8415335155
 40
0.8639692077
 40
0.8865096022
 40
0.9091494289
 40
0.9318531867
 40
0.9545682407
 40
1.0
 40
1.0
 40
1.0
 40
1.0
 10
11.8210526077
 20
9.6848992287
 30
0.0
 10
11.8240249788
 20
9.6900047234
 30
0.0
 10
11.8301082462
 20
9.7001149652
 30
0.0
 10
11.8395584444
 20
9.7149969561
 30
0.0
 10
11.8492141152
 20
9.7295386174
 30
0.0
 10
11.8588895535
 20
9.7437183935
 30
0.0
 10
11.8668723015
 20
9.7553034695
 30
0.0
 10
11.8730292006
 20
9.7644325136
 30
0.0
 10
11.8774370216
 20
9.7711307304
 30
0.0
 10
11.8816079382
 20
9.7777344126
 30
0.0
 10
11.88544853
 20
9.7842473406
 30
0.0
 10
11.8888657394
 20
9.7906522999
 30
0.0
 10
11.8917356117
 20
9.7969195906
 30
0.0
 10
11.8938943961
 20
9.8030149406
 30
0.0
 10
11.8951423732
 20
9.8088874561
 30
0.0
 10
11.8953612251
 20
9.8136042109
 30
0.0
 10
11.8950018952
 20
9.8171312193
 30
0.0
 10
11.8943129413
 20
9.8203829925
 30
0.0
 10
11.8928254692
 20
9.8241646756
 30
0.0
 10
11.8902124721
 20
9.8281758543
 30
0.0
 10
11.886988326
 20
9.8316465064
 30
0.0
 10
11.883291522
 20
9.8346098034
 30
0.0
 10
11.8792310994
 20
9.8370963791
 30
0.0
 10
11.874905337
 20
9.8391531751
 30
0.0
 10
11.8703850065
 20
9.8408102235
 30
0.0
 10
11.8657213277
 20
9.8420769261
 30
0.0
 10
11.8609598458
 20
9.8429709166
 30
0.0
 10
11.8545354871
 20
9.8436886217
 30
0.0
 10
11.8496674884
 20
9.8436977207
 30
0.0
 10
11.8464445582
 20
9.8434748472
 30
0.0
  0
SPLINE
  5
28B
100
AcDbEntity
  8
0
100
AcDbSpline
 62
7
  6
CONTINUOUS
 70
0
 71
3
 72
30
 73
26
 74
0
 42
0.0000001
 43
0.0000001
 44
0.0000000001
 40
0.0
 40
0.0
 40
0.0
 40
0.0
 40
0.1775697023
 40
0.2638200675
 40
0.347910998
 40
0.4294866246
 40
0.5080121987
 40
0.5826883198
 40
0.6524000166
 40
0.684872434
 40
0.7154744782
 40
0.7438608338
 40
0.7696375545
 40
0.7925519844
 40
0.8126538576
 40
0.8303631455
 40
0.8464494876
 40
0.8620617904
 40
0.8782401967
 40
0.8955219541
 40
0.9140438651
 40
0.9338374293
 40
0.9548590401
 40
0.9769711251
 40
1.0
 40
1.0
 40
1.0
 40
1.0
 10
11.8238683902
 20
9.8412505779
 30
0.0
 10
11.8286497956
 20
9.8490324906
 30
0.0
 10
11.8361104809
 20
9.8603793946
 30
0.0
 10
11.8465412085
 20
9.8749213767
 30
0.0
 10
11.8543348473
 20
9.8852745001
 30
0.0
 10
11.8620760291
 20
9.8951661803
 30
0.0
 10
11.8696367198
 20
9.9045826533
 30
0.0
 10
11.8768290561
 20
9.9135115567
 30
0.0
 10
11.8824517516
 20
9.9206646814
 30
0.0
 10
11.8864912658
 20
9.9261730347
 30
0.0
 10
11.8891526615
 20
9.9300535406
 30
0.0
 10
11.8914480523
 20
9.9337631479
 30
0.0
 10
11.8932917847
 20
9.9372782264
 30
0.0
 10
11.8945935237
 20
9.9405795797
 30
0.0
 10
11.8952713238
 20
9.9436456285
 30
0.0
 10
11.8953059129
 20
9.9464431819
 30
0.0
 10
11.8946436077
 20
9.948937392
 30
0.0
 10
11.8932791425
 20
9.9510321988
 30
0.0
 10
11.8913716744
 20
9.9527204987
 30
0.0
 10
11.8890343749
 20
9.9540483853
 30
0.0
 10
11.8863476935
 20
9.9550546957
 30
0.0
 10
11.8833708585
 20
9.9557572463
 30
0.0
 10
11.8801564182
 20
9.9561743541
 30
0.0
 10
11.8767532461
 20
9.9563239098
 30
0.0
 10
11.8744302112
 20
9.9562571608
 30
0.0
 10
11.873247905
 20
9.9561849285
 30
0.0
  0
SPLINE
  5
28C
100
AcDbEntity
  8
0
100
AcDbSpline
 62
7
  6
CONTINUOUS
 70
0
 71
3
 72
29
 73
25
 74
0
 42
0.0000001
 43
0.0000001
 44
0.0000000001
 40
0.0
 40
0.0
 40
0.0
 40
0.0
 40
0.1883638401
 40
0.3670975021
 40
0.4523424143
 40
0.5343564583
 40
0.6125896465
 40
0.6864506603
 40
0.7549729237
 40
0.8168605891
 40
0.8706779372
 40
0.8938655947
 40
0.9141477877
 40
0.9312439858
 40
0.9449736875
 40
0.9554617703
 40
0.9596473554
 40
0.9632810212
 40
0.9665709684
 40
0.9698006549
 40
0.9771957758
 40
0.9818164492
 40
0.9871487635
 40
1.0
 40
1.0
 40
1.0
 40
1.0
 10
11.8358722094
 20
9.952473878
 30
0.0
 10
11.8393312313
 20
9.9568556656
 30
0.0
 10
11.8463155818
 20
9.9652062024
 30
0.0
 10
11.8554594086
 20
9.9750181436
 30
0.0
 10
11.8627247866
 20
9.9822554967
 30
0.0
 10
11.8679921807
 20
9.9872752174
 30
0.0
 10
11.8731032368
 20
9.9919679393
 30
0.0
 10
11.877989124
 20
9.9963132267
 30
0.0
 10
11.8825521696
 20
10.0002919344
 30
0.0
 10
11.8866642921
 20
10.003883607
 30
0.0
 10
11.8897319227
 20
10.0066293503
 30
0.0
 10
11.8918153472
 20
10.0086232244
 30
0.0
 10
11.8930665536
 20
10.0099107702
 30
0.0
 10
11.8940599281
 20
10.0110567694
 30
0.0
 10
11.8947684261
 20
10.0120571927
 30
0.0
 10
11.8951444506
 20
10.0128202709
 30
0.0
 10
11.8952638577
 20
10.0133524572
 30
0.0
 10
11.895267084
 20
10.0136849333
 30
0.0
 10
11.8951860768
 20
10.0139795979
 30
0.0
 10
11.8949509188
 20
10.0143274853
 30
0.0
 10
11.894534492
 20
10.0145530789
 30
0.0
 10
11.8940380299
 20
10.0146820138
 30
0.0
 10
11.8933660587
 20
10.0147720498
 30
0.0
 10
11.8928249112
 20
10.0147671082
 30
0.0
 10
11.8924445919
 20
10.0147465773
 30
0.0
  0
SPLINE
  5
28D
100
AcDbEntity
  8
0
100
AcDbSpline
 62
7
  6
CONTINUOUS
 70
0
 71
3
 72
11
 73
7
 74
0
 42
0.0000001
 43
0.0000001
 44
0.0000000001
 40
0.0
 40
0.0
 40
0.0
 40
0.0
 40
0.2295982907
 40
0.4762199534
 40
0.7351592087
 40
1.0
 40
1.0
 40
1.0
 40
1.0
 10
12.0098821944
 20
9.6167814585
 30
0.0
 10
12.012912982
 20
9.618208528
 30
0.0
 10
12.0194182646
 20
9.6207145068
 30
0.0
 10
12.0298311309
 20
9.6233716086
 30
0.0
 10
12.0409720902
 20
9.6249983796
 30
0.0
 10
12.0486193279
 20
9.6253648109
 30
0.0
 10
12.0524834891
 20
9.6253648109
 30
0.0
  0
SPLINE
  5
28E
100
AcDbEntity
  8
0
100
AcDbSpline
 62
7
  6
CONTINUOUS
 70
0
 71
3
 72
13
 73
9
 74
0
 42
0.0000001
 43
0.0000001
 44
0.0000000001
 40
0.0
 40
0.0
 40
0.0
 40
0.0
 40
0.2656731442
 40
0.5197101497
 40
0.6429157008
 40
0.7638667856
 40
0.8828088589
 40
1.0
 40
1.0
 40
1.0
 40
1.0
 10
11.8210526077
 20
8.5325894767
 30
0.0
 10
11.7099468889
 20
8.5380573092
 30
0.0
 10
11.492877885
 20
8.5563108428
 30
0.0
 10
11.226895004
 20
8.5998161313
 30
0.0
 10
11.0235746121
 20
8.64670645
 30
0.0
 10
10.8770350991
 20
8.6874077329
 30
0.0
 10
10.7349110322
 20
8.7339986018
 30
0.0
 10
10.6424796137
 20
8.7692255724
 30
0.0
 10
10.5970691587
 20
8.7878179141
 30
0.0
  0
SPLINE
  5
28F
100
AcDbEntity
  8
0
100
AcDbSpline
 62
7
  6
CONTINUOUS
 70
0
 71
3
 72
15
 73
11
 74
0
 42
0.0000001
 43
0.0000001
 44
0.0000000001
 40
0.0
 40
0.0
 40
0.0
 40
0.0
 40
0.1367318357
 40
0.269994057
 40
0.3998397127
 40
0.5263261502
 40
0.6495154087
 40
0.7694746429
 40
0.8862765788
 40
1.0
 40
1.0
 40
1.0
 40
1.0
 10
11.8210526077
 20
8.7628219389
 30
0.0
 10
11.7648844481
 20
8.7642527925
 30
0.0
 10
11.6539959756
 20
8.7680888848
 30
0.0
 10
11.4899214232
 20
8.7769585691
 30
0.0
 10
11.3302595919
 20
8.7888693654
 30
0.0
 10
11.175010845
 20
8.8038214595
 30
0.0
 10
11.024174772
 20
8.8218150763
 30
0.0
 10
10.8777506462
 20
8.8428506111
 30
0.0
 10
10.7357396062
 20
8.8669281206
 30
0.0
 10
10.6427853962
 20
8.8852489892
 30
0.0
 10
10.5970691587
 20
8.8949378998
 30
0.0
  0
SPLINE
  5
290
100
AcDbEntity
  8
0
100
AcDbSpline
 62
7
  6
CONTINUOUS
 70
0
 71
3
 72
15
 73
11
 74
0
 42
0.0000001
 43
0.0000001
 44
0.0000000001
 40
0.0
 40
0.0
 40
0.0
 40
0.0
 40
0.1367318357
 40
0.269994057
 40
0.3998397127
 40
0.5263261502
 40
0.6495154087
 40
0.7694746429
 40
0.8862765788
 40
1.0
 40
1.0
 40
1.0
 40
1.0
 10
11.8210526077
 20
9.2569616692
 30
0.0
 10
11.7648844481
 20
9.2555308156
 30
0.0
 10
11.6539959756
 20
9.2516947233
 30
0.0
 10
11.4899214232
 20
9.242825039
 30
0.0
 10
11.3302595919
 20
9.2309142426
 30
0.0
 10
11.175010845
 20
9.2159621486
 30
0.0
 10
11.024174772
 20
9.1979685318
 30
0.0
 10
10.8777506462
 20
9.176932997
 30
0.0
 10
10.7357396062
 20
9.1528554875
 30
0.0
 10
10.6427853962
 20
9.1345346189
 30
0.0
 10
10.5970691587
 20
9.1248457083
 30
0.0
  0
SPLINE
  5
291
100
AcDbEntity
  8
0
100
AcDbSpline
 62
7
  6
CONTINUOUS
 70
0
 71
3
 72
13
 73
9
 74
0
 42
0.0000001
 43
0.0000001
 44
0.0000000001
 40
0.0
 40
0.0
 40
0.0
 40
0.0
 40
0.2656731442
 40
0.5197101497
 40
0.6429157008
 40
0.7638667856
 40
0.8828088589
 40
1.0
 40
1.0
 40
1.0
 40
1.0
 10
11.8210526077
 20
9.4871941314
 30
0.0
 10
11.7099468889
 20
9.4817262989
 30
0.0
 10
11.492877885
 20
9.4634727653
 30
0.0
 10
11.226895004
 20
9.4199674768
 30
0.0
 10
11.0235746121
 20
9.3730771581
 30
0.0
 10
10.8770350991
 20
9.3323758752
 30
0.0
 10
10.7349110322
 20
9.2857850063
 30
0.0
 10
10.6424796137
 20
9.2505580357
 30
0.0
 10
10.5970691587
 20
9.231965694
 30
0.0
  0
SPLINE
  5
292
100
AcDbEntity
  8
0
100
AcDbSpline
 62
7
  6
CONTINUOUS
 70
0
 71
3
 72
32
 73
28
 74
0
 42
0.0000001
 43
0.0000001
 44
0.0000000001
 40
0.0
 40
0.0
 40
0.0
 40
0.0
 40
0.0454296823
 40
0.0681502645
 40
0.0908558627
 40
0.1359962768
 40
0.1806332933
 40
0.2027345031
 40
0.2247967957
 40
0.2469667977
 40
0.2582229225
 40
0.269697683
 40
0.293649045
 40
0.3194292183
 40
0.3331449155
 40
0.3474493575
 40
0.3777972879
 40
0.4102389124
 40
0.444341056
 40
0.4798510758
 40
0.5165502821
 40
0.5926293072
 40
0.6714106716
 40
0.7520663383
 40
0.8340694189
 40
0.9169120761
 40
1.0
 40
1.0
 40
1.0
 40
1.0
 10
11.8464388251
 20
8.1763092207
 30
0.0
 10
11.8496614068
 20
8.1760864144
 30
0.0
 10
11.8545291798
 20
8.1760961167
 30
0.0
 10
11.860953928
 20
8.1768120505
 30
0.0
 10
11.8672890221
 20
8.1779997804
 30
0.0
 10
11.8749532011
 20
8.1804105321
 30
0.0
 10
11.8820389473
 20
8.1841750709
 30
0.0
 10
11.8869789052
 20
8.1881364582
 30
0.0
 10
11.8902114073
 20
8.1915968537
 30
0.0
 10
11.8923808051
 20
8.1949235836
 30
0.0
 10
11.8937002277
 20
8.1978368057
 30
0.0
 10
11.8947373055
 20
8.2009965876
 30
0.0
 10
11.8953937246
 20
8.2053331884
 30
0.0
 10
11.8952028051
 20
8.2098652434
 30
0.0
 10
11.8945698231
 20
8.2136412326
 30
0.0
 10
11.8935685845
 20
8.2176726443
 30
0.0
 10
11.8917342066
 20
8.2228511138
 30
0.0
 10
11.8888693441
 20
8.2291224173
 30
0.0
 10
11.8854578374
 20
8.2355307617
 30
0.0
 10
11.881613915
 20
8.2420416575
 30
0.0
 10
11.8759788945
 20
8.2509547572
 30
0.0
 10
11.8683932105
 20
8.2622696016
 30
0.0
 10
11.8588938822
 20
8.2760607129
 30
0.0
 10
11.8492170996
 20
8.2902414473
 30
0.0
 10
11.8395597485
 20
8.3047841318
 30
0.0
 10
11.8301089045
 20
8.3196677575
 30
0.0
 10
11.8240251043
 20
8.3297786692
 30
0.0
 10
11.8210526077
 20
8.3348843794
 30
0.0
  0
SPLINE
  5
293
100
AcDbEntity
  8
0
100
AcDbSpline
 62
7
  6
CONTINUOUS
 70
0
 71
3
 72
31
 73
27
 74
0
 42
0.0000001
 43
0.0000001
 44
0.0000000001
 40
0.0
 40
0.0
 40
0.0
 40
0.0
 40
0.0230320467
 40
0.0451290304
 40
0.0661281335
 40
0.0859185887
 40
0.104468538
 40
0.1217495749
 40
0.1379018172
 40
0.1457335969
 40
0.1535444477
 40
0.1696459711
 40
0.1873260543
 40
0.2073986473
 40
0.2303427418
 40
0.2561541318
 40
0.2845456651
 40
0.3151163122
 40
0.3475864628
 40
0.4173249675
 40
0.4919945326
 40
0.5705196552
 40
0.65208688
 40
0.7361801302
 40
0.8224353733
 40
1.0
 40
1.0
 40
1.0
 40
1.0
 10
11.8732481446
 20
8.0635982824
 30
0.0
 10
11.8744308249
 20
8.063525969
 30
0.0
 10
11.8767536641
 20
8.0634587151
 30
0.0
 10
11.8801556779
 20
8.0636091138
 30
0.0
 10
11.8833684255
 20
8.064028037
 30
0.0
 10
11.8863453635
 20
8.0647321376
 30
0.0
 10
11.8890352722
 20
8.0657348964
 30
0.0
 10
11.8913752794
 20
8.0670576023
 30
0.0
 10
11.8929804837
 20
8.0684819361
 30
0.0
 10
11.8939604062
 20
8.0697982414
 30
0.0
 10
11.8947348862
 20
8.0712425416
 30
0.0
 10
11.8952964999
 20
8.073340816
 30
0.0
 10
11.8952822276
 20
8.0761367782
 30
0.0
 10
11.8946031717
 20
8.0792033828
 30
0.0
 10
11.8932881279
 20
8.0825017438
 30
0.0
 10
11.8914427615
 20
8.0860204246
 30
0.0
 10
11.889149293
 20
8.0897326984
 30
0.0
 10
11.8864924079
 20
8.09361557
 30
0.0
 10
11.8824506329
 20
8.0991234589
 30
0.0
 10
11.8768230277
 20
8.1062759373
 30
0.0
 10
11.8696311806
 20
8.1152092108
 30
0.0
 10
11.8620682946
 20
8.1246257274
 30
0.0
 10
11.8543277433
 20
8.1345203713
 30
0.0
 10
11.8465318752
 20
8.1448746714
 30
0.0
 10
11.8360997501
 20
8.1594198071
 30
0.0
 10
11.8286382173
 20
8.1707690899
 30
0.0
 10
11.8238564719
 20
8.1785524344
 30
0.0
  0
SPLINE
  5
294
100
AcDbEntity
  8
0
100
AcDbSpline
 62
7
  6
CONTINUOUS
 70
0
 71
3
 72
31
 73
27
 74
0
 42
0.0000001
 43
0.0000001
 44
0.0000000001
 40
0.0
 40
0.0
 40
0.0
 40
0.0
 40
0.0127975412
 40
0.0226543094
 40
0.0266067192
 40
0.0300882954
 40
0.0333309937
 40
0.0366207726
 40
0.040235223
 40
0.0443897877
 40
0.0548327376
 40
0.0686092697
 40
0.0857648806
 40
0.1060843205
 40
0.1292787334
 40
0.1550270303
 40
0.1830152659
 40
0.2449025248
 40
0.3134722377
 40
0.3873281306
 40
0.4655659548
 40
0.5475873467
 40
0.6328272422
 40
0.7209071459
 40
0.8116008851
 40
1.0
 40
1.0
 40
1.0
 40
1.0
 10
11.8924498272
 20
8.0050350043
 30
0.0
 10
11.8928282921
 20
8.0050147708
 30
0.0
 10
11.8934999459
 20
8.0050107276
 30
0.0
 10
11.8942874658
 20
8.005142578
 30
0.0
 10
11.89475502
 20
8.0053597501
 30
0.0
 10
11.8950058384
 20
8.0055583478
 30
0.0
 10
11.895177539
 20
8.0058060806
 30
0.0
 10
11.8952640901
 20
8.0060986946
 30
0.0
 10
11.8952668267
 20
8.0064295284
 30
0.0
 10
11.8951546817
 20
8.0069602008
 30
0.0
 10
11.8947807255
 20
8.0077235924
 30
0.0
 10
11.8940656957
 20
8.0087204442
 30
0.0
 10
11.8930687695
 20
8.0098672921
 30
0.0
 10
11.8918156858
 20
8.0111554886
 30
0.0
 10
11.8903345635
 20
8.0125750317
 30
0.0
 10
11.888655441
 20
8.0141150967
 30
0.0
 10
11.8861016929
 20
8.0163963971
 30
0.0
 10
11.8825655675
 20
8.0194810882
 30
0.0
 10
11.8780036335
 20
8.0234561587
 30
0.0
 10
11.8731210814
 20
8.0278001527
 30
0.0
 10
11.8680130123
 20
8.0324889362
 30
0.0
 10
11.8627485772
 20
8.0375043544
 30
0.0
 10
11.8573905519
 20
8.04284163
 30
0.0
 10
11.8519865617
 20
8.0484937001
 30
0.0
 10
11.8446731676
 20
8.0565419762
 30
0.0
 10
11.8393658253
 20
8.0628858395
 30
0.0
 10
11.8359078472
 20
8.0672646001
 30
0.0
  0
SPLINE
  5
295
100
AcDbEntity
  8
0
100
AcDbSpline
 62
7
  6
CONTINUOUS
 70
0
 71
3
 72
15
 73
11
 74
0
 42
0.0000001
 43
0.0000001
 44
0.0000000001
 40
0.0
 40
0.0
 40
0.0
 40
0.0
 40
0.0965018533
 40
0.2034472201
 40
0.3200530813
 40
0.4451376158
 40
0.5773379924
 40
0.715136842
 40
0.8567705543
 40
1.0
 40
1.0
 40
1.0
 40
1.0
 10
11.9982152978
 20
9.470106911
 30
0.0
 10
11.999735673
 20
9.4710890085
 30
0.0
 10
12.0030793456
 20
9.4729481223
 30
0.0
 10
12.0086000559
 20
9.4753242557
 30
0.0
 10
12.0148071895
 20
9.4774020219
 30
0.0
 10
12.0216038728
 20
9.4791499329
 30
0.0
 10
12.0288873315
 20
9.4805385709
 30
0.0
 10
12.0365457767
 20
9.4815473288
 30
0.0
 10
12.0444532093
 20
9.4821570425
 30
0.0
 10
12.0497970789
 20
9.482294756
 30
0.0
 10
12.0524834891
 20
9.482294756
 30
0.0
  0
SPLINE
  5
296
100
AcDbEntity
  8
0
100
AcDbSpline
 62
7
  6
CONTINUOUS
 70
0
 71
3
 72
18
 73
14
 74
0
 42
0.0000001
 43
0.0000001
 44
0.0000000001
 40
0.0
 40
0.0
 40
0.0
 40
0.0
 40
0.0359885332
 40
0.0763117368
 40
0.1209908374
 40
0.1699384728
 40
0.2800340446
 40
0.4049205419
 40
0.4721828931
 40
0.5422279593
 40
0.6892605551
 40
0.8430869154
 40
1.0
 40
1.0
 40
1.0
 40
1.0
 10
11.9922521204
 20
9.3184197665
 30
0.0
 10
11.9928463256
 20
9.3188682978
 30
0.0
 10
11.9941632191
 20
9.3197447541
 30
0.0
 10
11.996363947
 20
9.3209418091
 30
0.0
 10
11.9988882007
 20
9.3220897096
 30
0.0
 10
12.0028222074
 20
9.3236064481
 30
0.0
 10
12.0084558778
 20
9.3252970362
 30
0.0
 10
12.0145635847
 20
9.3266536414
 30
0.0
 10
12.0199051148
 20
9.3275989571
 30
0.0
 10
12.0257240495
 20
9.3284629793
 30
0.0
 10
12.0333547859
 20
9.3292965039
 30
0.0
 10
12.0428084334
 20
9.3298948518
 30
0.0
 10
12.0492374643
 20
9.330029915
 30
0.0
 10
12.0524834891
 20
9.330029915
 30
0.0
  0
SPLINE
  5
297
100
AcDbEntity
  8
0
100
AcDbSpline
 62
7
  6
CONTINUOUS
 70
0
 71
3
 72
18
 73
14
 74
0
 42
0.0000001
 43
0.0000001
 44
0.0000000001
 40
0.0
 40
0.0
 40
0.0
 40
0.0
 40
0.0220369972
 40
0.0504809504
 40
0.085511961
 40
0.1271081378
 40
0.1750546269
 40
0.2290421598
 40
0.3537109053
 40
0.4975494974
 40
0.6563867158
 40
0.8256958332
 40
1.0
 40
1.0
 40
1.0
 40
1.0
 10
11.9892705227
 20
9.1641101459
 30
0.0
 10
11.9896353994
 20
9.164407629
 30
0.0
 10
11.9905644647
 20
9.1649715339
 30
0.0
 10
11.9922416013
 20
9.165699962
 30
0.0
 10
11.9943736821
 20
9.1664099971
 30
0.0
 10
11.9969467515
 20
9.1670933364
 30
0.0
 10
11.9999437275
 20
9.1677454638
 30
0.0
 10
12.0047080726
 20
9.168607314
 30
0.0
 10
12.0115380156
 20
9.1695342611
 30
0.0
 10
12.0206271821
 20
9.1704063748
 30
0.0
 10
12.0306911607
 20
9.1710504965
 30
0.0
 10
12.0414188706
 20
9.1714450697
 30
0.0
 10
12.048759822
 20
9.1715339498
 30
0.0
 10
12.0524834891
 20
9.1715339498
 30
0.0
  0
LINE
  5
298
100
AcDbEntity
  8
0
100
AcDbLine
 62
7
  6
CONTINUOUS
 10
11.9883589178
 20
9.009891804
 11
12.0524834891
 21
9.009891804
  0
SPLINE
  5
299
100
AcDbEntity
  8
0
100
AcDbSpline
 62
7
  6
CONTINUOUS
 70
0
 71
3
 72
18
 73
14
 74
0
 42
0.0000001
 43
0.0000001
 44
0.0000000001
 40
0.0
 40
0.0
 40
0.0
 40
0.0
 40
0.0220369981
 40
0.0504809522
 40
0.0855119635
 40
0.1271081408
 40
0.1750546304
 40
0.2290421635
 40
0.3537109091
 40
0.4975495008
 40
0.6563867183
 40
0.8256958345
 40
1.0
 40
1.0
 40
1.0
 40
1.0
 10
11.9892705228
 20
8.8556734621
 30
0.0
 10
11.9896353996
 20
8.8553759789
 30
0.0
 10
11.9905644649
 20
8.854812074
 30
0.0
 10
11.9922416016
 20
8.854083646
 30
0.0
 10
11.9943736825
 20
8.8533736109
 30
0.0
 10
11.9969467518
 20
8.8526902716
 30
0.0
 10
11.9999437279
 20
8.8520381442
 30
0.0
 10
12.0047080729
 20
8.8511762941
 30
0.0
 10
12.011538016
 20
8.850249347
 30
0.0
 10
12.0206271824
 20
8.8493772332
 30
0.0
 10
12.0306911609
 20
8.8487331116
 30
0.0
 10
12.0414188707
 20
8.8483385384
 30
0.0
 10
12.048759822
 20
8.8482496583
 30
0.0
 10
12.0524834891
 20
8.8482496583
 30
0.0
  0
SPLINE
  5
29A
100
AcDbEntity
  8
0
100
AcDbSpline
 62
7
  6
CONTINUOUS
 70
0
 71
3
 72
18
 73
14
 74
0
 42
0.0000001
 43
0.0000001
 44
0.0000000001
 40
0.0
 40
0.0
 40
0.0
 40
0.0
 40
0.0359885481
 40
0.0763117653
 40
0.1209908773
 40
0.1699385218
 40
0.2800341047
 40
0.4049206033
 40
0.4721829519
 40
0.5422280135
 40
0.6892605953
 40
0.8430869368
 40
1.0
 40
1.0
 40
1.0
 40
1.0
 10
11.9922521285
 20
8.7013638355
 30
0.0
 10
11.9928463341
 20
8.7009153044
 30
0.0
 10
11.9941632283
 20
8.7000388485
 30
0.0
 10
11.9963639569
 20
8.6988417941
 30
0.0
 10
11.9988882112
 20
8.6976938942
 30
0.0
 10
12.0028222181
 20
8.6961771564
 30
0.0
 10
12.0084558883
 20
8.6944865693
 30
0.0
 10
12.0145635944
 20
8.6931299647
 30
0.0
 10
12.0199051236
 20
8.6921846496
 30
0.0
 10
12.025724057
 20
8.6913206278
 30
0.0
 10
12.0333547914
 20
8.6904871038
 30
0.0
 10
12.0428084362
 20
8.6898887563
 30
0.0
 10
12.0492374653
 20
8.6897536931
 30
0.0
 10
12.0524834891
 20
8.6897536931
 30
0.0
  0
SPLINE
  5
29B
100
AcDbEntity
  8
0
100
AcDbSpline
 62
7
  6
CONTINUOUS
 70
0
 71
3
 72
15
 73
11
 74
0
 42
0.0000001
 43
0.0000001
 44
0.0000000001
 40
0.0
 40
0.0
 40
0.0
 40
0.0
 40
0.0965054677
 40
0.2034533288
 40
0.3200604392
 40
0.4451450727
 40
0.5773445506
 40
0.7151417087
 40
0.8567731335
 40
1.0
 40
1.0
 40
1.0
 40
1.0
 10
11.9982176148
 20
8.5496752006
 30
0.0
 10
11.9997380396
 20
8.5486932182
 30
0.0
 10
12.0030817483
 20
8.5468343257
 30
0.0
 10
12.0086024072
 20
8.5444584727
 30
0.0
 10
12.0148093613
 20
8.542380958
 30
0.0
 10
12.0216057539
 20
8.5406332669
 30
0.0
 10
12.0288888286
 20
8.5392448065
 30
0.0
 10
12.0365468168
 20
8.5382361808
 30
0.0
 10
12.0444537423
 20
8.5376265474
 30
0.0
 10
12.0497972588
 20
8.5374888521
 30
0.0
 10
12.0524834891
 20
8.5374888521
 30
0.0
  0
SPLINE
  5
29C
100
AcDbEntity
  8
0
100
AcDbSpline
 62
7
  6
CONTINUOUS
 70
0
 71
3
 72
11
 73
7
 74
0
 42
0.0000001
 43
0.0000001
 44
0.0000000001
 40
0.0
 40
0.0
 40
0.0
 40
0.0
 40
0.2296157804
 40
0.4762408286
 40
0.7351727383
 40
1.0
 40
1.0
 40
1.0
 40
1.0
 10
12.0098976907
 20
8.4029948554
 30
0.0
 10
12.0129278823
 20
8.4015689926
 30
0.0
 10
12.0194313603
 20
8.3990651439
 30
0.0
 10
12.0298406482
 20
8.3964102792
 30
0.0
 10
12.0409770923
 20
8.3947849135
 30
0.0
 10
12.0486210343
 20
8.3944187972
 30
0.0
 10
12.0524834891
 20
8.3944187972
 30
0.0
  0
SPLINE
  5
29D
100
AcDbEntity
  8
0
100
AcDbSpline
 62
7
  6
CONTINUOUS
 70
0
 71
3
 72
32
 73
28
 74
0
 42
0.0000001
 43
0.0000001
 44
0.0000000001
 40
0.0
 40
0.0
 40
0.0
 40
0.0
 40
0.0407071802
 40
0.061989786
 40
0.0839126093
 40
0.1296427559
 40
0.1534631894
 40
0.1778966694
 40
0.2284009365
 40
0.2544913506
 40
0.2811115575
 40
0.3083731692
 40
0.3363958751
 40
0.3507654194
 40
0.3654488375
 40
0.3959652243
 40
0.428157557
 40
0.4620395971
 40
0.4974982675
 40
0.5341189366
 40
0.5715865954
 40
0.6097333603
 40
0.6873239182
 40
0.7265310556
 40
0.765863137
 40
0.844596167
 40
1.0
 40
1.0
 40
1.0
 40
1.0
 10
11.8210526077
 20
8.3348843794
 30
0.0
 10
11.8246176872
 20
8.3346828643
 30
0.0
 10
11.8300878902
 20
8.334911761
 30
0.0
 10
11.8373550204
 20
8.3361062408
 30
0.0
 10
11.8449417643
 20
8.3379513214
 30
0.0
 10
11.8525160028
 20
8.3406933947
 30
0.0
 10
11.8599409671
 20
8.3442882907
 30
0.0
 10
11.8674611411
 20
8.3485993722
 30
0.0
 10
11.8746338759
 20
8.3538825207
 30
0.0
 10
11.8811732302
 20
8.3601608752
 30
0.0
 10
11.8857047175
 20
8.3655363501
 30
0.0
 10
11.8896502185
 20
8.3715633179
 30
0.0
 10
11.8922539575
 20
8.3771208888
 30
0.0
 10
11.893791908
 20
8.3818916663
 30
0.0
 10
11.894938218
 20
8.3869969049
 30
0.0
 10
11.8954819458
 20
8.3938020721
 30
0.0
 10
11.8947702137
 20
8.4022792366
 30
0.0
 10
11.8926921228
 20
8.4109674148
 30
0.0
 10
11.889541835
 20
8.419724996
 30
0.0
 10
11.8856063504
 20
8.4284986662
 30
0.0
 10
11.8810837296
 20
8.437247553
 30
0.0
 10
11.8744378912
 20
8.4489307237
 30
0.0
 10
11.8672741246
 20
8.4604852714
 30
0.0
 10
11.8598607847
 20
8.4720005086
 30
0.0
 10
11.8523336199
 20
8.4835619585
 30
0.0
 10
11.8391817589
 20
8.5036227401
 30
0.0
 10
11.8281352632
 20
8.5209420971
 30
0.0
 10
11.8210526077
 20
8.5325894767
 30
0.0
  0
SPLINE
  5
29E
100
AcDbEntity
  8
0
100
AcDbSpline
 62
7
  6
CONTINUOUS
 70
0
 71
3
 72
35
 73
31
 74
0
 42
0.0000001
 43
0.0000001
 44
0.0000000001
 40
0.0
 40
0.0
 40
0.0
 40
0.0
 40
0.0416391768
 40
0.0640570153
 40
0.0874632426
 40
0.1118024813
 40
0.1370312441
 40
0.1631138293
 40
0.1900137798
 40
0.2460696083
 40
0.2752114766
 40
0.3050673214
 40
0.335710148
 40
0.3671551525
 40
0.383200357
 40
0.3994997913
 40
0.4160749879
 40
0.4329096103
 40
0.4672529997
 40
0.5024387394
 40
0.5383418217
 40
0.5746164649
 40
0.6110936552
 40
0.6476819618
 40
0.720713748
 40
0.7570098003
 40
0.7930501287
 40
0.8287722474
 40
0.8641149768
 40
1.0
 40
1.0
 40
1.0
 40
1.0
 10
11.8210526077
 20
8.5325894767
 30
0.0
 10
11.8247166283
 20
8.5340183055
 30
0.0
 10
11.8302069652
 20
8.5366028758
 30
0.0
 10
11.837392524
 20
8.5406806627
 30
0.0
 10
11.8429948694
 20
8.5442255336
 30
0.0
 10
11.8486478332
 20
8.5481725599
 30
0.0
 10
11.8543136721
 20
8.5525299291
 30
0.0
 10
11.8599560868
 20
8.557302114
 30
0.0
 10
11.8674973139
 20
8.5643193588
 30
0.0
 10
11.8746578464
 20
8.5721580266
 30
0.0
 10
11.8811834761
 20
8.5808571637
 30
0.0
 10
11.8857080726
 20
8.5880262395
 30
0.0
 10
11.889648057
 20
8.5957803834
 30
0.0
 10
11.8922479347
 20
8.6027091024
 30
0.0
 10
11.8937861881
 20
8.6085389759
 30
0.0
 10
11.8946336523
 20
8.6130855242
 30
0.0
 10
11.8951445248
 20
8.6177570883
 30
0.0
 10
11.8953794299
 20
8.6241564328
 30
0.0
 10
11.8947975401
 20
8.6323235019
 30
0.0
 10
11.8927212386
 20
8.6420878039
 30
0.0
 10
11.8895814412
 20
8.6517438453
 30
0.0
 10
11.8856510337
 20
8.6612323236
 30
0.0
 10
11.8811224587
 20
8.6705188465
 30
0.0
 10
11.8745137347
 20
8.6826355062
 30
0.0
 10
11.8673473644
 20
8.6944152602
 30
0.0
 10
11.8598917223
 20
8.7059442587
 30
0.0
 10
11.8542482131
 20
8.7144482836
 30
0.0
 10
11.848578933
 20
8.7228263858
 30
0.0
 10
11.8375296668
 20
8.7389498643
 30
0.0
 10
11.828307521
 20
8.7522350861
 30
0.0
 10
11.8210526077
 20
8.7628219389
 30
0.0
  0
SPLINE
  5
29F
100
AcDbEntity
  8
0
100
AcDbSpline
 62
7
  6
CONTINUOUS
 70
0
 71
3
 72
35
 73
31
 74
0
 42
0.0000001
 43
0.0000001
 44
0.0000000001
 40
0.0
 40
0.0
 40
0.0
 40
0.0
 40
0.0478493988
 40
0.1000361017
 40
0.1275356392
 40
0.1558869429
 40
0.1850409778
 40
0.2149501921
 40
0.2768230407
 40
0.3087376599
 40
0.3412529533
 40
0.3743997733
 40
0.4081144162
 40
0.4251626929
 40
0.4423506024
 40
0.4596809351
 40
0.4771206204
 40
0.512167355
 40
0.5473261729
 40
0.5825331303
 40
0.6175434051
 40
0.6522660822
 40
0.6866760992
 40
0.7542677481
 40
0.7873611148
 40
0.8199018211
 40
0.8518368762
 40
0.883111577
 40
0.9433994728
 40
1.0
 40
1.0
 40
1.0
 40
1.0
 10
11.8210526077
 20
8.7628219389
 30
0.0
 10
11.8247088644
 20
8.765783044
 30
0.0
 10
11.8321590203
 20
8.772214673
 30
0.0
 10
11.8412238712
 20
8.7808871902
 30
0.0
 10
11.8486328615
 20
8.7885015153
 30
0.0
 10
11.8542987536
 20
8.794647875
 30
0.0
 10
11.8599413136
 20
8.8011336534
 30
0.0
 10
11.8674658841
 20
8.8103429363
 30
0.0
 10
11.8746271277
 20
8.8201965386
 30
0.0
 10
11.881170828
 20
8.8307586229
 30
0.0
 10
11.8856942844
 20
8.8392291404
 30
0.0
 10
11.8896318636
 20
8.8481837353
 30
0.0
 10
11.8922388427
 20
8.8560297711
 30
0.0
 10
11.8937827743
 20
8.8625344205
 30
0.0
 10
11.8946318115
 20
8.8675371555
 30
0.0
 10
11.8951436672
 20
8.8726244234
 30
0.0
 10
11.8953782951
 20
8.8794892367
 30
0.0
 10
11.8948119437
 20
8.8881179035
 30
0.0
 10
11.8927470315
 20
8.898301309
 30
0.0
 10
11.8896099578
 20
8.9081920966
 30
0.0
 10
11.8856802443
 20
8.9177432619
 30
0.0
 10
11.8811512588
 20
8.92693439
 30
0.0
 10
11.8745767421
 20
8.9386657403
 30
0.0
 10
11.8674122885
 20
8.9498650548
 30
0.0
 10
11.8599190806
 20
8.9606104455
 30
0.0
 10
11.8542761744
 20
8.9683700239
 30
0.0
 10
11.8486078492
 20
8.9758878786
 30
0.0
 10
11.8411575968
 20
8.9854774396
 30
0.0
 10
11.8320309221
 20
8.9968343004
 30
0.0
 10
11.8246603769
 20
9.0056541425
 30
0.0
 10
11.8210526077
 20
9.009891804
 30
0.0
  0
SPLINE
  5
2A0
100
AcDbEntity
  8
0
100
AcDbSpline
 62
7
  6
CONTINUOUS
 70
0
 71
3
 72
9
 73
5
 74
0
 42
0.0000001
 43
0.0000001
 44
0.0000000001
 40
0.0
 40
0.0
 40
0.0
 40
0.0
 40
0.5072263581
 40
1.0
 40
1.0
 40
1.0
 40
1.0
 10
12.0524834891
 20
8.3944187972
 30
0.0
 10
12.0567411303
 20
8.3944187972
 30
0.0
 10
12.0651409612
 20
8.3948591664
 30
0.0
 10
12.0734474824
 20
8.3962021213
 30
0.0
 10
12.0774834891
 20
8.3971075709
 30
0.0
  0
SPLINE
  5
2A1
100
AcDbEntity
  8
0
100
AcDbSpline
 62
7
  6
CONTINUOUS
 70
0
 71
3
 72
9
 73
5
 74
0
 42
0.0000001
 43
0.0000001
 44
0.0000000001
 40
0.0
 40
0.0
 40
0.0
 40
0.0
 40
0.5084354741
 40
1.0
 40
1.0
 40
1.0
 40
1.0
 10
12.0524834891
 20
8.5374888521
 30
0.0
 10
12.0567386582
 20
8.5374888521
 30
0.0
 10
12.0651112125
 20
8.5378251475
 30
0.0
 10
12.0734291825
 20
8.5388544817
 30
0.0
 10
12.0774834891
 20
8.5395526057
 30
0.0
  0
SPLINE
  5
2A2
100
AcDbEntity
  8
0
100
AcDbSpline
 62
7
  6
CONTINUOUS
 70
0
 71
3
 72
9
 73
5
 74
0
 42
0.0000001
 43
0.0000001
 44
0.0000000001
 40
0.0
 40
0.0
 40
0.0
 40
0.0
 40
0.5093829629
 40
1.0
 40
1.0
 40
1.0
 40
1.0
 10
12.0524834891
 20
8.6897536931
 30
0.0
 10
12.0567367405
 20
8.6897536931
 30
0.0
 10
12.0650881001
 20
8.6899807107
 30
0.0
 10
12.0734145395
 20
8.6906774445
 30
0.0
 10
12.0774834891
 20
8.691152258
 30
0.0
  0
SPLINE
  5
2A3
100
AcDbEntity
  8
0
100
AcDbSpline
 62
7
  6
CONTINUOUS
 70
0
 71
3
 72
9
 73
5
 74
0
 42
0.0000001
 43
0.0000001
 44
0.0000000001
 40
0.0
 40
0.0
 40
0.0
 40
0.0
 40
0.5099870943
 40
1.0
 40
1.0
 40
1.0
 40
1.0
 10
12.0524834891
 20
8.8482496583
 30
0.0
 10
12.0567355265
 20
8.8482496583
 30
0.0
 10
12.0650734575
 20
8.8483640039
 30
0.0
 10
12.0734050603
 20
8.8487155146
 30
0.0
 10
12.0774834891
 20
8.848955813
 30
0.0
  0
LINE
  5
2A4
100
AcDbEntity
  8
0
100
AcDbLine
 62
7
  6
CONTINUOUS
 10
12.0524834891
 20
9.009891804
 11
12.0774834891
 21
9.009891804
  0
SPLINE
  5
2A5
100
AcDbEntity
  8
0
100
AcDbSpline
 62
7
  6
CONTINUOUS
 70
0
 71
3
 72
9
 73
5
 74
0
 42
0.0000001
 43
0.0000001
 44
0.0000000001
 40
0.0
 40
0.0
 40
0.0
 40
0.0
 40
0.5099870943
 40
1.0
 40
1.0
 40
1.0
 40
1.0
 10
12.0524834891
 20
9.1715339498
 30
0.0
 10
12.0567355265
 20
9.1715339498
 30
0.0
 10
12.0650734575
 20
9.1714196042
 30
0.0
 10
12.0734050603
 20
9.1710680935
 30
0.0
 10
12.0774834891
 20
9.170827795
 30
0.0
  0
SPLINE
  5
2A6
100
AcDbEntity
  8
0
100
AcDbSpline
 62
7
  6
CONTINUOUS
 70
0
 71
3
 72
9
 73
5
 74
0
 42
0.0000001
 43
0.0000001
 44
0.0000000001
 40
0.0
 40
0.0
 40
0.0
 40
0.0
 40
0.5093829629
 40
1.0
 40
1.0
 40
1.0
 40
1.0
 10
12.0524834891
 20
9.330029915
 30
0.0
 10
12.0567367405
 20
9.330029915
 30
0.0
 10
12.0650881001
 20
9.3298028974
 30
0.0
 10
12.0734145395
 20
9.3291061636
 30
0.0
 10
12.0774834891
 20
9.32863135
 30
0.0
  0
SPLINE
  5
2A7
100
AcDbEntity
  8
0
100
AcDbSpline
 62
7
  6
CONTINUOUS
 70
0
 71
3
 72
9
 73
5
 74
0
 42
0.0000001
 43
0.0000001
 44
0.0000000001
 40
0.0
 40
0.0
 40
0.0
 40
0.0
 40
0.5084354741
 40
1.0
 40
1.0
 40
1.0
 40
1.0
 10
12.0524834891
 20
9.482294756
 30
0.0
 10
12.0567386582
 20
9.482294756
 30
0.0
 10
12.0651112125
 20
9.4819584606
 30
0.0
 10
12.0734291825
 20
9.4809291264
 30
0.0
 10
12.0774834891
 20
9.4802310023
 30
0.0
  0
SPLINE
  5
2A8
100
AcDbEntity
  8
0
100
AcDbSpline
 62
7
  6
CONTINUOUS
 70
0
 71
3
 72
9
 73
5
 74
0
 42
0.0000001
 43
0.0000001
 44
0.0000000001
 40
0.0
 40
0.0
 40
0.0
 40
0.0
 40
0.5072263581
 40
1.0
 40
1.0
 40
1.0
 40
1.0
 10
12.0524834891
 20
9.6253648109
 30
0.0
 10
12.0567411303
 20
9.6253648109
 30
0.0
 10
12.0651409612
 20
9.6249244417
 30
0.0
 10
12.0734474824
 20
9.6235814868
 30
0.0
 10
12.0774834891
 20
9.6226760371
 30
0.0
  0
LINE
  5
2A9
100
AcDbEntity
  8
0
100
AcDbLine
 62
7
  6
CONTINUOUS
 10
10.5474834891
 20
9.3610321085
 11
10.5970691587
 21
9.3945350645
  0
LINE
  5
2AA
100
AcDbEntity
  8
0
100
AcDbLine
 62
7
  6
CONTINUOUS
 10
10.5489825334
 20
9.3590607268
 11
10.5474834891
 21
9.3579072746
  0
LINE
  5
2AB
100
AcDbEntity
  8
0
100
AcDbLine
 62
7
  6
CONTINUOUS
 10
10.5474834891
 20
9.2975305452
 11
10.5970691587
 21
9.3239517111
  0
SPLINE
  5
2AC
100
AcDbEntity
  8
0
100
AcDbSpline
 62
7
  6
CONTINUOUS
 70
0
 71
3
 72
9
 73
5
 74
0
 42
0.0000001
 43
0.0000001
 44
0.0000000001
 40
0.0
 40
0.0
 40
0.0
 40
0.0
 40
0.4996507416
 40
1.0
 40
1.0
 40
1.0
 40
1.0
 10
10.5970691587
 20
9.3239517111
 30
0.0
 10
10.589052132
 20
9.319183818
 30
0.0
 10
10.5730850734
 20
9.3095092144
 30
0.0
 10
10.5573107411
 20
9.2995215982
 30
0.0
 10
10.5494860718
 20
9.2944202737
 30
0.0
  0
LINE
  5
2AD
100
AcDbEntity
  8
0
100
AcDbLine
 62
7
  6
CONTINUOUS
 10
10.5494860718
 20
9.2944202737
 11
10.5474834891
 21
9.2931113628
  0
LINE
  5
2AE
100
AcDbEntity
  8
0
100
AcDbLine
 62
7
  6
CONTINUOUS
 10
10.5474834891
 20
9.2144268771
 11
10.5970691587
 21
9.231965694
  0
SPLINE
  5
2AF
100
AcDbEntity
  8
0
100
AcDbSpline
 62
7
  6
CONTINUOUS
 70
0
 71
3
 72
9
 73
5
 74
0
 42
0.0000001
 43
0.0000001
 44
0.0000000001
 40
0.0
 40
0.0
 40
0.0
 40
0.0
 40
0.5002752889
 40
1.0
 40
1.0
 40
1.0
 40
1.0
 10
10.5970691587
 20
9.231965694
 30
0.0
 10
10.5890808778
 20
9.2284699365
 30
0.0
 10
10.5731701128
 20
9.2213512443
 30
0.0
 10
10.557410809
 20
9.2138999476
 30
0.0
 10
10.5495946273
 20
9.2100563825
 30
0.0
  0
LINE
  5
2B0
100
AcDbEntity
  8
0
100
AcDbLine
 62
7
  6
CONTINUOUS
 10
10.5495946273
 20
9.2100563825
 11
10.5474834891
 21
9.209014506
  0
SPLINE
  5
2B1
100
AcDbEntity
  8
0
100
AcDbSpline
 62
7
  6
CONTINUOUS
 70
0
 71
3
 72
9
 73
5
 74
0
 42
0.0000001
 43
0.0000001
 44
0.0000000001
 40
0.0
 40
0.0
 40
0.0
 40
0.0
 40
0.4965873011
 40
1.0
 40
1.0
 40
1.0
 40
1.0
 10
10.5474834891
 20
9.1173844817
 30
0.0
 10
10.5557115318
 20
9.1184783832
 30
0.0
 10
10.5722511158
 20
9.1209019908
 30
0.0
 10
10.5887610062
 20
9.1235119709
 30
0.0
 10
10.5970691587
 20
9.1248457083
 30
0.0
  0
SPLINE
  5
2B2
100
AcDbEntity
  8
0
100
AcDbSpline
 62
7
  6
CONTINUOUS
 70
0
 71
3
 72
9
 73
5
 74
0
 42
0.0000001
 43
0.0000001
 44
0.0000000001
 40
0.0
 40
0.0
 40
0.0
 40
0.0
 40
0.5013431899
 40
1.0
 40
1.0
 40
1.0
 40
1.0
 10
10.5970691587
 20
9.1248457083
 30
0.0
 10
10.589010434
 20
9.1228255621
 30
0.0
 10
10.5729656823
 20
9.1186775173
 30
0.0
 10
10.557008508
 20
9.1141977321
 30
0.0
 10
10.5490912665
 20
9.1118305412
 30
0.0
  0
LINE
  5
2B3
100
AcDbEntity
  8
0
100
AcDbLine
 62
7
  6
CONTINUOUS
 10
10.5490912665
 20
9.1118305412
 11
10.5474834891
 21
9.1113477661
  0
LINE
  5
2B4
100
AcDbEntity
  8
0
100
AcDbLine
 62
7
  6
CONTINUOUS
 10
10.5474834891
 20
9.013016638
 11
10.5479607752
 21
9.01297514
  0
SPLINE
  5
2B5
100
AcDbEntity
  8
0
100
AcDbSpline
 62
7
  6
CONTINUOUS
 70
0
 71
3
 72
9
 73
5
 74
0
 42
0.0000001
 43
0.0000001
 44
0.0000000001
 40
0.0
 40
0.0
 40
0.0
 40
0.0
 40
0.4973996568
 40
1.0
 40
1.0
 40
1.0
 40
1.0
 10
10.5479607752
 20
9.01297514
 30
0.0
 10
10.5560889201
 20
9.012271191
 30
0.0
 10
10.5724537109
 20
9.011128836
 30
0.0
 10
10.5888342439
 20
9.0102760638
 30
0.0
 10
10.5970691587
 20
9.009891804
 30
0.0
  0
LINE
  5
2B6
100
AcDbEntity
  8
0
100
AcDbLine
 62
7
  6
CONTINUOUS
 10
10.5474834891
 20
8.908435842
 11
10.5490912665
 21
8.9079530669
  0
SPLINE
  5
2B7
100
AcDbEntity
  8
0
100
AcDbSpline
 62
7
  6
CONTINUOUS
 70
0
 71
3
 72
9
 73
5
 74
0
 42
0.0000001
 43
0.0000001
 44
0.0000000001
 40
0.0
 40
0.0
 40
0.0
 40
0.0
 40
0.4986568101
 40
1.0
 40
1.0
 40
1.0
 40
1.0
 10
10.5490912665
 20
8.9079530669
 30
0.0
 10
10.557008508
 20
8.905585876
 30
0.0
 10
10.5729656824
 20
8.9011060908
 30
0.0
 10
10.589010434
 20
8.896958046
 30
0.0
 10
10.5970691587
 20
8.8949378998
 30
0.0
  0
SPLINE
  5
2B8
100
AcDbEntity
  8
0
100
AcDbSpline
 62
7
  6
CONTINUOUS
 70
0
 71
3
 72
9
 73
5
 74
0
 42
0.0000001
 43
0.0000001
 44
0.0000000001
 40
0.0
 40
0.0
 40
0.0
 40
0.0
 40
0.5034126988
 40
1.0
 40
1.0
 40
1.0
 40
1.0
 10
10.5970691587
 20
8.8949378998
 30
0.0
 10
10.5887610062
 20
8.8962716372
 30
0.0
 10
10.5722511158
 20
8.8988816173
 30
0.0
 10
10.5557115318
 20
8.9013052249
 30
0.0
 10
10.5474834891
 20
8.9023991264
 30
0.0
  0
LINE
  5
2B9
100
AcDbEntity
  8
0
100
AcDbLine
 62
7
  6
CONTINUOUS
 10
10.5474834891
 20
8.8107691021
 11
10.5495946273
 21
8.8097272255
  0
SPLINE
  5
2BA
100
AcDbEntity
  8
0
100
AcDbSpline
 62
7
  6
CONTINUOUS
 70
0
 71
3
 72
9
 73
5
 74
0
 42
0.0000001
 43
0.0000001
 44
0.0000000001
 40
0.0
 40
0.0
 40
0.0
 40
0.0
 40
0.4997247111
 40
1.0
 40
1.0
 40
1.0
 40
1.0
 10
10.5495946273
 20
8.8097272255
 30
0.0
 10
10.557410809
 20
8.8058836604
 30
0.0
 10
10.5731701128
 20
8.7984323638
 30
0.0
 10
10.5890808778
 20
8.7913136716
 30
0.0
 10
10.5970691587
 20
8.7878179141
 30
0.0
  0
LINE
  5
2BB
100
AcDbEntity
  8
0
100
AcDbLine
 62
7
  6
CONTINUOUS
 10
10.5970691587
 20
8.7878179141
 11
10.5474834891
 21
8.805356731
  0
LINE
  5
2BC
100
AcDbEntity
  8
0
100
AcDbLine
 62
7
  6
CONTINUOUS
 10
10.5474834891
 20
8.7266722453
 11
10.5494860718
 21
8.7253633344
  0
SPLINE
  5
2BD
100
AcDbEntity
  8
0
100
AcDbSpline
 62
7
  6
CONTINUOUS
 70
0
 71
3
 72
9
 73
5
 74
0
 42
0.0000001
 43
0.0000001
 44
0.0000000001
 40
0.0
 40
0.0
 40
0.0
 40
0.0
 40
0.5003492584
 40
1.0
 40
1.0
 40
1.0
 40
1.0
 10
10.5494860718
 20
8.7253633344
 30
0.0
 10
10.5573107411
 20
8.7202620099
 30
0.0
 10
10.5730850735
 20
8.7102743937
 30
0.0
 10
10.589052132
 20
8.7005997901
 30
0.0
 10
10.5970691587
 20
8.695831897
 30
0.0
  0
LINE
  5
2BE
100
AcDbEntity
  8
0
100
AcDbLine
 62
7
  6
CONTINUOUS
 10
10.5970691587
 20
8.695831897
 11
10.5474834891
 21
8.7222530628
  0
LINE
  5
2BF
100
AcDbEntity
  8
0
100
AcDbLine
 62
7
  6
CONTINUOUS
 10
10.5474834891
 20
8.6618763334
 11
10.5489825334
 21
8.6607228813
  0
LINE
  5
2C0
100
AcDbEntity
  8
0
100
AcDbLine
 62
7
  6
CONTINUOUS
 10
10.5970691587
 20
8.6252485436
 11
10.5474834891
 21
8.6587514995
  0
ENDSEC
  0
SECTION
  2
OBJECTS
  0
DICTIONARY
  5
C
100
AcDbDictionary
280
0
281
1
  3
ACAD_GROUP
350
D
  3
ACAD_MLINESTYLE
350
17
  3
ACAD_LAYOUT
350
1A
  3
ACAD_PLOTSETTINGS
350
19
  3
ACAD_PLOTSTYLENAME
350
E
  0
DICTIONARY
  5
D
102
{ACAD_REACTORS
330
C
102
}
100
AcDbDictionary
280
0
281
1
  0
ACDBDICTIONARYWDFLT
  5
E
102
{ACAD_REACTORS
330
C
102
}
100
AcDbDictionary
281
1
  3
Normal
350
F
100
AcDbDictionaryWithDefault
340
F
  0
DICTIONARY
  5
17
102
{ACAD_REACTORS
330
C
102
}
100
AcDbDictionary
280
0
281
1
  3
Standard
350
18
  0
DICTIONARY
  5
19
102
{ACAD_REACTORS
330
C
102
}
100
AcDbDictionary
281
1
  0
DICTIONARY
  5
1A
102
{ACAD_REACTORS
330
C
102
}
100
AcDbDictionary
281
1
  3
Model
350
2C1
  3
Layout1
350
2C2
  0
ACDBPLACEHOLDER
  5
F
102
{ACAD_REACTORS
330
E
102
}
  0
MLINESTYLE
  5
18
102
{ACAD_REACTORS
330
17
102
}
100
AcDbMlineStyle
  2
STANDARD
 70
0
  3

 62
256
 51
90.0
 52
90.0
 71
2
 49
0.5
 62
256
  6
BYLAYER
 49
-0.5
 62
256
  6
BYLAYER
  0
LAYOUT
  5
2C1
102
{ACAD_REACTORS
330
1A
102
}
100
AcDbPlotSettings
  1

  2
none_device
  4
ANSI_C_(22.00_x_17.00_Inches)
  6

 40
0.0
 41
0.0
 42
0.0
 43
0.0
 44
558.8
 45
431.8
 46
0.0
 47
0.0
 48
0.0
 49
0.0
140
0.0
141
0.0
142
1.0
143
1.0
 70
1024
 72
0
 73
0
 74
0
  7

 75
0
147
1.0
148
0.0
149
0.0
100
AcDbLayout
  1
Model
 70
0
 71
0
 10
0.0
 20
0.0
 11
22.0
 21
17.0
 12
0.0
 22
0.0
 32
0.0
 14
0.0
 24
0.0
 34
0.0
 15
0.0
 25
0.0
 35
0.0
146
0.0
 13
0.0
 23
0.0
 33
0.0
 16
1.0
 26
0.0
 36
0.0
 17
0.0
 27
1.0
 37
0.0
 76
0
330
205
345
0
346
0
  0
LAYOUT
  5
2C2
102
{ACAD_REACTORS
330
1A
102
}
100
AcDbPlotSettings
  1

  2
none_device
  4
ANSI_C_(22.00_x_17.00_Inches)
  6

 40
0.0
 41
0.0
 42
0.0
 43
0.0
 44
558.8
 45
431.8
 46
0.0
 47
0.0
 48
0.0
 49
0.0
140
0.0
141
0.0
142
1.0
143
1.0
 70
0
 72
0
 73
0
 74
0
  7

 75
0
147
1.0
148
0.0
149
0.0
100
AcDbLayout
  1
Layout1
 70
0
 71
1
 10
0.0
 20
0.0
 11
22.0
 21
17.0
 12
0.0
 22
0.0
 32
0.0
 14
0.0
 24
0.0
 34
0.0
 15
0.0
 25
0.0
 35
0.0
146
0.0
 13
0.0
 23
0.0
 33
0.0
 16
1.0
 26
0.0
 36
0.0
 17
0.0
 27
1.0
 37
0.0
 76
0
330
206
345
0
346
0
  0
ENDSEC
  0
EOF
