  0
SECTION
  2
HEADER
  9
$ACADVER
  1
AC1015
  9
$DWGCODEPAGE
  3
ANSI_1252
  9
$EXTMAX
 10
11.6929133858
 20
8.2677165354
 30
0.0
  9
$EXTMIN
 10
0.0
 20
-0.0
 30
0.0
  9
$LIMMIN
 10
0.0
 20
-0.0
  9
$LIMMAX
 10
11.6929133858
 20
8.2677165354
  9
$VIEWCTR
 10
5.8464566929
 20
4.1338582677
  9
$VIEWSIZE
 40
8.2677165354
  9
$CLAYER
  8
0
  9
$LTSCALE
 40
0.6431102362
  9
$CELTYPE
  6
BYLAYER
  9
$DIMSCALE
 40
1.0
  9
$DIMASZ
 40
0.1
  9
$DIMEXO
 40
0.0730807087
  9
$DIMDLI
 40
0.4443307087
  9
$DIMEXE
 40
0.2104724409
  9
$DIMCEN
 40
0.1052362205
  9
$DIMLFAC
 40
1.0
  9
$DIMBLK
  1
_FILLED
  9
$DIMTXT
 40
0.08
  9
$DIMTOL
 70
1
  9
$DIMLIM
 70
0
  9
$DIMTFAC
 40
1.0
  9
$DIMTP
 40
0.01
  9
$DIMTM
 40
0.01
  9
$PDMODE
 70
3
  9
$PDSIZE
 40
0.06
  9
$HANDSEED
  5
384
  9
$TILEMODE
 70
1
  9
$MEASUREMENT
 70
0
  9
$INSUNITS
 70
1
  0
ENDSEC
  0
SECTION
  2
CLASSES
  0
CLASS
  1
ACDBDICTIONARYWDFLT
  2
AcDbDictionaryWithDefault
  3
AutoCAD 2000
 90
0
280
0
281
0
  0
CLASS
  1
ACDBPLACEHOLDER
  2
AcDbPlaceHolder
  3
AutoCAD 2000
 90
0
280
0
281
0
  0
CLASS
  1
LAYOUT
  2
AcDbLayout
  3
AutoCAD 2000
 90
0
280
0
281
0
  0
ENDSEC
  0
SECTION
  2
TABLES
  0
TABLE
  2
VPORT
  5
8
100
AcDbSymbolTable
 70
2
  0
VPORT
  5
1F4
100
AcDbSymbolTableRecord
100
AcDbViewportTableRecord
  2
*ACTIVE
 70
0
 10
0.0
 20
0.0
 11
1.0
 21
1.0
 12
5.8464566929
 22
4.1338582677
 13
0.0
 23
0.0
 14
1.0
 24
1.0
 15
0.0
 25
0.0
 16
0.0
 26
0.0
 36
1.0
 17
0.0
 27
0.0
 37
0.0
 40
8.2677165354
 41
1.4142857143
 42
50.0
 43
0.0
 44
0.0
 50
0.0
 51
0.0
 71
0
 72
100
 73
1
 74
1
 75
0
 76
0
 77
0
 78
0
  0
ENDTAB
  0
TABLE
  2
LTYPE
  5
5
100
AcDbSymbolTable
 70
6
  0
LTYPE
  5
14
100
AcDbSymbolTableRecord
100
AcDbLinetypeTableRecord
  2
BYBLOCK
 70
0
  3

 72
65
 73
0
 40
0.0
  0
LTYPE
  5
15
100
AcDbSymbolTableRecord
100
AcDbLinetypeTableRecord
  2
BYLAYER
 70
0
  3

 72
65
 73
0
 40
0.0
  0
LTYPE
  5
16
100
AcDbSymbolTableRecord
100
AcDbLinetypeTableRecord
  2
CONTINUOUS
 70
64
  3
Solid line
 72
65
 73
0
 40
0.0
  0
LTYPE
  5
1F5
100
AcDbSymbolTableRecord
100
AcDbLinetypeTableRecord
  2
CENTER
 70
64
  3
____ _ ____ _ ____ _ ____ _ ____ _ ____ _ ____
 72
65
 73
4
 40
0.6
 49
0.375
 74
0
 49
-0.075
 74
0
 49
0.075
 74
0
 49
-0.075
 74
0
  0
LTYPE
  5
1F6
100
AcDbSymbolTableRecord
100
AcDbLinetypeTableRecord
  2
HIDDEN
 70
64
  3
- - - - - - - - - - - - - - - - - - - -
 72
65
 73
2
 40
0.2
 49
0.1
 74
0
 49
-0.1
 74
0
  0
LTYPE
  5
1F7
100
AcDbSymbolTableRecord
100
AcDbLinetypeTableRecord
  2
PHANTOM
 70
64
  3
_____ _ _ _____ _ _ _____ _ _ _____
 72
65
 73
6
 40
0.8
 49
0.45
 74
0
 49
-0.05
 74
0
 49
0.1
 74
0
 49
-0.05
 74
0
 49
0.1
 74
0
 49
-0.05
 74
0
  0
LTYPE
  5
1F8
100
AcDbSymbolTableRecord
100
AcDbLinetypeTableRecord
  2
DOT
 70
64
  3
. . . . . . . . . . . . . . . . . . . .
 72
65
 73
2
 40
0.2
 49
0.1
 74
0
 49
-0.1
 74
0
  0
LTYPE
  5
1F9
100
AcDbSymbolTableRecord
100
AcDbLinetypeTableRecord
  2
DASHED
 70
64
  3
- - - - - - - - - - - - - - - - - - - -
 72
65
 73
2
 40
0.2
 49
0.1
 74
0
 49
-0.1
 74
0
  0
ENDTAB
  0
TABLE
  2
LAYER
  5
2
100
AcDbSymbolTable
 70
36
  0
LAYER
  5
10
100
AcDbSymbolTableRecord
100
AcDbLayerTableRecord
  2
0
 70
0
 62
7
  6
CONTINUOUS
370
-3
390
F
  0
LAYER
  5
1FA
100
AcDbSymbolTableRecord
100
AcDbLayerTableRecord
  2
DEFAULT_1
 70
0
 62
7
  6
CENTER
370
-3
390
F
  0
LAYER
  5
1FB
100
AcDbSymbolTableRecord
100
AcDbLayerTableRecord
  2
DEFAULT_2
 70
0
 62
8
  6
HIDDEN
370
-3
390
F
  0
LAYER
  5
1FC
100
AcDbSymbolTableRecord
100
AcDbLayerTableRecord
  2
DEFAULT_3
 70
0
 62
7
  6
PHANTOM
370
-3
390
F
  0
LAYER
  5
1FD
100
AcDbSymbolTableRecord
100
AcDbLayerTableRecord
  2
3_ALL_SYMBOLS
 70
0
 62
7
  6
CONTINUOUS
370
-3
390
F
  0
LAYER
  5
1FE
100
AcDbSymbolTableRecord
100
AcDbLayerTableRecord
  2
DEFAULT_COORDINATE_SYSTEM
 70
0
 62
7
  6
CONTINUOUS
370
-3
390
F
  0
LAYER
  5
1FF
100
AcDbSymbolTableRecord
100
AcDbLayerTableRecord
  2
DEFAULT_DATUM_AXES
 70
0
 62
7
  6
CONTINUOUS
370
-3
390
F
  0
LAYER
  5
200
100
AcDbSymbolTableRecord
100
AcDbLayerTableRecord
  2
DEFAULT_DATUM_CURVES
 70
0
 62
7
  6
CONTINUOUS
370
-3
390
F
  0
LAYER
  5
201
100
AcDbSymbolTableRecord
100
AcDbLayerTableRecord
  2
DEFAULT_DATUM_PLANES
 70
0
 62
7
  6
CONTINUOUS
370
-3
390
F
  0
ENDTAB
  0
TABLE
  2
STYLE
  5
3
100
AcDbSymbolTable
 70
1
  0
STYLE
  5
11
100
AcDbSymbolTableRecord
100
AcDbTextStyleTableRecord
  2
STANDARD
 70
0
 40
0.0
 41
0.8
 50
0.0
 71
0
 42
0.2
  3
txt
  4

  0
STYLE
  5
202
100
AcDbSymbolTableRecord
100
AcDbTextStyleTableRecord
  2
TEXTSTYLE_1
 70
0
 40
0.0
 41
0.8
 50
0.0
 71
0
 42
0.2
  3
gdt
  4

  0
ENDTAB
  0
TABLE
  2
VIEW
  5
6
100
AcDbSymbolTable
 70
0
  0
ENDTAB
  0
TABLE
  2
UCS
  5
7
100
AcDbSymbolTable
 70
0
  0
ENDTAB
  0
TABLE
  2
APPID
  5
9
100
AcDbSymbolTable
 70
1
  0
APPID
  5
203
100
AcDbSymbolTableRecord
100
AcDbRegAppTableRecord
  2
ACAD
 70
0
  0
ENDTAB
  0
TABLE
  2
BLOCK_RECORD
  5
1
100
AcDbSymbolTable
 70
0
  0
BLOCK_RECORD
  5
204
100
AcDbSymbolTableRecord
100
AcDbBlockTableRecord
  2
*Model_Space
  0
BLOCK_RECORD
  5
205
100
AcDbSymbolTableRecord
100
AcDbBlockTableRecord
  2
*Paper_Space
  0
ENDTAB
  0
TABLE
  2
DIMSTYLE
  5
A
100
AcDbSymbolTable
 70
1
100
AcDbDimStyleTable
 71
0
  0
DIMSTYLE
105
206
100
AcDbSymbolTableRecord
100
AcDbDimStyleTableRecord
  2
STANDARD
 70
0
  3

  4

 40
1.0
 41
0.1
 42
0.0625
 43
0.38
 44
0.18
 45
0.0
 46
0.0
 47
0.01
 48
0.01
140
0.08
141
0.09
142
0.0
143
25.4
144
1.0
145
0.0
146
1.0
147
0.09
 71
1.0
 72
0.0
 73
1
 74
1
 75
0
 76
0
 77
0
 78
4
170
0
171
2
172
0
173
0
174
0
175
0
176
0
177
0
178
0
270
2
271
2
272
2
273
2
274
2
275
0
280
0
281
0
282
0
283
1
284
4
285
0
286
0
287
3
288
0
340
11
  0
ENDTAB
  0
ENDSEC
  0
SECTION
  2
BLOCKS
  0
BLOCK
  5
20
100
AcDbEntity
  8
0
100
AcDbBlockBegin
  2
*Model_Space
 70
0
 10
0.0
 20
0.0
 30
0.0
  3
*Model_Space
  1

  0
ENDBLK
  5
21
100
AcDbEntity
  8
0
100
AcDbBlockEnd
  0
BLOCK
  5
1C
100
AcDbEntity
  8
0
100
AcDbBlockBegin
  2
*Paper_Space
 70
0
 10
0.0
 20
0.0
 30
0.0
  3
*Paper_Space
  1

  0
ENDBLK
  5
1D
100
AcDbEntity
  8
0
100
AcDbBlockEnd
  0
ENDSEC
  0
SECTION
  2
ENTITIES
  0
LINE
  5
207
100
AcDbEntity
  8
0
100
AcDbLine
 62
6
  6
CONTINUOUS
 10
2.9000467809
 20
5.2718797694
 11
2.9000467809
 21
4.8122751148
  0
LINE
  5
208
100
AcDbEntity
  8
0
100
AcDbLine
 62
6
  6
CONTINUOUS
 10
2.9000467809
 20
3.3626704601
 11
2.9000467809
 21
3.8222751148
  0
LINE
  5
209
100
AcDbEntity
  8
0
100
AcDbLine
 62
7
  6
CONTINUOUS
 10
3.2798082191
 20
3.9997751149
 11
3.2798082191
 21
4.6347751147
  0
LINE
  5
20A
100
AcDbEntity
  8
0
100
AcDbLine
 62
6
  6
CONTINUOUS
 10
3.147116646
 20
5.2393524046
 11
3.0279995876
 21
4.7948014905
  0
LINE
  5
20B
100
AcDbEntity
  8
0
100
AcDbLine
 62
6
  6
CONTINUOUS
 10
2.6529769157
 20
3.395197825
 11
2.7720939741
 21
3.8397487391
  0
LINE
  5
20C
100
AcDbEntity
  8
0
100
AcDbLine
 62
6
  6
CONTINUOUS
 10
2.6529769157
 20
5.2393524046
 11
2.7720939741
 21
4.7948014905
  0
LINE
  5
20D
100
AcDbEntity
  8
0
100
AcDbLine
 62
6
  6
CONTINUOUS
 10
3.147116646
 20
3.395197825
 11
3.0279995876
 21
3.8397487391
  0
LINE
  5
20E
100
AcDbEntity
  8
0
100
AcDbLine
 62
9
  6
CONTINUOUS
 10
3.3326652186
 20
4.6610251148
 11
3.3326652186
 21
3.9735251148
  0
LINE
  5
20F
100
AcDbEntity
  8
0
100
AcDbLine
 62
9
  6
CONTINUOUS
 10
3.4052836563
 20
4.6922751148
 11
3.4052836563
 21
3.9422751148
  0
LINE
  5
210
100
AcDbEntity
  8
0
100
AcDbLine
 62
6
  6
CONTINUOUS
 10
3.3773491082
 20
5.1439869963
 11
3.14712805
 21
4.7452324266
  0
LINE
  5
211
100
AcDbEntity
  8
0
100
AcDbLine
 62
6
  6
CONTINUOUS
 10
2.4227444535
 20
3.4905632333
 11
2.6529655117
 21
3.889317803
  0
LINE
  5
212
100
AcDbEntity
  8
0
100
AcDbLine
 62
6
  6
CONTINUOUS
 10
2.4227444535
 20
5.1439869963
 11
2.6529655117
 21
4.7452324266
  0
LINE
  5
213
100
AcDbEntity
  8
0
100
AcDbLine
 62
6
  6
CONTINUOUS
 10
3.3773491082
 20
3.4905632333
 11
3.14712805
 21
3.889317803
  0
LINE
  5
214
100
AcDbEntity
  8
0
100
AcDbLine
 62
6
  6
CONTINUOUS
 10
3.5750542055
 20
4.9922825395
 11
3.2496203498
 21
4.6668486837
  0
LINE
  5
215
100
AcDbEntity
  8
0
100
AcDbLine
 62
6
  6
CONTINUOUS
 10
2.2250393562
 20
3.6422676901
 11
2.5504732119
 21
3.9677015459
  0
LINE
  5
216
100
AcDbEntity
  8
0
100
AcDbLine
 62
6
  6
CONTINUOUS
 10
2.2250393562
 20
4.9922825395
 11
2.5504732119
 21
4.6668486837
  0
LINE
  5
217
100
AcDbEntity
  8
0
100
AcDbLine
 62
6
  6
CONTINUOUS
 10
3.5750542055
 20
3.6422676901
 11
3.2496203498
 21
3.9677015459
  0
LINE
  5
218
100
AcDbEntity
  8
0
100
AcDbLine
 62
6
  6
CONTINUOUS
 10
3.7267586624
 20
4.7945774421
 11
3.5495658337
 21
4.6922751148
  0
LINE
  5
219
100
AcDbEntity
  8
0
100
AcDbLine
 62
6
  6
CONTINUOUS
 10
2.0733348994
 20
3.8399727875
 11
2.471364206
 21
4.0697751148
  0
LINE
  5
21A
100
AcDbEntity
  8
0
100
AcDbLine
 62
6
  6
CONTINUOUS
 10
2.0733348994
 20
4.7945774421
 11
2.471364206
 21
4.5647751148
  0
LINE
  5
21B
100
AcDbEntity
  8
0
100
AcDbLine
 62
6
  6
CONTINUOUS
 10
3.7267586624
 20
3.8399727875
 11
3.5495658337
 21
3.9422751148
  0
LINE
  5
21C
100
AcDbEntity
  8
0
100
AcDbLine
 62
6
  6
CONTINUOUS
 10
10.0721240707
 20
4.56434498
 11
9.6275731565
 21
4.4452279215
  0
LINE
  5
21D
100
AcDbEntity
  8
0
100
AcDbLine
 62
6
  6
CONTINUOUS
 10
1.977969491
 20
4.56434498
 11
2.4225204052
 21
4.4452279215
  0
LINE
  5
21E
100
AcDbEntity
  8
0
100
AcDbLine
 62
6
  6
CONTINUOUS
 10
5.7250467809
 20
3.9172751148
 11
5.7250467809
 21
4.7172751148
  0
LINE
  5
21F
100
AcDbEntity
  8
0
100
AcDbLine
 62
7
  6
CONTINUOUS
 10
8.6246873239
 20
3.9172751148
 11
8.5603964057
 21
3.9172751148
  0
LINE
  5
220
100
AcDbEntity
  8
0
100
AcDbLine
 62
6
  6
CONTINUOUS
 10
8.5603964057
 20
3.9172751148
 11
5.7250467809
 21
3.9172751148
  0
LINE
  5
221
100
AcDbEntity
  8
0
100
AcDbLine
 62
6
  6
CONTINUOUS
 10
5.7250467809
 20
3.9422751148
 11
5.2687292211
 21
3.9422751148
  0
LINE
  5
222
100
AcDbEntity
  8
0
100
AcDbLine
 62
6
  6
CONTINUOUS
 10
5.2609374747
 20
3.9422751148
 11
3.4052836563
 21
3.9422751148
  0
LWPOLYLINE
  5
223
100
AcDbEntity
  8
0
100
AcDbPolyline
 62
6
  6
CONTINUOUS
 90
5
 70
0
 10
3.8297644699
 20
3.9265030499
 10
3.8354757276
 20
3.926934765
 10
3.8471212875
 20
3.9304656954
 10
3.8574948684
 20
3.936820962
 10
3.8633450054
 20
3.9422751148
  0
LINE
  5
224
100
AcDbEntity
  8
0
100
AcDbLine
 62
6
  6
CONTINUOUS
 10
10.1046514355
 20
4.3172751148
 11
9.6442093192
 21
4.3172751148
  0
LINE
  5
225
100
AcDbEntity
  8
0
100
AcDbLine
 62
6
  6
CONTINUOUS
 10
1.9454421262
 20
4.3172751148
 11
2.4058842425
 21
4.3172751148
  0
LINE
  5
226
100
AcDbEntity
  8
0
100
AcDbLine
 62
6
  6
CONTINUOUS
 10
5.7250467809
 20
4.6922751148
 11
3.4052836563
 21
4.6922751148
  0
LINE
  5
227
100
AcDbEntity
  8
0
100
AcDbLine
 62
6
  6
CONTINUOUS
 10
8.6246873239
 20
4.7172751148
 11
7.9215968842
 21
4.7172751148
  0
LINE
  5
228
100
AcDbEntity
  8
0
100
AcDbLine
 62
7
  6
CONTINUOUS
 10
7.9215968842
 20
4.7172751148
 11
7.9091525309
 21
4.7172751148
  0
LINE
  5
229
100
AcDbEntity
  8
0
100
AcDbLine
 62
6
  6
CONTINUOUS
 10
7.9091525309
 20
4.7172751148
 11
5.7250467809
 21
4.7172751148
  0
LINE
  5
22A
100
AcDbEntity
  8
0
100
AcDbLine
 62
6
  6
CONTINUOUS
 10
1.977969491
 20
4.0702052496
 11
2.4225204052
 21
4.1893223081
  0
LINE
  5
22B
100
AcDbEntity
  8
0
100
AcDbLine
 62
6
  6
CONTINUOUS
 10
10.0721240707
 20
4.0702052496
 11
9.6275731565
 21
4.1893223081
  0
LINE
  5
22C
100
AcDbEntity
  8
0
100
AcDbLine
 62
6
  6
CONTINUOUS
 10
9.9767586624
 20
4.7945774421
 11
9.5787293557
 21
4.5647751148
  0
LINE
  5
22D
100
AcDbEntity
  8
0
100
AcDbLine
 62
6
  6
CONTINUOUS
 10
8.3233348994
 20
3.8399727875
 11
8.4572264578
 21
3.9172751148
  0
LINE
  5
22E
100
AcDbEntity
  8
0
100
AcDbLine
 62
6
  6
CONTINUOUS
 10
9.9767586624
 20
3.8399727875
 11
9.5787293557
 21
4.0697751148
  0
LINE
  5
22F
100
AcDbEntity
  8
0
100
AcDbLine
 62
6
  6
CONTINUOUS
 10
8.3233348994
 20
4.7945774421
 11
8.4572264578
 21
4.7172751148
  0
LINE
  5
230
100
AcDbEntity
  8
0
100
AcDbLine
 62
6
  6
CONTINUOUS
 10
9.8250542055
 20
4.9922825395
 11
9.4996203498
 21
4.6668486837
  0
LINE
  5
231
100
AcDbEntity
  8
0
100
AcDbLine
 62
6
  6
CONTINUOUS
 10
8.4750393562
 20
3.6422676901
 11
8.8004732119
 21
3.9677015459
  0
LINE
  5
232
100
AcDbEntity
  8
0
100
AcDbLine
 62
6
  6
CONTINUOUS
 10
9.8250542055
 20
3.6422676901
 11
9.4996203498
 21
3.9677015459
  0
LINE
  5
233
100
AcDbEntity
  8
0
100
AcDbLine
 62
6
  6
CONTINUOUS
 10
8.4750393562
 20
4.9922825395
 11
8.8004732119
 21
4.6668486837
  0
LINE
  5
234
100
AcDbEntity
  8
0
100
AcDbLine
 62
9
  6
CONTINUOUS
 10
8.6246873239
 20
3.9172751148
 11
8.6246873239
 21
4.7172751148
  0
LINE
  5
235
100
AcDbEntity
  8
0
100
AcDbLine
 62
9
  6
CONTINUOUS
 10
8.7073670524
 20
3.9610251148
 11
8.7073670524
 21
4.6735251148
  0
LINE
  5
236
100
AcDbEntity
  8
0
100
AcDbLine
 62
7
  6
CONTINUOUS
 10
8.7702853426
 20
4.6347751147
 11
8.7702853426
 21
3.9997751149
  0
LINE
  5
237
100
AcDbEntity
  8
0
100
AcDbLine
 62
6
  6
CONTINUOUS
 10
9.6273491082
 20
5.1439869963
 11
9.39712805
 21
4.7452324266
  0
LINE
  5
238
100
AcDbEntity
  8
0
100
AcDbLine
 62
6
  6
CONTINUOUS
 10
8.6727444535
 20
3.4905632333
 11
8.9029655117
 21
3.889317803
  0
LINE
  5
239
100
AcDbEntity
  8
0
100
AcDbLine
 62
6
  6
CONTINUOUS
 10
8.6727444535
 20
5.1439869963
 11
8.9029655117
 21
4.7452324266
  0
LINE
  5
23A
100
AcDbEntity
  8
0
100
AcDbLine
 62
6
  6
CONTINUOUS
 10
9.6273491082
 20
3.4905632333
 11
9.39712805
 21
3.889317803
  0
LINE
  5
23B
100
AcDbEntity
  8
0
100
AcDbLine
 62
6
  6
CONTINUOUS
 10
9.397116646
 20
5.2393524046
 11
9.2779995876
 21
4.7948014905
  0
LINE
  5
23C
100
AcDbEntity
  8
0
100
AcDbLine
 62
6
  6
CONTINUOUS
 10
8.9029769157
 20
3.395197825
 11
9.0220939741
 21
3.8397487391
  0
LINE
  5
23D
100
AcDbEntity
  8
0
100
AcDbLine
 62
6
  6
CONTINUOUS
 10
8.9029769157
 20
5.2393524046
 11
9.0220939741
 21
4.7948014905
  0
LINE
  5
23E
100
AcDbEntity
  8
0
100
AcDbLine
 62
6
  6
CONTINUOUS
 10
9.397116646
 20
3.395197825
 11
9.2779995876
 21
3.8397487391
  0
LINE
  5
23F
100
AcDbEntity
  8
0
100
AcDbLine
 62
6
  6
CONTINUOUS
 10
9.1500467809
 20
5.2718797694
 11
9.1500467809
 21
4.8122751148
  0
LINE
  5
240
100
AcDbEntity
  8
0
100
AcDbLine
 62
6
  6
CONTINUOUS
 10
9.1500467809
 20
3.3626704601
 11
9.1500467809
 21
3.8222751148
  0
ARC
  5
241
100
AcDbEntity
  8
0
100
AcDbCircle
 62
6
  6
CONTINUOUS
 10
2.0573978934
 20
3.6102087441
 40
0.1
100
AcDbArc
 50
165.8860583838
 51
274.1139416162
  0
ARC
  5
242
100
AcDbEntity
  8
0
100
AcDbCircle
 62
6
  6
CONTINUOUS
 10
2.1640031139
 20
3.4998158068
 40
0.1
100
AcDbArc
 50
173.8860583838
 51
282.1139416162
  0
ARC
  5
243
100
AcDbEntity
  8
0
100
AcDbCircle
 62
6
  6
CONTINUOUS
 10
2.284934587
 20
3.405333785
 40
0.1
100
AcDbArc
 50
181.8860583838
 51
290.1139416162
  0
ARC
  5
244
100
AcDbEntity
  8
0
100
AcDbCircle
 62
6
  6
CONTINUOUS
 10
2.4178385194
 20
3.3286016639
 40
0.1
100
AcDbArc
 50
189.8860583838
 51
298.1139416162
  0
ARC
  5
245
100
AcDbEntity
  8
0
100
AcDbCircle
 62
6
  6
CONTINUOUS
 10
2.560128087
 20
3.2711129469
 40
0.1
100
AcDbArc
 50
197.8860583838
 51
306.1139416162
  0
ARC
  5
246
100
AcDbEntity
  8
0
100
AcDbCircle
 62
6
  6
CONTINUOUS
 10
2.7090337854
 20
3.2339865865
 40
0.1
100
AcDbArc
 50
205.8860583838
 51
314.1139416162
  0
ARC
  5
247
100
AcDbEntity
  8
0
100
AcDbCircle
 62
6
  6
CONTINUOUS
 10
2.8616573345
 20
3.2179452051
 40
0.1
100
AcDbArc
 50
213.8860583838
 51
322.1139416162
  0
ARC
  5
248
100
AcDbEntity
  8
0
100
AcDbCircle
 62
6
  6
CONTINUOUS
 10
1.8107519052
 20
4.1641847037
 40
0.1
100
AcDbArc
 50
133.8860583838
 51
242.1139416162
  0
ARC
  5
249
100
AcDbEntity
  8
0
100
AcDbCircle
 62
6
  6
CONTINUOUS
 10
1.8426589153
 20
4.0140740234
 40
0.1
100
AcDbArc
 50
141.8860583838
 51
250.1139416162
  0
ARC
  5
24A
100
AcDbEntity
  8
0
100
AcDbCircle
 62
6
  6
CONTINUOUS
 10
1.8951467775
 20
3.8698648074
 40
0.1
100
AcDbArc
 50
149.8860583838
 51
258.1139416162
  0
ARC
  5
24B
100
AcDbEntity
  8
0
100
AcDbCircle
 62
6
  6
CONTINUOUS
 10
1.9671938751
 20
3.7343639241
 40
0.1
100
AcDbArc
 50
157.8860583838
 51
266.1139416162
  0
ARC
  5
24C
100
AcDbEntity
  8
0
100
AcDbCircle
 62
6
  6
CONTINUOUS
 10
3.0150280905
 20
3.2233010299
 40
0.1
100
AcDbArc
 50
221.8860583838
 51
330.1139416162
  0
ARC
  5
24D
100
AcDbEntity
  8
0
100
AcDbCircle
 62
6
  6
CONTINUOUS
 10
3.166160866
 20
3.2499498159
 40
0.1
100
AcDbArc
 50
229.8860583838
 51
338.1139416162
  0
ARC
  5
24E
100
AcDbEntity
  8
0
100
AcDbCircle
 62
6
  6
CONTINUOUS
 10
3.3121140336
 20
3.2973728748
 40
0.1
100
AcDbArc
 50
237.8860583838
 51
346.1139416162
  0
ARC
  5
24F
100
AcDbEntity
  8
0
100
AcDbCircle
 62
6
  6
CONTINUOUS
 10
3.4500467809
 20
3.3646471706
 40
0.1
100
AcDbArc
 50
245.8860583838
 51
354.1139416162
  0
ARC
  5
250
100
AcDbEntity
  8
0
100
AcDbCircle
 62
6
  6
CONTINUOUS
 10
3.5772744037
 20
3.4504632858
 40
0.1
100
AcDbArc
 50
253.8860583838
 51
2.1139416162
  0
ARC
  5
251
100
AcDbEntity
  8
0
100
AcDbCircle
 62
6
  6
CONTINUOUS
 10
3.6913205612
 20
3.5531509073
 40
0.1
100
AcDbArc
 50
261.8860583838
 51
10.1139416162
  0
ARC
  5
252
100
AcDbEntity
  8
0
100
AcDbCircle
 62
6
  6
CONTINUOUS
 10
3.7899654747
 20
3.6707113373
 40
0.1
100
AcDbArc
 50
269.8860583838
 51
18.1139416162
  0
ARC
  5
253
100
AcDbEntity
  8
0
100
AcDbCircle
 62
6
  6
CONTINUOUS
 10
3.7054261555
 20
3.9835433302
 40
0.1405054691
100
AcDbArc
 50
335.2670254978
 51
336.1410331362
  0
ARC
  5
254
100
AcDbEntity
  8
0
100
AcDbCircle
 62
6
  6
CONTINUOUS
 10
3.871289133
 20
3.8008563957
 40
0.1
100
AcDbArc
 50
277.8860583838
 51
26.1139416162
  0
ARC
  5
255
100
AcDbEntity
  8
0
100
AcDbCircle
 62
6
  6
CONTINUOUS
 10
3.9337086637
 20
3.9410529571
 40
0.1
100
AcDbArc
 50
285.8860583838
 51
0.7032419295
  0
ARC
  5
256
100
AcDbEntity
  8
0
100
AcDbCircle
 62
6
  6
CONTINUOUS
 10
3.4052836563
 20
4.0422751148
 40
0.1
100
AcDbArc
 50
223.4325365578
 51
270.0
  0
ARC
  5
257
100
AcDbEntity
  8
0
100
AcDbCircle
 62
6
  6
CONTINUOUS
 10
3.2600467809
 20
3.9047751148
 40
0.1
100
AcDbArc
 50
43.4325365578
 51
78.0988877108
  0
ARC
  5
258
100
AcDbEntity
  8
0
100
AcDbCircle
 62
6
  6
CONTINUOUS
 10
1.8000467809
 20
4.3172751148
 40
0.1
100
AcDbArc
 50
125.8860583838
 51
234.1139416162
  0
ARC
  5
259
100
AcDbEntity
  8
0
100
AcDbCircle
 62
6
  6
CONTINUOUS
 10
1.8951467775
 20
4.7646854222
 40
0.1
100
AcDbArc
 50
101.8860583838
 51
210.1139416162
  0
ARC
  5
25A
100
AcDbEntity
  8
0
100
AcDbCircle
 62
6
  6
CONTINUOUS
 10
1.8426589153
 20
4.6204762062
 40
0.1
100
AcDbArc
 50
109.8860583838
 51
218.1139416162
  0
ARC
  5
25B
100
AcDbEntity
  8
0
100
AcDbCircle
 62
6
  6
CONTINUOUS
 10
1.8107519052
 20
4.4703655259
 40
0.1
100
AcDbArc
 50
117.8860583838
 51
226.1139416162
  0
ARC
  5
25C
100
AcDbEntity
  8
0
100
AcDbCircle
 62
6
  6
CONTINUOUS
 10
2.8616573345
 20
5.4166050245
 40
0.1
100
AcDbArc
 50
37.8860583838
 51
146.1139416162
  0
ARC
  5
25D
100
AcDbEntity
  8
0
100
AcDbCircle
 62
6
  6
CONTINUOUS
 10
2.7090337854
 20
5.4005636431
 40
0.1
100
AcDbArc
 50
45.8860583838
 51
154.1139416162
  0
ARC
  5
25E
100
AcDbEntity
  8
0
100
AcDbCircle
 62
6
  6
CONTINUOUS
 10
2.560128087
 20
5.3634372827
 40
0.1
100
AcDbArc
 50
53.8860583838
 51
162.1139416162
  0
ARC
  5
25F
100
AcDbEntity
  8
0
100
AcDbCircle
 62
6
  6
CONTINUOUS
 10
2.4178385194
 20
5.3059485657
 40
0.1
100
AcDbArc
 50
61.8860583838
 51
170.1139416162
  0
ARC
  5
260
100
AcDbEntity
  8
0
100
AcDbCircle
 62
6
  6
CONTINUOUS
 10
2.284934587
 20
5.2292164446
 40
0.1
100
AcDbArc
 50
69.8860583838
 51
178.1139416162
  0
ARC
  5
261
100
AcDbEntity
  8
0
100
AcDbCircle
 62
6
  6
CONTINUOUS
 10
2.1640031139
 20
5.1347344228
 40
0.1
100
AcDbArc
 50
77.8860583838
 51
186.1139416162
  0
ARC
  5
262
100
AcDbEntity
  8
0
100
AcDbCircle
 62
6
  6
CONTINUOUS
 10
2.0573978934
 20
5.0243414855
 40
0.1
100
AcDbArc
 50
85.8860583838
 51
194.1139416162
  0
ARC
  5
263
100
AcDbEntity
  8
0
100
AcDbCircle
 62
6
  6
CONTINUOUS
 10
1.9671938751
 20
4.9001863055
 40
0.1
100
AcDbArc
 50
93.8860583838
 51
202.1139416162
  0
ARC
  5
264
100
AcDbEntity
  8
0
100
AcDbCircle
 62
6
  6
CONTINUOUS
 10
2.9000467809
 20
4.3172751148
 40
1.285
100
AcDbArc
 50
16.9815601906
 51
343.0184398094
  0
ARC
  5
265
100
AcDbEntity
  8
0
100
AcDbCircle
 62
6
  6
CONTINUOUS
 10
2.9000467809
 20
4.3172751148
 40
1.2
100
AcDbArc
 50
243.9992024203
 51
251.9682891342
  0
ARC
  5
266
100
AcDbEntity
  8
0
100
AcDbCircle
 62
6
  6
CONTINUOUS
 10
2.9000467809
 20
4.3172751148
 40
1.2
100
AcDbArc
 50
252.1094675368
 51
341.7665712933
  0
ARC
  5
267
100
AcDbEntity
  8
0
100
AcDbCircle
 62
6
  6
CONTINUOUS
 10
2.9000467809
 20
4.3172751148
 40
1.2
100
AcDbArc
 50
18.2747843307
 51
243.7893034501
  0
ARC
  5
268
100
AcDbEntity
  8
0
100
AcDbCircle
 62
9
  6
CONTINUOUS
 10
2.9000467809
 20
4.3172751148
 40
1.0170079088
100
AcDbArc
 50
21.7069208822
 51
337.3629118259
  0
ARC
  5
269
100
AcDbEntity
  8
0
100
AcDbCircle
 62
6
  6
CONTINUOUS
 10
2.9000467809
 20
4.3172751148
 40
0.495
100
AcDbArc
 50
39.5954422902
 51
320.4045577098
  0
CIRCLE
  5
26A
100
AcDbEntity
  8
0
100
AcDbCircle
 62
6
  6
CONTINUOUS
 10
2.9000467809
 20
4.3172751148
 40
0.3305
  0
CIRCLE
  5
26B
100
AcDbEntity
  8
0
100
AcDbCircle
 62
9
  6
CONTINUOUS
 10
2.9000467809
 20
4.3172751148
 40
0.2955
  0
CIRCLE
  5
26C
100
AcDbEntity
  8
0
100
AcDbCircle
 62
6
  6
CONTINUOUS
 10
2.9000467809
 20
4.3172751148
 40
0.272
  0
CIRCLE
  5
26D
100
AcDbEntity
  8
0
100
AcDbCircle
 62
7
  6
CONTINUOUS
 10
2.9000467809
 20
4.3172751148
 40
0.2416833309
  0
CIRCLE
  5
26E
100
AcDbEntity
  8
0
100
AcDbCircle
 62
6
  6
CONTINUOUS
 10
2.9000467809
 20
4.3172751148
 40
0.185
  0
CIRCLE
  5
26F
100
AcDbEntity
  8
0
100
AcDbCircle
 62
6
  6
CONTINUOUS
 10
2.9000467809
 20
4.3172751148
 40
0.17
  0
ARC
  5
270
100
AcDbEntity
  8
0
100
AcDbCircle
 62
6
  6
CONTINUOUS
 10
3.2600467809
 20
4.7297751148
 40
0.1
100
AcDbArc
 50
281.9011122892
 51
316.5674634422
  0
ARC
  5
271
100
AcDbEntity
  8
0
100
AcDbCircle
 62
6
  6
CONTINUOUS
 10
3.4052836563
 20
4.5922751148
 40
0.1
100
AcDbArc
 50
90.0
 51
136.5674634422
  0
ARC
  5
272
100
AcDbEntity
  8
0
100
AcDbCircle
 62
6
  6
CONTINUOUS
 10
3.9337086637
 20
4.6934972725
 40
0.1
100
AcDbArc
 50
359.2967580705
 51
74.1139416162
  0
ARC
  5
273
100
AcDbEntity
  8
0
100
AcDbCircle
 62
6
  6
CONTINUOUS
 10
3.871289133
 20
4.8336938339
 40
0.1
100
AcDbArc
 50
333.8860583838
 51
82.1139416162
  0
ARC
  5
274
100
AcDbEntity
  8
0
100
AcDbCircle
 62
6
  6
CONTINUOUS
 10
3.7899654747
 20
4.9638388923
 40
0.1
100
AcDbArc
 50
341.8860583838
 51
90.1139416162
  0
ARC
  5
275
100
AcDbEntity
  8
0
100
AcDbCircle
 62
6
  6
CONTINUOUS
 10
3.6913205612
 20
5.0813993223
 40
0.1
100
AcDbArc
 50
349.8860583838
 51
98.1139416162
  0
ARC
  5
276
100
AcDbEntity
  8
0
100
AcDbCircle
 62
6
  6
CONTINUOUS
 10
3.5772744037
 20
5.1840869438
 40
0.1
100
AcDbArc
 50
357.8860583838
 51
106.1139416162
  0
ARC
  5
277
100
AcDbEntity
  8
0
100
AcDbCircle
 62
6
  6
CONTINUOUS
 10
3.4500467809
 20
5.269903059
 40
0.1
100
AcDbArc
 50
5.8860583838
 51
114.1139416162
  0
ARC
  5
278
100
AcDbEntity
  8
0
100
AcDbCircle
 62
6
  6
CONTINUOUS
 10
3.3121140336
 20
5.3371773548
 40
0.1
100
AcDbArc
 50
13.8860583838
 51
122.1139416162
  0
ARC
  5
279
100
AcDbEntity
  8
0
100
AcDbCircle
 62
6
  6
CONTINUOUS
 10
3.166160866
 20
5.3846004137
 40
0.1
100
AcDbArc
 50
21.8860583838
 51
130.1139416162
  0
ARC
  5
27A
100
AcDbEntity
  8
0
100
AcDbCircle
 62
6
  6
CONTINUOUS
 10
3.0150280905
 20
5.4112491997
 40
0.1
100
AcDbArc
 50
29.8860583838
 51
138.1139416162
  0
ARC
  5
27B
100
AcDbEntity
  8
0
100
AcDbCircle
 62
6
  6
CONTINUOUS
 10
8.3073978934
 20
3.6102087441
 40
0.1
100
AcDbArc
 50
165.8860583838
 51
274.1139416162
  0
ARC
  5
27C
100
AcDbEntity
  8
0
100
AcDbCircle
 62
6
  6
CONTINUOUS
 10
8.4140031139
 20
3.4998158068
 40
0.1
100
AcDbArc
 50
173.8860583838
 51
282.1139416162
  0
ARC
  5
27D
100
AcDbEntity
  8
0
100
AcDbCircle
 62
6
  6
CONTINUOUS
 10
8.534934587
 20
3.405333785
 40
0.1
100
AcDbArc
 50
181.8860583838
 51
290.1139416162
  0
ARC
  5
27E
100
AcDbEntity
  8
0
100
AcDbCircle
 62
6
  6
CONTINUOUS
 10
8.6678385194
 20
3.3286016639
 40
0.1
100
AcDbArc
 50
189.8860583838
 51
298.1139416162
  0
ARC
  5
27F
100
AcDbEntity
  8
0
100
AcDbCircle
 62
6
  6
CONTINUOUS
 10
8.810128087
 20
3.2711129469
 40
0.1
100
AcDbArc
 50
197.8860583838
 51
306.1139416162
  0
ARC
  5
280
100
AcDbEntity
  8
0
100
AcDbCircle
 62
6
  6
CONTINUOUS
 10
8.9590337854
 20
3.2339865865
 40
0.1
100
AcDbArc
 50
205.8860583838
 51
314.1139416162
  0
ARC
  5
281
100
AcDbEntity
  8
0
100
AcDbCircle
 62
6
  6
CONTINUOUS
 10
9.1116573345
 20
3.2179452051
 40
0.1
100
AcDbArc
 50
213.8860583838
 51
322.1139416162
  0
ARC
  5
282
100
AcDbEntity
  8
0
100
AcDbCircle
 62
6
  6
CONTINUOUS
 10
8.1451467775
 20
3.8698648074
 40
0.1
100
AcDbArc
 50
151.6136272433
 51
258.1139416162
  0
ARC
  5
283
100
AcDbEntity
  8
0
100
AcDbCircle
 62
6
  6
CONTINUOUS
 10
8.2171938751
 20
3.7343639241
 40
0.1
100
AcDbArc
 50
157.8860583838
 51
266.1139416162
  0
ARC
  5
284
100
AcDbEntity
  8
0
100
AcDbCircle
 62
6
  6
CONTINUOUS
 10
8.7900467809
 20
3.9047751148
 40
0.1
100
AcDbArc
 50
101.6877223727
 51
145.7711336722
  0
ARC
  5
285
100
AcDbEntity
  8
0
100
AcDbCircle
 62
6
  6
CONTINUOUS
 10
8.6246873239
 20
4.0172751148
 40
0.1
100
AcDbArc
 50
270.0
 51
325.7711336722
  0
ARC
  5
286
100
AcDbEntity
  8
0
100
AcDbCircle
 62
6
  6
CONTINUOUS
 10
9.2650280905
 20
3.2233010299
 40
0.1
100
AcDbArc
 50
221.8860583838
 51
330.1139416162
  0
ARC
  5
287
100
AcDbEntity
  8
0
100
AcDbCircle
 62
6
  6
CONTINUOUS
 10
9.416160866
 20
3.2499498159
 40
0.1
100
AcDbArc
 50
229.8860583838
 51
338.1139416162
  0
ARC
  5
288
100
AcDbEntity
  8
0
100
AcDbCircle
 62
6
  6
CONTINUOUS
 10
9.5621140336
 20
3.2973728748
 40
0.1
100
AcDbArc
 50
237.8860583838
 51
346.1139416162
  0
ARC
  5
289
100
AcDbEntity
  8
0
100
AcDbCircle
 62
6
  6
CONTINUOUS
 10
9.7000467809
 20
3.3646471706
 40
0.1
100
AcDbArc
 50
245.8860583838
 51
354.1139416162
  0
ARC
  5
28A
100
AcDbEntity
  8
0
100
AcDbCircle
 62
6
  6
CONTINUOUS
 10
9.8272744037
 20
3.4504632858
 40
0.1
100
AcDbArc
 50
253.8860583838
 51
2.1139416162
  0
ARC
  5
28B
100
AcDbEntity
  8
0
100
AcDbCircle
 62
6
  6
CONTINUOUS
 10
9.9413205612
 20
3.5531509073
 40
0.1
100
AcDbArc
 50
261.8860583838
 51
10.1139416162
  0
ARC
  5
28C
100
AcDbEntity
  8
0
100
AcDbCircle
 62
6
  6
CONTINUOUS
 10
10.0399654747
 20
3.6707113373
 40
0.1
100
AcDbArc
 50
269.8860583838
 51
18.1139416162
  0
ARC
  5
28D
100
AcDbEntity
  8
0
100
AcDbCircle
 62
6
  6
CONTINUOUS
 10
10.121289133
 20
3.8008563957
 40
0.1
100
AcDbArc
 50
277.8860583838
 51
26.1139416162
  0
ARC
  5
28E
100
AcDbEntity
  8
0
100
AcDbCircle
 62
6
  6
CONTINUOUS
 10
10.1837086637
 20
3.9410529571
 40
0.1
100
AcDbArc
 50
285.8860583838
 51
34.1139416162
  0
ARC
  5
28F
100
AcDbEntity
  8
0
100
AcDbCircle
 62
6
  6
CONTINUOUS
 10
10.2260091417
 20
4.0885722549
 40
0.1
100
AcDbArc
 50
293.8860583838
 51
42.1139416162
  0
ARC
  5
290
100
AcDbEntity
  8
0
100
AcDbCircle
 62
6
  6
CONTINUOUS
 10
10.2473672361
 20
4.2405429937
 40
0.1
100
AcDbArc
 50
301.8860583838
 51
50.1139416162
  0
ARC
  5
291
100
AcDbEntity
  8
0
100
AcDbCircle
 62
7
  6
CONTINUOUS
 10
8.6246873239
 20
4.6172751148
 40
0.1
100
AcDbArc
 50
78.8096243898
 51
90.0
  0
ARC
  5
292
100
AcDbEntity
  8
0
100
AcDbCircle
 62
6
  6
CONTINUOUS
 10
8.1451467775
 20
4.7646854222
 40
0.1
100
AcDbArc
 50
101.8860583838
 51
208.3863727567
  0
ARC
  5
293
100
AcDbEntity
  8
0
100
AcDbCircle
 62
6
  6
CONTINUOUS
 10
8.6246873239
 20
4.6172751148
 40
0.1
100
AcDbArc
 50
34.2288663278
 51
78.8096243898
  0
ARC
  5
294
100
AcDbEntity
  8
0
100
AcDbCircle
 62
6
  6
CONTINUOUS
 10
9.1500467809
 20
4.3172751148
 40
1.285
100
AcDbArc
 50
198.1722874306
 51
161.8277125694
  0
ARC
  5
295
100
AcDbEntity
  8
0
100
AcDbCircle
 62
6
  6
CONTINUOUS
 10
9.1500467809
 20
4.3172751148
 40
1.2
100
AcDbArc
 50
199.5167208577
 51
243.7893034501
  0
ARC
  5
296
100
AcDbEntity
  8
0
100
AcDbCircle
 62
6
  6
CONTINUOUS
 10
9.1500467809
 20
4.3172751148
 40
1.2
100
AcDbArc
 50
243.9992024203
 51
251.9682891342
  0
ARC
  5
297
100
AcDbEntity
  8
0
100
AcDbCircle
 62
6
  6
CONTINUOUS
 10
9.1500467809
 20
4.3172751148
 40
1.2
100
AcDbArc
 50
252.1094675368
 51
347.8142230824
  0
ARC
  5
298
100
AcDbEntity
  8
0
100
AcDbCircle
 62
6
  6
CONTINUOUS
 10
9.1500467809
 20
4.3172751148
 40
1.2
100
AcDbArc
 50
348.0023069386
 51
160.4832791423
  0
ARC
  5
299
100
AcDbEntity
  8
0
100
AcDbCircle
 62
9
  6
CONTINUOUS
 10
9.1500467809
 20
4.3172751148
 40
1.0170079088
100
AcDbArc
 50
203.2329736394
 51
156.7670263606
  0
ARC
  5
29A
100
AcDbEntity
  8
0
100
AcDbCircle
 62
6
  6
CONTINUOUS
 10
9.1500467809
 20
4.3172751148
 40
0.495
100
AcDbArc
 50
219.595481728
 51
140.404518272
  0
CIRCLE
  5
29B
100
AcDbEntity
  8
0
100
AcDbCircle
 62
6
  6
CONTINUOUS
 10
9.1500467809
 20
4.3172751148
 40
0.3305
  0
CIRCLE
  5
29C
100
AcDbEntity
  8
0
100
AcDbCircle
 62
9
  6
CONTINUOUS
 10
9.1500467809
 20
4.3172751148
 40
0.2955
  0
CIRCLE
  5
29D
100
AcDbEntity
  8
0
100
AcDbCircle
 62
6
  6
CONTINUOUS
 10
9.1500467809
 20
4.3172751148
 40
0.272
  0
CIRCLE
  5
29E
100
AcDbEntity
  8
0
100
AcDbCircle
 62
7
  6
CONTINUOUS
 10
9.1500467809
 20
4.3172751148
 40
0.2416833309
  0
CIRCLE
  5
29F
100
AcDbEntity
  8
0
100
AcDbCircle
 62
6
  6
CONTINUOUS
 10
9.1500467809
 20
4.3172751148
 40
0.185
  0
CIRCLE
  5
2A0
100
AcDbEntity
  8
0
100
AcDbCircle
 62
6
  6
CONTINUOUS
 10
9.1500467809
 20
4.3172751148
 40
0.17
  0
ARC
  5
2A1
100
AcDbEntity
  8
0
100
AcDbCircle
 62
6
  6
CONTINUOUS
 10
8.7900467809
 20
4.7297751148
 40
0.1
100
AcDbArc
 50
214.2288663278
 51
258.3122776314
  0
ARC
  5
2A2
100
AcDbEntity
  8
0
100
AcDbCircle
 62
6
  6
CONTINUOUS
 10
9.1116573345
 20
5.4166050245
 40
0.1
100
AcDbArc
 50
37.8860583838
 51
146.1139416162
  0
ARC
  5
2A3
100
AcDbEntity
  8
0
100
AcDbCircle
 62
6
  6
CONTINUOUS
 10
8.9590337854
 20
5.4005636431
 40
0.1
100
AcDbArc
 50
45.8860583838
 51
154.1139416162
  0
ARC
  5
2A4
100
AcDbEntity
  8
0
100
AcDbCircle
 62
6
  6
CONTINUOUS
 10
8.810128087
 20
5.3634372827
 40
0.1
100
AcDbArc
 50
53.8860583838
 51
162.1139416162
  0
ARC
  5
2A5
100
AcDbEntity
  8
0
100
AcDbCircle
 62
6
  6
CONTINUOUS
 10
8.6678385194
 20
5.3059485657
 40
0.1
100
AcDbArc
 50
61.8860583838
 51
170.1139416162
  0
ARC
  5
2A6
100
AcDbEntity
  8
0
100
AcDbCircle
 62
6
  6
CONTINUOUS
 10
8.534934587
 20
5.2292164446
 40
0.1
100
AcDbArc
 50
69.8860583838
 51
178.1139416162
  0
ARC
  5
2A7
100
AcDbEntity
  8
0
100
AcDbCircle
 62
6
  6
CONTINUOUS
 10
8.4140031139
 20
5.1347344228
 40
0.1
100
AcDbArc
 50
77.8860583838
 51
186.1139416162
  0
ARC
  5
2A8
100
AcDbEntity
  8
0
100
AcDbCircle
 62
6
  6
CONTINUOUS
 10
8.3073978934
 20
5.0243414855
 40
0.1
100
AcDbArc
 50
85.8860583838
 51
194.1139416162
  0
ARC
  5
2A9
100
AcDbEntity
  8
0
100
AcDbCircle
 62
6
  6
CONTINUOUS
 10
8.2171938751
 20
4.9001863055
 40
0.1
100
AcDbArc
 50
93.8860583838
 51
202.1139416162
  0
ARC
  5
2AA
100
AcDbEntity
  8
0
100
AcDbCircle
 62
6
  6
CONTINUOUS
 10
10.2473672361
 20
4.3940072359
 40
0.1
100
AcDbArc
 50
309.8860583838
 51
58.1139416162
  0
ARC
  5
2AB
100
AcDbEntity
  8
0
100
AcDbCircle
 62
6
  6
CONTINUOUS
 10
10.2260091417
 20
4.5459779747
 40
0.1
100
AcDbArc
 50
317.8860583838
 51
66.1139416162
  0
ARC
  5
2AC
100
AcDbEntity
  8
0
100
AcDbCircle
 62
6
  6
CONTINUOUS
 10
10.1837086637
 20
4.6934972725
 40
0.1
100
AcDbArc
 50
325.8860583838
 51
74.1139416162
  0
ARC
  5
2AD
100
AcDbEntity
  8
0
100
AcDbCircle
 62
6
  6
CONTINUOUS
 10
10.121289133
 20
4.8336938339
 40
0.1
100
AcDbArc
 50
333.8860583838
 51
82.1139416162
  0
ARC
  5
2AE
100
AcDbEntity
  8
0
100
AcDbCircle
 62
6
  6
CONTINUOUS
 10
10.0399654747
 20
4.9638388923
 40
0.1
100
AcDbArc
 50
341.8860583838
 51
90.1139416162
  0
ARC
  5
2AF
100
AcDbEntity
  8
0
100
AcDbCircle
 62
6
  6
CONTINUOUS
 10
9.9413205612
 20
5.0813993223
 40
0.1
100
AcDbArc
 50
349.8860583838
 51
98.1139416162
  0
ARC
  5
2B0
100
AcDbEntity
  8
0
100
AcDbCircle
 62
6
  6
CONTINUOUS
 10
9.8272744037
 20
5.1840869438
 40
0.1
100
AcDbArc
 50
357.8860583838
 51
106.1139416162
  0
ARC
  5
2B1
100
AcDbEntity
  8
0
100
AcDbCircle
 62
6
  6
CONTINUOUS
 10
9.7000467809
 20
5.269903059
 40
0.1
100
AcDbArc
 50
5.8860583838
 51
114.1139416162
  0
ARC
  5
2B2
100
AcDbEntity
  8
0
100
AcDbCircle
 62
6
  6
CONTINUOUS
 10
9.5621140336
 20
5.3371773548
 40
0.1
100
AcDbArc
 50
13.8860583838
 51
122.1139416162
  0
ARC
  5
2B3
100
AcDbEntity
  8
0
100
AcDbCircle
 62
6
  6
CONTINUOUS
 10
9.416160866
 20
5.3846004137
 40
0.1
100
AcDbArc
 50
21.8860583838
 51
130.1139416162
  0
ARC
  5
2B4
100
AcDbEntity
  8
0
100
AcDbCircle
 62
6
  6
CONTINUOUS
 10
9.2650280905
 20
5.4112491997
 40
0.1
100
AcDbArc
 50
29.8860583838
 51
138.1139416162
  0
LINE
  5
2B5
100
AcDbEntity
  8
0
100
AcDbLine
 62
6
  6
CONTINUOUS
 10
10.1131314026
 20
3.8884822148
 11
10.211081183
 21
3.8448721629
  0
LINE
  5
2B6
100
AcDbEntity
  8
0
100
AcDbLine
 62
6
  6
CONTINUOUS
 10
10.1634351669
 20
4.0266906711
 11
10.2665010529
 21
3.9971370039
  0
LINE
  5
2B7
100
AcDbEntity
  8
0
100
AcDbLine
 62
6
  6
CONTINUOUS
 10
10.1940144789
 20
4.1705550231
 11
10.3001904103
 21
4.1556329691
  0
LINE
  5
2B8
100
AcDbEntity
  8
0
100
AcDbLine
 62
6
  6
CONTINUOUS
 10
10.2042741471
 20
4.3172751148
 11
10.3114935302
 21
4.3172751148
  0
LINE
  5
2B9
100
AcDbEntity
  8
0
100
AcDbLine
 62
6
  6
CONTINUOUS
 10
10.1940144789
 20
4.4639952065
 11
10.3001904103
 21
4.4789172605
  0
LINE
  5
2BA
100
AcDbEntity
  8
0
100
AcDbLine
 62
6
  6
CONTINUOUS
 10
10.1634351669
 20
4.6078595585
 11
10.2665010529
 21
4.6374132257
  0
LINE
  5
2BB
100
AcDbEntity
  8
0
100
AcDbLine
 62
6
  6
CONTINUOUS
 10
10.1131314026
 20
4.7460680148
 11
10.211081183
 21
4.7896780667
  0
LINE
  5
2BC
100
AcDbEntity
  8
0
100
AcDbLine
 62
6
  6
CONTINUOUS
 10
10.0440822917
 20
4.8759305051
 11
10.1350094854
 21
4.9327481217
  0
LINE
  5
2BD
100
AcDbEntity
  8
0
100
AcDbLine
 62
6
  6
CONTINUOUS
 10
9.9576317966
 20
4.9949194036
 11
10.0397666092
 21
5.0638386946
  0
LINE
  5
2BE
100
AcDbEntity
  8
0
100
AcDbLine
 62
6
  6
CONTINUOUS
 10
9.8554625777
 20
5.1007187269
 11
9.9272063485
 21
5.1803982566
  0
LINE
  5
2BF
100
AcDbEntity
  8
0
100
AcDbLine
 62
6
  6
CONTINUOUS
 10
9.7395632427
 20
5.1912692114
 11
9.7995195608
 21
5.2801581085
  0
LINE
  5
2C0
100
AcDbEntity
  8
0
100
AcDbLine
 62
6
  6
CONTINUOUS
 10
9.6121896404
 20
5.264808395
 11
9.6591915243
 21
5.3611765382
  0
LINE
  5
2C1
100
AcDbEntity
  8
0
100
AcDbLine
 62
6
  6
CONTINUOUS
 10
9.475820953
 20
5.3199049211
 11
9.5089535645
 21
5.4218766141
  0
LINE
  5
2C2
100
AcDbEntity
  8
0
100
AcDbLine
 62
6
  6
CONTINUOUS
 10
9.3331114419
 20
5.3554863985
 11
9.3517298923
 21
5.4610768783
  0
LINE
  5
2C3
100
AcDbEntity
  8
0
100
AcDbLine
 62
6
  6
CONTINUOUS
 10
9.1868387854
 20
5.3708602742
 11
9.1905806879
 21
5.4780143422
  0
LINE
  5
2C4
100
AcDbEntity
  8
0
100
AcDbLine
 62
6
  6
CONTINUOUS
 10
9.0398500143
 20
5.3657273132
 11
9.028642537
 21
5.4723593373
  0
LINE
  5
2C5
100
AcDbEntity
  8
0
100
AcDbLine
 62
6
  6
CONTINUOUS
 10
8.895006098
 20
5.3401874228
 11
8.8690673816
 21
5.444221932
  0
SPLINE
  5
2C6
100
AcDbEntity
  8
0
100
AcDbSpline
 62
6
  6
CONTINUOUS
 70
0
 71
3
 72
19
 73
15
 74
13
 42
0.0000001
 43
0.0000001
 44
0.0000000001
 12
0.0484825177
 22
0.0887323736
 32
0.0
 13
0.0062123475
 23
0.1009227199
 33
0.0
 40
0.0
 40
0.0
 40
0.0
 40
0.0
 40
0.1344019512
 40
0.2713711282
 40
0.408160729
 40
0.5420305304
 40
0.6070471448
 40
0.6703613976
 40
0.7316762609
 40
0.7907416721
 40
0.8473247798
 40
0.9012026062
 40
0.9521603914
 40
1.0
 40
1.0
 40
1.0
 40
1.0
 10
8.1868447005
 20
4.7171011976
 30
0.0
 10
8.1890167488
 20
4.7210764657
 30
0.0
 10
8.1932203636
 20
4.7292034657
 30
0.0
 10
8.1990352071
 20
4.7416748829
 30
0.0
 10
8.2043391601
 20
4.7543527092
 30
0.0
 10
8.2082718235
 20
4.7649652067
 30
0.0
 10
8.2110566541
 20
4.7733530683
 30
0.0
 10
8.2129231748
 20
4.7794671304
 30
0.0
 10
8.2145751361
 20
4.7854348177
 30
0.0
 10
8.2160013973
 20
4.7912271817
 30
0.0
 10
8.2171913508
 20
4.7968167955
 30
0.0
 10
8.2181346225
 20
4.8021762854
 30
0.0
 10
8.2188243276
 20
4.80727713
 30
0.0
 10
8.2191202001
 20
4.8105955162
 30
0.0
 10
8.2192192655
 20
4.812204884
 30
0.0
 11
8.1868447005
 21
4.7171011976
 31
0.0
 11
8.193097801
 21
4.729167004
 31
0.0
 11
8.1989531503
 21
4.7417178044
 31
0.0
 11
8.2042875505
 21
4.7544790451
 31
0.0
 11
8.2089798464
 21
4.7671758055
 31
0.0
 11
8.2110490801
 21
4.7734157341
 31
0.0
 11
8.2129155397
 21
4.7795395545
 31
0.0
 11
8.2145662169
 21
4.7855155463
 31
0.0
 11
8.2159900197
 21
4.7913156711
 31
0.0
 11
8.2171762644
 21
4.7969126737
 31
0.0
 11
8.2181149656
 21
4.8022789797
 31
0.0
 11
8.218798392
 21
4.8073859864
 31
0.0
 11
8.2192192655
 21
4.812204884
 31
0.0
  0
SPLINE
  5
2C7
100
AcDbEntity
  8
0
100
AcDbSpline
 62
6
  6
CONTINUOUS
 70
0
 71
3
 72
23
 73
19
 74
17
 42
0.0000001
 43
0.0000001
 44
0.0000000001
 12
0.1182937415
 22
0.0908435631
 32
0.0
 13
0.0297930905
 23
0.1461449075
 33
0.0
 40
0.0
 40
0.0
 40
0.0
 40
0.0
 40
0.050005344
 40
0.1047150878
 40
0.1636300271
 40
0.2262136584
 40
0.2918754057
 40
0.3599065146
 40
0.4295494596
 40
0.5000045912
 40
0.5704593438
 40
0.6401019894
 40
0.7081332457
 40
0.7737953234
 40
0.8363777183
 40
0.8952893976
 40
0.9499959967
 40
1.0
 40
1.0
 40
1.0
 40
1.0
 10
8.2192192655
 20
4.812204884
 30
0.0
 10
8.2211910386
 20
4.8137191052
 30
0.0
 10
8.2251876435
 20
4.8170638496
 30
0.0
 10
8.2310846755
 20
4.8226738212
 30
0.0
 10
8.2371035446
 20
4.829044375
 30
0.0
 10
8.2431841906
 20
4.8360913033
 30
0.0
 10
8.2492647393
 20
4.8437263911
 30
0.0
 10
8.2552814509
 20
4.8518525473
 30
0.0
 10
8.2611654377
 20
4.8603664308
 30
0.0
 10
8.2668482492
 20
4.8691595958
 30
0.0
 10
8.2722602716
 20
4.8781219502
 30
0.0
 10
8.2773330849
 20
4.8871426782
 30
0.0
 10
8.2819992286
 20
4.8961127682
 30
0.0
 10
8.286196003
 20
4.9049249184
 30
0.0
 10
8.2898640234
 20
4.9134791701
 30
0.0
 10
8.2929511907
 20
4.92168121
 30
0.0
 10
8.2954081945
 20
4.9294403112
 30
0.0
 10
8.2966623344
 20
4.9344984698
 30
0.0
 10
8.2971589256
 20
4.9369344132
 30
0.0
 11
8.2192192655
 21
4.812204884
 31
0.0
 11
8.224957286
 21
4.8169695366
 31
0.0
 11
8.2308835718
 21
4.8225788836
 31
0.0
 11
8.2369305586
 21
4.828954542
 31
0.0
 11
8.2430380856
 21
4.8360135162
 31
0.0
 11
8.2491465283
 21
4.8436685549
 31
0.0
 11
8.2551894091
 21
4.8518198161
 31
0.0
 11
8.2610981328
 21
4.8603628256
 31
0.0
 11
8.2668029549
 21
4.8691879209
 31
0.0
 11
8.2722340058
 21
4.87818402
 31
0.0
 11
8.2773221412
 21
4.8872397351
 31
0.0
 11
8.2819993869
 21
4.896244361
 31
0.0
 11
8.2862018987
 21
4.9050904081
 31
0.0
 11
8.289868978
 21
4.9136741188
 31
0.0
 11
8.2929483665
 21
4.9219035715
 31
0.0
 11
8.295391947
 21
4.9296886146
 31
0.0
 11
8.2971589256
 21
4.9369344132
 31
0.0
  0
SPLINE
  5
2C8
100
AcDbEntity
  8
0
100
AcDbSpline
 62
6
  6
CONTINUOUS
 70
0
 71
3
 72
23
 73
19
 74
17
 42
0.0000001
 43
0.0000001
 44
0.0000000001
 12
0.1297854886
 22
0.0734961691
 32
0.0
 13
0.0498425836
 23
0.1405762313
 33
0.0
 40
0.0
 40
0.0
 40
0.0
 40
0.0
 40
0.050010512
 40
0.1047285137
 40
0.1636448166
 40
0.2262241723
 40
0.2918826093
 40
0.3599130352
 40
0.4295562589
 40
0.5000117509
 40
0.570466038
 40
0.6401076791
 40
0.7081376575
 40
0.7737985597
 40
0.8363799526
 40
0.8952905426
 40
0.9499963418
 40
1.0
 40
1.0
 40
1.0
 40
1.0
 10
8.2971589256
 20
4.9369344132
 30
0.0
 10
8.2993224719
 20
4.9381596069
 30
0.0
 10
8.303746147
 20
4.9409160987
 30
0.0
 10
8.3103671436
 20
4.9456511826
 30
0.0
 10
8.3172143195
 20
4.9511221648
 30
0.0
 10
8.3242161576
 20
4.9572542097
 30
0.0
 10
8.3312997903
 20
4.9639685005
 30
0.0
 10
8.3383887513
 20
4.9711780862
 30
0.0
 10
8.3454003591
 20
4.9787902352
 30
0.0
 10
8.3522516132
 20
4.9867069634
 30
0.0
 10
8.3588582245
 20
4.994828866
 30
0.0
 10
8.3651370088
 20
5.003055712
 30
0.0
 10
8.3710060188
 20
5.0112889767
 30
0.0
 10
8.3763882445
 20
5.0194311624
 30
0.0
 10
8.3812109913
 20
5.0273915439
 30
0.0
 10
8.3854095424
 20
5.0350839881
 30
0.0
 10
8.3889224431
 20
5.0424255298
 30
0.0
 10
8.3908683072
 20
5.0472598705
 30
0.0
 10
8.3916990777
 20
5.0496029791
 30
0.0
 11
8.2971589256
 21
4.9369344132
 31
0.0
 11
8.303504799
 21
4.9408546401
 31
0.0
 11
8.310155064
 21
4.9455853597
 31
0.0
 11
8.3170306974
 21
4.9510574982
 31
0.0
 11
8.3240606347
 21
4.9571974552
 31
0.0
 11
8.3311745941
 21
4.9639275807
 31
0.0
 11
8.3382930157
 21
4.9711584496
 31
0.0
 11
8.3453332027
 21
4.9787960308
 31
0.0
 11
8.352210729
 21
4.9867413471
 31
0.0
 11
8.3588408704
 21
4.9948940072
 31
0.0
 11
8.3651396882
 21
5.0031533576
 31
0.0
 11
8.3710244862
 21
5.0114192629
 31
0.0
 11
8.3764171122
 21
5.0195942121
 31
0.0
 11
8.3812430335
 21
5.0275839083
 31
0.0
 11
8.3854376876
 21
5.0353045649
 31
0.0
 11
8.3889409004
 21
5.0426736577
 31
0.0
 11
8.3916990777
 21
5.0496029791
 31
0.0
  0
LINE
  5
2C9
100
AcDbEntity
  8
0
100
AcDbLine
 62
6
  6
CONTINUOUS
 10
8.7551262585
 20
5.2947377078
 11
8.7149611707
 21
5.3941497887
  0
SPLINE
  5
2CA
100
AcDbEntity
  8
0
100
AcDbSpline
 62
6
  6
CONTINUOUS
 70
0
 71
3
 72
23
 73
19
 74
17
 42
0.0000001
 43
0.0000001
 44
0.0000000001
 12
0.1387511221
 22
0.0547182634
 32
0.0
 13
0.0689219526
 23
0.1322714129
 33
0.0
 40
0.0
 40
0.0
 40
0.0
 40
0.0
 40
0.0500053339
 40
0.104715052
 40
0.1636299605
 40
0.2262135712
 40
0.2918753014
 40
0.359906388
 40
0.429549308
 40
0.5000044048
 40
0.5704591162
 40
0.6401017198
 40
0.7081329564
 40
0.7737950394
 40
0.8363774998
 40
0.8952892937
 40
0.9499959713
 40
1.0
 40
1.0
 40
1.0
 40
1.0
 10
8.3916990777
 20
5.0496029791
 30
0.0
 10
8.3940118431
 20
5.0505150475
 30
0.0
 10
8.3987755613
 20
5.0526286075
 30
0.0
 10
8.4059904671
 20
5.0563958144
 30
0.0
 10
8.4135321349
 20
5.0608605566
 30
0.0
 10
8.4213196211
 20
5.0659584433
 30
0.0
 10
8.429269133
 20
5.0716217322
 30
0.0
 10
8.4372926374
 20
5.077774662
 30
0.0
 10
8.44529543
 20
5.0843368824
 30
0.0
 10
8.4531818205
 20
5.0912230161
 30
0.0
 10
8.4608545465
 20
5.0983464237
 30
0.0
 10
8.4682172941
 20
5.105619443
 30
0.0
 10
8.4751751706
 20
5.1129558802
 30
0.0
 10
8.4816383298
 20
5.1202698756
 30
0.0
 10
8.4875221354
 20
5.127481713
 30
0.0
 10
8.4927505082
 20
5.134515091
 30
0.0
 10
8.4972510361
 20
5.1412963846
 30
0.0
 10
8.4998508135
 20
5.145812915
 30
0.0
 10
8.5009996052
 20
5.1480176162
 30
0.0
 11
8.3916990777
 21
5.0496029791
 31
0.0
 11
8.3985281321
 21
5.0526014435
 31
0.0
 11
8.4057709858
 21
5.0563599864
 31
0.0
 11
8.4133410883
 21
5.0608218846
 31
0.0
 11
8.4211577348
 21
5.0659239414
 31
0.0
 11
8.4291395596
 21
5.0715987199
 31
0.0
 11
8.4371951393
 21
5.0777685689
 31
0.0
 11
8.4452297391
 21
5.084351969
 31
0.0
 11
8.4531460886
 21
5.0912627289
 31
0.0
 11
8.4608464069
 21
5.0984133289
 31
0.0
 11
8.4682335263
 21
5.1057157556
 31
0.0
 11
8.4752115939
 21
5.1130823308
 31
0.0
 11
8.4816896103
 21
5.1204273272
 31
0.0
 11
8.4875806317
 21
5.1276677422
 31
0.0
 11
8.4928090853
 21
5.1347296186
 31
0.0
 11
8.4973038611
 21
5.1415395498
 31
0.0
 11
8.5009996052
 21
5.1480176162
 31
0.0
  0
SPLINE
  5
2CB
100
AcDbEntity
  8
0
100
AcDbSpline
 62
6
  6
CONTINUOUS
 70
0
 71
3
 72
23
 73
19
 74
17
 42
0.0000001
 43
0.0000001
 44
0.0000000001
 12
0.1450161161
 22
0.0348753251
 32
0.0
 13
0.0866598316
 23
0.1213920748
 33
0.0
 40
0.0
 40
0.0
 40
0.0
 40
0.0
 40
0.0500053339
 40
0.104715052
 40
0.1636299605
 40
0.2262135712
 40
0.2918753014
 40
0.359906388
 40
0.429549308
 40
0.5000044048
 40
0.5704591162
 40
0.6401017198
 40
0.7081329564
 40
0.7737950394
 40
0.8363774998
 40
0.8952892937
 40
0.9499959713
 40
1.0
 40
1.0
 40
1.0
 40
1.0
 10
8.5009996052
 20
5.1480176162
 30
0.0
 10
8.5034167983
 20
5.1485989336
 30
0.0
 10
8.5084283071
 20
5.1500289431
 30
0.0
 10
8.5160972918
 20
5.1527553671
 30
0.0
 10
8.5241869365
 20
5.1561270614
 30
0.0
 10
8.5326081241
 20
5.1600915272
 30
0.0
 10
8.5412684495
 20
5.1645933431
 30
0.0
 10
8.550070192
 20
5.169569737
 30
0.0
 10
8.5589083865
 20
5.1749543209
 30
0.0
 10
8.5676763918
 20
5.1806758658
 30
0.0
 10
8.5762658341
 20
5.1866621118
 30
0.0
 10
8.5845691366
 20
5.1928396542
 30
0.0
 10
8.5924803342
 20
5.1991363444
 30
0.0
 10
8.5998985058
 20
5.2054796626
 30
0.0
 10
8.6067287444
 20
5.2118024474
 30
0.0
 10
8.612885092
 20
5.2180397282
 30
0.0
 10
8.6182855948
 20
5.2241286743
 30
0.0
 10
8.6214886508
 20
5.2282394311
 30
0.0
 10
8.6229330977
 20
5.2302627953
 30
0.0
 11
8.5009996052
 21
5.1480176162
 31
0.0
 11
8.5081795053
 21
5.150036479
 31
0.0
 11
8.5158749601
 21
5.1527504336
 31
0.0
 11
8.5239923671
 21
5.1561153543
 31
0.0
 11
8.5324430116
 21
5.1600798913
 31
0.0
 11
8.5411369344
 21
5.1645885879
 31
0.0
 11
8.5499727948
 21
5.1695772724
 31
0.0
 11
8.5588454346
 21
5.1749784031
 31
0.0
 11
8.5676465346
 21
5.180720165
 31
0.0
 11
8.5762670851
 21
5.1867294987
 31
0.0
 11
8.5845986149
 21
5.1929327704
 31
0.0
 11
8.5925340015
 21
5.1992564953
 31
0.0
 11
8.5999712003
 21
5.205628445
 31
0.0
 11
8.6068125617
 21
5.2119785251
 31
0.0
 11
8.6129729555
 21
5.2182440157
 31
0.0
 11
8.6183717478
 21
5.2243621212
 31
0.0
 11
8.6229330977
 21
5.2302627953
 31
0.0
  0
SPLINE
  5
2CC
100
AcDbEntity
  8
0
100
AcDbSpline
 62
6
  6
CONTINUOUS
 70
0
 71
3
 72
23
 73
19
 74
17
 42
0.0000001
 43
0.0000001
 44
0.0000000001
 12
0.1484585364
 22
0.0143535782
 32
0.0
 13
0.1027109755
 23
0.108149978
 33
0.0
 40
0.0
 40
0.0
 40
0.0
 40
0.0
 40
0.0500053339
 40
0.104715052
 40
0.1636299605
 40
0.2262135712
 40
0.2918753014
 40
0.359906388
 40
0.429549308
 40
0.5000044048
 40
0.5704591162
 40
0.6401017198
 40
0.7081329564
 40
0.7737950394
 40
0.8363774998
 40
0.8952892937
 40
0.9499959713
 40
1.0
 40
1.0
 40
1.0
 40
1.0
 10
8.6229330977
 20
5.2302627953
 30
0.0
 10
8.6254076706
 20
5.2305020472
 30
0.0
 10
8.6305694266
 20
5.2312206727
 30
0.0
 10
8.6385432221
 20
5.2328532469
 30
0.0
 10
8.6470233882
 20
5.2350662672
 30
0.0
 10
8.6559143684
 20
5.2378201483
 30
0.0
 10
8.6651169437
 20
5.2410728685
 30
0.0
 10
8.6745256084
 20
5.2447758667
 30
0.0
 10
8.6840271795
 20
5.2488780093
 30
0.0
 10
8.6935061403
 20
5.253323602
 30
0.0
 10
8.7028451151
 20
5.258056171
 30
0.0
 10
8.7119273582
 20
5.2630179975
 30
0.0
 10
8.7206378945
 20
5.2681523829
 30
0.0
 10
8.7288666922
 20
5.2734015584
 30
0.0
 10
8.736510421
 20
5.2787122249
 30
0.0
 10
8.7434749171
 20
5.2840320069
 30
0.0
 10
8.7496702801
 20
5.2893100911
 30
0.0
 10
8.753414271
 20
5.292935063
 30
0.0
 10
8.7551262585
 20
5.2947377078
 30
0.0
 11
8.6229330977
 21
5.2302627953
 31
0.0
 11
8.6303240949
 21
5.2312627618
 31
0.0
 11
8.6383223675
 21
5.232879304
 31
0.0
 11
8.646829083
 21
5.2350817529
 31
0.0
 11
8.6557492433
 21
5.2378316049
 31
0.0
 11
8.6649860467
 21
5.241086463
 31
0.0
 11
8.6744302078
 21
5.2447968838
 31
0.0
 11
8.6839681918
 21
5.2489106183
 31
0.0
 11
8.6934827389
 21
5.2533716254
 31
0.0
 11
8.7028557324
 21
5.258122728
 31
0.0
 11
8.7119695089
 21
5.263106105
 31
0.0
 11
8.7207077613
 21
5.2682638954
 31
0.0
 11
8.7289593857
 21
5.2735387758
 31
0.0
 11
8.7366179278
 21
5.2788749239
 31
0.0
 11
8.7435903569
 21
5.284222078
 31
0.0
 11
8.7497880842
 21
5.2895292759
 31
0.0
 11
8.7551262585
 21
5.2947377078
 31
0.0
  0
LINE
  5
2CD
100
AcDbEntity
  8
0
100
AcDbLine
 62
6
  6
CONTINUOUS
 10
8.6229330977
 20
5.2302627953
 11
8.5693234062
 21
5.3231175049
  0
SPLINE
  5
2CE
100
AcDbEntity
  8
0
100
AcDbSpline
 62
6
  6
CONTINUOUS
 70
0
 71
3
 72
23
 73
19
 74
17
 42
0.0000001
 43
0.0000001
 44
0.0000000001
 12
0.1490113858
 22
-0.0064475449
 32
0.0
 13
0.1167629716
 23
0.0928028684
 33
0.0
 40
0.0
 40
0.0
 40
0.0
 40
0.0
 40
0.0500024699
 40
0.1047081604
 40
0.1636235254
 40
0.2262102482
 40
0.2918737419
 40
0.3599044223
 40
0.4295455404
 40
0.4999987273
 40
0.5704526277
 40
0.6400951171
 40
0.7081269033
 40
0.7737910339
 40
0.8363776568
 40
0.8952924494
 40
0.94999769
 40
1.0
 40
1.0
 40
1.0
 40
1.0
 10
8.7551262585
 20
5.2947377078
 30
0.0
 10
8.7576099043
 20
5.2946302434
 30
0.0
 10
8.7628210959
 20
5.2946233904
 30
0.0
 10
8.7709441849
 20
5.2951303431
 30
0.0
 10
8.7796497849
 20
5.2961416626
 30
0.0
 10
8.7888377845
 20
5.2976312888
 30
0.0
 10
8.7984037146
 20
5.2995716331
 30
0.0
 10
8.8082361495
 20
5.3019291628
 30
0.0
 10
8.8182159676
 20
5.3046689483
 30
0.0
 10
8.8282211779
 20
5.3077519755
 30
0.0
 10
8.8381277874
 20
5.3111386857
 30
0.0
 10
8.8478121878
 20
5.3147881881
 30
0.0
 10
8.8571526571
 20
5.3186603307
 30
0.0
 10
8.8660322361
 20
5.3227133082
 30
0.0
 10
8.8743410599
 20
5.3269087508
 30
0.0
 10
8.8819784251
 20
5.3312075773
 30
0.0
 10
8.8888480718
 20
5.3355720446
 30
0.0
 10
8.8930599586
 20
5.3386406369
 30
0.0
 10
8.895006098
 20
5.3401874228
 30
0.0
 11
8.7551262585
 21
5.2947377078
 31
0.0
 11
8.7625840682
 21
5.2946992427
 31
0.0
 11
8.7707288825
 21
5.2951868646
 31
0.0
 11
8.7794593989
 21
5.2961839974
 31
0.0
 11
8.7886759239
 21
5.2976656471
 31
0.0
 11
8.7982760876
 21
5.2996033401
 31
0.0
 11
8.8081446709
 21
5.3019632649
 31
0.0
 11
8.8181620979
 21
5.3047094496
 31
0.0
 11
8.8282046365
 21
5.30780277
 31
0.0
 11
8.8381475322
 21
5.3112031045
 31
0.0
 11
8.8478661618
 21
5.3148695553
 31
0.0
 11
8.8572372938
 21
5.3187610091
 31
0.0
 11
8.8661430214
 21
5.3228362606
 31
0.0
 11
8.8744702223
 21
5.3270549173
 31
0.0
 11
8.8821193815
 21
5.3313798513
 31
0.0
 11
8.8889952339
 21
5.3357727244
 31
0.0
 11
8.895006098
 21
5.3401874228
 31
0.0
  0
SPLINE
  5
2CF
100
AcDbEntity
  8
0
100
AcDbSpline
 62
6
  6
CONTINUOUS
 70
0
 71
3
 72
23
 73
19
 74
17
 42
0.0000001
 43
0.0000001
 44
0.0000000001
 12
0.1466638868
 22
-0.0271231734
 32
0.0
 13
0.1285423005
 23
0.0756494495
 33
0.0
 40
0.0
 40
0.0
 40
0.0
 40
0.0
 40
0.0500053339
 40
0.104715052
 40
0.1636299605
 40
0.2262135712
 40
0.2918753014
 40
0.359906388
 40
0.429549308
 40
0.5000044048
 40
0.5704591162
 40
0.6401017198
 40
0.7081329564
 40
0.7737950394
 40
0.8363774998
 40
0.8952892937
 40
0.9499959713
 40
1.0
 40
1.0
 40
1.0
 40
1.0
 10
8.895006098
 20
5.3401874228
 30
0.0
 10
8.8974507569
 20
5.3397353217
 30
0.0
 10
8.9026106352
 20
5.3390033362
 30
0.0
 10
8.9107255379
 20
5.3383747913
 30
0.0
 10
8.9194871877
 20
5.3381646323
 30
0.0
 10
8.928792819
 20
5.3383611465
 30
0.0
 10
8.9385354733
 20
5.3389512883
 30
0.0
 10
8.9486003469
 20
5.3399174592
 30
0.0
 10
8.958864547
 20
5.3412417038
 30
0.0
 10
8.9692016804
 20
5.3429023261
 30
0.0
 10
8.979483352
 20
5.344877393
 30
0.0
 10
8.9895814291
 20
5.3471436014
 30
0.0
 10
8.9993697624
 20
5.3496781402
 30
0.0
 10
9.0087266593
 20
5.3524558075
 30
0.0
 10
9.017538101
 20
5.3554538505
 30
0.0
 10
9.0256991351
 20
5.3586478779
 30
0.0
 10
9.0331093373
 20
5.3620138246
 30
0.0
 10
9.03770747
 20
5.3644663875
 30
0.0
 10
9.0398500143
 20
5.3657273132
 30
0.0
 11
8.895006098
 21
5.3401874228
 31
0.0
 11
8.9023864086
 21
5.3391114174
 31
0.0
 11
8.9105204212
 21
5.3384607147
 31
0.0
 11
8.9193046781
 21
5.3382330759
 31
0.0
 11
8.9286372484
 21
5.3384176739
 31
0.0
 11
8.9384133942
 21
5.3390004363
 31
0.0
 11
8.9485144351
 21
5.3399639581
 31
0.0
 11
8.9588168326
 21
5.3412893088
 31
0.0
 11
8.9691924225
 21
5.3429549395
 31
0.0
 11
8.9795119036
 21
5.3449384452
 31
0.0
 11
8.9896462327
 21
5.3472166774
 31
0.0
 11
8.9994676597
 21
5.349766075
 31
0.0
 11
9.0088535843
 21
5.3525621595
 31
0.0
 11
9.0176862891
 21
5.355580614
 31
0.0
 11
9.0258624936
 21
5.3587987665
 31
0.0
 11
9.0332829934
 21
5.3621920474
 31
0.0
 11
9.0398500143
 21
5.3657273132
 31
0.0
  0
SPLINE
  5
2D0
100
AcDbEntity
  8
0
100
AcDbSpline
 62
6
  6
CONTINUOUS
 70
0
 71
3
 72
23
 73
19
 74
17
 42
0.0000001
 43
0.0000001
 44
0.0000000001
 12
0.1414617478
 22
-0.0472708805
 32
0.0
 13
0.1378197041
 23
0.0570236037
 33
0.0
 40
0.0
 40
0.0
 40
0.0
 40
0.0
 40
0.0500053339
 40
0.104715052
 40
0.1636299605
 40
0.2262135712
 40
0.2918753014
 40
0.359906388
 40
0.429549308
 40
0.5000044048
 40
0.5704591162
 40
0.6401017198
 40
0.7081329564
 40
0.7737950394
 40
0.8363774998
 40
0.8952892937
 40
0.9499959713
 40
1.0
 40
1.0
 40
1.0
 40
1.0
 10
9.0398500143
 20
5.3657273132
 30
0.0
 10
9.0422079616
 20
5.3649393812
 30
0.0
 10
9.0472157517
 20
5.363496403
 30
0.0
 10
9.0551642042
 20
5.3617445989
 30
0.0
 10
9.0638113377
 20
5.3603170993
 30
0.0
 10
9.0730537567
 20
5.3592166074
 30
0.0
 10
9.0827837281
 20
5.3584450906
 30
0.0
 10
9.092885116
 20
5.3580010991
 30
0.0
 10
9.1032337249
 20
5.3578839557
 30
0.0
 10
9.1137013719
 20
5.358089766
 30
0.0
 10
9.1241578591
 20
5.3586146796
 30
0.0
 10
9.1344730577
 20
5.3594534527
 30
0.0
 10
9.1445188713
 20
5.3606010528
 30
0.0
 10
9.1541712841
 20
5.3620494597
 30
0.0
 10
9.1633142204
 20
5.3637920103
 30
0.0
 10
9.1718403545
 20
5.3658191572
 30
0.0
 10
9.1796468904
 20
5.3681210459
 30
0.0
 10
9.1845416052
 20
5.3699098043
 30
0.0
 10
9.1868387854
 20
5.3708602742
 30
0.0
 11
9.0398500143
 21
5.3657273132
 31
0.0
 11
9.0470087492
 21
5.3636346387
 31
0.0
 11
9.0549730418
 21
5.3618582329
 31
0.0
 11
9.0636401297
 21
5.3604102772
 31
0.0
 11
9.0729075672
 21
5.3592942359
 31
0.0
 11
9.0826696771
 21
5.3585107504
 31
0.0
 11
9.0928065117
 21
5.3580591021
 31
0.0
 11
9.1031931001
 21
5.3579377379
 31
0.0
 11
9.1136995265
 21
5.3581431558
 31
0.0
 11
9.1241946297
 21
5.358671164
 31
0.0
 11
9.1345474009
 21
5.3595167986
 31
0.0
 11
9.144628054
 21
5.3606745072
 31
0.0
 11
9.1543117752
 21
5.3621371122
 31
0.0
 11
9.1634786084
 21
5.3638969163
 31
0.0
 11
9.1720231228
 21
5.3659458422
 31
0.0
 11
9.1798436603
 21
5.368273366
 31
0.0
 11
9.1868387854
 21
5.3708602742
 31
0.0
  0
LINE
  5
2D1
100
AcDbEntity
  8
0
100
AcDbLine
 62
6
  6
CONTINUOUS
 10
8.5009996052
 20
5.1480176162
 11
8.4349887617
 21
5.232507643
  0
SPLINE
  5
2D2
100
AcDbEntity
  8
0
100
AcDbSpline
 62
6
  6
CONTINUOUS
 70
0
 71
3
 72
23
 73
19
 74
17
 42
0.0000001
 43
0.0000001
 44
0.0000000001
 12
0.1335062167
 22
-0.0664985137
 32
0.0
 13
0.144414604
 23
0.0372878583
 33
0.0
 40
0.0
 40
0.0
 40
0.0
 40
0.0
 40
0.0500053339
 40
0.104715052
 40
0.1636299605
 40
0.2262135712
 40
0.2918753014
 40
0.359906388
 40
0.429549308
 40
0.5000044048
 40
0.5704591162
 40
0.6401017198
 40
0.7081329564
 40
0.7737950394
 40
0.8363774998
 40
0.8952892937
 40
0.9499959713
 40
1.0
 40
1.0
 40
1.0
 40
1.0
 10
9.1868387854
 20
5.3708602742
 30
0.0
 10
9.1890641263
 20
5.3697518474
 30
0.0
 10
9.1938223572
 20
5.3676259626
 30
0.0
 10
9.2014496518
 20
5.3647849961
 30
0.0
 10
9.2098139626
 20
5.3621679404
 30
0.0
 10
9.2188132761
 20
5.3597918624
 30
0.0
 10
9.2283411816
 20
5.3576737036
 30
0.0
 10
9.2382824719
 20
5.3558281915
 30
0.0
 10
9.2485140656
 20
5.3542719401
 30
0.0
 10
9.2589084854
 20
5.3530189326
 30
0.0
 10
9.2693362647
 20
5.352083476
 30
0.0
 10
9.2796678112
 20
5.3514784881
 30
0.0
 10
9.2897755746
 20
5.3512168128
 30
0.0
 10
9.2995356301
 20
5.3513077677
 30
0.0
 10
9.3088321041
 20
5.3517609091
 30
0.0
 10
9.3175573868
 20
5.3525817195
 30
0.0
 10
9.3256083111
 20
5.3537747465
 30
0.0
 10
9.3307043379
 20
5.3548648841
 30
0.0
 10
9.3331114419
 20
5.3554863985
 30
0.0
 11
9.1868387854
 21
5.3708602742
 31
0.0
 11
9.1936366079
 21
5.3677916621
 31
0.0
 11
9.2012761647
 21
5.3649241289
 31
0.0
 11
9.2096573886
 21
5.3622840391
 31
0.0
 11
9.2186793131
 21
5.359889081
 31
0.0
 11
9.2282373787
 21
5.3577545972
 31
0.0
 11
9.238212705
 21
5.3558965696
 31
0.0
 11
9.2484813213
 21
5.3543308528
 31
0.0
 11
9.2589140884
 21
5.3530720597
 31
0.0
 11
9.2693805385
 21
5.3521342933
 31
0.0
 11
9.2797502468
 21
5.351530871
 31
0.0
 11
9.2898939176
 21
5.351274357
 31
0.0
 11
9.2996869528
 21
5.3513750146
 31
0.0
 11
9.3090094924
 21
5.3518419158
 31
0.0
 11
9.3177560076
 21
5.3526817352
 31
0.0
 11
9.3258243649
 21
5.3538981992
 31
0.0
 11
9.3331114419
 21
5.3554863985
 31
0.0
  0
SPLINE
  5
2D3
100
AcDbEntity
  8
0
100
AcDbSpline
 62
6
  6
CONTINUOUS
 70
0
 71
3
 72
23
 73
19
 74
17
 42
0.0000001
 43
0.0000001
 44
0.0000000001
 12
0.1229521328
 22
-0.0844318245
 32
0.0
 13
0.1481986303
 23
0.0168263463
 33
0.0
 40
0.0
 40
0.0
 40
0.0
 40
0.0
 40
0.0500048588
 40
0.1047134498
 40
0.1636269002
 40
0.2262092754
 40
0.2918696946
 40
0.3598993867
 40
0.4295413328
 40
0.4999960941
 40
0.5704514876
 40
0.6400948467
 40
0.7081258874
 40
0.7737848448
 40
0.8363624839
 40
0.8952751871
 40
0.9499904525
 40
1.0
 40
1.0
 40
1.0
 40
1.0
 10
9.3331114419
 20
5.3554863985
 30
0.0
 10
9.3351608432
 20
5.3540790647
 30
0.0
 10
9.3395768257
 20
5.3513116813
 30
0.0
 10
9.3467343707
 20
5.3474369188
 30
0.0
 10
9.3546528814
 20
5.3436813204
 30
0.0
 10
9.3632337344
 20
5.340075959
 30
0.0
 10
9.3723739273
 20
5.33665242
 30
0.0
 10
9.3819614406
 20
5.333441338
 30
0.0
 10
9.3918767352
 20
5.3304762805
 30
0.0
 10
9.4019955713
 20
5.3277888134
 30
0.0
 10
9.4121917207
 20
5.3254111388
 30
0.0
 10
9.4223385777
 20
5.3233741248
 30
0.0
 10
9.4323114278
 20
5.3217082815
 30
0.0
 10
9.4419887455
 20
5.3204400105
 30
0.0
 10
9.4512574439
 20
5.319594731
 30
0.0
 10
9.4600122882
 20
5.3191933149
 30
0.0
 10
9.4681516371
 20
5.3192542855
 30
0.0
 10
9.4733505042
 20
5.3196244285
 30
0.0
 10
9.475820953
 20
5.3199049211
 30
0.0
 11
9.3331114419
 21
5.3554863985
 31
0.0
 11
9.3394159744
 21
5.3515016051
 31
0.0
 11
9.346581949
 21
5.3475988328
 31
0.0
 11
9.3545139774
 21
5.343818081
 31
0.0
 11
9.3631146081
 21
5.3401908716
 31
0.0
 11
9.3722823971
 21
5.336746972
 31
0.0
 11
9.3819018491
 21
5.3335187662
 31
0.0
 11
9.3918524776
 21
5.3305391835
 31
0.0
 11
9.4020084647
 21
5.3278406551
 31
0.0
 11
9.4122426333
 21
5.3254553033
 31
0.0
 11
9.4224275487
 21
5.3234145202
 31
0.0
 11
9.4324367699
 21
5.3217487639
 31
0.0
 11
9.442148036
 21
5.3204854983
 31
0.0
 11
9.4514440999
 21
5.3196503306
 31
0.0
 11
9.4602225111
 21
5.3192647172
 31
0.0
 11
9.4683829274
 21
5.3193464261
 31
0.0
 11
9.475820953
 21
5.3199049211
 31
0.0
  0
SPLINE
  5
2D4
100
AcDbEntity
  8
0
100
AcDbSpline
 62
6
  6
CONTINUOUS
 70
0
 71
3
 72
23
 73
19
 74
17
 42
0.0000001
 43
0.0000001
 44
0.0000000001
 12
0.1100049293
 22
-0.1007217667
 32
0.0
 13
0.1490981422
 23
-0.0039626693
 33
0.0
 40
0.0
 40
0.0
 40
0.0
 40
0.0
 40
0.050012828
 40
0.1047346966
 40
0.1636518653
 40
0.226229389
 40
0.2918864003
 40
0.3599165718
 40
0.4295598443
 40
0.5000153903
 40
0.570469426
 40
0.6401106017
 40
0.7081399673
 40
0.7738002823
 40
0.8363811601
 40
0.8952911795
 40
0.9499965446
 40
1.0
 40
1.0
 40
1.0
 40
1.0
 10
9.475820953
 20
5.3199049211
 30
0.0
 10
9.4776548388
 20
5.3182257943
 30
0.0
 10
9.4816437012
 20
5.3148702997
 30
0.0
 10
9.4881933178
 20
5.3100363796
 30
0.0
 10
9.4955125161
 20
5.3052148286
 30
0.0
 10
9.5035080738
 20
5.3004507374
 30
0.0
 10
9.5120825669
 20
5.2957887438
 30
0.0
 10
9.5211298305
 20
5.2912746691
 30
0.0
 10
9.5305361185
 20
5.2869585315
 30
0.0
 10
9.5401825296
 20
5.2828890276
 30
0.0
 10
9.5499484481
 20
5.2791156005
 30
0.0
 10
9.5597128362
 20
5.275686391
 30
0.0
 10
9.5693566844
 20
5.2726488854
 30
0.0
 10
9.5787634841
 20
5.2700461963
 30
0.0
 10
9.5878244881
 20
5.2679194124
 30
0.0
 10
9.5964377871
 20
5.2663034669
 30
0.0
 10
9.6045054948
 20
5.2652311703
 30
0.0
 10
9.6097044996
 20
5.2648744441
 30
0.0
 10
9.6121896404
 20
5.264808395
 30
0.0
 11
9.475820953
 21
5.3199049211
 31
0.0
 11
9.4815105972
 21
5.3150808786
 31
0.0
 11
9.4880652997
 21
5.3102176474
 31
0.0
 11
9.4953943987
 21
5.3053694303
 31
0.0
 11
9.5034060123
 21
5.300581108
 31
0.0
 11
9.5120049083
 21
5.2958951899
 31
0.0
 11
9.5210815577
 21
5.291359658
 31
0.0
 11
9.5305208782
 21
5.2870241934
 31
0.0
 11
9.5402026102
 21
5.2829385295
 31
0.0
 11
9.550005048
 21
5.2791522305
 31
0.0
 11
9.5598065375
 21
5.2757140141
 31
0.0
 11
9.5694862994
 21
5.2726715833
 31
0.0
 11
9.5789274702
 21
5.2700691261
 31
0.0
 11
9.5880173416
 21
5.2679483806
 31
0.0
 11
9.5966562586
 21
5.2663448614
 31
0.0
 11
9.6047471705
 21
5.2652902938
 31
0.0
 11
9.6121896404
 21
5.264808395
 31
0.0
  0
LINE
  5
2D5
100
AcDbEntity
  8
0
100
AcDbLine
 62
6
  6
CONTINUOUS
 10
8.3916990777
 20
5.0496029791
 11
8.3145719081
 21
5.1240838211
  0
SPLINE
  5
2D6
100
AcDbEntity
  8
0
100
AcDbSpline
 62
6
  6
CONTINUOUS
 70
0
 71
3
 72
23
 73
19
 74
17
 42
0.0000001
 43
0.0000001
 44
0.0000000001
 12
0.0949166157
 22
-0.1150512855
 32
0.0
 13
0.1470956438
 23
-0.0246745576
 33
0.0
 40
0.0
 40
0.0
 40
0.0
 40
0.0
 40
0.0500053339
 40
0.104715052
 40
0.1636299605
 40
0.2262135712
 40
0.2918753014
 40
0.359906388
 40
0.429549308
 40
0.5000044048
 40
0.5704591162
 40
0.6401017198
 40
0.7081329564
 40
0.7737950394
 40
0.8363774998
 40
0.8952892937
 40
0.9499959713
 40
1.0
 40
1.0
 40
1.0
 40
1.0
 10
9.6121896404
 20
5.264808395
 30
0.0
 10
9.6137717527
 20
5.2628906691
 30
0.0
 10
9.6172539376
 20
5.2590132297
 30
0.0
 10
9.6230662929
 20
5.2533155775
 30
0.0
 10
9.6296430185
 20
5.2475227065
 30
0.0
 10
9.6368978624
 20
5.2416917006
 30
0.0
 10
9.6447405045
 20
5.235881318
 30
0.0
 10
9.6530716877
 20
5.2301518718
 30
0.0
 10
9.6617857292
 20
5.2245686013
 30
0.0
 10
9.6707718601
 20
5.2191961306
 30
0.0
 10
9.6799176261
 20
5.2141001885
 30
0.0
 10
9.6891098926
 20
5.209345286
 30
0.0
 10
9.6982373611
 20
5.204995036
 30
0.0
 10
9.7071906101
 20
5.2011083552
 30
0.0
 10
9.715867671
 20
5.1977411038
 30
0.0
 10
9.724172467
 20
5.1949420592
 30
0.0
 10
9.7320126001
 20
5.1927573378
 30
0.0
 10
9.7371114511
 20
5.1916804872
 30
0.0
 10
9.7395632427
 20
5.1912692114
 30
0.0
 11
9.6121896404
 21
5.264808395
 31
0.0
 11
9.6171516433
 21
5.2592401548
 31
0.0
 11
9.6229643949
 21
5.2535132452
 31
0.0
 11
9.6295472026
 21
5.2476924523
 31
0.0
 11
9.6368150236
 21
5.241835002
 31
0.0
 11
9.6446785782
 21
5.2359974384
 31
0.0
 11
9.6530357643
 21
5.2302427151
 31
0.0
 11
9.6617797777
 21
5.2246357391
 31
0.0
 11
9.6707985874
 21
5.2192423856
 31
0.0
 11
9.6799787414
 21
5.2141286046
 31
0.0
 11
9.6892065074
 21
5.2093596105
 31
0.0
 11
9.6983688781
 21
5.2049994708
 31
0.0
 11
9.707356202
 21
5.2011082398
 31
0.0
 11
9.7160626716
 21
5.1977429568
 31
0.0
 11
9.7243945962
 21
5.1949526417
 31
0.0
 11
9.7322601878
 21
5.1927822404
 31
0.0
 11
9.7395632427
 21
5.1912692114
 31
0.0
  0
SPLINE
  5
2D7
100
AcDbEntity
  8
0
100
AcDbSpline
 62
6
  6
CONTINUOUS
 70
0
 71
3
 72
23
 73
19
 74
17
 42
0.0000001
 43
0.0000001
 44
0.0000000001
 12
0.0779808495
 22
-0.1271414541
 32
0.0
 13
0.1422300844
 23
-0.0449061834
 33
0.0
 40
0.0
 40
0.0
 40
0.0
 40
0.0
 40
0.0500053339
 40
0.104715052
 40
0.1636299605
 40
0.2262135712
 40
0.2918753014
 40
0.359906388
 40
0.429549308
 40
0.5000044048
 40
0.5704591162
 40
0.6401017198
 40
0.7081329564
 40
0.7737950394
 40
0.8363774998
 40
0.8952892937
 40
0.9499959713
 40
1.0
 40
1.0
 40
1.0
 40
1.0
 10
9.7395632427
 20
5.1912692114
 30
0.0
 10
9.7408630622
 20
5.1891499612
 30
0.0
 10
9.7437717235
 20
5.1848256303
 30
0.0
 10
9.7487345533
 20
5.1783745038
 30
0.0
 10
9.7544410629
 20
5.1717227053
 30
0.0
 10
9.760813784
 20
5.1649387673
 30
0.0
 10
9.767771453
 20
5.158093446
 30
0.0
 10
9.7752241729
 20
5.1512602818
 30
0.0
 10
9.7830763689
 20
5.1445185872
 30
0.0
 10
9.791227344
 20
5.1379477732
 30
0.0
 10
9.799574886
 20
5.1316285799
 30
0.0
 10
9.8080159395
 20
5.1256406355
 30
0.0
 10
9.8164491423
 20
5.1200624238
 30
0.0
 10
9.8247743375
 20
5.1149675165
 30
0.0
 10
9.832898323
 20
5.1104254215
 30
0.0
 10
9.8407327455
 20
5.1064978128
 30
0.0
 10
9.8481925245
 20
5.1032432172
 30
0.0
 10
9.8530918853
 20
5.1014672236
 30
0.0
 10
9.8554625777
 20
5.1007187269
 30
0.0
 11
9.7395632427
 21
5.1912692114
 31
0.0
 11
9.7437020065
 21
5.1850645836
 31
0.0
 11
9.748661157
 21
5.1785844293
 31
0.0
 11
9.7543698035
 21
5.1719041341
 31
0.0
 11
9.760751695
 21
5.1650922029
 31
0.0
 11
9.7677262902
 21
5.1582170549
 31
0.0
 11
9.7752012421
 21
5.1513552406
 31
0.0
 11
9.7830798191
 21
5.1445858998
 31
0.0
 11
9.7912602487
 21
5.1379898584
 31
0.0
 11
9.7996393613
 21
5.1316482138
 31
0.0
 11
9.8081136076
 21
5.1256413745
 31
0.0
 11
9.8165799966
 21
5.1200485118
 31
0.0
 11
9.8249383018
 21
5.1149443562
 31
0.0
 11
9.8330916838
 21
5.1104001176
 31
0.0
 11
9.8409541858
 21
5.1064773779
 31
0.0
 11
9.8484411685
 21
5.1032334199
 31
0.0
 11
9.8554625777
 21
5.1007187269
 31
0.0
  0
SPLINE
  5
2D8
100
AcDbEntity
  8
0
100
AcDbSpline
 62
6
  6
CONTINUOUS
 70
0
 71
3
 72
23
 73
19
 74
17
 42
0.0000001
 43
0.0000001
 44
0.0000000001
 12
0.0595272748
 22
-0.1367569588
 32
0.0
 13
0.1345961782
 23
-0.0642637614
 33
0.0
 40
0.0
 40
0.0
 40
0.0
 40
0.0
 40
0.0500040567
 40
0.1047106595
 40
0.1636221469
 40
0.2262044324
 40
0.291866697
 40
0.3598982086
 40
0.4295409797
 40
0.4999957317
 40
0.5704507688
 40
0.6400935435
 40
0.7081244384
 40
0.7737860519
 40
0.8363697809
 40
0.8952848943
 40
0.9499946754
 40
1.0
 40
1.0
 40
1.0
 40
1.0
 10
9.8554625777
 20
5.1007187269
 30
0.0
 10
9.8564547794
 20
5.0984392593
 30
0.0
 10
9.8587331669
 20
5.0937523824
 30
0.0
 10
9.8627496828
 20
5.0866736815
 30
0.0
 10
9.8674746768
 20
5.0792927442
 30
0.0
 10
9.8728410699
 20
5.0716880538
 30
0.0
 10
9.8787782947
 20
5.0639410164
 30
0.0
 10
9.8852074745
 20
5.0561370667
 30
0.0
 10
9.8920449625
 20
5.0483681467
 30
0.0
 10
9.8992021004
 20
5.0407268646
 30
0.0
 10
9.9065889225
 20
5.0333073849
 30
0.0
 10
9.914114449
 20
5.0262029165
 30
0.0
 10
9.9216891829
 20
5.0195052963
 30
0.0
 10
9.9292242717
 20
5.0133012787
 30
0.0
 10
9.9366371856
 20
5.0076725766
 30
0.0
 10
9.9438490517
 20
5.0026926168
 30
0.0
 10
9.9507836059
 20
4.9984312928
 30
0.0
 10
9.955388288
 20
4.9959905804
 30
0.0
 10
9.9576317966
 20
4.9949194036
 30
0.0
 11
9.8554625777
 21
5.1007187269
 31
0.0
 11
9.8586974347
 21
5.0939986354
 31
0.0
 11
9.8627062184
 21
5.0868917623
 31
0.0
 11
9.8674292969
 21
5.0794824067
 31
0.0
 11
9.8728008869
 21
5.0718487132
 31
0.0
 11
9.8787507778
 21
5.064069703
 31
0.0
 11
9.8851980045
 21
5.0562342736
 31
0.0
 11
9.8920577538
 21
5.0484343167
 31
0.0
 11
9.8992405189
 21
5.0407639845
 31
0.0
 11
9.9066555087
 21
5.0333178491
 31
0.0
 11
9.9142112858
 21
5.0261900352
 31
0.0
 11
9.9218168328
 21
5.0194733041
 31
0.0
 11
9.9293833478
 21
5.0132555756
 31
0.0
 11
9.9368250655
 21
5.0076206743
 31
0.0
 11
9.9440655053
 21
5.0026415623
 31
0.0
 11
9.9510285408
 21
4.9983869337
 31
0.0
 11
9.9576317966
 21
4.9949194036
 31
0.0
  0
LINE
  5
2D9
100
AcDbEntity
  8
0
100
AcDbLine
 62
6
  6
CONTINUOUS
 10
8.2971589256
 20
4.9369344132
 11
8.2104166226
 21
4.9999563854
  0
SPLINE
  5
2DA
100
AcDbEntity
  8
0
100
AcDbSpline
 62
6
  6
CONTINUOUS
 70
0
 71
3
 72
23
 73
19
 74
17
 42
0.0000001
 43
0.0000001
 44
0.0000000001
 12
0.039915071
 22
-0.1437106504
 32
0.0
 13
0.1243425153
 23
-0.0823705216
 33
0.0
 40
0.0
 40
0.0
 40
0.0
 40
0.0
 40
0.0500023846
 40
0.1047077441
 40
0.1636225854
 40
0.226209317
 40
0.2918738497
 40
0.3599063506
 40
0.4295497571
 40
0.5000042257
 40
0.570457074
 40
0.6400974403
 40
0.7081274665
 40
0.7737905177
 40
0.8363769602
 40
0.8952920789
 40
0.9499975954
 40
1.0
 40
1.0
 40
1.0
 40
1.0
 10
9.9576317966
 20
4.9949194036
 30
0.0
 10
9.9582970795
 20
4.9925241119
 30
0.0
 10
9.9599009
 20
4.9875658754
 30
0.0
 10
9.962893195
 20
4.9799970588
 30
0.0
 10
9.9665451711
 20
4.9720300914
 30
0.0
 10
9.9708011477
 20
4.9637520799
 30
0.0
 10
9.9756026318
 20
4.955253816
 30
0.0
 10
9.9808832981
 20
4.9466309126
 30
0.0
 10
9.9865730888
 20
4.9379859702
 30
0.0
 10
9.9925970868
 20
4.9294230643
 30
0.0
 10
9.9988793069
 20
4.9210479549
 30
0.0
 10
10.0053426993
 20
4.9129655073
 30
0.0
 10
10.0119115307
 20
4.9052789402
 30
0.0
 10
10.018509984
 20
4.8980865114
 30
0.0
 10
10.0250676204
 20
4.8914808448
 30
0.0
 10
10.0315161352
 20
4.8855456715
 30
0.0
 10
10.0377898544
 20
4.8803609215
 30
0.0
 10
10.0420098168
 20
4.8773034131
 30
0.0
 10
10.0440822917
 20
4.8759305051
 30
0.0
 11
9.9576317966
 21
4.9949194036
 31
0.0
 11
9.9598997985
 21
4.9878147304
 31
0.0
 11
9.9628804205
 21
4.9802192802
 31
0.0
 11
9.9665265905
 21
4.9722242654
 31
0.0
 11
9.9707837835
 21
4.9639166815
 31
0.0
 11
9.9755933289
 21
4.9553850283
 31
0.0
 11
9.9808874548
 21
4.9467284746
 31
0.0
 11
9.9865949893
 21
4.9380496777
 31
0.0
 11
9.9926403519
 21
4.9294543987
 31
0.0
 11
9.998946707
 21
4.921049041
 31
0.0
 11
10.0054367476
 21
4.9129393297
 31
0.0
 11
10.0120334127
 21
4.905229582
 31
0.0
 11
10.0186611211
 21
4.8980191738
 31
0.0
 11
10.0252465279
 21
4.891403189
 31
0.0
 11
10.031723538
 21
4.8854648487
 31
0.0
 11
10.0380261947
 21
4.8802829696
 31
0.0
 11
10.0440822917
 21
4.8759305051
 31
0.0
  0
SPLINE
  5
2DB
100
AcDbEntity
  8
0
100
AcDbSpline
 62
6
  6
CONTINUOUS
 70
0
 71
3
 72
23
 73
19
 74
17
 42
0.0000001
 43
0.0000001
 44
0.0000000001
 12
0.0195259626
 22
-0.1478671668
 32
0.0
 13
0.1116686573
 23
-0.098874027
 33
0.0
 40
0.0
 40
0.0
 40
0.0
 40
0.0
 40
0.0500040567
 40
0.1047106595
 40
0.1636221469
 40
0.2262044324
 40
0.291866697
 40
0.3598982086
 40
0.4295409797
 40
0.4999957317
 40
0.5704507688
 40
0.6400935435
 40
0.7081244384
 40
0.7737860519
 40
0.8363697809
 40
0.8952848943
 40
0.9499946754
 40
1.0
 40
1.0
 40
1.0
 40
1.0
 10
10.0440822917
 20
4.8759305051
 30
0.0
 10
10.0444077508
 20
4.8734658523
 30
0.0
 10
10.0453059991
 20
4.8683325284
 30
0.0
 10
10.0472157676
 20
4.8604209425
 30
0.0
 10
10.0497232613
 20
4.8520235454
 30
0.0
 10
10.0527856327
 20
4.8432342694
 30
0.0
 10
10.0563574866
 20
4.8341508181
 30
0.0
 10
10.0603865508
 20
4.8248770581
 30
0.0
 10
10.0648177615
 20
4.8155244257
 30
0.0
 10
10.0695914212
 20
4.8062063794
 30
0.0
 10
10.0746470046
 20
4.7970382336
 30
0.0
 10
10.079922748
 20
4.7881346641
 30
0.0
 10
10.0853579353
 20
4.7796086187
 30
0.0
 10
10.0908910686
 20
4.7715679823
 30
0.0
 10
10.0964653382
 20
4.7641140505
 30
0.0
 10
10.1020251658
 20
4.7573391462
 30
0.0
 10
10.1075165071
 20
4.7513314765
 30
0.0
 10
10.1112700601
 20
4.7477160907
 30
0.0
 10
10.1131314026
 20
4.7460680148
 30
0.0
 11
10.0440822917
 21
4.8759305051
 31
0.0
 11
10.0453395276
 21
4.868579091
 31
0.0
 11
10.0472340981
 21
4.8606425556
 31
0.0
 11
10.0497319174
 21
4.852218369
 31
0.0
 11
10.05279129
 21
4.843399781
 31
0.0
 11
10.0563665064
 21
4.8342821043
 31
0.0
 11
10.0604042415
 21
4.8249731096
 31
0.0
 11
10.0648482962
 21
4.8155845066
 31
0.0
 11
10.0696385831
 21
4.8062314717
 31
0.0
 11
10.0747138957
 21
4.7970299388
 31
0.0
 11
10.080012283
 21
4.7880955899
 31
0.0
 11
10.085471822
 21
4.7795426808
 31
0.0
 11
10.0910313848
 21
4.7714802023
 31
0.0
 11
10.0966316337
 21
4.7640123721
 31
0.0
 11
10.1022191619
 21
4.7572304068
 31
0.0
 11
10.1077397266
 21
4.7512213226
 31
0.0
 11
10.1131314026
 21
4.7460680148
 31
0.0
  0
SPLINE
  5
2DC
100
AcDbEntity
  8
0
100
AcDbSpline
 62
6
  6
CONTINUOUS
 70
0
 71
3
 72
23
 73
19
 74
17
 42
0.0000001
 43
0.0000001
 44
0.0000000001
 12
-0.0012431948
 22
-0.1491456224
 32
0.0
 13
0.0968213006
 23
-0.113453065
 33
0.0
 40
0.0
 40
0.0
 40
0.0
 40
0.0
 40
0.0500040567
 40
0.1047106595
 40
0.1636221469
 40
0.2262044324
 40
0.291866697
 40
0.3598982086
 40
0.4295409797
 40
0.4999957317
 40
0.5704507688
 40
0.6400935435
 40
0.7081244384
 40
0.7737860519
 40
0.8363697809
 40
0.8952848943
 40
0.9499946754
 40
1.0
 40
1.0
 40
1.0
 40
1.0
 10
10.1131314026
 20
4.7460680148
 30
0.0
 10
10.113110681
 20
4.7435820527
 30
0.0
 10
10.1132857669
 20
4.7383736739
 30
0.0
 10
10.1140758698
 20
4.7302732946
 30
0.0
 10
10.115390269
 20
4.7216086447
 30
0.0
 10
10.1171996067
 20
4.7124787057
 30
0.0
 10
10.1194725275
 20
4.7029865479
 30
0.0
 10
10.1221717232
 20
4.6932423021
 30
0.0
 10
10.1252581749
 20
4.6833639836
 30
0.0
 10
10.1286885563
 20
4.6734722548
 30
0.0
 10
10.1324189798
 20
4.6636897316
 30
0.0
 10
10.1364042426
 20
4.6541385694
 30
0.0
 10
10.1405999389
 20
4.6449390671
 30
0.0
 10
10.1449601837
 20
4.6362066183
 30
0.0
 10
10.1494428181
 20
4.6280494393
 30
0.0
 10
10.1540056535
 20
4.6205666894
 30
0.0
 10
10.1586074474
 20
4.613853239
 30
0.0
 10
10.1618213067
 20
4.6097506442
 30
0.0
 10
10.1634351669
 20
4.6078595585
 30
0.0
 11
10.1131314026
 21
4.7460680148
 31
0.0
 11
10.1133532841
 21
4.7386131708
 31
0.0
 11
10.1141248646
 21
4.7304902
 31
0.0
 11
10.115425955
 21
4.7218003677
 31
0.0
 11
10.1172282437
 21
4.7126418192
 31
0.0
 11
10.1194997311
 21
4.7031153012
 31
0.0
 11
10.1222026095
 21
4.6933349568
 31
0.0
 11
10.1252967741
 21
4.6834192302
 31
0.0
 11
10.1287387513
 21
4.6734905393
 31
0.0
 11
10.1324840654
 21
4.6636722082
 31
0.0
 11
10.1364874682
 21
4.6540874147
 31
0.0
 11
10.1407035405
 21
4.6448579209
 31
0.0
 11
10.1450869178
 21
4.6361001643
 31
0.0
 11
10.1495933444
 21
4.6279256065
 31
0.0
 11
10.154182628
 21
4.6204320092
 31
0.0
 11
10.1588131641
 21
4.6137130909
 31
0.0
 11
10.1634351669
 21
4.6078595585
 31
0.0
  0
LINE
  5
2DD
100
AcDbEntity
  8
0
100
AcDbLine
 62
6
  6
CONTINUOUS
 10
8.2192192655
 20
4.812204884
 11
8.1245501693
 21
4.8625413353
  0
SPLINE
  5
2DE
100
AcDbEntity
  8
0
100
AcDbSpline
 62
6
  6
CONTINUOUS
 70
0
 71
3
 72
23
 73
19
 74
17
 42
0.0000001
 43
0.0000001
 44
0.0000000001
 12
-0.0219881549
 22
-0.1475211282
 32
0.0
 13
0.0800894275
 23
-0.1258238683
 33
0.0
 40
0.0
 40
0.0
 40
0.0
 40
0.0
 40
0.0500040567
 40
0.1047106595
 40
0.1636221469
 40
0.2262044324
 40
0.291866697
 40
0.3598982086
 40
0.4295409797
 40
0.4999957317
 40
0.5704507688
 40
0.6400935435
 40
0.7081244384
 40
0.7737860519
 40
0.8363697809
 40
0.8952848943
 40
0.9499946754
 40
1.0
 40
1.0
 40
1.0
 40
1.0
 10
10.1634351669
 20
4.6078595585
 30
0.0
 10
10.1630686679
 20
4.6054006735
 30
0.0
 10
10.1625171836
 20
4.600218615
 30
0.0
 10
10.1621722424
 20
4.592087107
 30
0.0
 10
10.1622679637
 20
4.5833238519
 30
0.0
 10
10.1627890512
 20
4.5740309536
 30
0.0
 10
10.163718799
 20
4.5643148435
 30
0.0
 10
10.1650355894
 20
4.5542897726
 30
0.0
 10
10.1667172077
 20
4.5440780381
 30
0.0
 10
10.1687375423
 20
4.5338051581
 30
0.0
 10
10.1710701975
 20
4.5235986631
 30
0.0
 10
10.1736874112
 20
4.5135858108
 30
0.0
 10
10.1765619519
 20
4.5038919093
 30
0.0
 10
10.1796644412
 20
4.4946376153
 30
0.0
 10
10.182968191
 20
4.4859359593
 30
0.0
 10
10.1864452237
 20
4.4778910071
 30
0.0
 10
10.1900679015
 20
4.4706024456
 30
0.0
 10
10.1926795129
 20
4.4660924943
 30
0.0
 10
10.1940144789
 20
4.4639952065
 30
0.0
 11
10.1634351669
 21
4.6078595585
 31
0.0
 11
10.1626173752
 21
4.6004463846
 31
0.0
 11
10.1622509477
 21
4.5922950827
 31
0.0
 11
10.1623299851
 21
4.5835087425
 31
0.0
 11
10.1628401105
 21
4.5741884942
 31
0.0
 11
10.1637636568
 21
4.5644385577
 31
0.0
 11
10.1650790702
 21
4.554377227
 31
0.0
 11
10.1667631201
 21
4.5441273751
 31
0.0
 11
10.1687897936
 21
4.5338162789
 31
0.0
 11
10.171132211
 21
4.5235722521
 31
0.0
 11
10.1737627074
 21
4.5135235712
 31
0.0
 11
10.1766532519
 21
4.5037971343
 31
0.0
 11
10.1797751264
 21
4.4945145594
 31
0.0
 11
10.1831000182
 21
4.4857923825
 31
0.0
 11
10.1866017321
 21
4.4777330075
 31
0.0
 11
10.1902521114
 21
4.4704350312
 31
0.0
 11
10.1940144789
 21
4.4639952065
 31
0.0
  0
SPLINE
  5
2DF
100
AcDbEntity
  8
0
100
AcDbSpline
 62
6
  6
CONTINUOUS
 70
0
 71
3
 72
23
 73
19
 74
17
 42
0.0000001
 43
0.0000001
 44
0.0000000001
 12
-0.0423051397
 22
-0.1430253
 32
0.0
 13
0.0617987035
 23
-0.1357456502
 33
0.0
 40
0.0
 40
0.0
 40
0.0
 40
0.0
 40
0.0500039178
 40
0.1047101424
 40
0.1636210729
 40
0.2262030007
 40
0.2918651074
 40
0.3598962803
 40
0.4295384249
 40
0.4999928477
 40
0.5704483455
 40
0.6400914234
 40
0.7081215506
 40
0.7737811853
 40
0.8363631162
 40
0.8952790653
 40
0.9499924576
 40
1.0
 40
1.0
 40
1.0
 40
1.0
 10
10.1940144789
 20
4.4639952065
 30
0.0
 10
10.193309338
 20
4.4616112647
 30
0.0
 10
10.1920420203
 20
4.4565564154
 30
0.0
 10
10.1905687573
 20
4.4485521021
 30
0.0
 10
10.1894439404
 20
4.4398608733
 30
0.0
 10
10.188666634
 20
4.4305859453
 30
0.0
 10
10.1882351064
 20
4.4208350388
 30
0.0
 10
10.1881438506
 20
4.4107243256
 30
0.0
 10
10.18838789
 20
4.4003779992
 30
0.0
 10
10.1889588443
 20
4.3899239423
 30
0.0
 10
10.1898483207
 20
4.3794921112
 30
0.0
 10
10.1910465306
 20
4.3692124565
 30
0.0
 10
10.1925439383
 20
4.3592129552
 30
0.0
 10
10.1943282277
 20
4.3496171607
 30
0.0
 10
10.1963886681
 20
4.3405405178
 30
0.0
 10
10.1987122878
 20
4.3320898291
 30
0.0
 10
10.2012854487
 20
4.3243677108
 30
0.0
 10
10.2032440134
 20
4.3195378836
 30
0.0
 10
10.2042741471
 20
4.3172751148
 30
0.0
 11
10.1940144789
 21
4.4639952065
 31
0.0
 11
10.1921729341
 21
4.4567680126
 31
0.0
 11
10.1906756387
 21
4.4487470915
 31
0.0
 11
10.1895310907
 21
4.4400353427
 31
0.0
 11
10.188739122
 21
4.4307348566
 31
0.0
 11
10.1882967445
 21
4.420951297
 31
0.0
 11
10.1881990791
 21
4.4108048632
 31
0.0
 11
10.1884402218
 21
4.400420481
 31
0.0
 11
10.1890121319
 21
4.389927722
 31
0.0
 11
10.1899060553
 21
4.3794573187
 31
0.0
 11
10.1911124393
 21
4.3691402905
 31
0.0
 11
10.1926211671
 21
4.3591063364
 31
0.0
 11
10.1944206927
 21
4.349479903
 31
0.0
 11
10.1964992171
 21
4.3403801227
 31
0.0
 11
10.1988452427
 21
4.3319117181
 31
0.0
 11
10.2014445732
 21
4.3241762158
 31
0.0
 11
10.2042741471
 21
4.3172751148
 31
0.0
  0
SPLINE
  5
2E0
100
AcDbEntity
  8
0
100
AcDbSpline
 62
6
  6
CONTINUOUS
 70
0
 71
3
 72
41
 73
37
 74
35
 42
0.0000001
 43
0.0000001
 44
0.0000000001
 12
-0.2000341198
 22
0.2136476204
 32
0.0
 13
-0.1379220493
 23
-0.2581403941
 33
0.0
 40
0.0
 40
0.0
 40
0.0
 40
0.0
 40
0.0304569397
 40
0.0606664473
 40
0.0906620458
 40
0.1204754142
 40
0.1501668038
 40
0.1798202821
 40
0.2393608309
 40
0.2695084806
 40
0.3000833946
 40
0.3312452558
 40
0.3471028631
 40
0.3631728748
 40
0.396005348
 40
0.4298700394
 40
0.4471890397
 40
0.4646993867
 40
0.4823463849
 40
0.5000764995
 40
0.5178218253
 40
0.5355026504
 40
0.5530375063
 40
0.570346644
 40
0.604188329
 40
0.6370322189
 40
0.6689397185
 40
0.7000864603
 40
0.7306504928
 40
0.7607872305
 40
0.7906384044
 40
0.820330053
 40
0.8499732864
 40
0.8796522856
 40
0.9393807922
 40
1.0
 40
1.0
 40
1.0
 40
1.0
 10
9.1500467809
 20
5.2718797694
 30
0.0
 10
9.1480159718
 20
5.274048787
 30
0.0
 10
9.1438520195
 20
5.2782596947
 30
0.0
 10
9.1372970206
 20
5.2842041243
 30
0.0
 10
9.1304793765
 20
5.2897466662
 30
0.0
 10
9.1234168195
 20
5.2948877174
 30
0.0
 10
9.1161156522
 20
5.2996238172
 30
0.0
 10
9.1060521444
 20
5.3053980181
 30
0.0
 10
9.0954863066
 20
5.3103575413
 30
0.0
 10
9.0844715267
 20
5.3144135695
 30
0.0
 10
9.0758882712
 20
5.3170173626
 30
0.0
 10
9.0685202729
 20
5.3187761373
 30
0.0
 10
9.0624737075
 20
5.3199303943
 30
0.0
 10
9.0562335977
 20
5.3209243286
 30
0.0
 10
9.0482020893
 20
5.3218136342
 30
0.0
 10
9.0400068822
 20
5.3221742332
 30
0.0
 10
9.0333042553
 20
5.3221293014
 30
0.0
 10
9.0281880136
 20
5.3219182581
 30
0.0
 10
9.0230424062
 20
5.3215232901
 30
0.0
 10
9.0178920631
 20
5.320935894
 30
0.0
 10
9.0127633085
 20
5.3201610671
 30
0.0
 10
9.007683792
 20
5.3192097664
 30
0.0
 10
9.0026818812
 20
5.3180917868
 30
0.0
 10
8.9961963661
 20
5.3164020978
 30
0.0
 10
8.9883777035
 20
5.3139262655
 30
0.0
 10
8.9794129157
 20
5.3104231121
 30
0.0
 10
8.9709235883
 20
5.306476798
 30
0.0
 10
8.9628895755
 20
5.3021210357
 30
0.0
 10
8.9552754103
 20
5.2973873055
 30
0.0
 10
8.9480557596
 20
5.2922877074
 30
0.0
 10
8.9412068491
 20
5.2868361103
 30
0.0
 10
8.9347112409
 20
5.28104055
 30
0.0
 10
8.9285533911
 20
5.2749110678
 30
0.0
 10
8.9207743934
 20
5.2662800779
 30
0.0
 10
8.9118656812
 20
5.2546305622
 30
0.0
 10
8.9057638241
 20
5.2445684933
 30
0.0
 10
8.9029769157
 20
5.2393524046
 30
0.0
 11
9.1500467809
 21
5.2718797694
 31
0.0
 11
9.143779002
 21
5.2782180935
 31
0.0
 11
9.1372294917
 21
5.2841575805
 31
0.0
 11
9.1304178138
 21
5.2896957646
 31
0.0
 11
9.1233626951
 21
5.2948301724
 31
0.0
 11
9.1160715651
 21
5.2995582296
 31
0.0
 11
9.1085437429
 21
5.3038772894
 31
0.0
 11
9.0927632847
 21
5.3112694964
 31
0.0
 11
9.0844833494
 21
5.3143185044
 31
0.0
 11
9.0759197555
 21
5.3169148523
 31
0.0
 11
9.067048759
 21
5.3190327622
 31
0.0
 11
9.0624899987
 21
5.3199032927
 31
0.0
 11
9.0578451927
 21
5.3206427502
 31
0.0
 11
9.0482940773
 21
5.3216982546
 31
0.0
 11
9.0383923134
 21
5.3221344256
 31
0.0
 11
9.0333235802
 21
5.322100425
 31
0.0
 11
9.0282031037
 21
5.3218887511
 31
0.0
 11
9.0230534966
 21
5.3214923149
 31
0.0
 11
9.0178976834
 21
5.3209048795
 31
0.0
 11
9.0127621872
 21
5.3201300304
 31
0.0
 11
9.0076758375
 21
5.3191776504
 31
0.0
 11
9.0026675017
 21
5.3180577255
 31
0.0
 11
8.9977652572
 21
5.3167802449
 31
0.0
 11
8.9883218855
 21
5.3137928591
 31
0.0
 11
8.9793678004
 21
5.3102962203
 31
0.0
 11
8.970899962
 21
5.3063586941
 31
0.0
 11
8.9628854202
 21
5.3020151306
 31
0.0
 11
8.9552887831
 21
5.2972917546
 31
0.0
 11
8.9480838392
 21
5.292203905
 31
0.0
 11
8.9412476264
 21
5.2867636611
 31
0.0
 11
8.9347619993
 21
5.280979799
 31
0.0
 11
8.9286126966
 21
5.2748596337
 31
0.0
 11
8.9227966125
 21
5.26840787
 31
0.0
 11
8.9121758438
 21
5.2545230897
 31
0.0
 11
8.9029769157
 21
5.2393524046
 31
0.0
  0
SPLINE
  5
2E1
100
AcDbEntity
  8
0
100
AcDbSpline
 62
6
  6
CONTINUOUS
 70
0
 71
3
 72
39
 73
35
 74
33
 42
0.0000001
 43
0.0000001
 44
0.0000000001
 12
-0.24851194
 22
0.1545937113
 32
0.0
 13
-0.0664102164
 23
-0.2850387395
 33
0.0
 40
0.0
 40
0.0
 40
0.0
 40
0.0
 40
0.0304571666
 40
0.0606668282
 40
0.0906625947
 40
0.1204762721
 40
0.150168294
 40
0.1798226184
 40
0.2393645446
 40
0.269512554
 40
0.3000878079
 40
0.3312498108
 40
0.3631738794
 40
0.3960070386
 40
0.4298707002
 40
0.4471901507
 40
0.4647014797
 40
0.4823490859
 40
0.5000787562
 40
0.5178232502
 40
0.5355034971
 40
0.5703435251
 40
0.6041853329
 40
0.6370288904
 40
0.6689367772
 40
0.7000838225
 40
0.7306480915
 40
0.7607850679
 40
0.7906365262
 40
0.8203284471
 40
0.8499719392
 40
0.8796512132
 40
0.9393802458
 40
1.0
 40
1.0
 40
1.0
 40
1.0
 10
8.9029769157
 20
5.2393524046
 30
0.0
 10
8.9004539258
 20
5.2409219001
 30
0.0
 10
8.8953420028
 20
5.2439115978
 30
0.0
 10
8.8874718443
 20
5.2479568891
 30
0.0
 10
8.8794520116
 20
5.251546038
 30
0.0
 10
8.8712995047
 20
5.2546840693
 30
0.0
 10
8.8630212494
 20
5.2573691902
 30
0.0
 10
8.851805991
 20
5.2603419923
 30
0.0
 10
8.8403163764
 20
5.2623978218
 30
0.0
 10
8.828627083
 20
5.2634647384
 30
0.0
 10
8.819662247
 20
5.2637583838
 30
0.0
 10
8.8105228003
 20
5.2635068535
 30
0.0
 10
8.8011959065
 20
5.2626782027
 30
0.0
 10
8.7916783987
 20
5.2612255468
 30
0.0
 10
8.7836690292
 20
5.2594526941
 30
0.0
 10
8.7772065031
 20
5.2576743758
 30
0.0
 10
8.7723190894
 20
5.2561462256
 30
0.0
 10
8.7674509525
 20
5.2544329884
 30
0.0
 10
8.762628147
 20
5.252532903
 30
0.0
 10
8.7578748831
 20
5.2504570476
 30
0.0
 10
8.7516923928
 20
5.2474937401
 30
0.0
 10
8.7442873011
 20
5.2434593004
 30
0.0
 10
8.7359341657
 20
5.2381232125
 30
0.0
 10
8.7281814306
 20
5.2324190478
 30
0.0
 10
8.7210028404
 20
5.2264100626
 30
0.0
 10
8.7143698938
 20
5.2201233737
 30
0.0
 10
8.7082403837
 20
5.2135802348
 30
0.0
 10
8.7025866113
 20
5.2067858245
 30
0.0
 10
8.6973820437
 20
5.199747364
 30
0.0
 10
8.6926077632
 20
5.1924680985
 30
0.0
 10
8.6882461731
 20
5.1849536994
 30
0.0
 10
8.6829660993
 20
5.1746034549
 30
0.0
 10
8.6773760628
 20
5.1610451427
 30
0.0
 10
8.6740863772
 20
5.1497466557
 30
0.0
 10
8.6727444535
 20
5.1439869963
 30
0.0
 11
8.9029769157
 21
5.2393524046
 31
0.0
 11
8.8952822345
 21
5.2438525187
 31
0.0
 11
8.8874186664
 21
5.2478944571
 31
0.0
 11
8.8794057378
 21
5.2514809425
 31
0.0
 11
8.8712621457
 21
5.2546144625
 31
0.0
 11
8.8629956551
 21
5.2572944032
 31
0.0
 11
8.8546063102
 21
5.2595179604
 31
0.0
 11
8.8374500511
 21
5.2625739212
 31
0.0
 11
8.8286630779
 21
5.2633759964
 31
0.0
 11
8.8197192787
 21
5.2636674519
 31
0.0
 11
8.8106024387
 21
5.2634172588
 31
0.0
 11
8.8012958074
 21
5.262590202
 31
0.0
 11
8.7917968371
 21
5.261137742
 31
0.0
 11
8.7821199629
 21
5.2589963588
 31
0.0
 11
8.7772326881
 21
5.2576515069
 31
0.0
 11
8.7723412602
 21
5.2561216416
 31
0.0
 11
8.767469575
 21
5.254405934
 31
0.0
 11
8.7626415798
 21
5.252504326
 31
0.0
 11
8.7578818946
 21
5.2504268057
 31
0.0
 11
8.7532156104
 21
5.2481903943
 31
0.0
 11
8.7442630066
 21
5.2433093906
 31
0.0
 11
8.7359145953
 21
5.2379797842
 31
0.0
 11
8.7281707834
 21
5.2322848785
 31
0.0
 11
8.7210105671
 21
5.226289861
 31
0.0
 11
8.7143932961
 21
5.2200199917
 31
0.0
 11
8.708278027
 21
5.2134914048
 31
0.0
 11
8.702635426
 21
5.2067121495
 31
0.0
 11
8.6974401822
 21
5.1996879363
 31
0.0
 11
8.6926725174
 21
5.1924225522
 31
0.0
 11
8.6883167686
 21
5.1849193698
 31
0.0
 11
8.6843687005
 21
5.1771821302
 31
0.0
 11
8.6777034728
 21
5.1610216097
 31
0.0
 11
8.6727444535
 21
5.1439869963
 31
0.0
  0
SPLINE
  5
2E2
100
AcDbEntity
  8
0
100
AcDbSpline
 62
6
  6
CONTINUOUS
 70
0
 71
3
 72
41
 73
37
 74
35
 42
0.0000001
 43
0.0000001
 44
0.0000000001
 12
-0.2800584395
 22
0.0850072068
 32
0.0
 13
0.0096261986
 23
-0.2925171637
 33
0.0
 40
0.0
 40
0.0
 40
0.0
 40
0.0
 40
0.0304569397
 40
0.0606664473
 40
0.0906620458
 40
0.1204754142
 40
0.1501668038
 40
0.1798202821
 40
0.2393608309
 40
0.2695084806
 40
0.3000833946
 40
0.3312452558
 40
0.3471028631
 40
0.3631728748
 40
0.396005348
 40
0.4298700394
 40
0.4471890397
 40
0.4646993867
 40
0.4823463849
 40
0.5000764995
 40
0.5178218253
 40
0.5355026504
 40
0.5530375063
 40
0.570346644
 40
0.604188329
 40
0.6370322189
 40
0.6689397185
 40
0.7000864603
 40
0.7306504928
 40
0.7607872305
 40
0.7906384044
 40
0.820330053
 40
0.8499732864
 40
0.8796522856
 40
0.9393807922
 40
1.0
 40
1.0
 40
1.0
 40
1.0
 10
8.6727444535
 20
5.1439869963
 30
0.0
 10
8.6699012125
 20
5.1448500161
 30
0.0
 10
8.6641896702
 20
5.1464147929
 30
0.0
 10
8.6555406598
 20
5.1482853205
 30
0.0
 10
8.6468651359
 20
5.1496764806
 30
0.0
 10
8.6381782565
 20
5.150597483
 30
0.0
 10
8.6294872103
 20
5.1510484821
 30
0.0
 10
8.6178848564
 20
5.1510173329
 30
0.0
 10
8.6062548109
 20
5.1500294871
 30
0.0
 10
8.5946877176
 20
5.1480347206
 30
0.0
 10
8.5859525037
 20
5.1459980438
 30
0.0
 10
8.5786922426
 20
5.1438371882
 30
0.0
 10
8.5728786349
 20
5.1418135214
 30
0.0
 10
8.5669775741
 20
5.1395542388
 30
0.0
 10
8.559577431
 20
5.1363086459
 30
0.0
 10
8.552299874
 20
5.1325233302
 30
0.0
 10
8.5465176948
 20
5.1291331047
 30
0.0
 10
8.5421924211
 20
5.126392215
 30
0.0
 10
8.5379336784
 20
5.123477359
 30
0.0
 10
8.5337670485
 20
5.1203934875
 30
0.0
 10
8.5297128301
 20
5.1171580904
 30
0.0
 10
8.5257894902
 20
5.1137944816
 30
0.0
 10
8.5220166981
 20
5.1103253275
 30
0.0
 10
8.5172449218
 20
5.1056192563
 30
0.0
 10
8.5117116775
 20
5.0995657914
 30
0.0
 10
8.5056995202
 20
5.0920495776
 30
0.0
 10
8.5003207041
 20
5.0843873056
 30
0.0
 10
8.4955409261
 20
5.0765980985
 30
0.0
 10
8.4913137306
 20
5.0686914853
 30
0.0
 10
8.4876111288
 20
5.0606652783
 30
0.0
 10
8.4844055968
 20
5.0525196016
 30
0.0
 10
8.4816780153
 20
5.044252695
 30
0.0
 10
8.4794099021
 20
5.0358654828
 30
0.0
 10
8.4769885874
 20
5.0245013274
 30
0.0
 10
8.4750981742
 20
5.0099581948
 30
0.0
 10
8.4748448454
 20
4.998193259
 30
0.0
 10
8.4750393562
 20
4.9922825395
 30
0.0
 11
8.6727444535
 21
5.1439869963
 31
0.0
 11
8.6641472358
 21
5.1463422565
 31
0.0
 11
8.65550545
 21
5.148211248
 31
0.0
 11
8.6468372718
 21
5.1496016171
 31
0.0
 11
8.6381601559
 21
5.1505205854
 31
0.0
 11
8.6294818235
 21
5.1509696381
 31
0.0
 11
8.6208030083
 21
5.1509461425
 31
0.0
 11
8.6034406271
 21
5.1494577524
 31
0.0
 11
8.5947454889
 21
5.1479583031
 31
0.0
 11
8.586031025
 21
5.1459250095
 31
0.0
 11
8.5772895617
 21
5.143323675
 31
0.0
 11
8.5729062943
 21
5.1417981963
 31
0.0
 11
8.5685140455
 21
5.1401161823
 31
0.0
 11
8.5597147848
 21
5.1362547182
 31
0.0
 11
8.5509215202
 21
5.1316815715
 31
0.0
 11
8.5465488687
 21
5.1291177595
 31
0.0
 11
8.542220243
 21
5.1263742063
 31
0.0
 11
8.5379587705
 21
5.1234560788
 31
0.0
 11
8.5337874231
 21
5.1203694383
 31
0.0
 11
8.5297273774
 21
5.1171306512
 31
0.0
 11
8.5257986594
 21
5.1137626911
 31
0.0
 11
8.5220212758
 21
5.1102886398
 31
0.0
 11
8.5184145478
 21
5.1067311869
 31
0.0
 11
8.5117300409
 21
5.099422349
 31
0.0
 11
8.5057238951
 21
5.0919171284
 31
0.0
 11
8.5003592951
 21
5.0842732115
 31
0.0
 11
8.4955902801
 21
5.0765043043
 31
0.0
 11
8.4913730873
 21
5.0686154221
 31
0.0
 11
8.4876773477
 21
5.0606067432
 31
0.0
 11
8.4844771356
 21
5.0524772474
 31
0.0
 11
8.4817523488
 21
5.0442254623
 31
0.0
 11
8.4794869792
 21
5.0358505923
 31
0.0
 11
8.4776759844
 21
5.0273551589
 31
0.0
 11
8.4754205191
 21
5.0100202022
 31
0.0
 11
8.4750393562
 21
4.9922825395
 31
0.0
  0
SPLINE
  5
2E3
100
AcDbEntity
  8
0
100
AcDbSpline
 62
6
  6
CONTINUOUS
 70
0
 71
3
 72
44
 73
40
 74
38
 42
0.0000001
 43
0.0000001
 44
0.0000000001
 12
-0.2925367804
 22
0.0096268442
 32
0.0
 13
0.0850129076
 23
-0.2800772207
 33
0.0
 40
0.0
 40
0.0
 40
0.0
 40
0.0
 40
0.0304373569
 40
0.0606295437
 40
0.0906109763
 40
0.1204126587
 40
0.1500881653
 40
0.1797251246
 40
0.2094163479
 40
0.2392641751
 40
0.2693949054
 40
0.2999474167
 40
0.3310798639
 40
0.3629850438
 40
0.3792951753
 40
0.3958641283
 40
0.4297309402
 40
0.4470149122
 40
0.464522272
 40
0.4822139819
 40
0.5000016722
 40
0.5177924468
 40
0.5354932305
 40
0.5530125687
 40
0.5702986763
 40
0.6041518484
 40
0.637019435
 40
0.668925975
 40
0.7000600837
 40
0.7306125622
 40
0.7607425803
 40
0.7905893405
 40
0.8202799792
 40
0.8499170516
 40
0.87959191
 40
0.9093915244
 40
0.9393714682
 40
0.9695628745
 40
1.0
 40
1.0
 40
1.0
 40
1.0
 10
8.4750393562
 20
4.9922825395
 30
0.0
 10
8.4720713407
 20
4.9923802114
 30
0.0
 10
8.4661526308
 20
4.9924134814
 30
0.0
 10
8.4573185688
 20
4.9919822757
 30
0.0
 10
8.4485821755
 20
4.9910814873
 30
0.0
 10
8.4399562041
 20
4.9897239474
 30
0.0
 10
8.4314479657
 20
4.9879138054
 30
0.0
 10
8.4230615211
 20
4.985644615
 30
0.0
 10
8.4147966558
 20
4.9829121161
 30
0.0
 10
8.4066511299
 20
4.9797073762
 30
0.0
 10
8.3986265905
 20
4.9760046129
 30
0.0
 10
8.3907211776
 20
4.9717805189
 30
0.0
 10
8.3829330805
 20
4.9670031595
 30
0.0
 10
8.3765931173
 20
4.9625510089
 30
0.0
 10
8.3715953152
 20
4.9586800159
 30
0.0
 10
8.3665750797
 20
4.9545308816
 30
0.0
 10
8.361692081
 20
4.9500711617
 30
0.0
 10
8.3569856263
 20
4.9453029689
 30
0.0
 10
8.3535215646
 20
4.9415304111
 30
0.0
 10
8.3501646394
 20
4.9375975337
 30
0.0
 10
8.3469298845
 20
4.9335282334
 30
0.0
 10
8.3438374304
 20
4.9293486715
 30
0.0
 10
8.3409068059
 20
4.9250858032
 30
0.0
 10
8.3381568061
 20
4.9207623457
 30
0.0
 10
8.334767912
 20
4.9149827492
 30
0.0
 10
8.3309922865
 20
4.9077003101
 30
0.0
 10
8.3271289343
 20
4.8988805045
 30
0.0
 10
8.3239139667
 20
4.8900863867
 30
0.0
 10
8.3213143255
 20
4.881326955
 30
0.0
 10
8.3192805221
 20
4.8725975077
 30
0.0
 10
8.3177808811
 20
4.8638882169
 30
0.0
 10
8.3167939483
 20
4.8551909752
 30
0.0
 10
8.3162942226
 20
4.8465006312
 30
0.0
 10
8.3162726926
 20
4.8378127594
 30
0.0
 10
8.3167260353
 20
4.829126164
 30
0.0
 10
8.3176475108
 20
4.8204431882
 30
0.0
 10
8.3190385515
 20
4.8117717704
 30
0.0
 10
8.3209084117
 20
4.8031273563
 30
0.0
 10
8.3224723832
 20
4.797419024
 30
0.0
 10
8.3233348994
 20
4.7945774421
 30
0.0
 11
8.4750393562
 21
4.9922825395
 31
0.0
 11
8.46613063
 21
4.9923325145
 31
0.0
 11
8.4573040311
 21
4.9919017007
 31
0.0
 11
8.4485748493
 21
4.9910020497
 31
0.0
 11
8.4399581999
 21
4.9896453163
 31
0.0
 11
8.4314628435
 21
4.9878360707
 31
0.0
 11
8.4230895143
 21
4.9855698098
 31
0.0
 11
8.4148384322
 21
4.9828414351
 31
0.0
 11
8.4067095156
 21
4.9796408262
 31
0.0
 11
8.398701941
 21
4.9759454784
 31
0.0
 11
8.3908147828
 21
4.9717309415
 31
0.0
 11
8.3830483368
 21
4.9669647461
 31
0.0
 11
8.3754052364
 21
4.9615990746
 31
0.0
 11
8.3716309068
 21
4.9586759733
 31
0.0
 11
8.3678930415
 21
4.9555860724
 31
0.0
 11
8.3605761153
 21
4.9488985284
 31
0.0
 11
8.3570227977
 21
4.9452975906
 31
0.0
 11
8.3535568029
 21
4.941523266
 31
0.0
 11
8.350193926
 21
4.9375855489
 31
0.0
 11
8.3469539158
 21
4.9335101805
 31
0.0
 11
8.3438568111
 21
4.9293240561
 31
0.0
 11
8.3409226507
 21
4.925054071
 31
0.0
 11
8.338171188
 21
4.9207269422
 31
0.0
 11
8.3356114327
 21
4.9163626786
 31
0.0
 11
8.3310471511
 21
4.9075678589
 31
0.0
 11
8.3271855165
 21
4.8987567468
 31
0.0
 11
8.3239808533
 21
4.8899849178
 31
0.0
 11
8.3213865647
 21
4.8812491962
 31
0.0
 11
8.319357083
 21
4.8725399702
 31
0.0
 11
8.3178603258
 21
4.8638490043
 31
0.0
 11
8.3168730677
 21
4.8551689672
 31
0.0
 11
8.316373595
 21
4.8464930269
 31
0.0
 11
8.3163516233
 21
4.8378184278
 31
0.0
 11
8.3168025963
 21
4.8291444564
 31
0.0
 11
8.3177223033
 21
4.8204708787
 31
0.0
 11
8.3191125932
 21
4.8118067322
 31
0.0
 11
8.3209809079
 21
4.803169614
 31
0.0
 11
8.3233348994
 21
4.7945774421
 31
0.0
  0
SPLINE
  5
2E4
100
AcDbEntity
  8
0
100
AcDbSpline
 62
6
  6
CONTINUOUS
 70
0
 71
3
 72
22
 73
18
 74
16
 42
0.0000001
 43
0.0000001
 44
0.0000000001
 12
-0.1286501633
 22
-0.0299737685
 32
0.0
 13
-0.0623439598
 23
-0.1164582414
 33
0.0
 40
0.0
 40
0.0
 40
0.0
 40
0.0
 40
0.1228574797
 40
0.1836678696
 40
0.2441241258
 40
0.304306024
 40
0.3643497647
 40
0.4244000375
 40
0.4846131192
 40
0.545189141
 40
0.6063516152
 40
0.668341722
 40
0.7314329755
 40
0.7959226952
 40
0.862066239
 40
0.9300714671
 40
1.0
 40
1.0
 40
1.0
 40
1.0
 10
8.3233348994
 20
4.7945774421
 30
0.0
 10
8.3180663544
 20
4.7933499416
 30
0.0
 10
8.3102740031
 20
4.7911208323
 30
0.0
 10
8.3001848851
 20
4.7874036169
 30
0.0
 10
8.2928287724
 20
4.784277062
 30
0.0
 10
8.2856648335
 20
4.7808097748
 30
0.0
 10
8.2786970992
 20
4.7770001267
 30
0.0
 10
8.2719270219
 20
4.7728467971
 30
0.0
 10
8.2653539192
 20
4.768346416
 30
0.0
 10
8.2589828374
 20
4.7634827815
 30
0.0
 10
8.2528173495
 20
4.7582392326
 30
0.0
 10
8.246860088
 20
4.752597596
 30
0.0
 10
8.2411218698
 20
4.7465296432
 30
0.0
 10
8.2356127763
 20
4.7400113719
 30
0.0
 10
8.2303541014
 20
4.7330160053
 30
0.0
 10
8.2253926199
 20
4.7255176247
 30
0.0
 10
8.2223578932
 20
4.7202512336
 30
0.0
 10
8.220904686
 20
4.717536649
 30
0.0
 11
8.3233348994
 21
4.7945774421
 31
0.0
 11
8.3077318489
 21
4.7901138419
 31
0.0
 11
8.3001942416
 21
4.7873371043
 31
0.0
 11
8.2928446618
 21
4.7842129852
 31
0.0
 11
8.285689453
 21
4.7807486105
 31
0.0
 11
8.2787304612
 21
4.7769431532
 31
0.0
 11
8.2719691086
 21
4.7727950367
 31
0.0
 11
8.2654071071
 21
4.7683000892
 31
0.0
 11
8.2590473097
 21
4.7634439225
 31
0.0
 11
8.25289285
 21
4.7582096339
 31
0.0
 11
8.2469480558
 21
4.7525781959
 31
0.0
 11
8.2412213497
 21
4.746523293
 31
0.0
 11
8.2357223401
 21
4.7400170521
 31
0.0
 11
8.2304738899
 21
4.7330317914
 31
0.0
 11
8.2255168444
 21
4.7255400872
 31
0.0
 11
8.220904686
 21
4.717536649
 31
0.0
  0
SPLINE
  5
2E5
100
AcDbEntity
  8
0
100
AcDbSpline
 62
6
  6
CONTINUOUS
 70
0
 71
3
 72
41
 73
37
 74
35
 42
0.0000001
 43
0.0000001
 44
0.0000000001
 12
0.2136476204
 22
0.2000341198
 32
0.0
 13
-0.2581403941
 23
0.1379220493
 33
0.0
 40
0.0
 40
0.0
 40
0.0
 40
0.0
 40
0.0304569397
 40
0.0606664473
 40
0.0906620458
 40
0.1204754142
 40
0.1501668038
 40
0.1798202821
 40
0.2393608309
 40
0.2695084806
 40
0.3000833946
 40
0.3312452558
 40
0.3471028631
 40
0.3631728748
 40
0.396005348
 40
0.4298700394
 40
0.4471890397
 40
0.4646993867
 40
0.4823463849
 40
0.5000764995
 40
0.5178218253
 40
0.5355026504
 40
0.5530375063
 40
0.570346644
 40
0.604188329
 40
0.6370322189
 40
0.6689397185
 40
0.7000864603
 40
0.7306504928
 40
0.7607872305
 40
0.7906384044
 40
0.820330053
 40
0.8499732864
 40
0.8796522856
 40
0.9393807922
 40
1.0
 40
1.0
 40
1.0
 40
1.0
 10
10.1046514355
 20
4.3172751148
 30
0.0
 10
10.1068204531
 20
4.3193059238
 30
0.0
 10
10.1110313607
 20
4.3234698762
 30
0.0
 10
10.1169757903
 20
4.3300248751
 30
0.0
 10
10.1225183323
 20
4.3368425191
 30
0.0
 10
10.1276593834
 20
4.3439050762
 30
0.0
 10
10.1323954833
 20
4.3512062434
 30
0.0
 10
10.1381696842
 20
4.3612697513
 30
0.0
 10
10.1431292074
 20
4.371835589
 30
0.0
 10
10.1471852356
 20
4.3828503689
 30
0.0
 10
10.1497890286
 20
4.3914336245
 30
0.0
 10
10.1515478034
 20
4.3988016228
 30
0.0
 10
10.1527020604
 20
4.4048481882
 30
0.0
 10
10.1536959947
 20
4.411088298
 30
0.0
 10
10.1545853003
 20
4.4191198063
 30
0.0
 10
10.1549458992
 20
4.4273150135
 30
0.0
 10
10.1549009674
 20
4.4340176403
 30
0.0
 10
10.1546899242
 20
4.439133882
 30
0.0
 10
10.1542949561
 20
4.4442794895
 30
0.0
 10
10.1537075601
 20
4.4494298325
 30
0.0
 10
10.1529327332
 20
4.4545585871
 30
0.0
 10
10.1519814325
 20
4.4596381036
 30
0.0
 10
10.1508634529
 20
4.4646400145
 30
0.0
 10
10.1491737639
 20
4.4711255296
 30
0.0
 10
10.1466979316
 20
4.4789441922
 30
0.0
 10
10.1431947781
 20
4.48790898
 30
0.0
 10
10.1392484641
 20
4.4963983074
 30
0.0
 10
10.1348927018
 20
4.5044323201
 30
0.0
 10
10.1301589716
 20
4.5120464854
 30
0.0
 10
10.1250593735
 20
4.5192661361
 30
0.0
 10
10.1196077764
 20
4.5261150466
 30
0.0
 10
10.113812216
 20
4.5326106547
 30
0.0
 10
10.1076827338
 20
4.5387685045
 30
0.0
 10
10.0990517439
 20
4.5465475022
 30
0.0
 10
10.0874022282
 20
4.5554562144
 30
0.0
 10
10.0773401594
 20
4.5615580715
 30
0.0
 10
10.0721240707
 20
4.56434498
 30
0.0
 11
10.1046514355
 21
4.3172751148
 31
0.0
 11
10.1109897595
 21
4.3235428936
 31
0.0
 11
10.1169292465
 21
4.330092404
 31
0.0
 11
10.1224674307
 21
4.3369040819
 31
0.0
 11
10.1276018385
 21
4.3439592005
 31
0.0
 11
10.1323298957
 21
4.3512503306
 31
0.0
 11
10.1366489555
 21
4.3587781527
 31
0.0
 11
10.1440411625
 21
4.374558611
 31
0.0
 11
10.1470901704
 21
4.3828385463
 31
0.0
 11
10.1496865184
 21
4.3914021402
 31
0.0
 11
10.1518044283
 21
4.4002731367
 31
0.0
 11
10.1526749588
 21
4.4048318969
 31
0.0
 11
10.1534144162
 21
4.409476703
 31
0.0
 11
10.1544699206
 21
4.4190278184
 31
0.0
 11
10.1549060917
 21
4.4289295822
 31
0.0
 11
10.1548720911
 21
4.4339983155
 31
0.0
 11
10.1546604172
 21
4.4391187919
 31
0.0
 11
10.154263981
 21
4.4442683991
 31
0.0
 11
10.1536765455
 21
4.4494242122
 31
0.0
 11
10.1529016964
 21
4.4545597084
 31
0.0
 11
10.1519493165
 21
4.4596460581
 31
0.0
 11
10.1508293916
 21
4.4646543939
 31
0.0
 11
10.1495519109
 21
4.4695566384
 31
0.0
 11
10.1465645252
 21
4.4790000102
 31
0.0
 11
10.1430678864
 21
4.4879540952
 31
0.0
 11
10.1391303602
 21
4.4964219336
 31
0.0
 11
10.1347867966
 21
4.5044364754
 31
0.0
 11
10.1300634207
 21
4.5120331126
 31
0.0
 11
10.1249755711
 21
4.5192380564
 31
0.0
 11
10.1195353272
 21
4.5260742693
 31
0.0
 11
10.1137514651
 21
4.5325598964
 31
0.0
 11
10.1076312997
 21
4.538709199
 31
0.0
 11
10.101179536
 21
4.5445252832
 31
0.0
 11
10.0872947558
 21
4.5551460519
 31
0.0
 11
10.0721240707
 21
4.56434498
 31
0.0
  0
SPLINE
  5
2E6
100
AcDbEntity
  8
0
100
AcDbSpline
 62
6
  6
CONTINUOUS
 70
0
 71
3
 72
41
 73
37
 74
35
 42
0.0000001
 43
0.0000001
 44
0.0000000001
 12
0.1545951144
 22
0.2485141955
 32
0.0
 13
-0.2850413266
 23
0.0664108191
 33
0.0
 40
0.0
 40
0.0
 40
0.0
 40
0.0
 40
0.0304569397
 40
0.0606664473
 40
0.0906620458
 40
0.1204754142
 40
0.1501668038
 40
0.1798202821
 40
0.2393608309
 40
0.2695084806
 40
0.3000833946
 40
0.3312452558
 40
0.3471028631
 40
0.3631728748
 40
0.396005348
 40
0.4298700394
 40
0.4471890397
 40
0.4646993867
 40
0.4823463849
 40
0.5000764995
 40
0.5178218253
 40
0.5355026504
 40
0.5530375063
 40
0.570346644
 40
0.604188329
 40
0.6370322189
 40
0.6689397185
 40
0.7000864603
 40
0.7306504928
 40
0.7607872305
 40
0.7906384044
 40
0.820330053
 40
0.8499732864
 40
0.8796522856
 40
0.9393807922
 40
1.0
 40
1.0
 40
1.0
 40
1.0
 10
10.0721240707
 20
4.56434498
 30
0.0
 10
10.0736935687
 20
4.5668679739
 30
0.0
 10
10.076683283
 20
4.5719799061
 30
0.0
 10
10.0807286025
 20
4.5798500805
 30
0.0
 10
10.0843177508
 20
4.5878699343
 30
0.0
 10
10.0874557006
 20
4.5960224426
 30
0.0
 10
10.0901407406
 20
4.6043006214
 30
0.0
 10
10.0931135629
 20
4.6155156967
 30
0.0
 10
10.0951694544
 20
4.6270051313
 30
0.0
 10
10.096236442
 20
4.638694369
 30
0.0
 10
10.096530003
 20
4.6476590684
 30
0.0
 10
10.0963218706
 20
4.6552312127
 30
0.0
 10
10.095871831
 20
4.66137049
 30
0.0
 10
10.0952168385
 20
4.6676552224
 30
0.0
 10
10.0939971345
 20
4.675643233
 30
0.0
 10
10.0922243706
 20
4.6836525251
 30
0.0
 10
10.0904462024
 20
4.6901151363
 30
0.0
 10
10.0889181694
 20
4.6950024243
 30
0.0
 10
10.0872048784
 20
4.6998704741
 30
0.0
 10
10.0853044905
 20
4.7046932942
 30
0.0
 10
10.0832286458
 20
4.7094467508
 30
0.0
 10
10.0809950843
 20
4.7141069722
 30
0.0
 10
10.0786206091
 20
4.7186490926
 30
0.0
 10
10.07530992
 20
4.7244762955
 30
0.0
 10
10.0708948309
 20
4.7313877511
 30
0.0
 10
10.0651907867
 20
4.7391403883
 30
0.0
 10
10.0591817404
 20
4.7463190677
 30
0.0
 10
10.0528950416
 20
4.7529519738
 30
0.0
 10
10.0463519184
 20
4.7590815132
 30
0.0
 10
10.0395575018
 20
4.7647352871
 30
0.0
 10
10.0325190349
 20
4.7699398495
 30
0.0
 10
10.0252397664
 20
4.7747141238
 30
0.0
 10
10.0177253724
 20
4.7790757232
 30
0.0
 10
10.0073751236
 20
4.7843557934
 30
0.0
 10
9.9938168111
 20
4.7899458321
 30
0.0
 10
9.9825183222
 20
4.7932355184
 30
0.0
 10
9.9767586624
 20
4.7945774421
 30
0.0
 11
10.0721240707
 21
4.56434498
 31
0.0
 11
10.076624201
 21
4.5720396684
 31
0.0
 11
10.0806661669
 21
4.5799032619
 31
0.0
 11
10.08425265
 21
4.5879162251
 31
0.0
 11
10.0873861081
 21
4.5960598289
 31
0.0
 11
10.0900659773
 21
4.604326231
 31
0.0
 11
10.092289525
 21
4.6127154038
 31
0.0
 11
10.0953455655
 21
4.6298713999
 31
0.0
 11
10.0961476761
 21
4.6386583445
 31
0.0
 11
10.0964391344
 21
4.6476021254
 31
0.0
 11
10.0961888954
 21
4.6567190054
 31
0.0
 11
10.0958498693
 21
4.6613477395
 31
0.0
 11
10.0953619661
 21
4.6660256633
 31
0.0
 11
10.0939094945
 21
4.675524517
 31
0.0
 11
10.0917680383
 21
4.6852017758
 31
0.0
 11
10.0904233116
 21
4.6900889961
 31
0.0
 11
10.0888935735
 21
4.6949802114
 31
0.0
 11
10.0871778291
 21
4.6998517447
 31
0.0
 11
10.0852759874
 21
4.7046798382
 31
0.0
 11
10.0831983764
 21
4.709439801
 31
0.0
 11
10.0809620038
 21
4.7141063434
 31
0.0
 11
10.0785839868
 21
4.7186541664
 31
0.0
 11
10.076081241
 21
4.7230587347
 31
0.0
 11
10.0707515235
 21
4.731407139
 31
0.0
 11
10.065056542
 21
4.7391511243
 31
0.0
 11
10.0590615459
 21
4.7463113214
 31
0.0
 11
10.0527916696
 21
4.7529285773
 31
0.0
 11
10.0462630844
 21
4.7590438656
 31
0.0
 11
10.0394838224
 21
4.7646864746
 31
0.0
 11
10.0324596083
 21
4.7698817104
 31
0.0
 11
10.0251942227
 21
4.7746493715
 31
0.0
 11
10.0176910403
 21
4.7790051263
 31
0.0
 11
10.0099538017
 21
4.7829531929
 31
0.0
 11
9.9937932767
 21
4.7896184222
 31
0.0
 11
9.9767586624
 21
4.7945774421
 31
0.0
  0
SPLINE
  5
2E7
100
AcDbEntity
  8
0
100
AcDbSpline
 62
6
  6
CONTINUOUS
 70
0
 71
3
 72
39
 73
35
 74
33
 42
0.0000001
 43
0.0000001
 44
0.0000000001
 12
0.085006452
 22
0.2800559527
 32
0.0
 13
-0.2925145662
 23
-0.0096261131
 33
0.0
 40
0.0
 40
0.0
 40
0.0
 40
0.0
 40
0.0304577788
 40
0.0606684135
 40
0.0906655716
 40
0.1204807709
 40
0.1501733557
 40
0.1798279642
 40
0.2393714798
 40
0.2695202541
 40
0.3000961791
 40
0.3312592209
 40
0.3631866976
 40
0.3960253431
 40
0.4298837426
 40
0.4472039102
 40
0.4647189413
 40
0.4823689997
 40
0.5000962083
 40
0.5178351382
 40
0.5355091407
 40
0.5703420704
 40
0.6041816281
 40
0.6370229062
 40
0.6689301418
 40
0.7000783532
 40
0.7306435192
 40
0.7607810441
 40
0.7906330123
 40
0.8203255129
 40
0.8499695534
 40
0.8796492784
 40
0.9393792674
 40
1.0
 40
1.0
 40
1.0
 40
1.0
 10
9.9767586624
 20
4.7945774421
 30
0.0
 10
9.9776216983
 20
4.7974207362
 30
0.0
 10
9.9791865113
 20
4.8031324133
 30
0.0
 10
9.9810570772
 20
4.8117816874
 30
0.0
 10
9.982448239
 20
4.8204575801
 30
0.0
 10
9.9833692113
 20
4.8291448312
 30
0.0
 10
9.9838204025
 20
4.8378361966
 30
0.0
 10
9.983789108
 20
4.84943897
 30
0.0
 10
9.9828007085
 20
4.8610693961
 30
0.0
 10
9.9808056831
 20
4.8726367932
 30
0.0
 10
9.978769002
 20
4.8813723904
 30
0.0
 10
9.9761606676
 20
4.8901358833
 30
0.0
 10
9.9729449946
 20
4.8989310705
 30
0.0
 10
9.9690785673
 20
4.9077486798
 30
0.0
 10
9.9652932001
 20
4.9150264572
 30
0.0
 10
9.9619019484
 20
4.9208078968
 30
0.0
 10
9.959160084
 20
4.925133525
 30
0.0
 10
9.9562451862
 20
4.9293927348
 30
0.0
 10
9.9531630568
 20
4.9335598247
 30
0.0
 10
9.9499285866
 20
4.9376128032
 30
0.0
 10
9.945466721
 20
4.9428157767
 30
0.0
 10
9.9396533181
 20
4.9489223744
 30
0.0
 10
9.9323380608
 20
4.9556091195
 30
0.0
 10
9.9248225338
 20
4.961621582
 30
0.0
 10
9.9171604661
 20
4.9670002221
 30
0.0
 10
9.9093711577
 20
4.9717801346
 30
0.0
 10
9.9014644017
 20
4.9760075901
 30
0.0
 10
9.8934380458
 20
4.9797103198
 30
0.0
 10
9.8852922388
 20
4.9829159565
 30
0.0
 10
9.8770251897
 20
4.9856436233
 30
0.0
 10
9.8686378432
 20
4.9879118364
 30
0.0
 10
9.8572735077
 20
4.9903332249
 30
0.0
 10
9.8427301475
 20
4.9922237103
 30
0.0
 10
9.8309650213
 20
4.9924770535
 30
0.0
 10
9.8250542055
 20
4.9922825395
 30
0.0
 11
9.9767586624
 21
4.7945774421
 31
0.0
 11
9.9791139634
 21
4.8031748212
 31
0.0
 11
9.9809829876
 21
4.8118168571
 31
0.0
 11
9.9823733659
 21
4.8204854172
 31
0.0
 11
9.9832923561
 21
4.8291629917
 31
0.0
 11
9.9837415091
 21
4.8378415919
 31
0.0
 11
9.9837179216
 21
4.8465206605
 31
0.0
 11
9.9822289269
 21
4.8638837061
 31
0.0
 11
9.980729294
 21
4.8725790672
 31
0.0
 11
9.9786959727
 21
4.8812937468
 31
0.0
 11
9.9760946123
 21
4.8900354784
 31
0.0
 11
9.9728861055
 21
4.8988116717
 31
0.0
 11
9.9690239421
 21
4.9076125051
 31
0.0
 11
9.9644514621
 21
4.9164039416
 31
0.0
 11
9.9618868283
 21
4.920776455
 31
0.0
 11
9.9591421056
 21
4.9251059086
 31
0.0
 11
9.9562237593
 21
4.9293682612
 31
0.0
 11
9.9531385671
 21
4.9335395648
 31
0.0
 11
9.9499010782
 21
4.9375981925
 31
0.0
 11
9.9465339611
 21
4.9415249426
 31
0.0
 11
9.9395027731
 21
4.9489069062
 31
0.0
 11
9.9321945134
 21
4.9555909924
 31
0.0
 11
9.9246902379
 21
4.961596959
 31
0.0
 11
9.9170465138
 21
4.966961555
 31
0.0
 11
9.9092773436
 21
4.971730809
 31
0.0
 11
9.9013882984
 21
4.9759482319
 31
0.0
 11
9.8933795107
 21
4.9796440989
 31
0.0
 11
9.8852498884
 21
4.9828444125
 31
0.0
 11
9.8769979532
 21
4.9855692938
 31
0.0
 11
9.8686229429
 21
4.9878347542
 31
0.0
 11
9.8601273838
 21
4.9896458081
 31
0.0
 11
9.8427921565
 21
4.9919013541
 31
0.0
 11
9.8250542055
 21
4.9922825395
 31
0.0
  0
SPLINE
  5
2E8
100
AcDbEntity
  8
0
100
AcDbSpline
 62
6
  6
CONTINUOUS
 70
0
 71
3
 72
41
 73
37
 74
35
 42
0.0000001
 43
0.0000001
 44
0.0000000001
 12
0.0096261986
 22
0.2925171637
 32
0.0
 13
-0.2800584395
 23
-0.0850072068
 33
0.0
 40
0.0
 40
0.0
 40
0.0
 40
0.0
 40
0.0304569397
 40
0.0606664473
 40
0.0906620458
 40
0.1204754142
 40
0.1501668038
 40
0.1798202821
 40
0.2393608309
 40
0.2695084806
 40
0.3000833946
 40
0.3312452558
 40
0.3471028631
 40
0.3631728748
 40
0.396005348
 40
0.4298700394
 40
0.4471890397
 40
0.4646993867
 40
0.4823463849
 40
0.5000764995
 40
0.5178218253
 40
0.5355026504
 40
0.5530375063
 40
0.570346644
 40
0.604188329
 40
0.6370322189
 40
0.6689397185
 40
0.7000864603
 40
0.7306504928
 40
0.7607872305
 40
0.7906384044
 40
0.820330053
 40
0.8499732864
 40
0.8796522856
 40
0.9393807922
 40
1.0
 40
1.0
 40
1.0
 40
1.0
 10
9.8250542055
 20
4.9922825395
 30
0.0
 10
9.8251519337
 20
4.9952522653
 30
0.0
 10
9.8251851361
 20
5.0011741856
 30
0.0
 10
9.8247533984
 20
5.0100126163
 30
0.0
 10
9.8238517651
 20
5.0187525876
 30
0.0
 10
9.8224930552
 20
5.0273818418
 30
0.0
 10
9.8206792787
 20
5.0358934749
 30
0.0
 10
9.8176462807
 20
5.0470924262
 30
0.0
 10
9.8136820176
 20
5.0580705142
 30
0.0
 10
9.8087614371
 20
5.0687271848
 30
0.0
 10
9.8045333187
 20
5.0766376227
 30
0.0
 10
9.8005669986
 20
5.0830912259
 30
0.0
 10
9.7971076142
 20
5.0881829761
 30
0.0
 10
9.7933980079
 20
5.0932982178
 30
0.0
 10
9.7883477079
 20
5.0996061859
 30
0.0
 10
9.7828078033
 20
5.1056560544
 30
0.0
 10
9.7780365588
 20
5.1103637557
 30
0.0
 10
9.7742695995
 20
5.1138322548
 30
0.0
 10
9.770351821
 20
5.1171914641
 30
0.0
 10
9.7662946268
 20
5.1204179548
 30
0.0
 10
9.7621201642
 20
5.1234966467
 30
0.0
 10
9.7578557325
 20
5.1264157361
 30
0.0
 10
9.7535283165
 20
5.1291620902
 30
0.0
 10
9.7477475742
 20
5.1325532513
 30
0.0
 10
9.7404682671
 20
5.1363312029
 30
0.0
 10
9.7316521013
 20
5.1401931616
 30
0.0
 10
9.7228587749
 20
5.1434055571
 30
0.0
 10
9.7140978809
 20
5.1460064729
 30
0.0
 10
9.7053666003
 20
5.1480432481
 30
0.0
 10
9.6966555759
 20
5.1495423517
 30
0.0
 10
9.6879578036
 20
5.1505304015
 30
0.0
 10
9.679266635
 20
5.15102541
 30
0.0
 10
9.6705781792
 20
5.1510454689
 30
0.0
 10
9.6589745658
 20
5.1504430195
 30
0.0
 10
9.6444377034
 20
5.1485049787
 30
0.0
 10
9.6330080818
 20
5.1457046861
 30
0.0
 10
9.6273491082
 20
5.1439869963
 30
0.0
 11
9.8250542055
 21
4.9922825395
 31
0.0
 11
9.8251040885
 21
5.0011964003
 31
0.0
 11
9.8246727369
 21
5.010027455
 31
0.0
 11
9.8237722408
 21
5.0187601262
 31
0.0
 11
9.8224140931
 21
5.027379423
 31
0.0
 11
9.8206017269
 21
5.0358782718
 31
0.0
 11
9.8183327893
 21
5.0442552824
 31
0.0
 11
9.8124014
 21
5.0606408311
 31
0.0
 11
9.8087025758
 21
5.0686516037
 31
0.0
 11
9.8044830957
 21
5.0765428743
 31
0.0
 11
9.7997079424
 21
5.0843132045
 31
0.0
 11
9.7970999701
 21
5.0881522928
 31
0.0
 11
9.7943384716
 21
5.091959542
 31
0.0
 11
9.7883311675
 21
5.0994595548
 31
0.0
 11
9.7816379826
 21
5.1067695787
 31
0.0
 11
9.7780298049
 21
5.1103296723
 31
0.0
 11
9.7742594052
 21
5.1138007199
 31
0.0
 11
9.7703377603
 21
5.1171617193
 31
0.0
 11
9.7662766703
 21
5.1203920501
 31
0.0
 11
9.7620974251
 21
5.1234754933
 31
0.0
 11
9.7578273984
 21
5.1263986513
 31
0.0
 11
9.7534940637
 21
5.129148173
 31
0.0
 11
9.7491243382
 21
5.1317112681
 31
0.0
 11
9.7403344652
 21
5.1362763396
 31
0.0
 11
9.7315304739
 21
5.1401353368
 31
0.0
 11
9.7227585565
 21
5.1433387513
 31
0.0
 11
9.7140200564
 21
5.1459345249
 31
0.0
 11
9.7053084916
 21
5.1479662274
 31
0.0
 11
9.696616174
 21
5.1494632391
 31
0.0
 11
9.6879354082
 21
5.1504503382
 31
0.0
 11
9.6792595692
 21
5.150946561
 31
0.0
 11
9.6705837452
 21
5.1509671642
 31
0.0
 11
9.6619090667
 21
5.1505176709
 31
0.0
 11
9.6445810269
 21
5.1482096662
 31
0.0
 11
9.6273491082
 21
5.1439869963
 31
0.0
  0
SPLINE
  5
2E9
100
AcDbEntity
  8
0
100
AcDbSpline
 62
6
  6
CONTINUOUS
 70
0
 71
3
 72
40
 73
36
 74
34
 42
0.0000001
 43
0.0000001
 44
0.0000000001
 12
-0.0664114882
 22
0.2850441984
 32
0.0
 13
-0.2485166993
 23
-0.1545966719
 33
0.0
 40
0.0
 40
0.0
 40
0.0
 40
0.0
 40
0.0304500246
 40
0.060652936
 40
0.0906423408
 40
0.120449772
 40
0.1501347568
 40
0.1797817199
 40
0.2393091829
 40
0.2694494258
 40
0.3000162693
 40
0.3311694897
 40
0.3630856474
 40
0.3959114347
 40
0.4297608351
 40
0.447076175
 40
0.4645855571
 40
0.482230194
 40
0.4999532405
 40
0.5176896437
 40
0.535362968
 40
0.5702003461
 40
0.6040410751
 40
0.6368921101
 40
0.6688132619
 40
0.6999660457
 40
0.7606495213
 40
0.7905061105
 40
0.8202064691
 40
0.8498549643
 40
0.8795418099
 40
0.9093531972
 40
0.9393454126
 40
0.9695496426
 40
1.0
 40
1.0
 40
1.0
 40
1.0
 10
9.6273491082
 20
5.1439869963
 30
0.0
 10
9.626675031
 20
5.1468801973
 30
0.0
 10
9.6251747512
 20
5.1526077161
 30
0.0
 10
9.6224708771
 20
5.1610315413
 30
0.0
 10
9.6193387325
 20
5.1692388024
 30
0.0
 10
9.6157939046
 20
5.1772209179
 30
0.0
 10
9.611840308
 20
5.1849718029
 30
0.0
 10
9.6060139703
 20
5.1950024179
 30
0.0
 10
9.5993454591
 20
5.2045787397
 30
0.0
 10
9.5918370417
 20
5.2135974163
 30
0.0
 10
9.5857079742
 20
5.2201432763
 30
0.0
 10
9.5790702085
 20
5.2264274888
 30
0.0
 10
9.5718914379
 20
5.232435997
 30
0.0
 10
9.5641377201
 20
5.2381386857
 30
0.0
 10
9.5572235332
 20
5.24254875
 30
0.0
 10
9.5513983374
 20
5.245860686
 30
0.0
 10
9.5468629333
 20
5.2482364176
 30
0.0
 10
9.5422107615
 20
5.2504681204
 30
0.0
 10
9.5374594081
 20
5.2525363523
 30
0.0
 10
9.5326327767
 20
5.2544299212
 30
0.0
 10
9.5261675161
 20
5.2567065411
 30
0.0
 10
9.5180799182
 20
5.2590913201
 30
0.0
 10
9.5084003876
 20
5.2612284484
 30
0.0
 10
9.4988831659
 20
5.2626788156
 30
0.0
 10
9.4895553851
 20
5.2635096908
 30
0.0
 10
9.4774804
 20
5.2638373387
 30
0.0
 10
9.4655984336
 20
5.2631007056
 30
0.0
 10
9.453992738
 20
5.2613623115
 30
0.0
 10
9.4454663209
 20
5.2595954487
 30
0.0
 10
9.4370660641
 20
5.2573681061
 30
0.0
 10
9.4287895872
 20
5.2546822051
 30
0.0
 10
9.4206378875
 20
5.251544413
 30
0.0
 10
9.4126189639
 20
5.2479555577
 30
0.0
 10
9.404750082
 20
5.2439107725
 30
0.0
 10
9.3996391201
 20
5.2409215793
 30
0.0
 10
9.397116646
 20
5.2393524046
 30
0.0
 11
9.6273491082
 21
5.1439869963
 31
0.0
 11
9.6250907565
 21
5.152608178
 31
0.0
 11
9.6223891641
 21
5.1610249725
 31
0.0
 11
9.619260005
 21
5.1692254926
 31
0.0
 11
9.615718296
 21
5.1771982181
 31
0.0
 11
9.6117693257
 21
5.1849370605
 31
0.0
 11
9.6074109471
 21
5.1924400827
 31
0.0
 11
9.5974438439
 21
5.2067298375
 31
0.0
 11
9.5917997321
 21
5.2135092989
 31
0.0
 11
9.5856840133
 21
5.2200387317
 31
0.0
 11
9.5790631743
 21
5.226307716
 31
0.0
 11
9.57189999
 21
5.2323032378
 31
0.0
 11
9.5641588143
 21
5.2379932598
 31
0.0
 11
9.5558063867
 21
5.243321056
 31
0.0
 11
9.5514008894
 21
5.2458259441
 31
0.0
 11
9.5468611785
 21
5.2482034942
 31
0.0
 11
9.5422045302
 21
5.2504361252
 31
0.0
 11
9.5374484809
 21
5.2525065264
 31
0.0
 11
9.5326164299
 21
5.2544034766
 31
0.0
 11
9.5277375717
 21
5.2561217742
 31
0.0
 11
9.517956914
 21
5.2590027833
 31
0.0
 11
9.508285883
 21
5.2611403842
 31
0.0
 11
9.498781268
 21
5.2625917583
 31
0.0
 11
9.4894753471
 21
5.2634191864
 31
0.0
 11
9.4803609723
 21
5.2636672098
 31
0.0
 11
9.4626340092
 21
5.262572275
 31
0.0
 11
9.4539917121
 21
5.2612799916
 31
0.0
 11
9.4454797158
 21
5.2595169901
 31
0.0
 11
9.4370919933
 21
5.2572933225
 31
0.0
 11
9.4288270847
 21
5.254612875
 31
0.0
 11
9.4206840621
 21
5.2514792763
 31
0.0
 11
9.4126719717
 21
5.2478930504
 31
0.0
 11
9.4048097231
 21
5.243851652
 31
0.0
 11
9.397116646
 21
5.2393524046
 31
0.0
  0
SPLINE
  5
2EA
100
AcDbEntity
  8
0
100
AcDbSpline
 62
6
  6
CONTINUOUS
 70
0
 71
3
 72
41
 73
37
 74
35
 42
0.0000001
 43
0.0000001
 44
0.0000000001
 12
-0.1379220493
 22
0.2581403941
 32
0.0
 13
-0.2000341198
 23
-0.2136476204
 33
0.0
 40
0.0
 40
0.0
 40
0.0
 40
0.0
 40
0.0304569397
 40
0.0606664473
 40
0.0906620458
 40
0.1204754142
 40
0.1501668038
 40
0.1798202821
 40
0.2393608309
 40
0.2695084806
 40
0.3000833946
 40
0.3312452558
 40
0.3471028631
 40
0.3631728748
 40
0.396005348
 40
0.4298700394
 40
0.4471890397
 40
0.4646993867
 40
0.4823463849
 40
0.5000764995
 40
0.5178218253
 40
0.5355026504
 40
0.5530375063
 40
0.570346644
 40
0.604188329
 40
0.6370322189
 40
0.6689397185
 40
0.7000864603
 40
0.7306504928
 40
0.7607872305
 40
0.7906384044
 40
0.820330053
 40
0.8499732864
 40
0.8796522856
 40
0.9393807922
 40
1.0
 40
1.0
 40
1.0
 40
1.0
 10
9.397116646
 20
5.2393524046
 30
0.0
 10
9.3957164182
 20
5.2419731268
 30
0.0
 10
9.3927842122
 20
5.2471182614
 30
0.0
 10
9.387991101
 20
5.254556698
 30
0.0
 10
9.382840278
 20
5.2616749186
 30
0.0
 10
9.3773489737
 20
5.2684687169
 30
0.0
 10
9.3715223805
 20
5.2749331192
 30
0.0
 10
9.3632962515
 20
5.2831151965
 30
0.0
 10
9.354374055
 20
5.2906403681
 30
0.0
 10
9.344784372
 20
5.2974090252
 30
0.0
 10
9.3371674951
 20
5.3021456062
 30
0.0
 10
9.3305057596
 20
5.3057514305
 30
0.0
 10
9.3249639696
 20
5.3084313234
 30
0.0
 10
9.3191937355
 20
5.3110064494
 30
0.0
 10
9.3116660634
 20
5.31394416
 30
0.0
 10
9.3038434311
 20
5.3164135476
 30
0.0
 10
9.2973575615
 20
5.3181049142
 30
0.0
 10
9.2923610295
 20
5.3192252429
 30
0.0
 10
9.2872885291
 20
5.3201755143
 30
0.0
 10
9.2821616504
 20
5.3209411401
 30
0.0
 10
9.2770071139
 20
5.3215201342
 30
0.0
 10
9.271854463
 20
5.3219159239
 30
0.0
 10
9.2667336338
 20
5.3221306283
 30
0.0
 10
9.2600317835
 20
5.3221770889
 30
0.0
 10
9.2518387429
 20
5.3218092373
 30
0.0
 10
9.2422727399
 20
5.3207457087
 30
0.0
 10
9.2330512981
 20
5.3191310617
 30
0.0
 10
9.2241636835
 20
5.3170030739
 30
0.0
 10
9.2155837851
 20
5.3144013326
 30
0.0
 10
9.2072902649
 20
5.3113440822
 30
0.0
 10
9.1992637482
 20
5.3078508723
 30
0.0
 10
9.1914894711
 20
5.3039339779
 30
0.0
 10
9.1839550183
 20
5.2996071216
 30
0.0
 10
9.1742072189
 20
5.2932835783
 30
0.0
 10
9.1625869472
 20
5.2843367546
 30
0.0
 10
9.1540887508
 20
5.2761968193
 30
0.0
 10
9.1500467809
 20
5.2718797694
 30
0.0
 11
9.397116646
 21
5.2393524046
 31
0.0
 11
9.3927029155
 21
5.247096976
 31
0.0
 11
9.3879138267
 21
5.2545292179
 31
0.0
 11
9.3827676386
 21
5.261641685
 31
0.0
 11
9.3772817999
 21
5.2684271412
 31
0.0
 11
9.3714628203
 21
5.2748811771
 31
0.0
 11
9.3653093574
 21
5.2810014122
 31
0.0
 11
9.3519798492
 21
5.292226019
 31
0.0
 11
9.3447711872
 21
5.2973141394
 31
0.0
 11
9.3371713749
 21
5.3020384402
 31
0.0
 11
9.3291508057
 21
5.3063801669
 31
0.0
 11
9.3249726913
 21
5.3084009288
 31
0.0
 11
9.3206775389
 21
5.3103173541
 31
0.0
 11
9.3117250545
 21
5.3138089036
 31
0.0
 11
9.3022735744
 21
5.3167929775
 31
0.0
 11
9.2973687541
 21
5.3180720202
 31
0.0
 11
9.2923679684
 21
5.3191928358
 31
0.0
 11
9.2872912246
 21
5.3201427242
 31
0.0
 11
9.2821590521
 21
5.3209097277
 31
0.0
 11
9.2769979979
 21
5.3214904452
 31
0.0
 11
9.2718384673
 21
5.321886961
 31
0.0
 11
9.2667109286
 21
5.3221014493
 31
0.0
 11
9.2616450877
 21
5.322136292
 31
0.0
 11
9.2517502986
 21
5.3216948234
 31
0.0
 11
9.2421963199
 21
5.3206348174
 31
0.0
 11
9.2329979094
 21
5.319023097
 31
0.0
 11
9.2241322595
 21
5.3169018528
 31
0.0
 11
9.2155719718
 21
5.3143055764
 31
0.0
 11
9.2072956981
 21
5.3112558678
 31
0.0
 11
9.1992843848
 21
5.3077703378
 31
0.0
 11
9.1915227764
 21
5.3038621598
 31
0.0
 11
9.1839989909
 21
5.2995420906
 31
0.0
 11
9.1767112456
 21
5.2948154788
 31
0.0
 11
9.1628587253
 21
5.2841526682
 31
0.0
 11
9.1500467809
 21
5.2718797694
 31
0.0
  0
SPLINE
  5
2EB
100
AcDbEntity
  8
0
100
AcDbSpline
 62
6
  6
CONTINUOUS
 70
0
 71
3
 72
23
 73
19
 74
17
 42
0.0000001
 43
0.0000001
 44
0.0000000001
 12
-0.0617987036
 22
-0.1357456504
 32
0.0
 13
0.0423051398
 23
-0.1430253003
 33
0.0
 40
0.0
 40
0.0
 40
0.0
 40
0.0
 40
0.0500061716
 40
0.1047163399
 40
0.1636289734
 40
0.2262096416
 40
0.2918696388
 40
0.3599000859
 40
0.4295432727
 40
0.4999986907
 40
0.5704534127
 40
0.6400955953
 40
0.7081263545
 40
0.773787969
 40
0.8363711588
 40
0.8952854365
 40
0.9499947796
 40
1.0
 40
1.0
 40
1.0
 40
1.0
 10
10.2042741471
 20
4.3172751148
 30
0.0
 10
10.2032440416
 20
4.315012408
 30
0.0
 10
10.2012855174
 20
4.3101828117
 30
0.0
 10
10.1987124755
 20
4.3024610669
 30
0.0
 10
10.1963889502
 20
4.2940107558
 30
0.0
 10
10.1943284928
 20
4.284934332
 30
0.0
 10
10.1925441587
 20
4.2753385748
 30
0.0
 10
10.191046692
 20
4.2653390425
 30
0.0
 10
10.1898484475
 20
4.2550593742
 30
0.0
 10
10.1889589304
 20
4.2446275303
 30
0.0
 10
10.1883879392
 20
4.2341734624
 30
0.0
 10
10.1881438673
 20
4.2238271407
 30
0.0
 10
10.1882350678
 20
4.2137164703
 30
0.0
 10
10.1886665482
 20
4.203965544
 30
0.0
 10
10.1894438146
 20
4.1946904072
 30
0.0
 10
10.1905686614
 20
4.1859987936
 30
0.0
 10
10.1920419928
 20
4.1779941012
 30
0.0
 10
10.1933093196
 20
4.172939027
 30
0.0
 10
10.1940144789
 20
4.1705550231
 30
0.0
 11
10.2042741471
 21
4.3172751148
 31
0.0
 11
10.2014446181
 21
4.3103742164
 31
0.0
 11
10.1988454247
 21
4.3026391753
 31
0.0
 11
10.1964995135
 21
4.2941712521
 31
0.0
 11
10.1944209773
 21
4.2850716677
 31
0.0
 11
10.1926213878
 21
4.2754451912
 31
0.0
 11
10.1911126034
 21
4.2654111973
 31
0.0
 11
10.1899061803
 21
4.2550941573
 31
0.0
 11
10.1890122199
 21
4.2446237691
 31
0.0
 11
10.1884402711
 21
4.2341309674
 31
0.0
 11
10.1881990912
 21
4.2237465805
 31
0.0
 11
10.1882967058
 21
4.2136002078
 31
0.0
 11
10.1887390282
 21
4.2038167193
 31
0.0
 11
10.1895309616
 21
4.1945160412
 31
0.0
 11
10.1906755514
 21
4.1858037943
 31
0.0
 11
10.1921729174
 21
4.1777824133
 31
0.0
 11
10.1940144789
 21
4.1705550231
 31
0.0
  0
SPLINE
  5
2EC
100
AcDbEntity
  8
0
100
AcDbSpline
 62
6
  6
CONTINUOUS
 70
0
 71
3
 72
23
 73
19
 74
17
 42
0.0000001
 43
0.0000001
 44
0.0000000001
 12
-0.0800894275
 22
-0.1258238683
 32
0.0
 13
0.0219881549
 23
-0.1475211282
 33
0.0
 40
0.0
 40
0.0
 40
0.0
 40
0.0
 40
0.0500040567
 40
0.1047106595
 40
0.1636221469
 40
0.2262044324
 40
0.291866697
 40
0.3598982086
 40
0.4295409797
 40
0.4999957317
 40
0.5704507688
 40
0.6400935435
 40
0.7081244384
 40
0.7737860519
 40
0.8363697809
 40
0.8952848943
 40
0.9499946754
 40
1.0
 40
1.0
 40
1.0
 40
1.0
 10
10.1940144789
 20
4.1705550231
 30
0.0
 10
10.1926795468
 20
4.1684577885
 30
0.0
 10
10.1900680078
 20
4.1639480514
 30
0.0
 10
10.186445506
 20
4.1566598494
 30
0.0
 10
10.1829686148
 20
4.1486152841
 30
0.0
 10
10.1796648896
 20
4.1399138537
 30
0.0
 10
10.1765623585
 20
4.1306595829
 30
0.0
 10
10.1736877427
 20
4.120965638
 30
0.0
 10
10.1710704909
 20
4.1109527786
 30
0.0
 10
10.1687378017
 20
4.1007462917
 30
0.0
 10
10.1667174327
 20
4.0904734182
 30
0.0
 10
10.1650357825
 20
4.0802617058
 30
0.0
 10
10.1637189412
 20
4.070236705
 30
0.0
 10
10.1627891457
 20
4.0605205907
 30
0.0
 10
10.162267989
 20
4.0512274762
 30
0.0
 10
10.1621722395
 20
4.0424638102
 30
0.0
 10
10.1625171953
 20
4.034331902
 30
0.0
 10
10.1630686586
 20
4.0291496184
 30
0.0
 10
10.1634351669
 20
4.0266906711
 30
0.0
 11
10.1940144789
 21
4.1705550231
 31
0.0
 11
10.1902521796
 21
4.1641153776
 31
0.0
 11
10.1866019982
 21
4.1568178323
 31
0.0
 11
10.1831004759
 21
4.1487589637
 31
0.0
 11
10.1797756122
 21
4.1400370066
 31
0.0
 11
10.1766536573
 21
4.1307543562
 31
0.0
 11
10.1737630353
 21
4.1210278464
 31
0.0
 11
10.1711325011
 21
4.110979176
 31
0.0
 11
10.1687900588
 21
4.1007351985
 31
0.0
 11
10.1667633425
 21
4.0904240673
 31
0.0
 11
10.1650792538
 21
4.0801742213
 31
0.0
 11
10.1637637994
 21
4.0701129887
 31
0.0
 11
10.1628402103
 21
4.0603631538
 31
0.0
 11
10.1623300211
 21
4.0510426934
 31
0.0
 11
10.1622509528
 21
4.0422558126
 31
0.0
 11
10.1626173858
 21
4.0341040365
 31
0.0
 11
10.1634351669
 21
4.0266906711
 31
0.0
  0
SPLINE
  5
2ED
100
AcDbEntity
  8
0
100
AcDbSpline
 62
6
  6
CONTINUOUS
 70
0
 71
3
 72
23
 73
19
 74
17
 42
0.0000001
 43
0.0000001
 44
0.0000000001
 12
-0.0968213006
 22
-0.113453065
 32
0.0
 13
0.0012431948
 23
-0.1491456224
 33
0.0
 40
0.0
 40
0.0
 40
0.0
 40
0.0
 40
0.0500040567
 40
0.1047106595
 40
0.1636221469
 40
0.2262044324
 40
0.291866697
 40
0.3598982086
 40
0.4295409797
 40
0.4999957317
 40
0.5704507688
 40
0.6400935435
 40
0.7081244384
 40
0.7737860519
 40
0.8363697809
 40
0.8952848943
 40
0.9499946754
 40
1.0
 40
1.0
 40
1.0
 40
1.0
 10
10.1634351669
 20
4.0266906711
 30
0.0
 10
10.1618213476
 20
4.0247996333
 30
0.0
 10
10.1586075898
 20
4.0206972406
 30
0.0
 10
10.1540060203
 20
4.0139841217
 30
0.0
 10
10.1494433789
 20
4.0065017353
 30
0.0
 10
10.1449608003
 20
3.9983447763
 30
0.0
 10
10.1406005172
 20
3.9896123563
 30
0.0
 10
10.1364047406
 20
3.9804128214
 30
0.0
 10
10.132419439
 20
3.9708616576
 30
0.0
 10
10.1286889829
 20
3.961079147
 30
0.0
 10
10.1252585684
 20
3.9511874295
 30
0.0
 10
10.1221720882
 20
3.9413091372
 30
0.0
 10
10.1194728518
 20
3.9315649679
 30
0.0
 10
10.1171998833
 20
3.9220728127
 30
0.0
 10
10.1153904469
 20
3.9129426692
 30
0.0
 10
10.1140759627
 20
3.9042776162
 30
0.0
 10
10.1132858185
 20
3.8961768387
 30
0.0
 10
10.1131106805
 20
3.8909682399
 30
0.0
 10
10.1131314026
 20
3.8884822148
 30
0.0
 11
10.1634351669
 21
4.0266906711
 31
0.0
 11
10.1588132566
 21
4.0208373067
 31
0.0
 11
10.1541829765
 21
4.0141187876
 31
0.0
 11
10.1495939531
 21
4.0066256651
 31
0.0
 11
10.1450875849
 21
3.998451321
 31
0.0
 11
10.1407041174
 21
3.9896935009
 31
0.0
 11
10.1364879582
 21
3.9804639457
 31
0.0
 11
10.1324845196
 21
3.9708791678
 31
0.0
 11
10.1287391876
 21
3.961060889
 31
0.0
 11
10.1252971631
 21
3.9511321695
 31
0.0
 11
10.122202961
 21
3.941216454
 31
0.0
 11
10.1195000555
 21
3.9314362126
 31
0.0
 11
10.1172285399
 21
3.9219098011
 31
0.0
 11
10.1154261585
 21
3.9127510514
 31
0.0
 11
10.1141249622
 21
3.9040606881
 31
0.0
 11
10.1133533212
 21
3.8959372469
 31
0.0
 11
10.1131314026
 21
3.8884822148
 31
0.0
  0
SPLINE
  5
2EE
100
AcDbEntity
  8
0
100
AcDbSpline
 62
6
  6
CONTINUOUS
 70
0
 71
3
 72
23
 73
19
 74
17
 42
0.0000001
 43
0.0000001
 44
0.0000000001
 12
-0.1116686573
 22
-0.098874027
 32
0.0
 13
-0.0195259626
 23
-0.1478671668
 33
0.0
 40
0.0
 40
0.0
 40
0.0
 40
0.0
 40
0.0500040567
 40
0.1047106595
 40
0.1636221469
 40
0.2262044324
 40
0.291866697
 40
0.3598982086
 40
0.4295409797
 40
0.4999957317
 40
0.5704507688
 40
0.6400935435
 40
0.7081244384
 40
0.7737860519
 40
0.8363697809
 40
0.8952848943
 40
0.9499946754
 40
1.0
 40
1.0
 40
1.0
 40
1.0
 10
10.1131314026
 20
3.8884822148
 30
0.0
 10
10.1112701073
 20
3.8868341807
 30
0.0
 10
10.1075166829
 20
3.8832189808
 30
0.0
 10
10.10202561
 20
3.8772116082
 30
0.0
 10
10.096466025
 20
3.8704370369
 30
0.0
 10
10.0908918412
 20
3.8629833152
 30
0.0
 10
10.0853586742
 20
3.8549427126
 30
0.0
 10
10.0799234028
 20
3.8464166462
 30
0.0
 10
10.0746476208
 20
3.8375130804
 30
0.0
 10
10.0695920069
 20
3.8283449517
 30
0.0
 10
10.0648183159
 20
3.8190269211
 30
0.0
 10
10.0603870806
 20
3.8096743187
 30
0.0
 10
10.0563579867
 20
3.8004006401
 30
0.0
 10
10.0527860859
 20
3.7913171979
 30
0.0
 10
10.0497235884
 20
3.7825277333
 30
0.0
 10
10.0472159544
 20
3.7741299489
 30
0.0
 10
10.0453060895
 20
3.7662179744
 30
0.0
 10
10.0444077591
 20
3.7610844398
 30
0.0
 10
10.0440822917
 20
3.7586197245
 30
0.0
 11
10.1131314026
 21
3.8884822148
 31
0.0
 11
10.1077398416
 21
3.8833290605
 31
0.0
 11
10.1022195859
 21
3.877320336
 31
0.0
 11
10.0966323815
 21
3.8705388047
 31
0.0
 11
10.0910322201
 21
3.863071178
 31
0.0
 11
10.0854725593
 21
3.8550086492
 31
0.0
 11
10.0800129256
 21
3.8464556913
 31
0.0
 11
10.0747145049
 21
3.8375213628
 31
0.0
 11
10.0696391819
 21
3.8283198842
 31
0.0
 11
10.0648488443
 21
3.8189668275
 31
0.0
 11
10.0604047539
 21
3.8095782409
 31
0.0
 11
10.0563670064
 21
3.8002693518
 31
0.0
 11
10.0527917768
 21
3.7911517846
 31
0.0
 11
10.0497322845
 21
3.7823330102
 31
0.0
 11
10.0472342865
 21
3.7739083125
 31
0.0
 11
10.0453395906
 21
3.7659713197
 31
0.0
 11
10.0440822917
 21
3.7586197245
 31
0.0
  0
SPLINE
  5
2EF
100
AcDbEntity
  8
0
100
AcDbSpline
 62
6
  6
CONTINUOUS
 70
0
 71
3
 72
23
 73
19
 74
17
 42
0.0000001
 43
0.0000001
 44
0.0000000001
 12
-0.1243425152
 22
-0.0823705216
 32
0.0
 13
-0.039915071
 23
-0.1437106503
 33
0.0
 40
0.0
 40
0.0
 40
0.0
 40
0.0
 40
0.0500024274
 40
0.104707865
 40
0.1636227279
 40
0.2262092679
 40
0.2918731541
 40
0.3599040864
 40
0.4295448572
 40
0.4999977743
 40
0.5704521258
 40
0.6400950671
 40
0.7081265767
 40
0.7737902091
 40
0.8363768832
 40
0.8952920911
 40
0.9499976098
 40
1.0
 40
1.0
 40
1.0
 40
1.0
 10
10.0440822917
 20
3.7586197245
 30
0.0
 10
10.0420098159
 20
3.7572468159
 30
0.0
 10
10.0377898566
 20
3.7541893078
 30
0.0
 10
10.0315161487
 20
3.7490045688
 30
0.0
 10
10.0250676381
 20
3.7430694083
 30
0.0
 10
10.0185099799
 20
3.7364637157
 30
0.0
 10
10.0119114715
 20
3.7292712134
 30
0.0
 10
10.0053425692
 20
3.7215845665
 30
0.0
 10
9.9988791374
 20
3.7135020626
 30
0.0
 10
9.9925969168
 20
3.7051269314
 30
0.0
 10
9.9865729441
 20
3.6965640389
 30
0.0
 10
9.9808831998
 20
3.6879191599
 30
0.0
 10
9.9756025916
 20
3.6792963583
 30
0.0
 10
9.9708011625
 20
3.6707981745
 30
0.0
 10
9.9665452009
 20
3.6625201886
 30
0.0
 10
9.962893208
 20
3.6545532033
 30
0.0
 10
9.9599009019
 20
3.6469843625
 30
0.0
 10
9.9582970796
 20
3.642026118
 30
0.0
 10
9.9576317966
 20
3.639630826
 30
0.0
 11
10.0440822917
 21
3.7586197245
 31
0.0
 11
10.0380261925
 21
3.7542672572
 31
0.0
 11
10.0317235442
 21
3.7490853864
 31
0.0
 11
10.0252465593
 21
3.7431470751
 31
0.0
 11
10.0186611433
 21
3.7365310789
 31
0.0
 11
10.012033355
 21
3.729320575
 31
0.0
 11
10.0054366028
 21
3.7216107239
 31
0.0
 11
9.9989465284
 21
3.7135009624
 31
0.0
 11
9.9926401766
 21
3.7050955895
 31
0.0
 11
9.9865948335
 21
3.6965003181
 31
0.0
 11
9.9808873409
 21
3.6878215767
 31
0.0
 11
9.975593292
 21
3.6791651492
 31
0.0
 11
9.9707838169
 21
3.6706336106
 31
0.0
 11
9.9665266281
 21
3.6623260341
 31
0.0
 11
9.9628804305
 21
3.6543309718
 31
0.0
 11
9.9598997983
 21
3.6467355002
 31
0.0
 11
9.9576317966
 21
3.639630826
 31
0.0
  0
SPLINE
  5
2F0
100
AcDbEntity
  8
0
100
AcDbSpline
 62
6
  6
CONTINUOUS
 70
0
 71
3
 72
23
 73
19
 74
17
 42
0.0000001
 43
0.0000001
 44
0.0000000001
 12
-0.1345961782
 22
-0.0642637614
 32
0.0
 13
-0.0595272748
 23
-0.1367569588
 33
0.0
 40
0.0
 40
0.0
 40
0.0
 40
0.0
 40
0.0500040567
 40
0.1047106595
 40
0.1636221469
 40
0.2262044324
 40
0.291866697
 40
0.3598982086
 40
0.4295409797
 40
0.4999957317
 40
0.5704507688
 40
0.6400935435
 40
0.7081244384
 40
0.7737860519
 40
0.8363697809
 40
0.8952848943
 40
0.9499946754
 40
1.0
 40
1.0
 40
1.0
 40
1.0
 10
9.9576317966
 20
3.639630826
 30
0.0
 10
9.9553883449
 20
3.6385596764
 30
0.0
 10
9.9507838377
 20
3.6361191072
 30
0.0
 10
9.9438496233
 20
3.6318579949
 30
0.0
 10
9.9366380822
 20
3.6268782882
 30
0.0
 10
9.9292253088
 20
3.6212497644
 30
0.0
 10
9.9216901968
 20
3.6150457886
 30
0.0
 10
9.9141153762
 20
3.6083481714
 30
0.0
 10
9.9065898137
 20
3.6012437172
 30
0.0
 10
9.899202967
 20
3.5938242624
 30
0.0
 10
9.8920458034
 20
3.586183004
 30
0.0
 10
9.8852083
 20
3.5784141196
 30
0.0
 10
9.8787791142
 20
3.5706102563
 30
0.0
 10
9.8728418467
 20
3.5628632406
 30
0.0
 10
9.8674752804
 20
3.5552584036
 30
0.0
 10
9.8627500448
 20
3.5478771327
 30
0.0
 10
9.8587333291
 20
3.5407980848
 30
0.0
 10
9.8564548046
 20
3.5361110281
 30
0.0
 10
9.8554625777
 20
3.5338315027
 30
0.0
 11
9.9576317966
 21
3.639630826
 31
0.0
 11
9.9510286936
 21
3.6361634117
 31
0.0
 11
9.9440660544
 21
3.6319090438
 31
0.0
 11
9.9368260454
 21
3.6269302597
 31
0.0
 11
9.9293844679
 21
3.6212955299
 31
0.0
 11
9.9218178448
 21
3.6150777799
 31
0.0
 11
9.9142121934
 21
3.6083610281
 31
0.0
 11
9.9066563898
 21
3.601233243
 31
0.0
 11
9.899241405
 21
3.5937871628
 31
0.0
 11
9.8920585851
 21
3.5861168236
 31
0.0
 11
9.8851988061
 21
3.5783168922
 31
0.0
 11
9.8787515964
 21
3.5704815677
 31
0.0
 11
9.8728017231
 21
3.5627026664
 31
0.0
 11
9.8674299666
 21
3.5550688268
 31
0.0
 11
9.8627065755
 21
3.5476590291
 31
0.0
 11
9.8586975451
 21
3.540551751
 31
0.0
 11
9.8554625777
 21
3.5338315027
 31
0.0
  0
SPLINE
  5
2F1
100
AcDbEntity
  8
0
100
AcDbSpline
 62
6
  6
CONTINUOUS
 70
0
 71
3
 72
23
 73
19
 74
17
 42
0.0000001
 43
0.0000001
 44
0.0000000001
 12
0.0711173043
 22
0.1311041237
 32
0.0
 13
-0.0322251466
 23
0.145627958
 33
0.0
 40
0.0
 40
0.0
 40
0.0
 40
0.0
 40
0.050004055
 40
0.1047107207
 40
0.1636223768
 40
0.2262047242
 40
0.2918668256
 40
0.3598981485
 40
0.4295408581
 40
0.4999956687
 40
0.5704508369
 40
0.6400937393
 40
0.7081246801
 40
0.7737862677
 40
0.8363699008
 40
0.8952849094
 40
0.9499946664
 40
1.0
 40
1.0
 40
1.0
 40
1.0
 10
1.8483874595
 20
4.3908142984
 30
0.0
 10
1.849572844
 20
4.3929995443
 30
0.0
 10
1.8518634397
 20
4.3976804703
 30
0.0
 10
1.8549687218
 20
4.4052036224
 30
0.0
 10
1.8578759853
 20
4.4134711418
 30
0.0
 10
1.8605646829
 20
4.4223818353
 30
0.0
 10
1.8630141078
 20
4.4318299708
 30
0.0
 10
1.865205499
 20
4.4417008052
 30
0.0
 10
1.867117912
 20
4.4518718346
 30
0.0
 10
1.8687329525
 20
4.4622161853
 30
0.0
 10
1.8700318021
 20
4.4726049842
 30
0.0
 10
1.8709970241
 20
4.4829091425
 30
0.0
 10
1.8716113479
 20
4.4930015885
 30
0.0
 10
1.871861115
 20
4.5027588903
 30
0.0
 10
1.8717327476
 20
4.51206571
 30
0.0
 10
1.8712169407
 20
4.5208146962
 30
0.0
 10
1.8703055723
 20
4.5289027265
 30
0.0
 10
1.869393955
 20
4.5340339175
 30
0.0
 10
1.8688568119
 20
4.536461309
 30
0.0
 11
1.8483874595
 21
4.3908142984
 31
0.0
 11
1.8516913871
 21
4.3975007017
 31
0.0
 11
1.8548236288
 21
4.4050351032
 31
0.0
 11
1.85775447
 21
4.413318619
 31
0.0
 11
1.8604628238
 21
4.4222512696
 31
0.0
 11
1.8629296425
 21
4.431729061
 31
0.0
 11
1.8651347285
 21
4.4416334899
 31
0.0
 11
1.8670578934
 21
4.45184117
 31
0.0
 11
1.8686800481
 21
4.4622236027
 31
0.0
 11
1.8699825616
 21
4.4726510125
 31
0.0
 11
1.870947556
 21
4.4829933855
 31
0.0
 11
1.8715579691
 21
4.4931218778
 31
0.0
 11
1.8717991929
 21
4.5029123851
 31
0.0
 11
1.8716579766
 21
4.512245716
 31
0.0
 11
1.8711239106
 21
4.5210166923
 31
0.0
 11
1.8701897311
 21
4.5291230464
 31
0.0
 11
1.8688568119
 21
4.536461309
 31
0.0
  0
SPLINE
  5
2F2
100
AcDbEntity
  8
0
100
AcDbSpline
 62
6
  6
CONTINUOUS
 70
0
 71
3
 72
23
 73
19
 74
17
 42
0.0000001
 43
0.0000001
 44
0.0000000001
 12
0.088671363
 22
0.1199306116
 32
0.0
 13
-0.0116440392
 23
0.1486955903
 33
0.0
 40
0.0
 40
0.0
 40
0.0
 40
0.0
 40
0.0500040567
 40
0.1047106595
 40
0.1636221469
 40
0.2262044324
 40
0.291866697
 40
0.3598982086
 40
0.4295409797
 40
0.4999957317
 40
0.5704507688
 40
0.6400935435
 40
0.7081244384
 40
0.7737860519
 40
0.8363697809
 40
0.8952848943
 40
0.9499946754
 40
1.0
 40
1.0
 40
1.0
 40
1.0
 10
1.8688568119
 20
4.536461309
 30
0.0
 10
1.8703347879
 20
4.5384603147
 30
0.0
 10
1.8732545487
 20
4.5427768946
 30
0.0
 10
1.8773766255
 20
4.5497946499
 30
0.0
 10
1.8814062076
 20
4.5575770834
 30
0.0
 10
1.8853088662
 20
4.5660268613
 30
0.0
 10
1.889049385
 20
4.5750421676
 30
0.0
 10
1.8925932138
 20
4.5845119754
 30
0.0
 10
1.8959025519
 20
4.5943178737
 30
0.0
 10
1.8989415273
 20
4.604336778
 30
0.0
 10
1.9016735742
 20
4.6144436935
 30
0.0
 10
1.9040634611
 20
4.6245132247
 30
0.0
 10
1.9060764033
 20
4.6344219469
 30
0.0
 10
1.9076816958
 20
4.644049534
 30
0.0
 10
1.9088498379
 20
4.6532836568
 30
0.0
 10
1.9095566765
 20
4.6620192959
 30
0.0
 10
1.9097798142
 20
4.670155458
 30
0.0
 10
1.9095911921
 20
4.675363586
 30
0.0
 10
1.9093971042
 20
4.6778421097
 30
0.0
 11
1.8688568119
 21
4.536461309
 31
0.0
 11
1.8730591534
 21
4.5426228232
 31
0.0
 11
1.8772094942
 21
4.5496479682
 31
0.0
 11
1.8812646451
 21
4.557442952
 31
0.0
 11
1.8851898227
 21
4.5659117321
 31
0.0
 11
1.8889516976
 21
4.5749539938
 31
0.0
 11
1.8925137652
 21
4.5844551707
 31
0.0
 11
1.8958388513
 21
4.5942958663
 31
0.0
 11
1.8988901714
 21
4.6043514895
 31
0.0
 11
1.9016312188
 21
4.6144961266
 31
0.0
 11
1.9040261982
 21
4.6246035285
 31
0.0
 11
1.9060402844
 21
4.634548491
 31
0.0
 11
1.9076417378
 21
4.6442101495
 31
0.0
 11
1.9088008466
 21
4.6534723167
 31
0.0
 11
1.9094926642
 21
4.6622322775
 31
0.0
 11
1.9096957629
 21
4.6703897574
 31
0.0
 11
1.9093971042
 21
4.6778421097
 31
0.0
  0
SPLINE
  5
2F3
100
AcDbEntity
  8
0
100
AcDbSpline
 62
6
  6
CONTINUOUS
 70
0
 71
3
 72
23
 73
19
 74
17
 42
0.0000001
 43
0.0000001
 44
0.0000000001
 12
0.1044995346
 22
0.1064227866
 32
0.0
 13
0.0091637062
 23
0.1488690321
 33
0.0
 40
0.0
 40
0.0
 40
0.0
 40
0.0
 40
0.0500053339
 40
0.104715052
 40
0.1636299605
 40
0.2262135712
 40
0.2918753014
 40
0.359906388
 40
0.429549308
 40
0.5000044048
 40
0.5704591162
 40
0.6401017198
 40
0.7081329564
 40
0.7737950394
 40
0.8363774998
 40
0.8952892937
 40
0.9499959713
 40
1.0
 40
1.0
 40
1.0
 40
1.0
 10
1.9093971042
 20
4.6778421097
 30
0.0
 10
1.9111389489
 20
4.679616012
 30
0.0
 10
1.9146311597
 20
4.6834844239
 30
0.0
 10
1.919690043
 20
4.6898605053
 30
0.0
 10
1.9247637251
 20
4.6970067228
 30
0.0
 10
1.9298044504
 20
4.7048313301
 30
0.0
 10
1.9347632239
 20
4.7132383597
 30
0.0
 10
1.9395904378
 20
4.722122794
 30
0.0
 10
1.9442322571
 20
4.7313727097
 30
0.0
 10
1.9486359904
 20
4.7408711898
 30
0.0
 10
1.9527480235
 20
4.7504995253
 30
0.0
 10
1.9565160247
 20
4.7601384583
 30
0.0
 10
1.9598883633
 20
4.7696706505
 30
0.0
 10
1.9628178831
 20
4.7789811214
 30
0.0
 10
1.9652596885
 20
4.7879626221
 30
0.0
 10
1.9671753121
 20
4.7965145034
 30
0.0
 10
1.9685285484
 20
4.804540053
 30
0.0
 10
1.9690665248
 20
4.8097235335
 30
0.0
 10
1.9692192655
 20
4.812204884
 30
0.0
 11
1.9093971042
 21
4.6778421097
 31
0.0
 11
1.9144161704
 21
4.6833589699
 31
0.0
 11
1.9195041094
 21
4.6897385036
 31
0.0
 11
1.9246049247
 21
4.6968936886
 31
0.0
 11
1.9296705931
 21
4.7047339659
 31
0.0
 11
1.9346542126
 21
4.7131646347
 31
0.0
 11
1.9395038472
 21
4.7220775717
 31
0.0
 11
1.9441661092
 21
4.731359773
 31
0.0
 11
1.9485871951
 21
4.7408929358
 31
0.0
 11
1.9527133749
 21
4.7505573356
 31
0.0
 11
1.9564916797
 21
4.7602330465
 31
0.0
 11
1.9598702056
 21
4.7698009835
 31
0.0
 11
1.9628006889
 21
4.7791458183
 31
0.0
 11
1.9652374626
 21
4.7881563608
 31
0.0
 11
1.9671415687
 21
4.7967343095
 31
0.0
 11
1.9684779022
 21
4.8047836813
 31
0.0
 11
1.9692192655
 21
4.812204884
 31
0.0
  0
SPLINE
  5
2F4
100
AcDbEntity
  8
0
100
AcDbSpline
 62
6
  6
CONTINUOUS
 70
0
 71
3
 72
23
 73
19
 74
17
 42
0.0000001
 43
0.0000001
 44
0.0000000001
 12
0.1182937415
 22
0.0908435631
 32
0.0
 13
0.0297930905
 23
0.1461449075
 33
0.0
 40
0.0
 40
0.0
 40
0.0
 40
0.0
 40
0.050005344
 40
0.1047150878
 40
0.1636300271
 40
0.2262136584
 40
0.2918754057
 40
0.3599065146
 40
0.4295494596
 40
0.5000045912
 40
0.5704593438
 40
0.6401019894
 40
0.7081332457
 40
0.7737953234
 40
0.8363777183
 40
0.8952893976
 40
0.9499959967
 40
1.0
 40
1.0
 40
1.0
 40
1.0
 10
1.9692192655
 20
4.812204884
 30
0.0
 10
1.9711910386
 20
4.8137191052
 30
0.0
 10
1.9751876435
 20
4.8170638496
 30
0.0
 10
1.9810846755
 20
4.8226738212
 30
0.0
 10
1.9871035446
 20
4.829044375
 30
0.0
 10
1.9931841906
 20
4.8360913033
 30
0.0
 10
1.9992647393
 20
4.8437263911
 30
0.0
 10
2.0052814509
 20
4.8518525473
 30
0.0
 10
2.0111654377
 20
4.8603664308
 30
0.0
 10
2.0168482492
 20
4.8691595958
 30
0.0
 10
2.0222602716
 20
4.8781219502
 30
0.0
 10
2.0273330849
 20
4.8871426782
 30
0.0
 10
2.0319992286
 20
4.8961127682
 30
0.0
 10
2.036196003
 20
4.9049249184
 30
0.0
 10
2.0398640234
 20
4.9134791701
 30
0.0
 10
2.0429511907
 20
4.92168121
 30
0.0
 10
2.0454081945
 20
4.9294403112
 30
0.0
 10
2.0466623344
 20
4.9344984698
 30
0.0
 10
2.0471589256
 20
4.9369344132
 30
0.0
 11
1.9692192655
 21
4.812204884
 31
0.0
 11
1.974957286
 21
4.8169695366
 31
0.0
 11
1.9808835718
 21
4.8225788836
 31
0.0
 11
1.9869305586
 21
4.828954542
 31
0.0
 11
1.9930380856
 21
4.8360135162
 31
0.0
 11
1.9991465283
 21
4.8436685549
 31
0.0
 11
2.0051894091
 21
4.8518198161
 31
0.0
 11
2.0110981328
 21
4.8603628256
 31
0.0
 11
2.0168029549
 21
4.8691879209
 31
0.0
 11
2.0222340058
 21
4.87818402
 31
0.0
 11
2.0273221412
 21
4.8872397351
 31
0.0
 11
2.0319993869
 21
4.896244361
 31
0.0
 11
2.0362018987
 21
4.9050904081
 31
0.0
 11
2.039868978
 21
4.9136741188
 31
0.0
 11
2.0429483665
 21
4.9219035715
 31
0.0
 11
2.045391947
 21
4.9296886146
 31
0.0
 11
2.0471589256
 21
4.9369344132
 31
0.0
  0
SPLINE
  5
2F5
100
AcDbEntity
  8
0
100
AcDbSpline
 62
6
  6
CONTINUOUS
 70
0
 71
3
 72
23
 73
19
 74
17
 42
0.0000001
 43
0.0000001
 44
0.0000000001
 12
0.1297854886
 22
0.0734961691
 32
0.0
 13
0.0498425836
 23
0.1405762313
 33
0.0
 40
0.0
 40
0.0
 40
0.0
 40
0.0
 40
0.050010512
 40
0.1047285137
 40
0.1636448166
 40
0.2262241723
 40
0.2918826093
 40
0.3599130352
 40
0.4295562589
 40
0.5000117509
 40
0.570466038
 40
0.6401076791
 40
0.7081376575
 40
0.7737985597
 40
0.8363799526
 40
0.8952905426
 40
0.9499963418
 40
1.0
 40
1.0
 40
1.0
 40
1.0
 10
2.0471589256
 20
4.9369344132
 30
0.0
 10
2.0493224719
 20
4.9381596069
 30
0.0
 10
2.053746147
 20
4.9409160987
 30
0.0
 10
2.0603671436
 20
4.9456511826
 30
0.0
 10
2.0672143195
 20
4.9511221648
 30
0.0
 10
2.0742161576
 20
4.9572542097
 30
0.0
 10
2.0812997903
 20
4.9639685005
 30
0.0
 10
2.0883887513
 20
4.9711780862
 30
0.0
 10
2.0954003591
 20
4.9787902352
 30
0.0
 10
2.1022516132
 20
4.9867069634
 30
0.0
 10
2.1088582245
 20
4.994828866
 30
0.0
 10
2.1151370088
 20
5.003055712
 30
0.0
 10
2.1210060188
 20
5.0112889767
 30
0.0
 10
2.1263882445
 20
5.0194311624
 30
0.0
 10
2.1312109913
 20
5.0273915439
 30
0.0
 10
2.1354095424
 20
5.0350839881
 30
0.0
 10
2.1389224431
 20
5.0424255298
 30
0.0
 10
2.1408683072
 20
5.0472598705
 30
0.0
 10
2.1416990777
 20
5.0496029791
 30
0.0
 11
2.0471589256
 21
4.9369344132
 31
0.0
 11
2.053504799
 21
4.9408546401
 31
0.0
 11
2.060155064
 21
4.9455853597
 31
0.0
 11
2.0670306974
 21
4.9510574982
 31
0.0
 11
2.0740606347
 21
4.9571974552
 31
0.0
 11
2.0811745941
 21
4.9639275807
 31
0.0
 11
2.0882930157
 21
4.9711584496
 31
0.0
 11
2.0953332027
 21
4.9787960308
 31
0.0
 11
2.102210729
 21
4.9867413471
 31
0.0
 11
2.1088408704
 21
4.9948940072
 31
0.0
 11
2.1151396882
 21
5.0031533576
 31
0.0
 11
2.1210244862
 21
5.0114192629
 31
0.0
 11
2.1264171122
 21
5.0195942121
 31
0.0
 11
2.1312430335
 21
5.0275839083
 31
0.0
 11
2.1354376876
 21
5.0353045649
 31
0.0
 11
2.1389409004
 21
5.0426736577
 31
0.0
 11
2.1416990777
 21
5.0496029791
 31
0.0
  0
SPLINE
  5
2F6
100
AcDbEntity
  8
0
100
AcDbSpline
 62
6
  6
CONTINUOUS
 70
0
 71
3
 72
23
 73
19
 74
17
 42
0.0000001
 43
0.0000001
 44
0.0000000001
 12
0.1387511221
 22
0.0547182634
 32
0.0
 13
0.0689219526
 23
0.1322714129
 33
0.0
 40
0.0
 40
0.0
 40
0.0
 40
0.0
 40
0.0500053339
 40
0.104715052
 40
0.1636299605
 40
0.2262135712
 40
0.2918753014
 40
0.359906388
 40
0.429549308
 40
0.5000044048
 40
0.5704591162
 40
0.6401017198
 40
0.7081329564
 40
0.7737950394
 40
0.8363774998
 40
0.8952892937
 40
0.9499959713
 40
1.0
 40
1.0
 40
1.0
 40
1.0
 10
2.1416990777
 20
5.0496029791
 30
0.0
 10
2.1440118431
 20
5.0505150475
 30
0.0
 10
2.1487755613
 20
5.0526286075
 30
0.0
 10
2.1559904671
 20
5.0563958144
 30
0.0
 10
2.1635321349
 20
5.0608605566
 30
0.0
 10
2.1713196211
 20
5.0659584433
 30
0.0
 10
2.179269133
 20
5.0716217322
 30
0.0
 10
2.1872926374
 20
5.077774662
 30
0.0
 10
2.19529543
 20
5.0843368824
 30
0.0
 10
2.2031818205
 20
5.0912230161
 30
0.0
 10
2.2108545465
 20
5.0983464237
 30
0.0
 10
2.2182172941
 20
5.105619443
 30
0.0
 10
2.2251751706
 20
5.1129558802
 30
0.0
 10
2.2316383298
 20
5.1202698756
 30
0.0
 10
2.2375221354
 20
5.127481713
 30
0.0
 10
2.2427505082
 20
5.134515091
 30
0.0
 10
2.2472510361
 20
5.1412963846
 30
0.0
 10
2.2498508135
 20
5.145812915
 30
0.0
 10
2.2509996052
 20
5.1480176162
 30
0.0
 11
2.1416990777
 21
5.0496029791
 31
0.0
 11
2.1485281321
 21
5.0526014435
 31
0.0
 11
2.1557709858
 21
5.0563599864
 31
0.0
 11
2.1633410883
 21
5.0608218846
 31
0.0
 11
2.1711577348
 21
5.0659239414
 31
0.0
 11
2.1791395596
 21
5.0715987199
 31
0.0
 11
2.1871951393
 21
5.0777685689
 31
0.0
 11
2.1952297391
 21
5.084351969
 31
0.0
 11
2.2031460886
 21
5.0912627289
 31
0.0
 11
2.2108464069
 21
5.0984133289
 31
0.0
 11
2.2182335263
 21
5.1057157556
 31
0.0
 11
2.2252115939
 21
5.1130823308
 31
0.0
 11
2.2316896103
 21
5.1204273272
 31
0.0
 11
2.2375806317
 21
5.1276677422
 31
0.0
 11
2.2428090853
 21
5.1347296186
 31
0.0
 11
2.2473038611
 21
5.1415395498
 31
0.0
 11
2.2509996052
 21
5.1480176162
 31
0.0
  0
SPLINE
  5
2F7
100
AcDbEntity
  8
0
100
AcDbSpline
 62
6
  6
CONTINUOUS
 70
0
 71
3
 72
23
 73
19
 74
17
 42
0.0000001
 43
0.0000001
 44
0.0000000001
 12
0.1450161161
 22
0.0348753251
 32
0.0
 13
0.0866598316
 23
0.1213920748
 33
0.0
 40
0.0
 40
0.0
 40
0.0
 40
0.0
 40
0.0500053339
 40
0.104715052
 40
0.1636299605
 40
0.2262135712
 40
0.2918753014
 40
0.359906388
 40
0.429549308
 40
0.5000044048
 40
0.5704591162
 40
0.6401017198
 40
0.7081329564
 40
0.7737950394
 40
0.8363774998
 40
0.8952892937
 40
0.9499959713
 40
1.0
 40
1.0
 40
1.0
 40
1.0
 10
2.2509996052
 20
5.1480176162
 30
0.0
 10
2.2534167983
 20
5.1485989336
 30
0.0
 10
2.2584283071
 20
5.1500289431
 30
0.0
 10
2.2660972918
 20
5.1527553671
 30
0.0
 10
2.2741869365
 20
5.1561270614
 30
0.0
 10
2.2826081241
 20
5.1600915272
 30
0.0
 10
2.2912684495
 20
5.1645933431
 30
0.0
 10
2.300070192
 20
5.169569737
 30
0.0
 10
2.3089083865
 20
5.1749543209
 30
0.0
 10
2.3176763918
 20
5.1806758658
 30
0.0
 10
2.3262658341
 20
5.1866621118
 30
0.0
 10
2.3345691366
 20
5.1928396542
 30
0.0
 10
2.3424803342
 20
5.1991363444
 30
0.0
 10
2.3498985058
 20
5.2054796626
 30
0.0
 10
2.3567287444
 20
5.2118024474
 30
0.0
 10
2.362885092
 20
5.2180397282
 30
0.0
 10
2.3682855948
 20
5.2241286743
 30
0.0
 10
2.3714886508
 20
5.2282394311
 30
0.0
 10
2.3729330977
 20
5.2302627953
 30
0.0
 11
2.2509996052
 21
5.1480176162
 31
0.0
 11
2.2581795053
 21
5.150036479
 31
0.0
 11
2.2658749601
 21
5.1527504336
 31
0.0
 11
2.2739923671
 21
5.1561153543
 31
0.0
 11
2.2824430116
 21
5.1600798913
 31
0.0
 11
2.2911369344
 21
5.1645885879
 31
0.0
 11
2.2999727948
 21
5.1695772724
 31
0.0
 11
2.3088454346
 21
5.1749784031
 31
0.0
 11
2.3176465346
 21
5.180720165
 31
0.0
 11
2.3262670851
 21
5.1867294987
 31
0.0
 11
2.3345986149
 21
5.1929327704
 31
0.0
 11
2.3425340015
 21
5.1992564953
 31
0.0
 11
2.3499712003
 21
5.205628445
 31
0.0
 11
2.3568125617
 21
5.2119785251
 31
0.0
 11
2.3629729555
 21
5.2182440157
 31
0.0
 11
2.3683717478
 21
5.2243621212
 31
0.0
 11
2.3729330977
 21
5.2302627953
 31
0.0
  0
SPLINE
  5
2F8
100
AcDbEntity
  8
0
100
AcDbSpline
 62
6
  6
CONTINUOUS
 70
0
 71
3
 72
23
 73
19
 74
17
 42
0.0000001
 43
0.0000001
 44
0.0000000001
 12
0.1484585364
 22
0.0143535782
 32
0.0
 13
0.1027109755
 23
0.108149978
 33
0.0
 40
0.0
 40
0.0
 40
0.0
 40
0.0
 40
0.0500053339
 40
0.104715052
 40
0.1636299605
 40
0.2262135712
 40
0.2918753014
 40
0.359906388
 40
0.429549308
 40
0.5000044048
 40
0.5704591162
 40
0.6401017198
 40
0.7081329564
 40
0.7737950394
 40
0.8363774998
 40
0.8952892937
 40
0.9499959713
 40
1.0
 40
1.0
 40
1.0
 40
1.0
 10
2.3729330977
 20
5.2302627953
 30
0.0
 10
2.3754076706
 20
5.2305020472
 30
0.0
 10
2.3805694266
 20
5.2312206727
 30
0.0
 10
2.3885432221
 20
5.2328532469
 30
0.0
 10
2.3970233882
 20
5.2350662672
 30
0.0
 10
2.4059143684
 20
5.2378201483
 30
0.0
 10
2.4151169437
 20
5.2410728685
 30
0.0
 10
2.4245256084
 20
5.2447758667
 30
0.0
 10
2.4340271795
 20
5.2488780093
 30
0.0
 10
2.4435061403
 20
5.253323602
 30
0.0
 10
2.4528451151
 20
5.258056171
 30
0.0
 10
2.4619273582
 20
5.2630179975
 30
0.0
 10
2.4706378945
 20
5.2681523829
 30
0.0
 10
2.4788666922
 20
5.2734015584
 30
0.0
 10
2.486510421
 20
5.2787122249
 30
0.0
 10
2.4934749171
 20
5.2840320069
 30
0.0
 10
2.4996702801
 20
5.2893100911
 30
0.0
 10
2.503414271
 20
5.292935063
 30
0.0
 10
2.5051262585
 20
5.2947377078
 30
0.0
 11
2.3729330977
 21
5.2302627953
 31
0.0
 11
2.3803240949
 21
5.2312627618
 31
0.0
 11
2.3883223675
 21
5.232879304
 31
0.0
 11
2.396829083
 21
5.2350817529
 31
0.0
 11
2.4057492433
 21
5.2378316049
 31
0.0
 11
2.4149860467
 21
5.241086463
 31
0.0
 11
2.4244302078
 21
5.2447968838
 31
0.0
 11
2.4339681918
 21
5.2489106183
 31
0.0
 11
2.4434827389
 21
5.2533716254
 31
0.0
 11
2.4528557324
 21
5.258122728
 31
0.0
 11
2.4619695089
 21
5.263106105
 31
0.0
 11
2.4707077613
 21
5.2682638954
 31
0.0
 11
2.4789593857
 21
5.2735387758
 31
0.0
 11
2.4866179278
 21
5.2788749239
 31
0.0
 11
2.4935903569
 21
5.284222078
 31
0.0
 11
2.4997880842
 21
5.2895292759
 31
0.0
 11
2.5051262585
 21
5.2947377078
 31
0.0
  0
SPLINE
  5
2F9
100
AcDbEntity
  8
0
100
AcDbSpline
 62
6
  6
CONTINUOUS
 70
0
 71
3
 72
23
 73
19
 74
17
 42
0.0000001
 43
0.0000001
 44
0.0000000001
 12
0.1490113858
 22
-0.0064475449
 32
0.0
 13
0.1167629716
 23
0.0928028684
 33
0.0
 40
0.0
 40
0.0
 40
0.0
 40
0.0
 40
0.0500024699
 40
0.1047081604
 40
0.1636235254
 40
0.2262102482
 40
0.2918737419
 40
0.3599044223
 40
0.4295455404
 40
0.4999987273
 40
0.5704526277
 40
0.6400951171
 40
0.7081269033
 40
0.7737910339
 40
0.8363776568
 40
0.8952924494
 40
0.94999769
 40
1.0
 40
1.0
 40
1.0
 40
1.0
 10
2.5051262585
 20
5.2947377078
 30
0.0
 10
2.5076099043
 20
5.2946302434
 30
0.0
 10
2.5128210959
 20
5.2946233904
 30
0.0
 10
2.5209441849
 20
5.2951303431
 30
0.0
 10
2.5296497849
 20
5.2961416626
 30
0.0
 10
2.5388377845
 20
5.2976312888
 30
0.0
 10
2.5484037146
 20
5.2995716331
 30
0.0
 10
2.5582361495
 20
5.3019291628
 30
0.0
 10
2.5682159676
 20
5.3046689483
 30
0.0
 10
2.5782211779
 20
5.3077519755
 30
0.0
 10
2.5881277874
 20
5.3111386857
 30
0.0
 10
2.5978121878
 20
5.3147881881
 30
0.0
 10
2.6071526571
 20
5.3186603307
 30
0.0
 10
2.6160322361
 20
5.3227133082
 30
0.0
 10
2.6243410599
 20
5.3269087508
 30
0.0
 10
2.6319784251
 20
5.3312075773
 30
0.0
 10
2.6388480718
 20
5.3355720446
 30
0.0
 10
2.6430599586
 20
5.3386406369
 30
0.0
 10
2.645006098
 20
5.3401874228
 30
0.0
 11
2.5051262585
 21
5.2947377078
 31
0.0
 11
2.5125840682
 21
5.2946992427
 31
0.0
 11
2.5207288825
 21
5.2951868646
 31
0.0
 11
2.5294593989
 21
5.2961839974
 31
0.0
 11
2.5386759239
 21
5.2976656471
 31
0.0
 11
2.5482760876
 21
5.2996033401
 31
0.0
 11
2.5581446709
 21
5.3019632649
 31
0.0
 11
2.5681620979
 21
5.3047094496
 31
0.0
 11
2.5782046365
 21
5.30780277
 31
0.0
 11
2.5881475322
 21
5.3112031045
 31
0.0
 11
2.5978661618
 21
5.3148695553
 31
0.0
 11
2.6072372938
 21
5.3187610091
 31
0.0
 11
2.6161430214
 21
5.3228362606
 31
0.0
 11
2.6244702223
 21
5.3270549173
 31
0.0
 11
2.6321193815
 21
5.3313798513
 31
0.0
 11
2.6389952339
 21
5.3357727244
 31
0.0
 11
2.645006098
 21
5.3401874228
 31
0.0
  0
SPLINE
  5
2FA
100
AcDbEntity
  8
0
100
AcDbSpline
 62
6
  6
CONTINUOUS
 70
0
 71
3
 72
23
 73
19
 74
17
 42
0.0000001
 43
0.0000001
 44
0.0000000001
 12
0.1466638868
 22
-0.0271231734
 32
0.0
 13
0.1285423005
 23
0.0756494495
 33
0.0
 40
0.0
 40
0.0
 40
0.0
 40
0.0
 40
0.0500053339
 40
0.104715052
 40
0.1636299605
 40
0.2262135712
 40
0.2918753014
 40
0.359906388
 40
0.429549308
 40
0.5000044048
 40
0.5704591162
 40
0.6401017198
 40
0.7081329564
 40
0.7737950394
 40
0.8363774998
 40
0.8952892937
 40
0.9499959713
 40
1.0
 40
1.0
 40
1.0
 40
1.0
 10
2.645006098
 20
5.3401874228
 30
0.0
 10
2.6474507569
 20
5.3397353217
 30
0.0
 10
2.6526106352
 20
5.3390033362
 30
0.0
 10
2.6607255379
 20
5.3383747913
 30
0.0
 10
2.6694871877
 20
5.3381646323
 30
0.0
 10
2.678792819
 20
5.3383611465
 30
0.0
 10
2.6885354733
 20
5.3389512883
 30
0.0
 10
2.6986003469
 20
5.3399174592
 30
0.0
 10
2.708864547
 20
5.3412417038
 30
0.0
 10
2.7192016804
 20
5.3429023261
 30
0.0
 10
2.729483352
 20
5.344877393
 30
0.0
 10
2.7395814291
 20
5.3471436014
 30
0.0
 10
2.7493697624
 20
5.3496781402
 30
0.0
 10
2.7587266593
 20
5.3524558075
 30
0.0
 10
2.767538101
 20
5.3554538505
 30
0.0
 10
2.7756991351
 20
5.3586478779
 30
0.0
 10
2.7831093373
 20
5.3620138246
 30
0.0
 10
2.78770747
 20
5.3644663875
 30
0.0
 10
2.7898500143
 20
5.3657273132
 30
0.0
 11
2.645006098
 21
5.3401874228
 31
0.0
 11
2.6523864086
 21
5.3391114174
 31
0.0
 11
2.6605204212
 21
5.3384607147
 31
0.0
 11
2.6693046781
 21
5.3382330759
 31
0.0
 11
2.6786372484
 21
5.3384176739
 31
0.0
 11
2.6884133942
 21
5.3390004363
 31
0.0
 11
2.6985144351
 21
5.3399639581
 31
0.0
 11
2.7088168326
 21
5.3412893088
 31
0.0
 11
2.7191924225
 21
5.3429549395
 31
0.0
 11
2.7295119036
 21
5.3449384452
 31
0.0
 11
2.7396462327
 21
5.3472166774
 31
0.0
 11
2.7494676597
 21
5.349766075
 31
0.0
 11
2.7588535843
 21
5.3525621595
 31
0.0
 11
2.7676862891
 21
5.355580614
 31
0.0
 11
2.7758624936
 21
5.3587987665
 31
0.0
 11
2.7832829934
 21
5.3621920474
 31
0.0
 11
2.7898500143
 21
5.3657273132
 31
0.0
  0
SPLINE
  5
2FB
100
AcDbEntity
  8
0
100
AcDbSpline
 62
6
  6
CONTINUOUS
 70
0
 71
3
 72
23
 73
19
 74
17
 42
0.0000001
 43
0.0000001
 44
0.0000000001
 12
0.1414617478
 22
-0.0472708805
 32
0.0
 13
0.1378197041
 23
0.0570236037
 33
0.0
 40
0.0
 40
0.0
 40
0.0
 40
0.0
 40
0.0500053339
 40
0.104715052
 40
0.1636299605
 40
0.2262135712
 40
0.2918753014
 40
0.359906388
 40
0.429549308
 40
0.5000044048
 40
0.5704591162
 40
0.6401017198
 40
0.7081329564
 40
0.7737950394
 40
0.8363774998
 40
0.8952892937
 40
0.9499959713
 40
1.0
 40
1.0
 40
1.0
 40
1.0
 10
2.7898500143
 20
5.3657273132
 30
0.0
 10
2.7922079616
 20
5.3649393812
 30
0.0
 10
2.7972157517
 20
5.363496403
 30
0.0
 10
2.8051642042
 20
5.3617445989
 30
0.0
 10
2.8138113377
 20
5.3603170993
 30
0.0
 10
2.8230537567
 20
5.3592166074
 30
0.0
 10
2.8327837281
 20
5.3584450906
 30
0.0
 10
2.842885116
 20
5.3580010991
 30
0.0
 10
2.8532337249
 20
5.3578839557
 30
0.0
 10
2.8637013719
 20
5.358089766
 30
0.0
 10
2.8741578591
 20
5.3586146796
 30
0.0
 10
2.8844730577
 20
5.3594534527
 30
0.0
 10
2.8945188713
 20
5.3606010528
 30
0.0
 10
2.9041712841
 20
5.3620494597
 30
0.0
 10
2.9133142204
 20
5.3637920103
 30
0.0
 10
2.9218403545
 20
5.3658191572
 30
0.0
 10
2.9296468904
 20
5.3681210459
 30
0.0
 10
2.9345416052
 20
5.3699098043
 30
0.0
 10
2.9368387854
 20
5.3708602742
 30
0.0
 11
2.7898500143
 21
5.3657273132
 31
0.0
 11
2.7970087492
 21
5.3636346387
 31
0.0
 11
2.8049730418
 21
5.3618582329
 31
0.0
 11
2.8136401297
 21
5.3604102772
 31
0.0
 11
2.8229075672
 21
5.3592942359
 31
0.0
 11
2.8326696771
 21
5.3585107504
 31
0.0
 11
2.8428065117
 21
5.3580591021
 31
0.0
 11
2.8531931001
 21
5.3579377379
 31
0.0
 11
2.8636995265
 21
5.3581431558
 31
0.0
 11
2.8741946297
 21
5.358671164
 31
0.0
 11
2.8845474009
 21
5.3595167986
 31
0.0
 11
2.894628054
 21
5.3606745072
 31
0.0
 11
2.9043117752
 21
5.3621371122
 31
0.0
 11
2.9134786084
 21
5.3638969163
 31
0.0
 11
2.9220231228
 21
5.3659458422
 31
0.0
 11
2.9298436603
 21
5.368273366
 31
0.0
 11
2.9368387854
 21
5.3708602742
 31
0.0
  0
SPLINE
  5
2FC
100
AcDbEntity
  8
0
100
AcDbSpline
 62
6
  6
CONTINUOUS
 70
0
 71
3
 72
23
 73
19
 74
17
 42
0.0000001
 43
0.0000001
 44
0.0000000001
 12
0.1335062167
 22
-0.0664985137
 32
0.0
 13
0.144414604
 23
0.0372878583
 33
0.0
 40
0.0
 40
0.0
 40
0.0
 40
0.0
 40
0.0500053339
 40
0.104715052
 40
0.1636299605
 40
0.2262135712
 40
0.2918753014
 40
0.359906388
 40
0.429549308
 40
0.5000044048
 40
0.5704591162
 40
0.6401017198
 40
0.7081329564
 40
0.7737950394
 40
0.8363774998
 40
0.8952892937
 40
0.9499959713
 40
1.0
 40
1.0
 40
1.0
 40
1.0
 10
2.9368387854
 20
5.3708602742
 30
0.0
 10
2.9390641263
 20
5.3697518474
 30
0.0
 10
2.9438223572
 20
5.3676259626
 30
0.0
 10
2.9514496518
 20
5.3647849961
 30
0.0
 10
2.9598139626
 20
5.3621679404
 30
0.0
 10
2.9688132761
 20
5.3597918624
 30
0.0
 10
2.9783411816
 20
5.3576737036
 30
0.0
 10
2.9882824719
 20
5.3558281915
 30
0.0
 10
2.9985140656
 20
5.3542719401
 30
0.0
 10
3.0089084854
 20
5.3530189326
 30
0.0
 10
3.0193362647
 20
5.352083476
 30
0.0
 10
3.0296678112
 20
5.3514784881
 30
0.0
 10
3.0397755746
 20
5.3512168128
 30
0.0
 10
3.0495356301
 20
5.3513077677
 30
0.0
 10
3.0588321041
 20
5.3517609091
 30
0.0
 10
3.0675573868
 20
5.3525817195
 30
0.0
 10
3.0756083111
 20
5.3537747465
 30
0.0
 10
3.0807043379
 20
5.3548648841
 30
0.0
 10
3.0831114419
 20
5.3554863985
 30
0.0
 11
2.9368387854
 21
5.3708602742
 31
0.0
 11
2.9436366079
 21
5.3677916621
 31
0.0
 11
2.9512761647
 21
5.3649241289
 31
0.0
 11
2.9596573886
 21
5.3622840391
 31
0.0
 11
2.9686793131
 21
5.359889081
 31
0.0
 11
2.9782373787
 21
5.3577545972
 31
0.0
 11
2.988212705
 21
5.3558965696
 31
0.0
 11
2.9984813213
 21
5.3543308528
 31
0.0
 11
3.0089140884
 21
5.3530720597
 31
0.0
 11
3.0193805385
 21
5.3521342933
 31
0.0
 11
3.0297502468
 21
5.351530871
 31
0.0
 11
3.0398939176
 21
5.351274357
 31
0.0
 11
3.0496869528
 21
5.3513750146
 31
0.0
 11
3.0590094924
 21
5.3518419158
 31
0.0
 11
3.0677560076
 21
5.3526817352
 31
0.0
 11
3.0758243649
 21
5.3538981992
 31
0.0
 11
3.0831114419
 21
5.3554863985
 31
0.0
  0
SPLINE
  5
2FD
100
AcDbEntity
  8
0
100
AcDbSpline
 62
6
  6
CONTINUOUS
 70
0
 71
3
 72
23
 73
19
 74
17
 42
0.0000001
 43
0.0000001
 44
0.0000000001
 12
0.1229521328
 22
-0.0844318245
 32
0.0
 13
0.1481986303
 23
0.0168263463
 33
0.0
 40
0.0
 40
0.0
 40
0.0
 40
0.0
 40
0.0500048588
 40
0.1047134498
 40
0.1636269002
 40
0.2262092754
 40
0.2918696946
 40
0.3598993867
 40
0.4295413328
 40
0.4999960941
 40
0.5704514876
 40
0.6400948467
 40
0.7081258874
 40
0.7737848448
 40
0.8363624839
 40
0.8952751871
 40
0.9499904525
 40
1.0
 40
1.0
 40
1.0
 40
1.0
 10
3.0831114419
 20
5.3554863985
 30
0.0
 10
3.0851608432
 20
5.3540790647
 30
0.0
 10
3.0895768257
 20
5.3513116813
 30
0.0
 10
3.0967343707
 20
5.3474369188
 30
0.0
 10
3.1046528814
 20
5.3436813204
 30
0.0
 10
3.1132337344
 20
5.340075959
 30
0.0
 10
3.1223739273
 20
5.33665242
 30
0.0
 10
3.1319614406
 20
5.333441338
 30
0.0
 10
3.1418767352
 20
5.3304762805
 30
0.0
 10
3.1519955713
 20
5.3277888134
 30
0.0
 10
3.1621917207
 20
5.3254111388
 30
0.0
 10
3.1723385777
 20
5.3233741248
 30
0.0
 10
3.1823114278
 20
5.3217082815
 30
0.0
 10
3.1919887455
 20
5.3204400105
 30
0.0
 10
3.2012574439
 20
5.319594731
 30
0.0
 10
3.2100122882
 20
5.3191933149
 30
0.0
 10
3.2181516371
 20
5.3192542855
 30
0.0
 10
3.2233505042
 20
5.3196244285
 30
0.0
 10
3.225820953
 20
5.3199049211
 30
0.0
 11
3.0831114419
 21
5.3554863985
 31
0.0
 11
3.0894159744
 21
5.3515016051
 31
0.0
 11
3.096581949
 21
5.3475988328
 31
0.0
 11
3.1045139774
 21
5.343818081
 31
0.0
 11
3.1131146081
 21
5.3401908716
 31
0.0
 11
3.1222823971
 21
5.336746972
 31
0.0
 11
3.1319018491
 21
5.3335187662
 31
0.0
 11
3.1418524776
 21
5.3305391835
 31
0.0
 11
3.1520084647
 21
5.3278406551
 31
0.0
 11
3.1622426333
 21
5.3254553033
 31
0.0
 11
3.1724275487
 21
5.3234145202
 31
0.0
 11
3.1824367699
 21
5.3217487639
 31
0.0
 11
3.192148036
 21
5.3204854983
 31
0.0
 11
3.2014440999
 21
5.3196503306
 31
0.0
 11
3.2102225111
 21
5.3192647172
 31
0.0
 11
3.2183829274
 21
5.3193464261
 31
0.0
 11
3.225820953
 21
5.3199049211
 31
0.0
  0
SPLINE
  5
2FE
100
AcDbEntity
  8
0
100
AcDbSpline
 62
6
  6
CONTINUOUS
 70
0
 71
3
 72
23
 73
19
 74
17
 42
0.0000001
 43
0.0000001
 44
0.0000000001
 12
0.1100049293
 22
-0.1007217667
 32
0.0
 13
0.1490981422
 23
-0.0039626693
 33
0.0
 40
0.0
 40
0.0
 40
0.0
 40
0.0
 40
0.050012828
 40
0.1047346966
 40
0.1636518653
 40
0.226229389
 40
0.2918864003
 40
0.3599165718
 40
0.4295598443
 40
0.5000153903
 40
0.570469426
 40
0.6401106017
 40
0.7081399673
 40
0.7738002823
 40
0.8363811601
 40
0.8952911795
 40
0.9499965446
 40
1.0
 40
1.0
 40
1.0
 40
1.0
 10
3.225820953
 20
5.3199049211
 30
0.0
 10
3.2276548388
 20
5.3182257943
 30
0.0
 10
3.2316437012
 20
5.3148702997
 30
0.0
 10
3.2381933178
 20
5.3100363796
 30
0.0
 10
3.2455125161
 20
5.3052148286
 30
0.0
 10
3.2535080738
 20
5.3004507374
 30
0.0
 10
3.2620825669
 20
5.2957887438
 30
0.0
 10
3.2711298305
 20
5.2912746691
 30
0.0
 10
3.2805361185
 20
5.2869585315
 30
0.0
 10
3.2901825296
 20
5.2828890276
 30
0.0
 10
3.2999484481
 20
5.2791156005
 30
0.0
 10
3.3097128362
 20
5.275686391
 30
0.0
 10
3.3193566844
 20
5.2726488854
 30
0.0
 10
3.3287634841
 20
5.2700461963
 30
0.0
 10
3.3378244881
 20
5.2679194124
 30
0.0
 10
3.3464377871
 20
5.2663034669
 30
0.0
 10
3.3545054948
 20
5.2652311703
 30
0.0
 10
3.3597044996
 20
5.2648744441
 30
0.0
 10
3.3621896404
 20
5.264808395
 30
0.0
 11
3.225820953
 21
5.3199049211
 31
0.0
 11
3.2315105972
 21
5.3150808786
 31
0.0
 11
3.2380652997
 21
5.3102176474
 31
0.0
 11
3.2453943987
 21
5.3053694303
 31
0.0
 11
3.2534060123
 21
5.300581108
 31
0.0
 11
3.2620049083
 21
5.2958951899
 31
0.0
 11
3.2710815577
 21
5.291359658
 31
0.0
 11
3.2805208782
 21
5.2870241934
 31
0.0
 11
3.2902026102
 21
5.2829385295
 31
0.0
 11
3.300005048
 21
5.2791522305
 31
0.0
 11
3.3098065375
 21
5.2757140141
 31
0.0
 11
3.3194862994
 21
5.2726715833
 31
0.0
 11
3.3289274702
 21
5.2700691261
 31
0.0
 11
3.3380173416
 21
5.2679483806
 31
0.0
 11
3.3466562586
 21
5.2663448614
 31
0.0
 11
3.3547471705
 21
5.2652902938
 31
0.0
 11
3.3621896404
 21
5.264808395
 31
0.0
  0
SPLINE
  5
2FF
100
AcDbEntity
  8
0
100
AcDbSpline
 62
6
  6
CONTINUOUS
 70
0
 71
3
 72
23
 73
19
 74
17
 42
0.0000001
 43
0.0000001
 44
0.0000000001
 12
0.0949166157
 22
-0.1150512855
 32
0.0
 13
0.1470956438
 23
-0.0246745576
 33
0.0
 40
0.0
 40
0.0
 40
0.0
 40
0.0
 40
0.0500053339
 40
0.104715052
 40
0.1636299605
 40
0.2262135712
 40
0.2918753014
 40
0.359906388
 40
0.429549308
 40
0.5000044048
 40
0.5704591162
 40
0.6401017198
 40
0.7081329564
 40
0.7737950394
 40
0.8363774998
 40
0.8952892937
 40
0.9499959713
 40
1.0
 40
1.0
 40
1.0
 40
1.0
 10
3.3621896404
 20
5.264808395
 30
0.0
 10
3.3637717527
 20
5.2628906691
 30
0.0
 10
3.3672539376
 20
5.2590132297
 30
0.0
 10
3.3730662929
 20
5.2533155775
 30
0.0
 10
3.3796430185
 20
5.2475227065
 30
0.0
 10
3.3868978624
 20
5.2416917006
 30
0.0
 10
3.3947405045
 20
5.235881318
 30
0.0
 10
3.4030716877
 20
5.2301518718
 30
0.0
 10
3.4117857292
 20
5.2245686013
 30
0.0
 10
3.4207718601
 20
5.2191961306
 30
0.0
 10
3.4299176261
 20
5.2141001885
 30
0.0
 10
3.4391098926
 20
5.209345286
 30
0.0
 10
3.4482373611
 20
5.204995036
 30
0.0
 10
3.4571906101
 20
5.2011083552
 30
0.0
 10
3.465867671
 20
5.1977411038
 30
0.0
 10
3.474172467
 20
5.1949420592
 30
0.0
 10
3.4820126001
 20
5.1927573378
 30
0.0
 10
3.4871114511
 20
5.1916804872
 30
0.0
 10
3.4895632427
 20
5.1912692114
 30
0.0
 11
3.3621896404
 21
5.264808395
 31
0.0
 11
3.3671516433
 21
5.2592401548
 31
0.0
 11
3.3729643949
 21
5.2535132452
 31
0.0
 11
3.3795472026
 21
5.2476924523
 31
0.0
 11
3.3868150236
 21
5.241835002
 31
0.0
 11
3.3946785782
 21
5.2359974384
 31
0.0
 11
3.4030357643
 21
5.2302427151
 31
0.0
 11
3.4117797777
 21
5.2246357391
 31
0.0
 11
3.4207985874
 21
5.2192423856
 31
0.0
 11
3.4299787414
 21
5.2141286046
 31
0.0
 11
3.4392065074
 21
5.2093596105
 31
0.0
 11
3.4483688781
 21
5.2049994708
 31
0.0
 11
3.457356202
 21
5.2011082398
 31
0.0
 11
3.4660626716
 21
5.1977429568
 31
0.0
 11
3.4743945962
 21
5.1949526417
 31
0.0
 11
3.4822601878
 21
5.1927822404
 31
0.0
 11
3.4895632427
 21
5.1912692114
 31
0.0
  0
SPLINE
  5
300
100
AcDbEntity
  8
0
100
AcDbSpline
 62
6
  6
CONTINUOUS
 70
0
 71
3
 72
23
 73
19
 74
17
 42
0.0000001
 43
0.0000001
 44
0.0000000001
 12
0.0779808495
 22
-0.1271414541
 32
0.0
 13
0.1422300844
 23
-0.0449061834
 33
0.0
 40
0.0
 40
0.0
 40
0.0
 40
0.0
 40
0.0500053339
 40
0.104715052
 40
0.1636299605
 40
0.2262135712
 40
0.2918753014
 40
0.359906388
 40
0.429549308
 40
0.5000044048
 40
0.5704591162
 40
0.6401017198
 40
0.7081329564
 40
0.7737950394
 40
0.8363774998
 40
0.8952892937
 40
0.9499959713
 40
1.0
 40
1.0
 40
1.0
 40
1.0
 10
3.4895632427
 20
5.1912692114
 30
0.0
 10
3.4908630622
 20
5.1891499612
 30
0.0
 10
3.4937717235
 20
5.1848256303
 30
0.0
 10
3.4987345533
 20
5.1783745038
 30
0.0
 10
3.5044410629
 20
5.1717227053
 30
0.0
 10
3.510813784
 20
5.1649387673
 30
0.0
 10
3.517771453
 20
5.158093446
 30
0.0
 10
3.5252241729
 20
5.1512602818
 30
0.0
 10
3.5330763689
 20
5.1445185872
 30
0.0
 10
3.541227344
 20
5.1379477732
 30
0.0
 10
3.549574886
 20
5.1316285799
 30
0.0
 10
3.5580159395
 20
5.1256406355
 30
0.0
 10
3.5664491423
 20
5.1200624238
 30
0.0
 10
3.5747743375
 20
5.1149675165
 30
0.0
 10
3.582898323
 20
5.1104254215
 30
0.0
 10
3.5907327455
 20
5.1064978128
 30
0.0
 10
3.5981925245
 20
5.1032432172
 30
0.0
 10
3.6030918853
 20
5.1014672236
 30
0.0
 10
3.6054625777
 20
5.1007187269
 30
0.0
 11
3.4895632427
 21
5.1912692114
 31
0.0
 11
3.4937020065
 21
5.1850645836
 31
0.0
 11
3.498661157
 21
5.1785844293
 31
0.0
 11
3.5043698035
 21
5.1719041341
 31
0.0
 11
3.510751695
 21
5.1650922029
 31
0.0
 11
3.5177262902
 21
5.1582170549
 31
0.0
 11
3.5252012421
 21
5.1513552406
 31
0.0
 11
3.5330798191
 21
5.1445858998
 31
0.0
 11
3.5412602487
 21
5.1379898584
 31
0.0
 11
3.5496393613
 21
5.1316482138
 31
0.0
 11
3.5581136076
 21
5.1256413745
 31
0.0
 11
3.5665799966
 21
5.1200485118
 31
0.0
 11
3.5749383018
 21
5.1149443562
 31
0.0
 11
3.5830916838
 21
5.1104001176
 31
0.0
 11
3.5909541858
 21
5.1064773779
 31
0.0
 11
3.5984411685
 21
5.1032334199
 31
0.0
 11
3.6054625777
 21
5.1007187269
 31
0.0
  0
SPLINE
  5
301
100
AcDbEntity
  8
0
100
AcDbSpline
 62
6
  6
CONTINUOUS
 70
0
 71
3
 72
23
 73
19
 74
17
 42
0.0000001
 43
0.0000001
 44
0.0000000001
 12
0.0595272748
 22
-0.1367569588
 32
0.0
 13
0.1345961782
 23
-0.0642637614
 33
0.0
 40
0.0
 40
0.0
 40
0.0
 40
0.0
 40
0.0500040567
 40
0.1047106595
 40
0.1636221469
 40
0.2262044324
 40
0.291866697
 40
0.3598982086
 40
0.4295409797
 40
0.4999957317
 40
0.5704507688
 40
0.6400935435
 40
0.7081244384
 40
0.7737860519
 40
0.8363697809
 40
0.8952848943
 40
0.9499946754
 40
1.0
 40
1.0
 40
1.0
 40
1.0
 10
3.6054625777
 20
5.1007187269
 30
0.0
 10
3.6064547794
 20
5.0984392593
 30
0.0
 10
3.6087331669
 20
5.0937523824
 30
0.0
 10
3.6127496828
 20
5.0866736815
 30
0.0
 10
3.6174746768
 20
5.0792927442
 30
0.0
 10
3.6228410699
 20
5.0716880538
 30
0.0
 10
3.6287782947
 20
5.0639410164
 30
0.0
 10
3.6352074745
 20
5.0561370667
 30
0.0
 10
3.6420449625
 20
5.0483681467
 30
0.0
 10
3.6492021004
 20
5.0407268646
 30
0.0
 10
3.6565889225
 20
5.0333073849
 30
0.0
 10
3.664114449
 20
5.0262029165
 30
0.0
 10
3.6716891829
 20
5.0195052963
 30
0.0
 10
3.6792242717
 20
5.0133012787
 30
0.0
 10
3.6866371856
 20
5.0076725766
 30
0.0
 10
3.6938490517
 20
5.0026926168
 30
0.0
 10
3.7007836059
 20
4.9984312928
 30
0.0
 10
3.705388288
 20
4.9959905804
 30
0.0
 10
3.7076317966
 20
4.9949194036
 30
0.0
 11
3.6054625777
 21
5.1007187269
 31
0.0
 11
3.6086974347
 21
5.0939986354
 31
0.0
 11
3.6127062184
 21
5.0868917623
 31
0.0
 11
3.6174292969
 21
5.0794824067
 31
0.0
 11
3.6228008869
 21
5.0718487132
 31
0.0
 11
3.6287507778
 21
5.064069703
 31
0.0
 11
3.6351980045
 21
5.0562342736
 31
0.0
 11
3.6420577538
 21
5.0484343167
 31
0.0
 11
3.6492405189
 21
5.0407639845
 31
0.0
 11
3.6566555087
 21
5.0333178491
 31
0.0
 11
3.6642112858
 21
5.0261900352
 31
0.0
 11
3.6718168328
 21
5.0194733041
 31
0.0
 11
3.6793833478
 21
5.0132555756
 31
0.0
 11
3.6868250655
 21
5.0076206743
 31
0.0
 11
3.6940655053
 21
5.0026415623
 31
0.0
 11
3.7010285408
 21
4.9983869337
 31
0.0
 11
3.7076317966
 21
4.9949194036
 31
0.0
  0
SPLINE
  5
302
100
AcDbEntity
  8
0
100
AcDbSpline
 62
6
  6
CONTINUOUS
 70
0
 71
3
 72
23
 73
19
 74
17
 42
0.0000001
 43
0.0000001
 44
0.0000000001
 12
0.039915071
 22
-0.1437106504
 32
0.0
 13
0.1243425153
 23
-0.0823705216
 33
0.0
 40
0.0
 40
0.0
 40
0.0
 40
0.0
 40
0.0500023846
 40
0.1047077441
 40
0.1636225854
 40
0.226209317
 40
0.2918738497
 40
0.3599063506
 40
0.4295497571
 40
0.5000042257
 40
0.570457074
 40
0.6400974403
 40
0.7081274665
 40
0.7737905177
 40
0.8363769602
 40
0.8952920789
 40
0.9499975954
 40
1.0
 40
1.0
 40
1.0
 40
1.0
 10
3.7076317966
 20
4.9949194036
 30
0.0
 10
3.7082970795
 20
4.9925241119
 30
0.0
 10
3.7099009
 20
4.9875658754
 30
0.0
 10
3.712893195
 20
4.9799970588
 30
0.0
 10
3.7165451711
 20
4.9720300914
 30
0.0
 10
3.7208011477
 20
4.9637520799
 30
0.0
 10
3.7256026318
 20
4.955253816
 30
0.0
 10
3.7308832981
 20
4.9466309126
 30
0.0
 10
3.7365730888
 20
4.9379859702
 30
0.0
 10
3.7425970868
 20
4.9294230643
 30
0.0
 10
3.7488793069
 20
4.9210479549
 30
0.0
 10
3.7553426993
 20
4.9129655073
 30
0.0
 10
3.7619115307
 20
4.9052789402
 30
0.0
 10
3.768509984
 20
4.8980865114
 30
0.0
 10
3.7750676204
 20
4.8914808448
 30
0.0
 10
3.7815161352
 20
4.8855456715
 30
0.0
 10
3.7877898544
 20
4.8803609215
 30
0.0
 10
3.7920098168
 20
4.8773034131
 30
0.0
 10
3.7940822917
 20
4.8759305051
 30
0.0
 11
3.7076317966
 21
4.9949194036
 31
0.0
 11
3.7098997985
 21
4.9878147304
 31
0.0
 11
3.7128804205
 21
4.9802192802
 31
0.0
 11
3.7165265905
 21
4.9722242654
 31
0.0
 11
3.7207837835
 21
4.9639166815
 31
0.0
 11
3.7255933289
 21
4.9553850283
 31
0.0
 11
3.7308874548
 21
4.9467284746
 31
0.0
 11
3.7365949893
 21
4.9380496777
 31
0.0
 11
3.7426403519
 21
4.9294543987
 31
0.0
 11
3.748946707
 21
4.921049041
 31
0.0
 11
3.7554367476
 21
4.9129393297
 31
0.0
 11
3.7620334127
 21
4.905229582
 31
0.0
 11
3.7686611211
 21
4.8980191738
 31
0.0
 11
3.7752465279
 21
4.891403189
 31
0.0
 11
3.781723538
 21
4.8854648487
 31
0.0
 11
3.7880261947
 21
4.8802829696
 31
0.0
 11
3.7940822917
 21
4.8759305051
 31
0.0
  0
SPLINE
  5
303
100
AcDbEntity
  8
0
100
AcDbSpline
 62
6
  6
CONTINUOUS
 70
0
 71
3
 72
23
 73
19
 74
17
 42
0.0000001
 43
0.0000001
 44
0.0000000001
 12
0.0195259626
 22
-0.1478671668
 32
0.0
 13
0.1116686573
 23
-0.098874027
 33
0.0
 40
0.0
 40
0.0
 40
0.0
 40
0.0
 40
0.0500040567
 40
0.1047106595
 40
0.1636221469
 40
0.2262044324
 40
0.291866697
 40
0.3598982086
 40
0.4295409797
 40
0.4999957317
 40
0.5704507688
 40
0.6400935435
 40
0.7081244384
 40
0.7737860519
 40
0.8363697809
 40
0.8952848943
 40
0.9499946754
 40
1.0
 40
1.0
 40
1.0
 40
1.0
 10
3.7940822917
 20
4.8759305051
 30
0.0
 10
3.7944077508
 20
4.8734658523
 30
0.0
 10
3.7953059991
 20
4.8683325284
 30
0.0
 10
3.7972157676
 20
4.8604209425
 30
0.0
 10
3.7997232613
 20
4.8520235454
 30
0.0
 10
3.8027856327
 20
4.8432342694
 30
0.0
 10
3.8063574866
 20
4.8341508181
 30
0.0
 10
3.8103865508
 20
4.8248770581
 30
0.0
 10
3.8148177615
 20
4.8155244257
 30
0.0
 10
3.8195914212
 20
4.8062063794
 30
0.0
 10
3.8246470046
 20
4.7970382336
 30
0.0
 10
3.829922748
 20
4.7881346641
 30
0.0
 10
3.8353579353
 20
4.7796086187
 30
0.0
 10
3.8408910686
 20
4.7715679823
 30
0.0
 10
3.8464653382
 20
4.7641140505
 30
0.0
 10
3.8520251658
 20
4.7573391462
 30
0.0
 10
3.8575165071
 20
4.7513314765
 30
0.0
 10
3.8612700601
 20
4.7477160907
 30
0.0
 10
3.8631314026
 20
4.7460680148
 30
0.0
 11
3.7940822917
 21
4.8759305051
 31
0.0
 11
3.7953395276
 21
4.868579091
 31
0.0
 11
3.7972340981
 21
4.8606425556
 31
0.0
 11
3.7997319174
 21
4.852218369
 31
0.0
 11
3.80279129
 21
4.843399781
 31
0.0
 11
3.8063665064
 21
4.8342821043
 31
0.0
 11
3.8104042415
 21
4.8249731096
 31
0.0
 11
3.8148482962
 21
4.8155845066
 31
0.0
 11
3.8196385831
 21
4.8062314717
 31
0.0
 11
3.8247138957
 21
4.7970299388
 31
0.0
 11
3.830012283
 21
4.7880955899
 31
0.0
 11
3.835471822
 21
4.7795426808
 31
0.0
 11
3.8410313848
 21
4.7714802023
 31
0.0
 11
3.8466316337
 21
4.7640123721
 31
0.0
 11
3.8522191619
 21
4.7572304068
 31
0.0
 11
3.8577397266
 21
4.7512213226
 31
0.0
 11
3.8631314026
 21
4.7460680148
 31
0.0
  0
SPLINE
  5
304
100
AcDbEntity
  8
0
100
AcDbSpline
 62
6
  6
CONTINUOUS
 70
0
 71
3
 72
15
 73
11
 74
9
 42
0.0000001
 43
0.0000001
 44
0.0000000001
 12
-0.0004565315
 22
-0.0547699093
 32
0.0
 13
0.0156518262
 23
-0.0524878246
 33
0.0
 40
0.0
 40
0.0
 40
0.0
 40
0.0
 40
0.1027332291
 40
0.2131012438
 40
0.3305239805
 40
0.4543770819
 40
0.5840078884
 40
0.7187193956
 40
0.857682991
 40
1.0
 40
1.0
 40
1.0
 40
1.0
 10
3.8631314026
 20
4.7460680148
 30
0.0
 10
3.863115769
 20
4.7441924516
 30
0.0
 10
3.8632073272
 20
4.7403003957
 30
0.0
 10
3.8636586873
 20
4.7342807735
 30
0.0
 10
3.8644222109
 20
4.7279043689
 30
0.0
 10
3.8654884074
 20
4.7212155914
 30
0.0
 10
3.8668433797
 20
4.7142576651
 30
0.0
 10
3.8684736116
 20
4.7070760364
 30
0.0
 10
3.8703628232
 20
4.6997189611
 30
0.0
 10
3.8717699117
 20
4.6947793976
 30
0.0
 10
3.8725124187
 20
4.6922894275
 30
0.0
 11
3.8631314026
 21
4.7460680148
 31
0.0
 11
3.8632504007
 21
4.7404423881
 31
0.0
 11
3.8636921386
 21
4.7344134934
 31
0.0
 11
3.8644484381
 21
4.7280266602
 31
0.0
 11
3.8655090684
 21
4.7213264296
 31
0.0
 11
3.8668607193
 21
4.7143561598
 31
0.0
 11
3.8684895313
 21
4.7071597955
 31
0.0
 11
3.8703792414
 21
4.6997868246
 31
0.0
 11
3.8725124187
 21
4.6922894275
 31
0.0
  0
SPLINE
  5
305
100
AcDbEntity
  8
0
100
AcDbSpline
 62
6
  6
CONTINUOUS
 70
0
 71
3
 72
15
 73
11
 74
9
 42
0.0000001
 43
0.0000001
 44
0.0000000001
 12
0.0
 22
0.0745754028
 32
0.0
 13
-0.0260895144
 23
0.0698629225
 33
0.0
 40
0.0
 40
0.0
 40
0.0
 40
0.0
 40
0.14081552
 40
0.2801901717
 40
0.4162782346
 40
0.5475837526
 40
0.6727510235
 40
0.7905860789
 40
0.8999969428
 40
1.0
 40
1.0
 40
1.0
 40
1.0
 10
1.8585443077
 20
4.3172751148
 30
0.0
 10
1.8585443077
 20
4.3207755728
 30
0.0
 10
1.8584377913
 20
4.327741144
 30
0.0
 10
1.8579600177
 20
4.338079795
 30
0.0
 10
1.8571637815
 20
4.3481619775
 30
0.0
 10
1.8560527986
 20
4.3578592522
 30
0.0
 10
1.854630264
 20
4.3670572874
 30
0.0
 10
1.8529020576
 20
4.3756492887
 30
0.0
 10
1.8508740351
 20
4.3835315178
 30
0.0
 10
1.8492571365
 20
4.3884854631
 30
0.0
 10
1.8483874595
 20
4.3908142984
 30
0.0
 11
1.8585443077
 21
4.3172751148
 31
0.0
 11
1.8583829228
 21
4.3277752488
 31
0.0
 11
1.8578991435
 21
4.3381579048
 31
0.0
 11
1.8570939811
 21
4.3482747375
 31
0.0
 11
1.855970196
 21
4.3580022008
 31
0.0
 11
1.8545312547
 21
4.3672250238
 31
0.0
 11
1.8527817255
 21
4.3758367021
 31
0.0
 11
1.8507286235
 21
4.3837335316
 31
0.0
 11
1.8483874595
 21
4.3908142984
 31
0.0
  0
SPLINE
  5
306
100
AcDbEntity
  8
0
100
AcDbSpline
 62
6
  6
CONTINUOUS
 70
0
 71
3
 72
41
 73
37
 74
35
 42
0.0000001
 43
0.0000001
 44
0.0000000001
 12
-0.2000341198
 22
0.2136476204
 32
0.0
 13
-0.1379220493
 23
-0.2581403941
 33
0.0
 40
0.0
 40
0.0
 40
0.0
 40
0.0
 40
0.0304569397
 40
0.0606664473
 40
0.0906620458
 40
0.1204754142
 40
0.1501668038
 40
0.1798202821
 40
0.2393608309
 40
0.2695084806
 40
0.3000833946
 40
0.3312452558
 40
0.3471028631
 40
0.3631728748
 40
0.396005348
 40
0.4298700394
 40
0.4471890397
 40
0.4646993867
 40
0.4823463849
 40
0.5000764995
 40
0.5178218253
 40
0.5355026504
 40
0.5530375063
 40
0.570346644
 40
0.604188329
 40
0.6370322189
 40
0.6689397185
 40
0.7000864603
 40
0.7306504928
 40
0.7607872305
 40
0.7906384044
 40
0.820330053
 40
0.8499732864
 40
0.8796522856
 40
0.9393807922
 40
1.0
 40
1.0
 40
1.0
 40
1.0
 10
2.9000467809
 20
5.2718797694
 30
0.0
 10
2.8980159718
 20
5.274048787
 30
0.0
 10
2.8938520195
 20
5.2782596947
 30
0.0
 10
2.8872970206
 20
5.2842041243
 30
0.0
 10
2.8804793765
 20
5.2897466662
 30
0.0
 10
2.8734168195
 20
5.2948877174
 30
0.0
 10
2.8661156522
 20
5.2996238172
 30
0.0
 10
2.8560521444
 20
5.3053980181
 30
0.0
 10
2.8454863066
 20
5.3103575413
 30
0.0
 10
2.8344715267
 20
5.3144135695
 30
0.0
 10
2.8258882712
 20
5.3170173626
 30
0.0
 10
2.8185202729
 20
5.3187761373
 30
0.0
 10
2.8124737075
 20
5.3199303943
 30
0.0
 10
2.8062335977
 20
5.3209243286
 30
0.0
 10
2.7982020893
 20
5.3218136342
 30
0.0
 10
2.7900068822
 20
5.3221742332
 30
0.0
 10
2.7833042553
 20
5.3221293014
 30
0.0
 10
2.7781880136
 20
5.3219182581
 30
0.0
 10
2.7730424062
 20
5.3215232901
 30
0.0
 10
2.7678920631
 20
5.320935894
 30
0.0
 10
2.7627633085
 20
5.3201610671
 30
0.0
 10
2.757683792
 20
5.3192097664
 30
0.0
 10
2.7526818812
 20
5.3180917868
 30
0.0
 10
2.7461963661
 20
5.3164020978
 30
0.0
 10
2.7383777035
 20
5.3139262655
 30
0.0
 10
2.7294129157
 20
5.3104231121
 30
0.0
 10
2.7209235883
 20
5.306476798
 30
0.0
 10
2.7128895755
 20
5.3021210357
 30
0.0
 10
2.7052754103
 20
5.2973873055
 30
0.0
 10
2.6980557596
 20
5.2922877074
 30
0.0
 10
2.6912068491
 20
5.2868361103
 30
0.0
 10
2.6847112409
 20
5.28104055
 30
0.0
 10
2.6785533911
 20
5.2749110678
 30
0.0
 10
2.6707743934
 20
5.2662800779
 30
0.0
 10
2.6618656812
 20
5.2546305622
 30
0.0
 10
2.6557638241
 20
5.2445684933
 30
0.0
 10
2.6529769157
 20
5.2393524046
 30
0.0
 11
2.9000467809
 21
5.2718797694
 31
0.0
 11
2.893779002
 21
5.2782180935
 31
0.0
 11
2.8872294917
 21
5.2841575805
 31
0.0
 11
2.8804178138
 21
5.2896957646
 31
0.0
 11
2.8733626951
 21
5.2948301724
 31
0.0
 11
2.8660715651
 21
5.2995582296
 31
0.0
 11
2.8585437429
 21
5.3038772894
 31
0.0
 11
2.8427632847
 21
5.3112694964
 31
0.0
 11
2.8344833494
 21
5.3143185044
 31
0.0
 11
2.8259197555
 21
5.3169148523
 31
0.0
 11
2.817048759
 21
5.3190327622
 31
0.0
 11
2.8124899987
 21
5.3199032927
 31
0.0
 11
2.8078451927
 21
5.3206427502
 31
0.0
 11
2.7982940773
 21
5.3216982546
 31
0.0
 11
2.7883923134
 21
5.3221344256
 31
0.0
 11
2.7833235802
 21
5.322100425
 31
0.0
 11
2.7782031037
 21
5.3218887511
 31
0.0
 11
2.7730534966
 21
5.3214923149
 31
0.0
 11
2.7678976834
 21
5.3209048795
 31
0.0
 11
2.7627621872
 21
5.3201300304
 31
0.0
 11
2.7576758375
 21
5.3191776504
 31
0.0
 11
2.7526675017
 21
5.3180577255
 31
0.0
 11
2.7477652572
 21
5.3167802449
 31
0.0
 11
2.7383218855
 21
5.3137928591
 31
0.0
 11
2.7293678004
 21
5.3102962203
 31
0.0
 11
2.720899962
 21
5.3063586941
 31
0.0
 11
2.7128854202
 21
5.3020151306
 31
0.0
 11
2.7052887831
 21
5.2972917546
 31
0.0
 11
2.6980838392
 21
5.292203905
 31
0.0
 11
2.6912476264
 21
5.2867636611
 31
0.0
 11
2.6847619993
 21
5.280979799
 31
0.0
 11
2.6786126966
 21
5.2748596337
 31
0.0
 11
2.6727966125
 21
5.26840787
 31
0.0
 11
2.6621758438
 21
5.2545230897
 31
0.0
 11
2.6529769157
 21
5.2393524046
 31
0.0
  0
SPLINE
  5
307
100
AcDbEntity
  8
0
100
AcDbSpline
 62
6
  6
CONTINUOUS
 70
0
 71
3
 72
39
 73
35
 74
33
 42
0.0000001
 43
0.0000001
 44
0.0000000001
 12
-0.24851194
 22
0.1545937113
 32
0.0
 13
-0.0664102164
 23
-0.2850387395
 33
0.0
 40
0.0
 40
0.0
 40
0.0
 40
0.0
 40
0.0304571666
 40
0.0606668282
 40
0.0906625947
 40
0.1204762721
 40
0.150168294
 40
0.1798226184
 40
0.2393645446
 40
0.269512554
 40
0.3000878079
 40
0.3312498108
 40
0.3631738794
 40
0.3960070386
 40
0.4298707002
 40
0.4471901507
 40
0.4647014797
 40
0.4823490859
 40
0.5000787562
 40
0.5178232502
 40
0.5355034971
 40
0.5703435251
 40
0.6041853329
 40
0.6370288904
 40
0.6689367772
 40
0.7000838225
 40
0.7306480915
 40
0.7607850679
 40
0.7906365262
 40
0.8203284471
 40
0.8499719392
 40
0.8796512132
 40
0.9393802458
 40
1.0
 40
1.0
 40
1.0
 40
1.0
 10
2.6529769157
 20
5.2393524046
 30
0.0
 10
2.6504539258
 20
5.2409219001
 30
0.0
 10
2.6453420028
 20
5.2439115978
 30
0.0
 10
2.6374718443
 20
5.2479568891
 30
0.0
 10
2.6294520116
 20
5.251546038
 30
0.0
 10
2.6212995047
 20
5.2546840693
 30
0.0
 10
2.6130212494
 20
5.2573691902
 30
0.0
 10
2.601805991
 20
5.2603419923
 30
0.0
 10
2.5903163764
 20
5.2623978218
 30
0.0
 10
2.578627083
 20
5.2634647384
 30
0.0
 10
2.569662247
 20
5.2637583838
 30
0.0
 10
2.5605228003
 20
5.2635068535
 30
0.0
 10
2.5511959065
 20
5.2626782027
 30
0.0
 10
2.5416783987
 20
5.2612255468
 30
0.0
 10
2.5336690292
 20
5.2594526941
 30
0.0
 10
2.5272065031
 20
5.2576743758
 30
0.0
 10
2.5223190894
 20
5.2561462256
 30
0.0
 10
2.5174509525
 20
5.2544329884
 30
0.0
 10
2.512628147
 20
5.252532903
 30
0.0
 10
2.5078748831
 20
5.2504570476
 30
0.0
 10
2.5016923928
 20
5.2474937401
 30
0.0
 10
2.4942873011
 20
5.2434593004
 30
0.0
 10
2.4859341657
 20
5.2381232125
 30
0.0
 10
2.4781814306
 20
5.2324190478
 30
0.0
 10
2.4710028404
 20
5.2264100626
 30
0.0
 10
2.4643698938
 20
5.2201233737
 30
0.0
 10
2.4582403837
 20
5.2135802348
 30
0.0
 10
2.4525866113
 20
5.2067858245
 30
0.0
 10
2.4473820437
 20
5.199747364
 30
0.0
 10
2.4426077632
 20
5.1924680985
 30
0.0
 10
2.4382461731
 20
5.1849536994
 30
0.0
 10
2.4329660993
 20
5.1746034549
 30
0.0
 10
2.4273760628
 20
5.1610451427
 30
0.0
 10
2.4240863772
 20
5.1497466557
 30
0.0
 10
2.4227444535
 20
5.1439869963
 30
0.0
 11
2.6529769157
 21
5.2393524046
 31
0.0
 11
2.6452822345
 21
5.2438525187
 31
0.0
 11
2.6374186664
 21
5.2478944571
 31
0.0
 11
2.6294057378
 21
5.2514809425
 31
0.0
 11
2.6212621457
 21
5.2546144625
 31
0.0
 11
2.6129956551
 21
5.2572944032
 31
0.0
 11
2.6046063102
 21
5.2595179604
 31
0.0
 11
2.5874500511
 21
5.2625739212
 31
0.0
 11
2.5786630779
 21
5.2633759964
 31
0.0
 11
2.5697192787
 21
5.2636674519
 31
0.0
 11
2.5606024387
 21
5.2634172588
 31
0.0
 11
2.5512958074
 21
5.262590202
 31
0.0
 11
2.5417968371
 21
5.261137742
 31
0.0
 11
2.5321199629
 21
5.2589963588
 31
0.0
 11
2.5272326881
 21
5.2576515069
 31
0.0
 11
2.5223412602
 21
5.2561216416
 31
0.0
 11
2.517469575
 21
5.254405934
 31
0.0
 11
2.5126415798
 21
5.252504326
 31
0.0
 11
2.5078818946
 21
5.2504268057
 31
0.0
 11
2.5032156104
 21
5.2481903943
 31
0.0
 11
2.4942630066
 21
5.2433093906
 31
0.0
 11
2.4859145953
 21
5.2379797842
 31
0.0
 11
2.4781707834
 21
5.2322848785
 31
0.0
 11
2.4710105671
 21
5.226289861
 31
0.0
 11
2.4643932961
 21
5.2200199917
 31
0.0
 11
2.458278027
 21
5.2134914048
 31
0.0
 11
2.452635426
 21
5.2067121495
 31
0.0
 11
2.4474401822
 21
5.1996879363
 31
0.0
 11
2.4426725174
 21
5.1924225522
 31
0.0
 11
2.4383167686
 21
5.1849193698
 31
0.0
 11
2.4343687005
 21
5.1771821302
 31
0.0
 11
2.4277034728
 21
5.1610216097
 31
0.0
 11
2.4227444535
 21
5.1439869963
 31
0.0
  0
SPLINE
  5
308
100
AcDbEntity
  8
0
100
AcDbSpline
 62
6
  6
CONTINUOUS
 70
0
 71
3
 72
41
 73
37
 74
35
 42
0.0000001
 43
0.0000001
 44
0.0000000001
 12
-0.2800584395
 22
0.0850072068
 32
0.0
 13
0.0096261986
 23
-0.2925171637
 33
0.0
 40
0.0
 40
0.0
 40
0.0
 40
0.0
 40
0.0304569397
 40
0.0606664473
 40
0.0906620458
 40
0.1204754142
 40
0.1501668038
 40
0.1798202821
 40
0.2393608309
 40
0.2695084806
 40
0.3000833946
 40
0.3312452558
 40
0.3471028631
 40
0.3631728748
 40
0.396005348
 40
0.4298700394
 40
0.4471890397
 40
0.4646993867
 40
0.4823463849
 40
0.5000764995
 40
0.5178218253
 40
0.5355026504
 40
0.5530375063
 40
0.570346644
 40
0.604188329
 40
0.6370322189
 40
0.6689397185
 40
0.7000864603
 40
0.7306504928
 40
0.7607872305
 40
0.7906384044
 40
0.820330053
 40
0.8499732864
 40
0.8796522856
 40
0.9393807922
 40
1.0
 40
1.0
 40
1.0
 40
1.0
 10
2.4227444535
 20
5.1439869963
 30
0.0
 10
2.4199012125
 20
5.1448500161
 30
0.0
 10
2.4141896702
 20
5.1464147929
 30
0.0
 10
2.4055406598
 20
5.1482853205
 30
0.0
 10
2.3968651359
 20
5.1496764806
 30
0.0
 10
2.3881782565
 20
5.150597483
 30
0.0
 10
2.3794872103
 20
5.1510484821
 30
0.0
 10
2.3678848564
 20
5.1510173329
 30
0.0
 10
2.3562548109
 20
5.1500294871
 30
0.0
 10
2.3446877176
 20
5.1480347206
 30
0.0
 10
2.3359525037
 20
5.1459980438
 30
0.0
 10
2.3286922426
 20
5.1438371882
 30
0.0
 10
2.3228786349
 20
5.1418135214
 30
0.0
 10
2.3169775741
 20
5.1395542388
 30
0.0
 10
2.309577431
 20
5.1363086459
 30
0.0
 10
2.302299874
 20
5.1325233302
 30
0.0
 10
2.2965176948
 20
5.1291331047
 30
0.0
 10
2.2921924211
 20
5.126392215
 30
0.0
 10
2.2879336784
 20
5.123477359
 30
0.0
 10
2.2837670485
 20
5.1203934875
 30
0.0
 10
2.2797128301
 20
5.1171580904
 30
0.0
 10
2.2757894902
 20
5.1137944816
 30
0.0
 10
2.2720166981
 20
5.1103253275
 30
0.0
 10
2.2672449218
 20
5.1056192563
 30
0.0
 10
2.2617116775
 20
5.0995657914
 30
0.0
 10
2.2556995202
 20
5.0920495776
 30
0.0
 10
2.2503207041
 20
5.0843873056
 30
0.0
 10
2.2455409261
 20
5.0765980985
 30
0.0
 10
2.2413137306
 20
5.0686914853
 30
0.0
 10
2.2376111288
 20
5.0606652783
 30
0.0
 10
2.2344055968
 20
5.0525196016
 30
0.0
 10
2.2316780153
 20
5.044252695
 30
0.0
 10
2.2294099021
 20
5.0358654828
 30
0.0
 10
2.2269885874
 20
5.0245013274
 30
0.0
 10
2.2250981742
 20
5.0099581948
 30
0.0
 10
2.2248448454
 20
4.998193259
 30
0.0
 10
2.2250393562
 20
4.9922825395
 30
0.0
 11
2.4227444535
 21
5.1439869963
 31
0.0
 11
2.4141472358
 21
5.1463422565
 31
0.0
 11
2.40550545
 21
5.148211248
 31
0.0
 11
2.3968372718
 21
5.1496016171
 31
0.0
 11
2.3881601559
 21
5.1505205854
 31
0.0
 11
2.3794818235
 21
5.1509696381
 31
0.0
 11
2.3708030083
 21
5.1509461425
 31
0.0
 11
2.3534406271
 21
5.1494577524
 31
0.0
 11
2.3447454889
 21
5.1479583031
 31
0.0
 11
2.336031025
 21
5.1459250095
 31
0.0
 11
2.3272895617
 21
5.143323675
 31
0.0
 11
2.3229062943
 21
5.1417981963
 31
0.0
 11
2.3185140455
 21
5.1401161823
 31
0.0
 11
2.3097147848
 21
5.1362547182
 31
0.0
 11
2.3009215202
 21
5.1316815715
 31
0.0
 11
2.2965488687
 21
5.1291177595
 31
0.0
 11
2.292220243
 21
5.1263742063
 31
0.0
 11
2.2879587705
 21
5.1234560788
 31
0.0
 11
2.2837874231
 21
5.1203694383
 31
0.0
 11
2.2797273774
 21
5.1171306512
 31
0.0
 11
2.2757986594
 21
5.1137626911
 31
0.0
 11
2.2720212758
 21
5.1102886398
 31
0.0
 11
2.2684145478
 21
5.1067311869
 31
0.0
 11
2.2617300409
 21
5.099422349
 31
0.0
 11
2.2557238951
 21
5.0919171284
 31
0.0
 11
2.2503592951
 21
5.0842732115
 31
0.0
 11
2.2455902801
 21
5.0765043043
 31
0.0
 11
2.2413730873
 21
5.0686154221
 31
0.0
 11
2.2376773477
 21
5.0606067432
 31
0.0
 11
2.2344771356
 21
5.0524772474
 31
0.0
 11
2.2317523488
 21
5.0442254623
 31
0.0
 11
2.2294869792
 21
5.0358505923
 31
0.0
 11
2.2276759844
 21
5.0273551589
 31
0.0
 11
2.2254205191
 21
5.0100202022
 31
0.0
 11
2.2250393562
 21
4.9922825395
 31
0.0
  0
SPLINE
  5
309
100
AcDbEntity
  8
0
100
AcDbSpline
 62
6
  6
CONTINUOUS
 70
0
 71
3
 72
44
 73
40
 74
38
 42
0.0000001
 43
0.0000001
 44
0.0000000001
 12
-0.2925367804
 22
0.0096268442
 32
0.0
 13
0.0850129076
 23
-0.2800772207
 33
0.0
 40
0.0
 40
0.0
 40
0.0
 40
0.0
 40
0.0304373569
 40
0.0606295437
 40
0.0906109763
 40
0.1204126587
 40
0.1500881653
 40
0.1797251246
 40
0.2094163479
 40
0.2392641751
 40
0.2693949054
 40
0.2999474167
 40
0.3310798639
 40
0.3629850438
 40
0.3792951753
 40
0.3958641283
 40
0.4297309402
 40
0.4470149122
 40
0.464522272
 40
0.4822139819
 40
0.5000016722
 40
0.5177924468
 40
0.5354932305
 40
0.5530125687
 40
0.5702986763
 40
0.6041518484
 40
0.637019435
 40
0.668925975
 40
0.7000600837
 40
0.7306125622
 40
0.7607425803
 40
0.7905893405
 40
0.8202799792
 40
0.8499170516
 40
0.87959191
 40
0.9093915244
 40
0.9393714682
 40
0.9695628745
 40
1.0
 40
1.0
 40
1.0
 40
1.0
 10
2.2250393562
 20
4.9922825395
 30
0.0
 10
2.2220713407
 20
4.9923802114
 30
0.0
 10
2.2161526308
 20
4.9924134814
 30
0.0
 10
2.2073185688
 20
4.9919822757
 30
0.0
 10
2.1985821755
 20
4.9910814873
 30
0.0
 10
2.1899562041
 20
4.9897239474
 30
0.0
 10
2.1814479657
 20
4.9879138054
 30
0.0
 10
2.1730615211
 20
4.985644615
 30
0.0
 10
2.1647966558
 20
4.9829121161
 30
0.0
 10
2.1566511299
 20
4.9797073762
 30
0.0
 10
2.1486265905
 20
4.9760046129
 30
0.0
 10
2.1407211776
 20
4.9717805189
 30
0.0
 10
2.1329330805
 20
4.9670031595
 30
0.0
 10
2.1265931173
 20
4.9625510089
 30
0.0
 10
2.1215953152
 20
4.9586800159
 30
0.0
 10
2.1165750797
 20
4.9545308816
 30
0.0
 10
2.111692081
 20
4.9500711617
 30
0.0
 10
2.1069856263
 20
4.9453029689
 30
0.0
 10
2.1035215646
 20
4.9415304111
 30
0.0
 10
2.1001646394
 20
4.9375975337
 30
0.0
 10
2.0969298845
 20
4.9335282334
 30
0.0
 10
2.0938374304
 20
4.9293486715
 30
0.0
 10
2.0909068059
 20
4.9250858032
 30
0.0
 10
2.0881568061
 20
4.9207623457
 30
0.0
 10
2.084767912
 20
4.9149827492
 30
0.0
 10
2.0809922865
 20
4.9077003101
 30
0.0
 10
2.0771289343
 20
4.8988805045
 30
0.0
 10
2.0739139667
 20
4.8900863867
 30
0.0
 10
2.0713143255
 20
4.881326955
 30
0.0
 10
2.0692805221
 20
4.8725975077
 30
0.0
 10
2.0677808811
 20
4.8638882169
 30
0.0
 10
2.0667939483
 20
4.8551909752
 30
0.0
 10
2.0662942226
 20
4.8465006312
 30
0.0
 10
2.0662726926
 20
4.8378127594
 30
0.0
 10
2.0667260353
 20
4.829126164
 30
0.0
 10
2.0676475108
 20
4.8204431882
 30
0.0
 10
2.0690385515
 20
4.8117717704
 30
0.0
 10
2.0709084117
 20
4.8031273563
 30
0.0
 10
2.0724723832
 20
4.797419024
 30
0.0
 10
2.0733348994
 20
4.7945774421
 30
0.0
 11
2.2250393562
 21
4.9922825395
 31
0.0
 11
2.21613063
 21
4.9923325145
 31
0.0
 11
2.2073040311
 21
4.9919017007
 31
0.0
 11
2.1985748493
 21
4.9910020497
 31
0.0
 11
2.1899581999
 21
4.9896453163
 31
0.0
 11
2.1814628435
 21
4.9878360707
 31
0.0
 11
2.1730895143
 21
4.9855698098
 31
0.0
 11
2.1648384322
 21
4.9828414351
 31
0.0
 11
2.1567095156
 21
4.9796408262
 31
0.0
 11
2.148701941
 21
4.9759454784
 31
0.0
 11
2.1408147828
 21
4.9717309415
 31
0.0
 11
2.1330483368
 21
4.9669647461
 31
0.0
 11
2.1254052364
 21
4.9615990746
 31
0.0
 11
2.1216309068
 21
4.9586759733
 31
0.0
 11
2.1178930415
 21
4.9555860724
 31
0.0
 11
2.1105761153
 21
4.9488985284
 31
0.0
 11
2.1070227977
 21
4.9452975906
 31
0.0
 11
2.1035568029
 21
4.941523266
 31
0.0
 11
2.100193926
 21
4.9375855489
 31
0.0
 11
2.0969539158
 21
4.9335101805
 31
0.0
 11
2.0938568111
 21
4.9293240561
 31
0.0
 11
2.0909226507
 21
4.925054071
 31
0.0
 11
2.088171188
 21
4.9207269422
 31
0.0
 11
2.0856114327
 21
4.9163626786
 31
0.0
 11
2.0810471511
 21
4.9075678589
 31
0.0
 11
2.0771855165
 21
4.8987567468
 31
0.0
 11
2.0739808533
 21
4.8899849178
 31
0.0
 11
2.0713865647
 21
4.8812491962
 31
0.0
 11
2.069357083
 21
4.8725399702
 31
0.0
 11
2.0678603258
 21
4.8638490043
 31
0.0
 11
2.0668730677
 21
4.8551689672
 31
0.0
 11
2.066373595
 21
4.8464930269
 31
0.0
 11
2.0663516233
 21
4.8378184278
 31
0.0
 11
2.0668025963
 21
4.8291444564
 31
0.0
 11
2.0677223033
 21
4.8204708787
 31
0.0
 11
2.0691125932
 21
4.8118067322
 31
0.0
 11
2.0709809079
 21
4.803169614
 31
0.0
 11
2.0733348994
 21
4.7945774421
 31
0.0
  0
SPLINE
  5
30A
100
AcDbEntity
  8
0
100
AcDbSpline
 62
6
  6
CONTINUOUS
 70
0
 71
3
 72
41
 73
37
 74
35
 42
0.0000001
 43
0.0000001
 44
0.0000000001
 12
-0.2850413266
 22
-0.0664108191
 32
0.0
 13
0.1545951144
 23
-0.2485141955
 33
0.0
 40
0.0
 40
0.0
 40
0.0
 40
0.0
 40
0.0304569397
 40
0.0606664473
 40
0.0906620458
 40
0.1204754142
 40
0.1501668038
 40
0.1798202821
 40
0.2393608309
 40
0.2695084806
 40
0.3000833946
 40
0.3312452558
 40
0.3471028631
 40
0.3631728748
 40
0.396005348
 40
0.4298700394
 40
0.4471890397
 40
0.4646993867
 40
0.4823463849
 40
0.5000764995
 40
0.5178218253
 40
0.5355026504
 40
0.5530375063
 40
0.570346644
 40
0.604188329
 40
0.6370322189
 40
0.6689397185
 40
0.7000864603
 40
0.7306504928
 40
0.7607872305
 40
0.7906384044
 40
0.820330053
 40
0.8499732864
 40
0.8796522856
 40
0.9393807922
 40
1.0
 40
1.0
 40
1.0
 40
1.0
 10
2.0733348994
 20
4.7945774421
 30
0.0
 10
2.0704410705
 20
4.7939032187
 30
0.0
 10
2.0647123413
 20
4.792402584
 30
0.0
 10
2.0562868148
 20
4.7896980032
 30
0.0
 10
2.0480780107
 20
4.7865650213
 30
0.0
 10
2.0400944513
 20
4.783019193
 30
0.0
 10
2.0323422849
 20
4.7790642466
 30
0.0
 10
2.0223099263
 20
4.7732360936
 30
0.0
 10
2.0127319343
 20
4.7665655713
 30
0.0
 10
2.0037119209
 20
4.7590545062
 30
0.0
 10
1.9971653422
 20
4.7529230854
 30
0.0
 10
1.9919581994
 20
4.7474215991
 30
0.0
 10
1.9879353009
 20
4.7427622483
 30
0.0
 10
1.9839544736
 20
4.7378551219
 30
0.0
 10
1.9791685582
 20
4.7313442844
 30
0.0
 10
1.9747586668
 20
4.7244273263
 30
0.0
 10
1.9714462654
 20
4.7186002153
 30
0.0
 10
1.9690709134
 20
4.7140638984
 30
0.0
 10
1.966840162
 20
4.7094101876
 30
0.0
 10
1.9647736904
 20
4.7046561616
 30
0.0
 10
1.9628803329
 20
4.6998271164
 30
0.0
 10
1.9611644252
 20
4.6949524757
 30
0.0
 10
1.9596316685
 20
4.6900617041
 30
0.0
 10
1.9578522246
 20
4.6836002387
 30
0.0
 10
1.9560870269
 20
4.6755911622
 30
0.0
 10
1.9546384529
 20
4.6660758514
 30
0.0
 10
1.9538113974
 20
4.6567507212
 30
0.0
 10
1.9535665919
 20
4.6476151809
 30
0.0
 10
1.9538590398
 20
4.6386542553
 30
0.0
 10
1.954665596
 20
4.6298520553
 30
0.0
 10
1.9559623623
 20
4.6211949263
 30
0.0
 10
1.9577336607
 20
4.6126717845
 30
0.0
 10
1.9599630231
 20
4.604274189
 30
0.0
 10
1.9635481808
 20
4.5932218844
 30
0.0
 10
1.9691826013
 20
4.5796819555
 30
0.0
 10
1.9748456799
 20
4.5693665578
 30
0.0
 10
1.977969491
 20
4.56434498
 30
0.0
 11
2.0733348994
 21
4.7945774421
 31
0.0
 11
2.0647118603
 21
4.7923185484
 31
0.0
 11
2.0562933585
 21
4.7896162496
 31
0.0
 11
2.0480913114
 21
4.7864862555
 31
0.0
 11
2.0401172245
 21
4.7829435475
 31
0.0
 11
2.0323770418
 21
4.7789932722
 31
0.0
 11
2.0248727152
 21
4.7746335169
 31
0.0
 11
2.0105806471
 21
4.7646633427
 31
0.0
 11
2.0038001611
 21
4.7590172124
 31
0.0
 11
1.9972698608
 21
4.7528990965
 31
0.0
 11
1.9910001988
 21
4.7462755431
 31
0.0
 11
1.9879669172
 21
4.7427628061
 31
0.0
 11
1.9850041252
 21
4.7391100149
 31
0.0
 11
1.9793144739
 21
4.7313662585
 31
0.0
 11
1.9739858567
 21
4.7230091649
 31
0.0
 11
1.9714809355
 21
4.7186025129
 31
0.0
 11
1.9691040122
 21
4.7140622133
 31
0.0
 11
1.9668725325
 21
4.7094043045
 31
0.0
 11
1.96480336
 21
4.7046455217
 31
0.0
 11
1.9629066508
 21
4.699810627
 31
0.0
 11
1.9611882612
 21
4.6949295289
 31
0.0
 11
1.9596539767
 21
4.6900322205
 31
0.0
 11
1.9583091852
 21
4.6851480119
 31
0.0
 11
1.9561746513
 21
4.6754761191
 31
0.0
 11
1.9547257868
 21
4.6659733346
 31
0.0
 11
1.9539018653
 21
4.6566712083
 31
0.0
 11
1.9536562308
 21
4.6475586298
 31
0.0
 11
1.9539484758
 21
4.638618061
 31
0.0
 11
1.9547522108
 21
4.6298344718
 31
0.0
 11
1.9560454938
 21
4.6211940159
 31
0.0
 11
1.9578116518
 21
4.612685367
 31
0.0
 11
1.9600372192
 21
4.604299832
 31
0.0
 11
1.9627165683
 21
4.5960370735
 31
0.0
 11
1.9694307564
 21
4.5798968279
 31
0.0
 11
1.977969491
 21
4.56434498
 31
0.0
  0
SPLINE
  5
30B
100
AcDbEntity
  8
0
100
AcDbSpline
 62
6
  6
CONTINUOUS
 70
0
 71
3
 72
38
 73
34
 74
32
 42
0.0000001
 43
0.0000001
 44
0.0000000001
 12
-0.2581324521
 22
-0.137917806
 32
0.0
 13
0.2136410473
 23
-0.2000279655
 33
0.0
 40
0.0
 40
0.0
 40
0.0
 40
0.0
 40
0.0304576488
 40
0.0606681225
 40
0.0906650761
 40
0.1204800511
 40
0.1501724828
 40
0.1798268974
 40
0.2393697198
 40
0.2695183027
 40
0.3000942605
 40
0.3312569699
 40
0.3631825529
 40
0.3960186031
 40
0.4298802291
 40
0.4472029218
 40
0.4647197369
 40
0.4823708842
 40
0.5000986277
 40
0.5178386483
 40
0.5355158206
 40
0.5703655358
 40
0.6042087054
 40
0.6370485352
 40
0.6689577229
 40
0.700104944
 40
0.7306689262
 40
0.7608057665
 40
0.790657462
 40
0.8203495373
 40
0.8796507972
 40
0.9393799831
 40
1.0
 40
1.0
 40
1.0
 40
1.0
 10
1.977969491
 20
4.56434498
 30
0.0
 10
1.9753487885
 20
4.5629447626
 30
0.0
 10
1.9702036678
 20
4.5600125701
 30
0.0
 10
1.9627652091
 20
4.5552194495
 30
0.0
 10
1.9556469089
 20
4.5500685417
 30
0.0
 10
1.9488530374
 20
4.5445771388
 30
0.0
 10
1.9423884442
 20
4.5387506347
 30
0.0
 10
1.9342063536
 20
4.5305244314
 30
0.0
 10
1.9266813603
 20
4.5216020008
 30
0.0
 10
1.9199127472
 20
4.5120122804
 30
0.0
 10
1.915175987
 20
4.5043953589
 30
0.0
 10
1.9108238035
 20
4.4963546486
 30
0.0
 10
1.9068783109
 20
4.4878625215
 30
0.0
 10
1.9033771654
 20
4.4788939513
 30
0.0
 10
1.9009076801
 20
4.4710709866
 30
0.0
 10
1.8992172189
 20
4.4645843979
 30
0.0
 10
1.8980970488
 20
4.4595865635
 30
0.0
 10
1.8971462766
 20
4.4545135172
 30
0.0
 10
1.8963790061
 20
4.4493874018
 30
0.0
 10
1.8958005243
 20
4.4442340033
 30
0.0
 10
1.8952769536
 20
4.4373979887
 30
0.0
 10
1.8950689048
 20
4.4289672204
 30
0.0
 10
1.8955120742
 20
4.4190645682
 30
0.0
 10
1.896576664
 20
4.4094988182
 30
0.0
 10
1.8981913636
 20
4.4002779521
 30
0.0
 10
1.9003190655
 20
4.3913903238
 30
0.0
 10
1.9029211632
 20
4.3828107529
 30
0.0
 10
1.9059783363
 20
4.3745174966
 30
0.0
 10
1.9094716235
 20
4.3664909807
 30
0.0
 10
1.9146901843
 20
4.3561324039
 30
0.0
 10
1.9222735239
 20
4.343726558
 30
0.0
 10
1.9329849727
 20
4.3298158556
 30
0.0
 10
1.9411251516
 20
4.3213170143
 30
0.0
 10
1.9454421262
 20
4.3172751148
 30
0.0
 11
1.977969491
 21
4.56434498
 31
0.0
 11
1.9702249753
 21
4.5599312866
 31
0.0
 11
1.9627927238
 21
4.5551421928
 31
0.0
 11
1.955680165
 21
4.5499959158
 31
0.0
 11
1.9488945469
 21
4.5445099564
 31
0.0
 11
1.9424404041
 21
4.5386910392
 31
0.0
 11
1.9363201744
 21
4.532537561
 31
0.0
 11
1.9250956915
 21
4.5192077794
 31
0.0
 11
1.9200075996
 21
4.5119990953
 31
0.0
 11
1.9152832179
 21
4.5043992978
 31
0.0
 11
1.9109413646
 21
4.496378834
 31
0.0
 11
1.9070043839
 21
4.4879052227
 31
0.0
 11
1.9035123241
 21
4.478952131
 31
0.0
 11
1.9005287785
 21
4.4695017446
 31
0.0
 11
1.8992501227
 21
4.4645958678
 31
0.0
 11
1.8981292828
 21
4.4595933093
 31
0.0
 11
1.8971787408
 21
4.454515614
 31
0.0
 11
1.8964107227
 21
4.4493844564
 31
0.0
 11
1.8958303522
 21
4.4442250864
 31
0.0
 11
1.8954349062
 21
4.4390667056
 31
0.0
 11
1.8951862387
 21
4.428870393
 31
0.0
 11
1.89562695
 21
4.4189754404
 31
0.0
 11
1.896687316
 21
4.4094229947
 31
0.0
 11
1.8982992843
 21
4.4002244177
 31
0.0
 11
1.9004204131
 21
4.3913588844
 31
0.0
 11
1.9030168427
 21
4.3827989461
 31
0.0
 11
1.9060665583
 21
4.3745229322
 31
0.0
 11
1.9095520433
 21
4.366511726
 31
0.0
 11
1.913460157
 21
4.3587502447
 31
0.0
 11
1.9225067865
 21
4.3439390457
 31
0.0
 11
1.9331694261
 21
4.3300868216
 31
0.0
 11
1.9454421262
 21
4.3172751148
 31
0.0
  0
SPLINE
  5
30C
100
AcDbEntity
  8
0
100
AcDbSpline
 62
6
  6
CONTINUOUS
 70
0
 71
3
 72
22
 73
18
 74
16
 42
0.0000001
 43
0.0000001
 44
0.0000000001
 12
-0.0473174951
 22
0.1523066245
 32
0.0
 13
-0.1553273793
 23
0.0361892032
 33
0.0
 40
0.0
 40
0.0
 40
0.0
 40
0.0
 40
0.0348404291
 40
0.0699135104
 40
0.1050810241
 40
0.1401644412
 40
0.2093178387
 40
0.2763665474
 40
0.3412829837
 40
0.4042368563
 40
0.525838887
 40
0.5852951217
 40
0.6442626384
 40
0.7030185168
 40
0.7617833189
 40
0.8799739452
 40
1.0
 40
1.0
 40
1.0
 40
1.0
 10
3.839761425
 20
4.692279569
 30
0.0
 10
3.8392119044
 20
4.6940483784
 30
0.0
 10
3.8380420124
 20
4.6975773693
 30
0.0
 10
3.8360777194
 20
4.7028084964
 30
0.0
 10
3.8339010486
 20
4.7079690441
 30
0.0
 10
3.8307613986
 20
4.7146837491
 30
0.0
 10
3.8264439018
 20
4.7227119367
 30
0.0
 10
3.8206810155
 20
4.731728858
 30
0.0
 10
3.8144912582
 20
4.7400502915
 30
0.0
 10
3.8058712547
 20
4.750139401
 30
0.0
 10
3.7964900894
 20
4.7591607379
 30
0.0
 10
3.7864901301
 20
4.7670968298
 30
0.0
 10
3.7787615939
 20
4.7724920715
 30
0.0
 10
3.7707565638
 20
4.7773967246
 30
0.0
 10
3.7597012398
 20
4.7833093738
 30
0.0
 10
3.7451492381
 20
4.7895276406
 30
0.0
 10
3.7329731065
 20
4.7931295597
 30
0.0
 10
3.7267586624
 20
4.7945774421
 30
0.0
 11
3.839761425
 21
4.692279569
 31
0.0
 11
3.8380118805
 21
4.6975535646
 31
0.0
 11
3.8360449263
 21
4.7027900483
 31
0.0
 11
3.8338666454
 21
4.7079585569
 31
0.0
 11
3.8314970198
 21
4.7130273821
 31
0.0
 11
3.8262697963
 21
4.7227390859
 31
0.0
 11
3.8205142661
 21
4.7317514826
 31
0.0
 11
3.8143367434
 21
4.7400599265
 31
0.0
 11
3.8078141319
 21
4.7476930284
 31
0.0
 11
3.7938381691
 21
4.7611392067
 31
0.0
 11
3.7864113285
 21
4.7670349941
 31
0.0
 11
3.7787010411
 21
4.7724199356
 31
0.0
 11
3.7707115931
 21
4.7773169866
 31
0.0
 11
3.7624474905
 21
4.781737809
 31
0.0
 11
3.7451152093
 21
4.7891480494
 31
0.0
 11
3.7267586624
 21
4.7945774421
 31
0.0
  0
SPLINE
  5
30D
100
AcDbEntity
  8
0
100
AcDbSpline
 62
6
  6
CONTINUOUS
 70
0
 71
3
 72
39
 73
35
 74
33
 42
0.0000001
 43
0.0000001
 44
0.0000000001
 12
0.085006452
 22
0.2800559527
 32
0.0
 13
-0.2925145662
 23
-0.0096261131
 33
0.0
 40
0.0
 40
0.0
 40
0.0
 40
0.0
 40
0.0304577788
 40
0.0606684135
 40
0.0906655716
 40
0.1204807709
 40
0.1501733557
 40
0.1798279642
 40
0.2393714798
 40
0.2695202541
 40
0.3000961791
 40
0.3312592209
 40
0.3631866976
 40
0.3960253431
 40
0.4298837426
 40
0.4472039102
 40
0.4647189413
 40
0.4823689997
 40
0.5000962083
 40
0.5178351382
 40
0.5355091407
 40
0.5703420704
 40
0.6041816281
 40
0.6370229062
 40
0.6689301418
 40
0.7000783532
 40
0.7306435192
 40
0.7607810441
 40
0.7906330123
 40
0.8203255129
 40
0.8499695534
 40
0.8796492784
 40
0.9393792674
 40
1.0
 40
1.0
 40
1.0
 40
1.0
 10
3.7267586624
 20
4.7945774421
 30
0.0
 10
3.7276216983
 20
4.7974207362
 30
0.0
 10
3.7291865113
 20
4.8031324133
 30
0.0
 10
3.7310570772
 20
4.8117816874
 30
0.0
 10
3.732448239
 20
4.8204575801
 30
0.0
 10
3.7333692113
 20
4.8291448312
 30
0.0
 10
3.7338204025
 20
4.8378361966
 30
0.0
 10
3.733789108
 20
4.84943897
 30
0.0
 10
3.7328007085
 20
4.8610693961
 30
0.0
 10
3.7308056831
 20
4.8726367932
 30
0.0
 10
3.728769002
 20
4.8813723904
 30
0.0
 10
3.7261606676
 20
4.8901358833
 30
0.0
 10
3.7229449946
 20
4.8989310705
 30
0.0
 10
3.7190785673
 20
4.9077486798
 30
0.0
 10
3.7152932001
 20
4.9150264572
 30
0.0
 10
3.7119019484
 20
4.9208078968
 30
0.0
 10
3.709160084
 20
4.925133525
 30
0.0
 10
3.7062451862
 20
4.9293927348
 30
0.0
 10
3.7031630568
 20
4.9335598247
 30
0.0
 10
3.6999285866
 20
4.9376128032
 30
0.0
 10
3.695466721
 20
4.9428157767
 30
0.0
 10
3.6896533181
 20
4.9489223744
 30
0.0
 10
3.6823380608
 20
4.9556091195
 30
0.0
 10
3.6748225338
 20
4.961621582
 30
0.0
 10
3.6671604661
 20
4.9670002221
 30
0.0
 10
3.6593711577
 20
4.9717801346
 30
0.0
 10
3.6514644017
 20
4.9760075901
 30
0.0
 10
3.6434380458
 20
4.9797103198
 30
0.0
 10
3.6352922388
 20
4.9829159565
 30
0.0
 10
3.6270251897
 20
4.9856436233
 30
0.0
 10
3.6186378432
 20
4.9879118364
 30
0.0
 10
3.6072735077
 20
4.9903332249
 30
0.0
 10
3.5927301475
 20
4.9922237103
 30
0.0
 10
3.5809650213
 20
4.9924770535
 30
0.0
 10
3.5750542055
 20
4.9922825395
 30
0.0
 11
3.7267586624
 21
4.7945774421
 31
0.0
 11
3.7291139634
 21
4.8031748212
 31
0.0
 11
3.7309829876
 21
4.8118168571
 31
0.0
 11
3.7323733659
 21
4.8204854172
 31
0.0
 11
3.7332923561
 21
4.8291629917
 31
0.0
 11
3.7337415091
 21
4.8378415919
 31
0.0
 11
3.7337179216
 21
4.8465206605
 31
0.0
 11
3.7322289269
 21
4.8638837061
 31
0.0
 11
3.730729294
 21
4.8725790672
 31
0.0
 11
3.7286959727
 21
4.8812937468
 31
0.0
 11
3.7260946123
 21
4.8900354784
 31
0.0
 11
3.7228861055
 21
4.8988116717
 31
0.0
 11
3.7190239421
 21
4.9076125051
 31
0.0
 11
3.7144514621
 21
4.9164039416
 31
0.0
 11
3.7118868283
 21
4.920776455
 31
0.0
 11
3.7091421056
 21
4.9251059086
 31
0.0
 11
3.7062237593
 21
4.9293682612
 31
0.0
 11
3.7031385671
 21
4.9335395648
 31
0.0
 11
3.6999010782
 21
4.9375981925
 31
0.0
 11
3.6965339611
 21
4.9415249426
 31
0.0
 11
3.6895027731
 21
4.9489069062
 31
0.0
 11
3.6821945134
 21
4.9555909924
 31
0.0
 11
3.6746902379
 21
4.961596959
 31
0.0
 11
3.6670465138
 21
4.966961555
 31
0.0
 11
3.6592773436
 21
4.971730809
 31
0.0
 11
3.6513882984
 21
4.9759482319
 31
0.0
 11
3.6433795107
 21
4.9796440989
 31
0.0
 11
3.6352498884
 21
4.9828444125
 31
0.0
 11
3.6269979532
 21
4.9855692938
 31
0.0
 11
3.6186229429
 21
4.9878347542
 31
0.0
 11
3.6101273838
 21
4.9896458081
 31
0.0
 11
3.5927921565
 21
4.9919013541
 31
0.0
 11
3.5750542055
 21
4.9922825395
 31
0.0
  0
SPLINE
  5
30E
100
AcDbEntity
  8
0
100
AcDbSpline
 62
6
  6
CONTINUOUS
 70
0
 71
3
 72
41
 73
37
 74
35
 42
0.0000001
 43
0.0000001
 44
0.0000000001
 12
0.0096261986
 22
0.2925171637
 32
0.0
 13
-0.2800584395
 23
-0.0850072068
 33
0.0
 40
0.0
 40
0.0
 40
0.0
 40
0.0
 40
0.0304569397
 40
0.0606664473
 40
0.0906620458
 40
0.1204754142
 40
0.1501668038
 40
0.1798202821
 40
0.2393608309
 40
0.2695084806
 40
0.3000833946
 40
0.3312452558
 40
0.3471028631
 40
0.3631728748
 40
0.396005348
 40
0.4298700394
 40
0.4471890397
 40
0.4646993867
 40
0.4823463849
 40
0.5000764995
 40
0.5178218253
 40
0.5355026504
 40
0.5530375063
 40
0.570346644
 40
0.604188329
 40
0.6370322189
 40
0.6689397185
 40
0.7000864603
 40
0.7306504928
 40
0.7607872305
 40
0.7906384044
 40
0.820330053
 40
0.8499732864
 40
0.8796522856
 40
0.9393807922
 40
1.0
 40
1.0
 40
1.0
 40
1.0
 10
3.5750542055
 20
4.9922825395
 30
0.0
 10
3.5751519337
 20
4.9952522653
 30
0.0
 10
3.5751851361
 20
5.0011741856
 30
0.0
 10
3.5747533984
 20
5.0100126163
 30
0.0
 10
3.5738517651
 20
5.0187525876
 30
0.0
 10
3.5724930552
 20
5.0273818418
 30
0.0
 10
3.5706792787
 20
5.0358934749
 30
0.0
 10
3.5676462807
 20
5.0470924262
 30
0.0
 10
3.5636820176
 20
5.0580705142
 30
0.0
 10
3.5587614371
 20
5.0687271848
 30
0.0
 10
3.5545333187
 20
5.0766376227
 30
0.0
 10
3.5505669986
 20
5.0830912259
 30
0.0
 10
3.5471076142
 20
5.0881829761
 30
0.0
 10
3.5433980079
 20
5.0932982178
 30
0.0
 10
3.5383477079
 20
5.0996061859
 30
0.0
 10
3.5328078033
 20
5.1056560544
 30
0.0
 10
3.5280365588
 20
5.1103637557
 30
0.0
 10
3.5242695995
 20
5.1138322548
 30
0.0
 10
3.520351821
 20
5.1171914641
 30
0.0
 10
3.5162946268
 20
5.1204179548
 30
0.0
 10
3.5121201642
 20
5.1234966467
 30
0.0
 10
3.5078557325
 20
5.1264157361
 30
0.0
 10
3.5035283165
 20
5.1291620902
 30
0.0
 10
3.4977475742
 20
5.1325532513
 30
0.0
 10
3.4904682671
 20
5.1363312029
 30
0.0
 10
3.4816521013
 20
5.1401931616
 30
0.0
 10
3.4728587749
 20
5.1434055571
 30
0.0
 10
3.4640978809
 20
5.1460064729
 30
0.0
 10
3.4553666003
 20
5.1480432481
 30
0.0
 10
3.4466555759
 20
5.1495423517
 30
0.0
 10
3.4379578036
 20
5.1505304015
 30
0.0
 10
3.429266635
 20
5.15102541
 30
0.0
 10
3.4205781792
 20
5.1510454689
 30
0.0
 10
3.4089745658
 20
5.1504430195
 30
0.0
 10
3.3944377034
 20
5.1485049787
 30
0.0
 10
3.3830080818
 20
5.1457046861
 30
0.0
 10
3.3773491082
 20
5.1439869963
 30
0.0
 11
3.5750542055
 21
4.9922825395
 31
0.0
 11
3.5751040885
 21
5.0011964003
 31
0.0
 11
3.5746727369
 21
5.010027455
 31
0.0
 11
3.5737722408
 21
5.0187601262
 31
0.0
 11
3.5724140931
 21
5.027379423
 31
0.0
 11
3.5706017269
 21
5.0358782718
 31
0.0
 11
3.5683327893
 21
5.0442552824
 31
0.0
 11
3.5624014
 21
5.0606408311
 31
0.0
 11
3.5587025758
 21
5.0686516037
 31
0.0
 11
3.5544830957
 21
5.0765428743
 31
0.0
 11
3.5497079424
 21
5.0843132045
 31
0.0
 11
3.5470999701
 21
5.0881522928
 31
0.0
 11
3.5443384716
 21
5.091959542
 31
0.0
 11
3.5383311675
 21
5.0994595548
 31
0.0
 11
3.5316379826
 21
5.1067695787
 31
0.0
 11
3.5280298049
 21
5.1103296723
 31
0.0
 11
3.5242594052
 21
5.1138007199
 31
0.0
 11
3.5203377603
 21
5.1171617193
 31
0.0
 11
3.5162766703
 21
5.1203920501
 31
0.0
 11
3.5120974251
 21
5.1234754933
 31
0.0
 11
3.5078273984
 21
5.1263986513
 31
0.0
 11
3.5034940637
 21
5.129148173
 31
0.0
 11
3.4991243382
 21
5.1317112681
 31
0.0
 11
3.4903344652
 21
5.1362763396
 31
0.0
 11
3.4815304739
 21
5.1401353368
 31
0.0
 11
3.4727585565
 21
5.1433387513
 31
0.0
 11
3.4640200564
 21
5.1459345249
 31
0.0
 11
3.4553084916
 21
5.1479662274
 31
0.0
 11
3.446616174
 21
5.1494632391
 31
0.0
 11
3.4379354082
 21
5.1504503382
 31
0.0
 11
3.4292595692
 21
5.150946561
 31
0.0
 11
3.4205837452
 21
5.1509671642
 31
0.0
 11
3.4119090667
 21
5.1505176709
 31
0.0
 11
3.3945810269
 21
5.1482096662
 31
0.0
 11
3.3773491082
 21
5.1439869963
 31
0.0
  0
SPLINE
  5
30F
100
AcDbEntity
  8
0
100
AcDbSpline
 62
6
  6
CONTINUOUS
 70
0
 71
3
 72
40
 73
36
 74
34
 42
0.0000001
 43
0.0000001
 44
0.0000000001
 12
-0.0664114882
 22
0.2850441984
 32
0.0
 13
-0.2485166993
 23
-0.1545966719
 33
0.0
 40
0.0
 40
0.0
 40
0.0
 40
0.0
 40
0.0304500246
 40
0.060652936
 40
0.0906423408
 40
0.120449772
 40
0.1501347568
 40
0.1797817199
 40
0.2393091829
 40
0.2694494258
 40
0.3000162693
 40
0.3311694897
 40
0.3630856474
 40
0.3959114347
 40
0.4297608351
 40
0.447076175
 40
0.4645855571
 40
0.482230194
 40
0.4999532405
 40
0.5176896437
 40
0.535362968
 40
0.5702003461
 40
0.6040410751
 40
0.6368921101
 40
0.6688132619
 40
0.6999660457
 40
0.7606495213
 40
0.7905061105
 40
0.8202064691
 40
0.8498549643
 40
0.8795418099
 40
0.9093531972
 40
0.9393454126
 40
0.9695496426
 40
1.0
 40
1.0
 40
1.0
 40
1.0
 10
3.3773491082
 20
5.1439869963
 30
0.0
 10
3.376675031
 20
5.1468801973
 30
0.0
 10
3.3751747512
 20
5.1526077161
 30
0.0
 10
3.3724708771
 20
5.1610315413
 30
0.0
 10
3.3693387325
 20
5.1692388024
 30
0.0
 10
3.3657939046
 20
5.1772209179
 30
0.0
 10
3.361840308
 20
5.1849718029
 30
0.0
 10
3.3560139703
 20
5.1950024179
 30
0.0
 10
3.3493454591
 20
5.2045787397
 30
0.0
 10
3.3418370417
 20
5.2135974163
 30
0.0
 10
3.3357079742
 20
5.2201432763
 30
0.0
 10
3.3290702085
 20
5.2264274888
 30
0.0
 10
3.3218914379
 20
5.232435997
 30
0.0
 10
3.3141377201
 20
5.2381386857
 30
0.0
 10
3.3072235332
 20
5.24254875
 30
0.0
 10
3.3013983374
 20
5.245860686
 30
0.0
 10
3.2968629333
 20
5.2482364176
 30
0.0
 10
3.2922107615
 20
5.2504681204
 30
0.0
 10
3.2874594081
 20
5.2525363523
 30
0.0
 10
3.2826327767
 20
5.2544299212
 30
0.0
 10
3.2761675161
 20
5.2567065411
 30
0.0
 10
3.2680799182
 20
5.2590913201
 30
0.0
 10
3.2584003876
 20
5.2612284484
 30
0.0
 10
3.2488831659
 20
5.2626788156
 30
0.0
 10
3.2395553851
 20
5.2635096908
 30
0.0
 10
3.2274804
 20
5.2638373387
 30
0.0
 10
3.2155984336
 20
5.2631007056
 30
0.0
 10
3.203992738
 20
5.2613623115
 30
0.0
 10
3.1954663209
 20
5.2595954487
 30
0.0
 10
3.1870660641
 20
5.2573681061
 30
0.0
 10
3.1787895872
 20
5.2546822051
 30
0.0
 10
3.1706378875
 20
5.251544413
 30
0.0
 10
3.1626189639
 20
5.2479555577
 30
0.0
 10
3.154750082
 20
5.2439107725
 30
0.0
 10
3.1496391201
 20
5.2409215793
 30
0.0
 10
3.147116646
 20
5.2393524046
 30
0.0
 11
3.3773491082
 21
5.1439869963
 31
0.0
 11
3.3750907565
 21
5.152608178
 31
0.0
 11
3.3723891641
 21
5.1610249725
 31
0.0
 11
3.369260005
 21
5.1692254926
 31
0.0
 11
3.365718296
 21
5.1771982181
 31
0.0
 11
3.3617693257
 21
5.1849370605
 31
0.0
 11
3.3574109471
 21
5.1924400827
 31
0.0
 11
3.3474438439
 21
5.2067298375
 31
0.0
 11
3.3417997321
 21
5.2135092989
 31
0.0
 11
3.3356840133
 21
5.2200387317
 31
0.0
 11
3.3290631743
 21
5.226307716
 31
0.0
 11
3.32189999
 21
5.2323032378
 31
0.0
 11
3.3141588143
 21
5.2379932598
 31
0.0
 11
3.3058063867
 21
5.243321056
 31
0.0
 11
3.3014008894
 21
5.2458259441
 31
0.0
 11
3.2968611785
 21
5.2482034942
 31
0.0
 11
3.2922045302
 21
5.2504361252
 31
0.0
 11
3.2874484809
 21
5.2525065264
 31
0.0
 11
3.2826164299
 21
5.2544034766
 31
0.0
 11
3.2777375717
 21
5.2561217742
 31
0.0
 11
3.267956914
 21
5.2590027833
 31
0.0
 11
3.258285883
 21
5.2611403842
 31
0.0
 11
3.248781268
 21
5.2625917583
 31
0.0
 11
3.2394753471
 21
5.2634191864
 31
0.0
 11
3.2303609723
 21
5.2636672098
 31
0.0
 11
3.2126340092
 21
5.262572275
 31
0.0
 11
3.2039917121
 21
5.2612799916
 31
0.0
 11
3.1954797158
 21
5.2595169901
 31
0.0
 11
3.1870919933
 21
5.2572933225
 31
0.0
 11
3.1788270847
 21
5.254612875
 31
0.0
 11
3.1706840621
 21
5.2514792763
 31
0.0
 11
3.1626719717
 21
5.2478930504
 31
0.0
 11
3.1548097231
 21
5.243851652
 31
0.0
 11
3.147116646
 21
5.2393524046
 31
0.0
  0
SPLINE
  5
310
100
AcDbEntity
  8
0
100
AcDbSpline
 62
6
  6
CONTINUOUS
 70
0
 71
3
 72
41
 73
37
 74
35
 42
0.0000001
 43
0.0000001
 44
0.0000000001
 12
-0.1379220493
 22
0.2581403941
 32
0.0
 13
-0.2000341198
 23
-0.2136476204
 33
0.0
 40
0.0
 40
0.0
 40
0.0
 40
0.0
 40
0.0304569397
 40
0.0606664473
 40
0.0906620458
 40
0.1204754142
 40
0.1501668038
 40
0.1798202821
 40
0.2393608309
 40
0.2695084806
 40
0.3000833946
 40
0.3312452558
 40
0.3471028631
 40
0.3631728748
 40
0.396005348
 40
0.4298700394
 40
0.4471890397
 40
0.4646993867
 40
0.4823463849
 40
0.5000764995
 40
0.5178218253
 40
0.5355026504
 40
0.5530375063
 40
0.570346644
 40
0.604188329
 40
0.6370322189
 40
0.6689397185
 40
0.7000864603
 40
0.7306504928
 40
0.7607872305
 40
0.7906384044
 40
0.820330053
 40
0.8499732864
 40
0.8796522856
 40
0.9393807922
 40
1.0
 40
1.0
 40
1.0
 40
1.0
 10
3.147116646
 20
5.2393524046
 30
0.0
 10
3.1457164182
 20
5.2419731268
 30
0.0
 10
3.1427842122
 20
5.2471182614
 30
0.0
 10
3.137991101
 20
5.254556698
 30
0.0
 10
3.132840278
 20
5.2616749186
 30
0.0
 10
3.1273489737
 20
5.2684687169
 30
0.0
 10
3.1215223805
 20
5.2749331192
 30
0.0
 10
3.1132962515
 20
5.2831151965
 30
0.0
 10
3.104374055
 20
5.2906403681
 30
0.0
 10
3.094784372
 20
5.2974090252
 30
0.0
 10
3.0871674951
 20
5.3021456062
 30
0.0
 10
3.0805057596
 20
5.3057514305
 30
0.0
 10
3.0749639696
 20
5.3084313234
 30
0.0
 10
3.0691937355
 20
5.3110064494
 30
0.0
 10
3.0616660634
 20
5.31394416
 30
0.0
 10
3.0538434311
 20
5.3164135476
 30
0.0
 10
3.0473575615
 20
5.3181049142
 30
0.0
 10
3.0423610295
 20
5.3192252429
 30
0.0
 10
3.0372885291
 20
5.3201755143
 30
0.0
 10
3.0321616504
 20
5.3209411401
 30
0.0
 10
3.0270071139
 20
5.3215201342
 30
0.0
 10
3.021854463
 20
5.3219159239
 30
0.0
 10
3.0167336338
 20
5.3221306283
 30
0.0
 10
3.0100317835
 20
5.3221770889
 30
0.0
 10
3.0018387429
 20
5.3218092373
 30
0.0
 10
2.9922727399
 20
5.3207457087
 30
0.0
 10
2.9830512981
 20
5.3191310617
 30
0.0
 10
2.9741636835
 20
5.3170030739
 30
0.0
 10
2.9655837851
 20
5.3144013326
 30
0.0
 10
2.9572902649
 20
5.3113440822
 30
0.0
 10
2.9492637482
 20
5.3078508723
 30
0.0
 10
2.9414894711
 20
5.3039339779
 30
0.0
 10
2.9339550183
 20
5.2996071216
 30
0.0
 10
2.9242072189
 20
5.2932835783
 30
0.0
 10
2.9125869472
 20
5.2843367546
 30
0.0
 10
2.9040887508
 20
5.2761968193
 30
0.0
 10
2.9000467809
 20
5.2718797694
 30
0.0
 11
3.147116646
 21
5.2393524046
 31
0.0
 11
3.1427029155
 21
5.247096976
 31
0.0
 11
3.1379138267
 21
5.2545292179
 31
0.0
 11
3.1327676386
 21
5.261641685
 31
0.0
 11
3.1272817999
 21
5.2684271412
 31
0.0
 11
3.1214628203
 21
5.2748811771
 31
0.0
 11
3.1153093574
 21
5.2810014122
 31
0.0
 11
3.1019798492
 21
5.292226019
 31
0.0
 11
3.0947711872
 21
5.2973141394
 31
0.0
 11
3.0871713749
 21
5.3020384402
 31
0.0
 11
3.0791508057
 21
5.3063801669
 31
0.0
 11
3.0749726913
 21
5.3084009288
 31
0.0
 11
3.0706775389
 21
5.3103173541
 31
0.0
 11
3.0617250545
 21
5.3138089036
 31
0.0
 11
3.0522735744
 21
5.3167929775
 31
0.0
 11
3.0473687541
 21
5.3180720202
 31
0.0
 11
3.0423679684
 21
5.3191928358
 31
0.0
 11
3.0372912246
 21
5.3201427242
 31
0.0
 11
3.0321590521
 21
5.3209097277
 31
0.0
 11
3.0269979979
 21
5.3214904452
 31
0.0
 11
3.0218384673
 21
5.321886961
 31
0.0
 11
3.0167109286
 21
5.3221014493
 31
0.0
 11
3.0116450877
 21
5.322136292
 31
0.0
 11
3.0017502986
 21
5.3216948234
 31
0.0
 11
2.9921963199
 21
5.3206348174
 31
0.0
 11
2.9829979094
 21
5.319023097
 31
0.0
 11
2.9741322595
 21
5.3169018528
 31
0.0
 11
2.9655719718
 21
5.3143055764
 31
0.0
 11
2.9572956981
 21
5.3112558678
 31
0.0
 11
2.9492843848
 21
5.3077703378
 31
0.0
 11
2.9415227764
 21
5.3038621598
 31
0.0
 11
2.9339989909
 21
5.2995420906
 31
0.0
 11
2.9267112456
 21
5.2948154788
 31
0.0
 11
2.9128587253
 21
5.2841526682
 31
0.0
 11
2.9000467809
 21
5.2718797694
 31
0.0
  0
SPLINE
  5
311
100
AcDbEntity
  8
0
100
AcDbSpline
 62
6
  6
CONTINUOUS
 70
0
 71
3
 72
15
 73
11
 74
9
 42
0.0000001
 43
0.0000001
 44
0.0000000001
 12
-0.0156533045
 22
-0.0524908634
 32
0.0
 13
0.0004565592
 23
-0.0547732438
 33
0.0
 40
0.0
 40
0.0
 40
0.0
 40
0.0
 40
0.1423126296
 40
0.2812718963
 40
0.4159794956
 40
0.545611153
 40
0.6694688506
 40
0.7868965496
 40
0.8972673809
 40
1.0
 40
1.0
 40
1.0
 40
1.0
 10
3.872513375
 20
3.942263999
 30
0.0
 10
3.8717708207
 20
3.9397739614
 30
0.0
 10
3.8703636369
 20
3.9348342655
 30
0.0
 10
3.8684742687
 20
3.9274769907
 30
0.0
 10
3.8668439063
 20
3.92029507
 30
0.0
 10
3.8654887668
 20
3.9133367083
 30
0.0
 10
3.8644224035
 20
3.9066473464
 30
0.0
 10
3.8636588085
 20
3.9002703289
 30
0.0
 10
3.8632073592
 20
3.8942502143
 30
0.0
 10
3.8631157681
 20
3.8903578811
 30
0.0
 10
3.8631314026
 20
3.8884822148
 30
0.0
 11
3.872513375
 21
3.942263999
 31
0.0
 11
3.8703800512
 21
3.9347663996
 31
0.0
 11
3.8684901952
 21
3.9273932325
 31
0.0
 11
3.8668612601
 21
3.920196655
 31
0.0
 11
3.8655094413
 21
3.9132259299
 31
0.0
 11
3.8644486464
 21
3.9065250524
 31
0.0
 11
3.8636922499
 21
3.9001375627
 31
0.0
 11
3.8632504336
 21
3.89410815
 31
0.0
 11
3.8631314026
 21
3.8884822148
 31
0.0
  0
SPLINE
  5
312
100
AcDbEntity
  8
0
100
AcDbSpline
 62
6
  6
CONTINUOUS
 70
0
 71
3
 72
23
 73
19
 74
17
 42
0.0000001
 43
0.0000001
 44
0.0000000001
 12
-0.1116686573
 22
-0.098874027
 32
0.0
 13
-0.0195259626
 23
-0.1478671668
 33
0.0
 40
0.0
 40
0.0
 40
0.0
 40
0.0
 40
0.0500040567
 40
0.1047106595
 40
0.1636221469
 40
0.2262044324
 40
0.291866697
 40
0.3598982086
 40
0.4295409797
 40
0.4999957317
 40
0.5704507688
 40
0.6400935435
 40
0.7081244384
 40
0.7737860519
 40
0.8363697809
 40
0.8952848943
 40
0.9499946754
 40
1.0
 40
1.0
 40
1.0
 40
1.0
 10
3.8631314026
 20
3.8884822148
 30
0.0
 10
3.8612701073
 20
3.8868341807
 30
0.0
 10
3.8575166829
 20
3.8832189808
 30
0.0
 10
3.85202561
 20
3.8772116082
 30
0.0
 10
3.846466025
 20
3.8704370369
 30
0.0
 10
3.8408918412
 20
3.8629833152
 30
0.0
 10
3.8353586742
 20
3.8549427126
 30
0.0
 10
3.8299234028
 20
3.8464166462
 30
0.0
 10
3.8246476208
 20
3.8375130804
 30
0.0
 10
3.8195920069
 20
3.8283449517
 30
0.0
 10
3.8148183159
 20
3.8190269211
 30
0.0
 10
3.8103870806
 20
3.8096743187
 30
0.0
 10
3.8063579867
 20
3.8004006401
 30
0.0
 10
3.8027860859
 20
3.7913171979
 30
0.0
 10
3.7997235884
 20
3.7825277333
 30
0.0
 10
3.7972159544
 20
3.7741299489
 30
0.0
 10
3.7953060895
 20
3.7662179744
 30
0.0
 10
3.7944077591
 20
3.7610844398
 30
0.0
 10
3.7940822917
 20
3.7586197245
 30
0.0
 11
3.8631314026
 21
3.8884822148
 31
0.0
 11
3.8577398416
 21
3.8833290605
 31
0.0
 11
3.8522195859
 21
3.877320336
 31
0.0
 11
3.8466323815
 21
3.8705388047
 31
0.0
 11
3.8410322201
 21
3.863071178
 31
0.0
 11
3.8354725593
 21
3.8550086492
 31
0.0
 11
3.8300129256
 21
3.8464556913
 31
0.0
 11
3.8247145049
 21
3.8375213628
 31
0.0
 11
3.8196391819
 21
3.8283198842
 31
0.0
 11
3.8148488443
 21
3.8189668275
 31
0.0
 11
3.8104047539
 21
3.8095782409
 31
0.0
 11
3.8063670064
 21
3.8002693518
 31
0.0
 11
3.8027917768
 21
3.7911517846
 31
0.0
 11
3.7997322845
 21
3.7823330102
 31
0.0
 11
3.7972342865
 21
3.7739083125
 31
0.0
 11
3.7953395906
 21
3.7659713197
 31
0.0
 11
3.7940822917
 21
3.7586197245
 31
0.0
  0
SPLINE
  5
313
100
AcDbEntity
  8
0
100
AcDbSpline
 62
6
  6
CONTINUOUS
 70
0
 71
3
 72
23
 73
19
 74
17
 42
0.0000001
 43
0.0000001
 44
0.0000000001
 12
-0.1243425152
 22
-0.0823705216
 32
0.0
 13
-0.039915071
 23
-0.1437106503
 33
0.0
 40
0.0
 40
0.0
 40
0.0
 40
0.0
 40
0.0500024274
 40
0.104707865
 40
0.1636227279
 40
0.2262092679
 40
0.2918731541
 40
0.3599040864
 40
0.4295448572
 40
0.4999977743
 40
0.5704521258
 40
0.6400950671
 40
0.7081265767
 40
0.7737902091
 40
0.8363768832
 40
0.8952920911
 40
0.9499976098
 40
1.0
 40
1.0
 40
1.0
 40
1.0
 10
3.7940822917
 20
3.7586197245
 30
0.0
 10
3.7920098159
 20
3.7572468159
 30
0.0
 10
3.7877898566
 20
3.7541893078
 30
0.0
 10
3.7815161487
 20
3.7490045688
 30
0.0
 10
3.7750676381
 20
3.7430694083
 30
0.0
 10
3.7685099799
 20
3.7364637157
 30
0.0
 10
3.7619114715
 20
3.7292712134
 30
0.0
 10
3.7553425692
 20
3.7215845665
 30
0.0
 10
3.7488791374
 20
3.7135020626
 30
0.0
 10
3.7425969168
 20
3.7051269314
 30
0.0
 10
3.7365729441
 20
3.6965640389
 30
0.0
 10
3.7308831998
 20
3.6879191599
 30
0.0
 10
3.7256025916
 20
3.6792963583
 30
0.0
 10
3.7208011625
 20
3.6707981745
 30
0.0
 10
3.7165452009
 20
3.6625201886
 30
0.0
 10
3.712893208
 20
3.6545532033
 30
0.0
 10
3.7099009019
 20
3.6469843625
 30
0.0
 10
3.7082970796
 20
3.642026118
 30
0.0
 10
3.7076317966
 20
3.639630826
 30
0.0
 11
3.7940822917
 21
3.7586197245
 31
0.0
 11
3.7880261925
 21
3.7542672572
 31
0.0
 11
3.7817235442
 21
3.7490853864
 31
0.0
 11
3.7752465593
 21
3.7431470751
 31
0.0
 11
3.7686611433
 21
3.7365310789
 31
0.0
 11
3.762033355
 21
3.729320575
 31
0.0
 11
3.7554366028
 21
3.7216107239
 31
0.0
 11
3.7489465284
 21
3.7135009624
 31
0.0
 11
3.7426401766
 21
3.7050955895
 31
0.0
 11
3.7365948335
 21
3.6965003181
 31
0.0
 11
3.7308873409
 21
3.6878215767
 31
0.0
 11
3.725593292
 21
3.6791651492
 31
0.0
 11
3.7207838169
 21
3.6706336106
 31
0.0
 11
3.7165266281
 21
3.6623260341
 31
0.0
 11
3.7128804305
 21
3.6543309718
 31
0.0
 11
3.7098997983
 21
3.6467355002
 31
0.0
 11
3.7076317966
 21
3.639630826
 31
0.0
  0
SPLINE
  5
314
100
AcDbEntity
  8
0
100
AcDbSpline
 62
6
  6
CONTINUOUS
 70
0
 71
3
 72
23
 73
19
 74
17
 42
0.0000001
 43
0.0000001
 44
0.0000000001
 12
-0.1345961782
 22
-0.0642637614
 32
0.0
 13
-0.0595272748
 23
-0.1367569588
 33
0.0
 40
0.0
 40
0.0
 40
0.0
 40
0.0
 40
0.0500040567
 40
0.1047106595
 40
0.1636221469
 40
0.2262044324
 40
0.291866697
 40
0.3598982086
 40
0.4295409797
 40
0.4999957317
 40
0.5704507688
 40
0.6400935435
 40
0.7081244384
 40
0.7737860519
 40
0.8363697809
 40
0.8952848943
 40
0.9499946754
 40
1.0
 40
1.0
 40
1.0
 40
1.0
 10
3.7076317966
 20
3.639630826
 30
0.0
 10
3.7053883449
 20
3.6385596764
 30
0.0
 10
3.7007838377
 20
3.6361191072
 30
0.0
 10
3.6938496233
 20
3.6318579949
 30
0.0
 10
3.6866380822
 20
3.6268782882
 30
0.0
 10
3.6792253088
 20
3.6212497644
 30
0.0
 10
3.6716901968
 20
3.6150457886
 30
0.0
 10
3.6641153762
 20
3.6083481714
 30
0.0
 10
3.6565898137
 20
3.6012437172
 30
0.0
 10
3.649202967
 20
3.5938242624
 30
0.0
 10
3.6420458034
 20
3.586183004
 30
0.0
 10
3.6352083
 20
3.5784141196
 30
0.0
 10
3.6287791142
 20
3.5706102563
 30
0.0
 10
3.6228418467
 20
3.5628632406
 30
0.0
 10
3.6174752804
 20
3.5552584036
 30
0.0
 10
3.6127500448
 20
3.5478771327
 30
0.0
 10
3.6087333291
 20
3.5407980848
 30
0.0
 10
3.6064548046
 20
3.5361110281
 30
0.0
 10
3.6054625777
 20
3.5338315027
 30
0.0
 11
3.7076317966
 21
3.639630826
 31
0.0
 11
3.7010286936
 21
3.6361634117
 31
0.0
 11
3.6940660544
 21
3.6319090438
 31
0.0
 11
3.6868260454
 21
3.6269302597
 31
0.0
 11
3.6793844679
 21
3.6212955299
 31
0.0
 11
3.6718178448
 21
3.6150777799
 31
0.0
 11
3.6642121934
 21
3.6083610281
 31
0.0
 11
3.6566563898
 21
3.601233243
 31
0.0
 11
3.649241405
 21
3.5937871628
 31
0.0
 11
3.6420585851
 21
3.5861168236
 31
0.0
 11
3.6351988061
 21
3.5783168922
 31
0.0
 11
3.6287515964
 21
3.5704815677
 31
0.0
 11
3.6228017231
 21
3.5627026664
 31
0.0
 11
3.6174299666
 21
3.5550688268
 31
0.0
 11
3.6127065755
 21
3.5476590291
 31
0.0
 11
3.6086975451
 21
3.540551751
 31
0.0
 11
3.6054625777
 21
3.5338315027
 31
0.0
  0
SPLINE
  5
315
100
AcDbEntity
  8
0
100
AcDbSpline
 62
6
  6
CONTINUOUS
 70
0
 71
3
 72
23
 73
19
 74
17
 42
0.0000001
 43
0.0000001
 44
0.0000000001
 12
-0.1422300844
 22
-0.0449061834
 32
0.0
 13
-0.0779808495
 23
-0.127141454
 33
0.0
 40
0.0
 40
0.0
 40
0.0
 40
0.0
 40
0.0500040567
 40
0.1047106595
 40
0.1636221469
 40
0.2262044324
 40
0.291866697
 40
0.3598982086
 40
0.4295409797
 40
0.4999957317
 40
0.5704507688
 40
0.6400935435
 40
0.7081244384
 40
0.7737860519
 40
0.8363697809
 40
0.8952848943
 40
0.9499946754
 40
1.0
 40
1.0
 40
1.0
 40
1.0
 10
3.6054625777
 20
3.5338315027
 30
0.0
 10
3.603091884
 20
3.5330830056
 30
0.0
 10
3.5981925259
 20
3.5313070114
 30
0.0
 10
3.5907327626
 20
3.5280524241
 30
0.0
 10
3.5828983625
 20
3.5241248321
 30
0.0
 10
3.5747743906
 20
3.5195827433
 30
0.0
 10
3.5664491832
 20
3.5144878291
 30
0.0
 10
3.5580159521
 20
3.508909604
 30
0.0
 10
3.5495748789
 20
3.5029216457
 30
0.0
 10
3.541227332
 20
3.4966024468
 30
0.0
 10
3.5330763638
 20
3.4900316373
 30
0.0
 10
3.5252241827
 20
3.4832899557
 30
0.0
 10
3.5177714775
 20
3.4764568088
 30
0.0
 10
3.5108138149
 20
3.4696114944
 30
0.0
 10
3.5044410869
 20
3.4628275489
 30
0.0
 10
3.4987345626
 20
3.4561757377
 30
0.0
 10
3.4937717243
 20
3.4497246014
 30
0.0
 10
3.4908630619
 20
3.445400268
 30
0.0
 10
3.4895632427
 20
3.4432810182
 30
0.0
 11
3.6054625777
 21
3.5338315027
 31
0.0
 11
3.5984411649
 21
3.5313168074
 31
0.0
 11
3.590954192
 21
3.5280728547
 31
0.0
 11
3.5830917295
 21
3.5241501384
 31
0.0
 11
3.5749383701
 21
3.5196059128
 31
0.0
 11
3.5665800412
 21
3.5145017439
 31
0.0
 11
3.5581136164
 21
3.5089088612
 31
0.0
 11
3.5496393494
 21
3.5029020078
 31
0.0
 11
3.5412602327
 21
3.4965603587
 31
0.0
 11
3.5330798106
 21
3.4899643221
 31
0.0
 11
3.5252012498
 21
3.4831949958
 31
0.0
 11
3.5177263175
 21
3.4763332023
 31
0.0
 11
3.5107517342
 21
3.4694580671
 31
0.0
 11
3.5043698301
 21
3.4626461235
 31
0.0
 11
3.4986611622
 21
3.4559658064
 31
0.0
 11
3.4937020055
 21
3.449485645
 31
0.0
 11
3.4895632427
 21
3.4432810182
 31
0.0
  0
SPLINE
  5
316
100
AcDbEntity
  8
0
100
AcDbSpline
 62
6
  6
CONTINUOUS
 70
0
 71
3
 72
23
 73
19
 74
17
 42
0.0000001
 43
0.0000001
 44
0.0000000001
 12
-0.1470956438
 22
-0.0246745576
 32
0.0
 13
-0.0949166156
 23
-0.1150512855
 33
0.0
 40
0.0
 40
0.0
 40
0.0
 40
0.0
 40
0.0500040567
 40
0.1047106595
 40
0.1636221469
 40
0.2262044324
 40
0.291866697
 40
0.3598982086
 40
0.4295409797
 40
0.4999957317
 40
0.5704507688
 40
0.6400935435
 40
0.7081244384
 40
0.7737860519
 40
0.8363697809
 40
0.8952848943
 40
0.9499946754
 40
1.0
 40
1.0
 40
1.0
 40
1.0
 10
3.4895632427
 20
3.4432810182
 30
0.0
 10
3.4871114497
 20
3.4428697422
 30
0.0
 10
3.4820126013
 20
3.4417928907
 30
0.0
 10
3.4741724849
 20
3.4396081752
 30
0.0
 10
3.4658677135
 20
3.436809144
 30
0.0
 10
3.4571906669
 20
3.4334418969
 30
0.0
 10
3.4482374049
 20
3.429555211
 30
0.0
 10
3.4391099065
 20
3.4252049516
 30
0.0
 10
3.4299176186
 20
3.4204500381
 30
0.0
 10
3.4207718468
 20
3.4153540912
 30
0.0
 10
3.4117857234
 20
3.4099816239
 30
0.0
 10
3.4030716985
 20
3.4043983642
 30
0.0
 10
3.3947405322
 20
3.3986689332
 30
0.0
 10
3.3868978975
 20
3.3928585564
 30
0.0
 10
3.3796430457
 20
3.3870275441
 30
0.0
 10
3.3730663037
 20
3.3812346626
 30
0.0
 10
3.3672539387
 20
3.3755370018
 30
0.0
 10
3.3637717524
 20
3.3716595602
 30
0.0
 10
3.3621896404
 20
3.3697418346
 30
0.0
 11
3.4895632427
 21
3.4432810182
 31
0.0
 11
3.4822601839
 21
3.4417679875
 31
0.0
 11
3.4743946028
 21
3.43959759
 31
0.0
 11
3.4660627206
 21
3.4368072925
 31
0.0
 11
3.4573562751
 21
3.4334420193
 31
0.0
 11
3.448368926
 21
3.4295507785
 31
0.0
 11
3.4392065169
 21
3.4251906239
 31
0.0
 11
3.4299787285
 21
3.4204216188
 31
0.0
 11
3.4207985698
 21
3.4153078338
 31
0.0
 11
3.4117797682
 21
3.4099144841
 31
0.0
 11
3.4030357728
 21
3.4043075202
 31
0.0
 11
3.3946786091
 21
3.3985528147
 31
0.0
 11
3.386815068
 21
3.3927152622
 31
0.0
 11
3.3795472328
 21
3.3868578013
 31
0.0
 11
3.3729644008
 21
3.3810369897
 31
0.0
 11
3.3671516422
 21
3.3753100739
 31
0.0
 11
3.3621896404
 21
3.3697418346
 31
0.0
  0
SPLINE
  5
317
100
AcDbEntity
  8
0
100
AcDbSpline
 62
6
  6
CONTINUOUS
 70
0
 71
3
 72
23
 73
19
 74
17
 42
0.0000001
 43
0.0000001
 44
0.0000000001
 12
-0.1490981437
 22
-0.0039626694
 32
0.0
 13
-0.1100049304
 23
-0.1007217677
 33
0.0
 40
0.0
 40
0.0
 40
0.0
 40
0.0
 40
0.0500034777
 40
0.1047087537
 40
0.1636185142
 40
0.2261993312
 40
0.2918599894
 40
0.3598898542
 40
0.4295315148
 40
0.4999859539
 40
0.5704417586
 40
0.640085049
 40
0.7081149613
 40
0.7737721008
 40
0.8363502866
 40
0.8952673539
 40
0.9499879669
 40
1.0
 40
1.0
 40
1.0
 40
1.0
 10
3.3621896404
 20
3.3697418346
 30
0.0
 10
3.3597044985
 20
3.3696757855
 30
0.0
 10
3.3545054969
 20
3.3693190591
 30
0.0
 10
3.3464378052
 20
3.3682467652
 30
0.0
 10
3.3378245254
 20
3.3666308274
 30
0.0
 10
3.3287635203
 20
3.3645040421
 30
0.0
 10
3.3193566834
 20
3.3619013414
 30
0.0
 10
3.3097127715
 20
3.3588638184
 30
0.0
 10
3.299948319
 20
3.3554345833
 30
0.0
 10
3.2901823492
 20
3.3516611302
 30
0.0
 10
3.2805359112
 20
3.3475916032
 30
0.0
 10
3.2711296239
 20
3.3432754618
 30
0.0
 10
3.2620823652
 20
3.3387613895
 30
0.0
 10
3.2535078554
 20
3.3340993705
 30
0.0
 10
3.2455122861
 20
3.3293352324
 30
0.0
 10
3.2381931043
 20
3.3245137199
 30
0.0
 10
3.2316435744
 20
3.3196798603
 30
0.0
 10
3.2276548097
 20
3.3163244086
 30
0.0
 10
3.225820953
 20
3.3146453085
 30
0.0
 11
3.3621896404
 21
3.3697418346
 31
0.0
 11
3.3547471672
 21
3.3692599353
 31
0.0
 11
3.3466562682
 21
3.3682053702
 31
0.0
 11
3.3380173886
 21
3.3666018605
 31
0.0
 11
3.328927526
 21
3.3644811172
 31
0.0
 11
3.3194863058
 21
3.361878646
 31
0.0
 11
3.3098064724
 21
3.3588361939
 31
0.0
 11
3.3000049154
 21
3.3553979512
 31
0.0
 11
3.2902024236
 21
3.3516116246
 31
0.0
 11
3.2805206595
 21
3.3475259374
 31
0.0
 11
3.2710813384
 21
3.3431904676
 31
0.0
 11
3.2620047248
 21
3.3386549501
 31
0.0
 11
3.2534058193
 21
3.3339690094
 31
0.0
 11
3.2453941317
 21
3.3291806182
 31
0.0
 11
3.2380650406
 21
3.3243324165
 31
0.0
 11
3.2315104926
 21
3.3194692912
 31
0.0
 11
3.225820953
 21
3.3146453085
 31
0.0
  0
SPLINE
  5
318
100
AcDbEntity
  8
0
100
AcDbSpline
 62
6
  6
CONTINUOUS
 70
0
 71
3
 72
23
 73
19
 74
17
 42
0.0000001
 43
0.0000001
 44
0.0000000001
 12
-0.148198629
 22
0.0168263462
 32
0.0
 13
-0.1229521317
 23
-0.0844318238
 33
0.0
 40
0.0
 40
0.0
 40
0.0
 40
0.0
 40
0.0500103041
 40
0.1047266955
 40
0.1636393352
 40
0.2262162827
 40
0.2918752097
 40
0.3599065645
 40
0.4295498877
 40
0.500004977
 40
0.5704593255
 40
0.640100837
 40
0.7081301424
 40
0.7737903179
 40
0.8363727563
 40
0.8952864304
 40
0.9499951333
 40
1.0
 40
1.0
 40
1.0
 40
1.0
 10
3.225820953
 20
3.3146453085
 30
0.0
 10
3.2233504668
 20
3.3149258054
 30
0.0
 10
3.2181515039
 20
3.3152959264
 30
0.0
 10
3.2100120658
 20
3.3153568981
 30
0.0
 10
3.2012572017
 20
3.3149555017
 30
0.0
 10
3.1919885449
 20
3.3141101939
 30
0.0
 10
3.1823112494
 20
3.3128419132
 30
0.0
 10
3.1723383869
 20
3.3111760701
 30
0.0
 10
3.1621915318
 20
3.3091390532
 30
0.0
 10
3.1519954212
 20
3.3067613776
 30
0.0
 10
3.1418766416
 20
3.3040739211
 30
0.0
 10
3.1319614064
 20
3.3011088797
 30
0.0
 10
3.1223739427
 20
3.2978978168
 30
0.0
 10
3.1132337764
 20
3.2944742874
 30
0.0
 10
3.1046529212
 20
3.2908689258
 30
0.0
 10
3.0967343915
 20
3.2871133214
 30
0.0
 10
3.0895768313
 20
3.283238551
 30
0.0
 10
3.0851608435
 20
3.2804711651
 30
0.0
 10
3.0831114419
 20
3.2790638311
 30
0.0
 11
3.225820953
 21
3.3146453085
 31
0.0
 11
3.2183828134
 21
3.3152037915
 31
0.0
 11
3.2102222291
 21
3.3152854971
 31
0.0
 11
3.2014438272
 21
3.3148998918
 31
0.0
 11
3.1921478678
 21
3.3140647139
 31
0.0
 11
3.1824366081
 21
3.3128014358
 31
0.0
 11
3.172427341
 21
3.3111356706
 31
0.0
 11
3.1622424316
 21
3.309094885
 31
0.0
 11
3.1520083091
 21
3.3067095357
 31
0.0
 11
3.1418523828
 21
3.3040110185
 31
0.0
 11
3.1319018169
 21
3.3010314531
 31
0.0
 11
3.1222824192
 21
3.297803267
 31
0.0
 11
3.1131146642
 21
3.2943593806
 31
0.0
 11
3.1045140244
 21
3.2907321687
 31
0.0
 11
3.0965819651
 21
3.2869514043
 31
0.0
 11
3.0894159756
 21
3.2830486247
 31
0.0
 11
3.0831114419
 21
3.2790638311
 31
0.0
  0
SPLINE
  5
319
100
AcDbEntity
  8
0
100
AcDbSpline
 62
6
  6
CONTINUOUS
 70
0
 71
3
 72
23
 73
19
 74
17
 42
0.0000001
 43
0.0000001
 44
0.0000000001
 12
-0.144414604
 22
0.0372878583
 32
0.0
 13
-0.1335062167
 23
-0.0664985136
 33
0.0
 40
0.0
 40
0.0
 40
0.0
 40
0.0
 40
0.0500040567
 40
0.1047106595
 40
0.1636221469
 40
0.2262044324
 40
0.291866697
 40
0.3598982086
 40
0.4295409797
 40
0.4999957317
 40
0.5704507688
 40
0.6400935435
 40
0.7081244384
 40
0.7737860519
 40
0.8363697809
 40
0.8952848943
 40
0.9499946754
 40
1.0
 40
1.0
 40
1.0
 40
1.0
 10
3.0831114419
 20
3.2790638311
 30
0.0
 10
3.0807043365
 20
3.2796853458
 30
0.0
 10
3.0756083117
 20
3.2807754816
 30
0.0
 10
3.0675574051
 20
3.2819685072
 30
0.0
 10
3.0588321504
 20
3.2827893199
 30
0.0
 10
3.0495356911
 20
3.2832424593
 30
0.0
 10
3.0397756217
 20
3.2833334148
 30
0.0
 10
3.0296678271
 20
3.2830717432
 30
0.0
 10
3.0193362567
 20
3.2824667539
 30
0.0
 10
3.0089084701
 20
3.2815312953
 30
0.0
 10
2.9985140585
 20
3.2802782878
 30
0.0
 10
2.9882824844
 20
3.2787220396
 30
0.0
 10
2.9783412157
 20
3.2768765345
 30
0.0
 10
2.9688133193
 20
3.2747583781
 30
0.0
 10
2.9598139959
 20
3.2723822973
 30
0.0
 10
2.951449666
 20
3.2697652387
 30
0.0
 10
2.943822359
 20
3.2669242684
 30
0.0
 10
2.9390641259
 20
3.264798382
 30
0.0
 10
2.9368387854
 20
3.2636899554
 30
0.0
 11
3.0831114419
 21
3.2790638311
 31
0.0
 11
3.0758243606
 21
3.2806520304
 31
0.0
 11
3.0677560145
 21
3.2818684937
 31
0.0
 11
3.0590095452
 21
3.2827083119
 31
0.0
 11
3.0496870316
 21
3.2831752123
 31
0.0
 11
3.0398939693
 21
3.2832758711
 31
0.0
 11
3.0297502575
 21
3.2830193591
 31
0.0
 11
3.0193805242
 21
3.2824159359
 31
0.0
 11
3.0089140682
 21
3.2814781678
 31
0.0
 11
2.9984813099
 21
3.2802193748
 31
0.0
 11
2.988212715
 21
3.2786536616
 31
0.0
 11
2.9782374164
 21
3.2767956413
 31
0.0
 11
2.9686793677
 21
3.2746611621
 31
0.0
 11
2.959657426
 21
3.2722662002
 31
0.0
 11
2.9512761723
 21
3.2696261031
 31
0.0
 11
2.9436366065
 21
3.2667585672
 31
0.0
 11
2.9368387854
 21
3.2636899554
 31
0.0
  0
SPLINE
  5
31A
100
AcDbEntity
  8
0
100
AcDbSpline
 62
6
  6
CONTINUOUS
 70
0
 71
3
 72
23
 73
19
 74
17
 42
0.0000001
 43
0.0000001
 44
0.0000000001
 12
-0.1378197041
 22
0.0570236037
 32
0.0
 13
-0.1414617478
 23
-0.0472708805
 33
0.0
 40
0.0
 40
0.0
 40
0.0
 40
0.0
 40
0.0500040567
 40
0.1047106595
 40
0.1636221469
 40
0.2262044324
 40
0.291866697
 40
0.3598982086
 40
0.4295409797
 40
0.4999957317
 40
0.5704507688
 40
0.6400935435
 40
0.7081244384
 40
0.7737860519
 40
0.8363697809
 40
0.8952848943
 40
0.9499946754
 40
1.0
 40
1.0
 40
1.0
 40
1.0
 10
2.9368387854
 20
3.2636899554
 30
0.0
 10
2.9345416039
 20
3.2646404259
 30
0.0
 10
2.9296468908
 20
3.2664291821
 30
0.0
 10
2.9218403722
 20
3.268731067
 30
0.0
 10
2.9133142661
 20
3.2707582122
 30
0.0
 10
2.9041713442
 20
3.2725007589
 30
0.0
 10
2.8945189176
 20
3.2739491683
 30
0.0
 10
2.8844730738
 20
3.2750967764
 30
0.0
 10
2.8741578512
 20
3.2759355515
 30
0.0
 10
2.8637013565
 20
3.276460464
 30
0.0
 10
2.8532337176
 20
3.2766662733
 30
0.0
 10
2.8428851286
 20
3.2765491302
 30
0.0
 10
2.832783763
 20
3.2761051426
 30
0.0
 10
2.823053801
 20
3.2753336269
 30
0.0
 10
2.8138113719
 20
3.2742331337
 30
0.0
 10
2.8051642189
 20
3.2728056339
 30
0.0
 10
2.7972157537
 20
3.2710538277
 30
0.0
 10
2.7922079612
 20
3.2696108483
 30
0.0
 10
2.7898500143
 20
3.2688229164
 30
0.0
 11
2.9368387854
 21
3.2636899554
 31
0.0
 11
2.9298436561
 21
3.2662768642
 31
0.0
 11
2.9220231296
 21
3.2686043857
 31
0.0
 11
2.9134786604
 21
3.2706533041
 31
0.0
 11
2.9043118528
 21
3.2724131037
 31
0.0
 11
2.894628105
 21
3.2738757137
 31
0.0
 11
2.8845474115
 21
3.27503343
 31
0.0
 11
2.8741946155
 21
3.2758790672
 31
0.0
 11
2.8636995062
 21
3.2764070745
 31
0.0
 11
2.8531930887
 21
3.2766124913
 31
0.0
 11
2.8428065219
 21
3.2764911278
 31
0.0
 11
2.8326697158
 21
3.2760394828
 31
0.0
 11
2.8229076232
 21
3.2752559995
 31
0.0
 11
2.8136401681
 21
3.2741399568
 31
0.0
 11
2.8049730497
 21
3.272691998
 31
0.0
 11
2.7970087478
 21
3.2709155908
 31
0.0
 11
2.7898500143
 21
3.2688229164
 31
0.0
  0
SPLINE
  5
31B
100
AcDbEntity
  8
0
100
AcDbSpline
 62
6
  6
CONTINUOUS
 70
0
 71
3
 72
23
 73
19
 74
17
 42
0.0000001
 43
0.0000001
 44
0.0000000001
 12
-0.1285423005
 22
0.0756494495
 32
0.0
 13
-0.1466638868
 23
-0.0271231734
 33
0.0
 40
0.0
 40
0.0
 40
0.0
 40
0.0
 40
0.0500040567
 40
0.1047106595
 40
0.1636221469
 40
0.2262044324
 40
0.291866697
 40
0.3598982086
 40
0.4295409797
 40
0.4999957317
 40
0.5704507688
 40
0.6400935435
 40
0.7081244384
 40
0.7737860519
 40
0.8363697809
 40
0.8952848943
 40
0.9499946754
 40
1.0
 40
1.0
 40
1.0
 40
1.0
 10
2.7898500143
 20
3.2688229164
 30
0.0
 10
2.7877074688
 20
3.2700838428
 30
0.0
 10
2.7831093375
 20
3.2725364034
 30
0.0
 10
2.7756991519
 20
3.2759023439
 30
0.0
 10
2.7675381453
 20
3.2790963657
 30
0.0
 10
2.7587267173
 20
3.2820944028
 30
0.0
 10
2.7493698071
 20
3.2848720745
 30
0.0
 10
2.7395814449
 20
3.2874066254
 30
0.0
 10
2.7294833443
 20
3.2896728391
 30
0.0
 10
2.7192016652
 20
3.2916479061
 30
0.0
 10
2.7088645398
 20
3.2933085262
 30
0.0
 10
2.6986003593
 20
3.2946327684
 30
0.0
 10
2.6885355084
 20
3.29559894
 30
0.0
 10
2.6787928635
 20
3.2961890816
 30
0.0
 10
2.6694872221
 20
3.2963855958
 30
0.0
 10
2.6607255529
 20
3.2961754394
 30
0.0
 10
2.6526106373
 20
3.2955468942
 30
0.0
 10
2.6474507564
 20
3.2948149078
 30
0.0
 10
2.645006098
 20
3.2943628068
 30
0.0
 11
2.7898500143
 21
3.2688229164
 31
0.0
 11
2.7832829893
 21
3.2723581834
 31
0.0
 11
2.7758625
 21
3.2757514605
 31
0.0
 11
2.7676863393
 21
3.2789695993
 31
0.0
 11
2.7588536592
 21
3.2819880457
 31
0.0
 11
2.749467709
 21
3.2847841389
 31
0.0
 11
2.7396462431
 21
3.2873335497
 31
0.0
 11
2.7295118897
 21
3.2896117879
 31
0.0
 11
2.7191924025
 21
3.2915952937
 31
0.0
 11
2.7088168212
 21
3.2932609221
 31
0.0
 11
2.6985144452
 21
3.2945862703
 31
0.0
 11
2.688413433
 21
3.2955497915
 31
0.0
 11
2.6786373046
 21
3.2961325536
 31
0.0
 11
2.6693047166
 21
3.2963171526
 31
0.0
 11
2.6605204292
 21
3.2960895151
 31
0.0
 11
2.6523864072
 21
3.2954388124
 31
0.0
 11
2.645006098
 21
3.2943628068
 31
0.0
  0
SPLINE
  5
31C
100
AcDbEntity
  8
0
100
AcDbSpline
 62
6
  6
CONTINUOUS
 70
0
 71
3
 72
23
 73
19
 74
17
 42
0.0000001
 43
0.0000001
 44
0.0000000001
 12
-0.1167629716
 22
0.0928028683
 32
0.0
 13
-0.1490113857
 23
-0.0064475449
 33
0.0
 40
0.0
 40
0.0
 40
0.0
 40
0.0
 40
0.0500024162
 40
0.1047078434
 40
0.1636227436
 40
0.2262094559
 40
0.2918738196
 40
0.3599058143
 40
0.4295482783
 40
0.5000021051
 40
0.5704553116
 40
0.640096442
 40
0.7081269644
 40
0.7737902536
 40
0.8363768207
 40
0.8952920242
 40
0.9499975835
 40
1.0
 40
1.0
 40
1.0
 40
1.0
 10
2.645006098
 20
3.2943628068
 30
0.0
 10
2.6430599545
 20
3.295909596
 30
0.0
 10
2.6388480534
 20
3.2989781935
 30
0.0
 10
2.6319783906
 20
3.3033426722
 30
0.0
 10
2.6243410092
 20
3.3076415091
 30
0.0
 10
2.6160321639
 20
3.3118369567
 30
0.0
 10
2.6071525583
 20
3.3158899395
 30
0.0
 10
2.5978120692
 20
3.319762088
 30
0.0
 10
2.5881276629
 20
3.3234115907
 30
0.0
 10
2.5782210552
 20
3.3267982939
 30
0.0
 10
2.5682158453
 20
3.3298813152
 30
0.0
 10
2.5582360328
 20
3.3326210973
 30
0.0
 10
2.5484036142
 20
3.33497862
 30
0.0
 10
2.5388377082
 20
3.3369189538
 30
0.0
 10
2.5296497337
 20
3.3384085729
 30
0.0
 10
2.5209441559
 20
3.3394198894
 30
0.0
 10
2.5128210841
 20
3.3399268411
 30
0.0
 10
2.5076099016
 20
3.339919986
 30
0.0
 10
2.5051262585
 20
3.3398125218
 30
0.0
 11
2.645006098
 21
3.2943628068
 31
0.0
 11
2.6389952195
 21
3.2987775123
 31
0.0
 11
2.6321193434
 21
3.3031704001
 31
0.0
 11
2.6244701703
 21
3.307495342
 31
0.0
 11
2.6161429556
 21
3.311714001
 31
0.0
 11
2.6072371942
 21
3.3157892621
 31
0.0
 11
2.5978660323
 21
3.3196807251
 31
0.0
 11
2.5881474053
 21
3.323347172
 31
0.0
 11
2.5782045183
 21
3.326747498
 31
0.0
 11
2.5681619754
 21
3.3298408146
 31
0.0
 11
2.558144546
 21
3.3325869972
 31
0.0
 11
2.5482759849
 21
3.3349469132
 31
0.0
 11
2.5386758501
 21
3.3368845956
 31
0.0
 11
2.5294593476
 21
3.3383662387
 31
0.0
 11
2.520728855
 21
3.339363368
 31
0.0
 11
2.5125840602
 21
3.3398509883
 31
0.0
 11
2.5051262585
 21
3.3398125218
 31
0.0
  0
SPLINE
  5
31D
100
AcDbEntity
  8
0
100
AcDbSpline
 62
6
  6
CONTINUOUS
 70
0
 71
3
 72
23
 73
19
 74
17
 42
0.0000001
 43
0.0000001
 44
0.0000000001
 12
-0.1027109755
 22
0.1081499779
 32
0.0
 13
-0.1484585363
 23
0.0143535782
 33
0.0
 40
0.0
 40
0.0
 40
0.0
 40
0.0
 40
0.0500040567
 40
0.1047106595
 40
0.1636221469
 40
0.2262044324
 40
0.291866697
 40
0.3598982086
 40
0.4295409797
 40
0.4999957317
 40
0.5704507688
 40
0.6400935435
 40
0.7081244384
 40
0.7737860519
 40
0.8363697809
 40
0.8952848943
 40
0.9499946754
 40
1.0
 40
1.0
 40
1.0
 40
1.0
 10
2.5051262585
 20
3.3398125218
 30
0.0
 10
2.50341427
 20
3.3416151676
 30
0.0
 10
2.4996702798
 20
3.3452401369
 30
0.0
 10
2.4934749311
 20
3.3505182106
 30
0.0
 10
2.4865104599
 20
3.3558379797
 30
0.0
 10
2.4788667426
 20
3.3611486366
 30
0.0
 10
2.4706379334
 20
3.36639782
 30
0.0
 10
2.4619273726
 20
3.371532225
 30
0.0
 10
2.4528451085
 20
3.3764940632
 30
0.0
 10
2.4435061264
 20
3.3812266343
 30
0.0
 10
2.4340271727
 20
3.3856722227
 30
0.0
 10
2.4245256197
 20
3.3897743575
 30
0.0
 10
2.4151169771
 20
3.3934773502
 30
0.0
 10
2.4059144108
 20
3.3967300676
 30
0.0
 10
2.3970234208
 20
3.3994839516
 30
0.0
 10
2.3885432369
 20
3.4016969796
 30
0.0
 10
2.3805694288
 20
3.4033295571
 30
0.0
 10
2.3754076702
 20
3.4040481825
 30
0.0
 10
2.3729330977
 20
3.4042874343
 30
0.0
 11
2.5051262585
 21
3.3398125218
 31
0.0
 11
2.4997880806
 21
3.3450209559
 31
0.0
 11
2.4935903623
 21
3.3503281473
 31
0.0
 11
2.4866179715
 21
3.3556752762
 31
0.0
 11
2.4789594511
 21
3.3610114097
 31
0.0
 11
2.4707078043
 21
3.3662863055
 31
0.0
 11
2.4619695182
 21
3.3714441194
 31
0.0
 11
2.4528557201
 21
3.3764275088
 31
0.0
 11
2.4434827206
 21
3.3811786131
 31
0.0
 11
2.4339681811
 21
3.3856396156
 31
0.0
 11
2.4244302172
 21
3.3897533418
 31
0.0
 11
2.4149860835
 21
3.3934637542
 31
0.0
 11
2.4057492968
 21
3.3967186073
 31
0.0
 11
2.3968291198
 21
3.3994684651
 31
0.0
 11
2.3883223753
 21
3.4016709236
 31
0.0
 11
2.3803240936
 21
3.4032874683
 31
0.0
 11
2.3729330977
 21
3.4042874343
 31
0.0
  0
SPLINE
  5
31E
100
AcDbEntity
  8
0
100
AcDbSpline
 62
6
  6
CONTINUOUS
 70
0
 71
3
 72
23
 73
19
 74
17
 42
0.0000001
 43
0.0000001
 44
0.0000000001
 12
-0.0866598316
 22
0.1213920748
 32
0.0
 13
-0.1450161161
 23
0.0348753251
 33
0.0
 40
0.0
 40
0.0
 40
0.0
 40
0.0
 40
0.0500040567
 40
0.1047106595
 40
0.1636221469
 40
0.2262044324
 40
0.291866697
 40
0.3598982086
 40
0.4295409797
 40
0.4999957317
 40
0.5704507688
 40
0.6400935435
 40
0.7081244384
 40
0.7737860519
 40
0.8363697809
 40
0.8952848943
 40
0.9499946754
 40
1.0
 40
1.0
 40
1.0
 40
1.0
 10
2.3729330977
 20
3.4042874343
 30
0.0
 10
2.37148865
 20
3.4063107996
 30
0.0
 10
2.3682855943
 20
3.4104215537
 30
0.0
 10
2.3628851042
 20
3.4165104874
 30
0.0
 10
2.3567287795
 20
3.422747752
 30
0.0
 10
2.3498985509
 20
3.4290705258
 30
0.0
 10
2.3424803691
 20
3.4354138534
 30
0.0
 10
2.3345691499
 20
3.4417105664
 30
0.0
 10
2.3262658281
 20
3.4478881232
 30
0.0
 10
2.317676379
 20
3.4538743723
 30
0.0
 10
2.3089083801
 20
3.4595959119
 30
0.0
 10
2.3000702024
 20
3.4649804857
 30
0.0
 10
2.291268481
 20
3.4699568711
 30
0.0
 10
2.2826081642
 20
3.4744586829
 30
0.0
 10
2.2741869673
 20
3.478423153
 30
0.0
 10
2.266097306
 20
3.4817948574
 30
0.0
 10
2.2584283093
 20
3.4845212864
 30
0.0
 10
2.2534167979
 20
3.4859512961
 30
0.0
 10
2.2509996052
 20
3.4865326134
 30
0.0
 11
2.3729330977
 21
3.4042874343
 31
0.0
 11
2.3683717445
 21
3.4101881111
 31
0.0
 11
2.3629729603
 21
3.4163062089
 31
0.0
 11
2.3568126008
 21
3.4225716691
 31
0.0
 11
2.3499712588
 21
3.4289217318
 31
0.0
 11
2.3425340402
 21
3.4352937
 31
0.0
 11
2.3345986234
 21
3.4416174527
 31
0.0
 11
2.3262670739
 21
3.4478207397
 31
0.0
 11
2.3176465177
 21
3.453830076
 31
0.0
 11
2.3088454246
 21
3.4595718323
 31
0.0
 11
2.2999728036
 21
3.464972952
 31
0.0
 11
2.2911369691
 21
3.4699616242
 31
0.0
 11
2.2824430621
 21
3.4744703136
 31
0.0
 11
2.273992402
 21
3.4784348586
 31
0.0
 11
2.2658749675
 21
3.481799793
 31
0.0
 11
2.258179504
 21
3.4845137513
 31
0.0
 11
2.2509996052
 21
3.4865326134
 31
0.0
  0
SPLINE
  5
31F
100
AcDbEntity
  8
0
100
AcDbSpline
 62
6
  6
CONTINUOUS
 70
0
 71
3
 72
23
 73
19
 74
17
 42
0.0000001
 43
0.0000001
 44
0.0000000001
 12
-0.0689219526
 22
0.1322714129
 32
0.0
 13
-0.1387511221
 23
0.0547182634
 33
0.0
 40
0.0
 40
0.0
 40
0.0
 40
0.0
 40
0.0500040567
 40
0.1047106595
 40
0.1636221469
 40
0.2262044324
 40
0.291866697
 40
0.3598982086
 40
0.4295409797
 40
0.4999957317
 40
0.5704507688
 40
0.6400935435
 40
0.7081244384
 40
0.7737860519
 40
0.8363697809
 40
0.8952848943
 40
0.9499946754
 40
1.0
 40
1.0
 40
1.0
 40
1.0
 10
2.2509996052
 20
3.4865326134
 30
0.0
 10
2.2498508128
 20
3.4887373158
 30
0.0
 10
2.2472510354
 20
3.4932538435
 30
0.0
 10
2.2427505183
 20
3.5000351231
 30
0.0
 10
2.2375221659
 20
3.5070684818
 30
0.0
 10
2.2316383688
 20
3.5142803069
 30
0.0
 10
2.2251752007
 20
3.5215943131
 30
0.0
 10
2.2182173061
 20
3.5289307759
 30
0.0
 10
2.2108545414
 20
3.5362038121
 30
0.0
 10
2.203181809
 20
3.5433272237
 30
0.0
 10
2.1952954241
 20
3.5502133513
 30
0.0
 10
2.1872926468
 20
3.5567755594
 30
0.0
 10
2.1792691621
 20
3.5629284778
 30
0.0
 10
2.171319658
 20
3.5685917614
 30
0.0
 10
2.1635321632
 20
3.5736896536
 30
0.0
 10
2.1559904805
 20
3.5781544081
 30
0.0
 10
2.1487755636
 20
3.5819216217
 30
0.0
 10
2.1440118427
 20
3.5840351823
 30
0.0
 10
2.1416990777
 20
3.5849472505
 30
0.0
 11
2.2509996052
 21
3.4865326134
 31
0.0
 11
2.2473038583
 21
3.493010683
 31
0.0
 11
2.2428090893
 21
3.4998206054
 31
0.0
 11
2.2375806655
 21
3.5068824469
 31
0.0
 11
2.2316896609
 21
3.514122842
 31
0.0
 11
2.2252116273
 21
3.5214678594
 31
0.0
 11
2.2182335338
 21
3.5288344664
 31
0.0
 11
2.210846397
 21
3.536136911
 31
0.0
 11
2.2031460734
 21
3.5432875144
 31
0.0
 11
2.1952297301
 21
3.5501982677
 31
0.0
 11
2.1871951473
 21
3.5567816543
 31
0.0
 11
2.1791395915
 21
3.5629514876
 31
0.0
 11
2.1711577814
 21
3.5686262567
 31
0.0
 11
2.1633411205
 21
3.5737283236
 31
0.0
 11
2.1557709927
 21
3.5781902392
 31
0.0
 11
2.1485281309
 21
3.5819487869
 31
0.0
 11
2.1416990777
 21
3.5849472505
 31
0.0
  0
SPLINE
  5
320
100
AcDbEntity
  8
0
100
AcDbSpline
 62
6
  6
CONTINUOUS
 70
0
 71
3
 72
23
 73
19
 74
17
 42
0.0000001
 43
0.0000001
 44
0.0000000001
 12
-0.049842584
 22
0.1405762324
 32
0.0
 13
-0.1297854897
 23
0.0734961697
 33
0.0
 40
0.0
 40
0.0
 40
0.0
 40
0.0
 40
0.0500036657
 40
0.1047093487
 40
0.1636196449
 40
0.2262009542
 40
0.2918621948
 40
0.3598926623
 40
0.429534757
 40
0.4999893992
 40
0.5704451015
 40
0.6400883368
 40
0.7081185579
 40
0.7737771094
 40
0.8363570119
 40
0.8952732329
 40
0.9499901711
 40
1.0
 40
1.0
 40
1.0
 40
1.0
 10
2.1416990777
 20
3.5849472505
 30
0.0
 10
2.1408683071
 20
3.5872903594
 30
0.0
 10
2.1389224448
 20
3.5921246951
 30
0.0
 10
2.1354095535
 20
3.5994662191
 30
0.0
 10
2.1312110179
 20
3.607158644
 30
0.0
 10
2.1263882716
 20
3.6151190236
 30
0.0
 10
2.1210060248
 20
3.6232612397
 30
0.0
 10
2.1151369804
 20
3.6314945583
 30
0.0
 10
2.1088581551
 20
3.6397214543
 30
0.0
 10
2.1022515078
 20
3.6478433931
 30
0.0
 10
2.095400228
 20
3.6557601371
 30
0.0
 10
2.0883886171
 20
3.6633722845
 30
0.0
 10
2.0812996586
 20
3.6705818673
 30
0.0
 10
2.0742160011
 20
3.6772961655
 30
0.0
 10
2.0672141222
 20
3.6834282071
 30
0.0
 10
2.0603669809
 20
3.6888991843
 30
0.0
 10
2.0537460571
 20
3.6936342156
 30
0.0
 10
2.0493224423
 20
3.6963906394
 30
0.0
 10
2.0471589256
 20
3.6976158163
 30
0.0
 11
2.1416990777
 21
3.5849472505
 31
0.0
 11
2.1389408999
 21
3.591876573
 31
0.0
 11
2.1354376953
 21
3.5992456506
 31
0.0
 11
2.1312430647
 21
3.6069662701
 31
0.0
 11
2.1264171504
 21
3.6149559561
 31
0.0
 11
2.1210244967
 21
3.6231309476
 31
0.0
 11
2.1151396578
 21
3.6313969133
 31
0.0
 11
2.1088407974
 21
3.6396563165
 31
0.0
 11
2.1022106184
 21
3.6478090144
 31
0.0
 11
2.0953330657
 21
3.6557543495
 31
0.0
 11
2.0882928746
 21
3.6633919292
 31
0.0
 11
2.0811744724
 21
3.6706227746
 31
0.0
 11
2.0740604917
 21
3.6773529026
 31
0.0
 11
2.0670304809
 21
3.6834928995
 31
0.0
 11
2.0601548609
 21
3.6889650353
 31
0.0
 11
2.0535047221
 21
3.6936956588
 31
0.0
 11
2.0471589256
 21
3.6976158163
 31
0.0
  0
SPLINE
  5
321
100
AcDbEntity
  8
0
100
AcDbSpline
 62
6
  6
CONTINUOUS
 70
0
 71
3
 72
23
 73
19
 74
17
 42
0.0000001
 43
0.0000001
 44
0.0000000001
 12
-0.0297930877
 22
0.1461448937
 32
0.0
 13
-0.1182937303
 23
0.0908435545
 33
0.0
 40
0.0
 40
0.0
 40
0.0
 40
0.0
 40
0.0500133258
 40
0.104734792
 40
0.1636485907
 40
0.226223184
 40
0.291880479
 40
0.3599117074
 40
0.4295551234
 40
0.5000101776
 40
0.5704640482
 40
0.6401048463
 40
0.7081333086
 40
0.7737927162
 40
0.8363744483
 40
0.8952873266
 40
0.9499954176
 40
1.0
 40
1.0
 40
1.0
 40
1.0
 10
2.0471589256
 20
3.6976158163
 30
0.0
 10
2.0466622418
 20
3.7000522137
 30
0.0
 10
2.045407473
 20
3.70511146
 30
0.0
 10
2.0429500885
 20
3.7128717982
 30
0.0
 10
2.0398629328
 20
3.7210743373
 30
0.0
 10
2.0361947613
 20
3.72962796
 30
0.0
 10
2.0319981553
 20
3.7384394895
 30
0.0
 10
2.0273320889
 20
3.7474093928
 30
0.0
 10
2.0222592063
 20
3.7564301407
 30
0.0
 10
2.0168471157
 20
3.765392442
 30
0.0
 10
2.0111643314
 20
3.7741854391
 30
0.0
 10
2.0052804767
 20
3.7826990465
 30
0.0
 10
1.9992639407
 20
3.7908248903
 30
0.0
 10
1.9931835599
 20
3.798459673
 30
0.0
 10
1.9871030914
 20
3.805506339
 30
0.0
 10
1.981084408
 20
3.8118766824
 30
0.0
 10
1.9751875342
 20
3.8174864972
 30
0.0
 10
1.9711910084
 20
3.8208311476
 30
0.0
 10
1.9692192655
 20
3.8223453456
 30
0.0
 11
2.0471589256
 21
3.6976158163
 31
0.0
 11
2.0453913762
 21
3.7048629063
 31
0.0
 11
2.04294707
 21
3.7126500449
 31
0.0
 11
2.0398676206
 21
3.7208798114
 31
0.0
 11
2.0362007727
 21
3.7294623546
 31
0.0
 11
2.0319984362
 21
3.7383076942
 31
0.0
 11
2.0273211594
 21
3.7473122982
 31
0.0
 11
2.0222329238
 21
3.7563680878
 31
0.0
 11
2.0168017833
 21
3.7653641841
 31
0.0
 11
2.0110970058
 21
3.774189083
 31
0.0
 11
2.0051884222
 21
3.7827317989
 31
0.0
 11
1.9991457383
 21
3.7908827136
 31
0.0
 11
1.9930374727
 21
3.7985374459
 31
0.0
 11
1.9869301047
 21
3.8055961819
 31
0.0
 11
1.9808833207
 21
3.8119716078
 31
0.0
 11
1.9749572081
 21
3.817580778
 31
0.0
 11
1.9692192655
 21
3.8223453456
 31
0.0
  0
SPLINE
  5
322
100
AcDbEntity
  8
0
100
AcDbSpline
 62
6
  6
CONTINUOUS
 70
0
 71
3
 72
23
 73
19
 74
17
 42
0.0000001
 43
0.0000001
 44
0.0000000001
 12
-0.0091637062
 22
0.1488690321
 32
0.0
 13
-0.1044995346
 23
0.1064227866
 33
0.0
 40
0.0
 40
0.0
 40
0.0
 40
0.0
 40
0.0500040567
 40
0.1047106595
 40
0.1636221469
 40
0.2262044324
 40
0.291866697
 40
0.3598982086
 40
0.4295409797
 40
0.4999957317
 40
0.5704507688
 40
0.6400935435
 40
0.7081244384
 40
0.7737860519
 40
0.8363697809
 40
0.8952848943
 40
0.9499946754
 40
1.0
 40
1.0
 40
1.0
 40
1.0
 10
1.9692192655
 20
3.8223453456
 30
0.0
 10
1.9690665247
 20
3.8248266975
 30
0.0
 10
1.9685285471
 20
3.8300101756
 30
0.0
 10
1.967175315
 20
3.8380357079
 30
0.0
 10
1.9652597022
 20
3.8465875633
 30
0.0
 10
1.9628178996
 20
3.8555690493
 30
0.0
 10
1.959888376
 20
3.8648795337
 30
0.0
 10
1.9565160313
 20
3.8744117566
 30
0.0
 10
1.9527480214
 20
3.8840507121
 30
0.0
 10
1.9486359841
 20
3.8936790538
 30
0.0
 10
1.9442322534
 20
3.9031775261
 30
0.0
 10
1.939590443
 20
3.9124274242
 30
0.0
 10
1.9347632424
 20
3.9213118401
 30
0.0
 10
1.9298044741
 20
3.9297188618
 30
0.0
 10
1.9247637431
 20
3.9375434775
 30
0.0
 10
1.9196900524
 20
3.9446897124
 30
0.0
 10
1.9146311616
 20
3.9510658044
 30
0.0
 10
1.9111389485
 20
3.9549342179
 30
0.0
 10
1.9093971042
 20
3.9567081199
 30
0.0
 11
1.9692192655
 21
3.8223453456
 31
0.0
 11
1.9684779009
 21
3.8297665523
 31
0.0
 11
1.9671415702
 21
3.8378159133
 31
0.0
 11
1.9652374771
 21
3.8463938181
 31
0.0
 11
1.9628007106
 21
3.8554043355
 31
0.0
 11
1.9598702201
 21
3.8647491964
 31
0.0
 11
1.9564916834
 21
3.8743171731
 31
0.0
 11
1.95271337
 21
3.8839929075
 31
0.0
 11
1.9485871868
 21
3.8936573124
 31
0.0
 11
1.9441661039
 21
3.9031904667
 31
0.0
 11
1.9395038519
 21
3.9124726488
 31
0.0
 11
1.9346542328
 21
3.9213855617
 31
0.0
 11
1.9296706229
 21
3.9298162159
 31
0.0
 11
1.9246049454
 21
3.9376565084
 31
0.0
 11
1.9195041141
 21
3.9448117195
 31
0.0
 11
1.9144161697
 21
3.951191261
 31
0.0
 11
1.9093971042
 21
3.9567081199
 31
0.0
  0
SPLINE
  5
323
100
AcDbEntity
  8
0
100
AcDbSpline
 62
6
  6
CONTINUOUS
 70
0
 71
3
 72
23
 73
19
 74
17
 42
0.0000001
 43
0.0000001
 44
0.0000000001
 12
0.0116440392
 22
0.1486955903
 32
0.0
 13
-0.088671363
 23
0.1199306116
 33
0.0
 40
0.0
 40
0.0
 40
0.0
 40
0.0
 40
0.0500040567
 40
0.1047106595
 40
0.1636221469
 40
0.2262044324
 40
0.291866697
 40
0.3598982086
 40
0.4295409797
 40
0.4999957317
 40
0.5704507688
 40
0.6400935435
 40
0.7081244384
 40
0.7737860519
 40
0.8363697809
 40
0.8952848943
 40
0.9499946754
 40
1.0
 40
1.0
 40
1.0
 40
1.0
 10
1.9093971042
 20
3.9567081199
 30
0.0
 10
1.9095911872
 20
3.9591865808
 30
0.0
 10
1.9097798459
 20
3.9643944856
 30
0.0
 10
1.9095567216
 20
3.9725302476
 30
0.0
 10
1.9088499397
 20
3.9812654787
 30
0.0
 10
1.9076818818
 20
3.9904993907
 30
0.0
 10
1.9060766371
 20
4.000126977
 30
0.0
 10
1.9040637408
 20
4.0100357727
 30
0.0
 10
1.9016738842
 20
4.0201053281
 30
0.0
 10
1.8989418712
 20
4.0302122524
 30
0.0
 10
1.8959029292
 20
4.0402311671
 30
0.0
 10
1.8925936296
 20
4.050037061
 30
0.0
 10
1.8890498787
 20
4.0595068308
 30
0.0
 10
1.8853094
 20
4.0685221631
 30
0.0
 10
1.8814067011
 20
4.0769721644
 30
0.0
 10
1.8773769508
 20
4.0847549739
 30
0.0
 10
1.8732546733
 20
4.0917730757
 30
0.0
 10
1.8703348254
 20
4.0960898642
 30
0.0
 10
1.8688568119
 20
4.0980889206
 30
0.0
 11
1.9093971042
 21
3.9567081199
 31
0.0
 11
1.9096957868
 21
3.9641602819
 31
0.0
 11
1.9094927157
 21
3.9723172883
 31
0.0
 11
1.9088009667
 21
3.9810767121
 31
0.0
 11
1.9076419363
 21
3.9903386721
 31
0.0
 11
1.9060405185
 21
4.000000435
 31
0.0
 11
1.9040264664
 21
4.0099454982
 31
0.0
 11
1.9016315253
 21
4.0200529086
 31
0.0
 11
1.898890523
 21
4.0301975139
 31
0.0
 11
1.8958392244
 21
4.040253188
 31
0.0
 11
1.8925141751
 21
4.0500938966
 31
0.0
 11
1.8889521899
 21
4.0595950062
 31
0.0
 11
1.8851904005
 21
4.0686371983
 31
0.0
 11
1.8812651797
 21
4.0771061957
 31
0.0
 11
1.8772098022
 21
4.0849016712
 31
0.0
 11
1.8730592339
 21
4.0919272324
 31
0.0
 11
1.8688568119
 21
4.0980889206
 31
0.0
  0
SPLINE
  5
324
100
AcDbEntity
  8
0
100
AcDbSpline
 62
6
  6
CONTINUOUS
 70
0
 71
3
 72
23
 73
19
 74
17
 42
0.0000001
 43
0.0000001
 44
0.0000000001
 12
0.0322251466
 22
0.145627958
 32
0.0
 13
-0.0711173043
 23
0.1311041237
 33
0.0
 40
0.0
 40
0.0
 40
0.0
 40
0.0
 40
0.0500040567
 40
0.1047106595
 40
0.1636221469
 40
0.2262044324
 40
0.291866697
 40
0.3598982086
 40
0.4295409797
 40
0.4999957317
 40
0.5704507688
 40
0.6400935435
 40
0.7081244384
 40
0.7737860519
 40
0.8363697809
 40
0.8952848943
 40
0.9499946754
 40
1.0
 40
1.0
 40
1.0
 40
1.0
 10
1.8688568119
 20
4.0980889206
 30
0.0
 10
1.8693939413
 20
4.1005162501
 30
0.0
 10
1.8703055643
 20
4.1056472158
 30
0.0
 10
1.8712168906
 20
4.113734854
 30
0.0
 10
1.8717326962
 20
4.1224834394
 30
0.0
 10
1.8718611179
 20
4.1317900499
 30
0.0
 10
1.8716113964
 20
4.141547348
 30
0.0
 10
1.8709971273
 20
4.151639853
 30
0.0
 10
1.8700319399
 20
4.1619440159
 30
0.0
 10
1.8687331266
 20
4.1723328031
 30
0.0
 10
1.8671181228
 20
4.1826771534
 30
0.0
 10
1.8652057457
 20
4.1928481825
 30
0.0
 10
1.8630144196
 20
4.202718988
 30
0.0
 10
1.8605650347
 20
4.2121671577
 30
0.0
 10
1.8578763295
 20
4.2210780749
 30
0.0
 10
1.8549689543
 20
4.2293459755
 30
0.0
 10
1.8518635255
 20
4.2368694877
 30
0.0
 10
1.8495728741
 20
4.2415506298
 30
0.0
 10
1.8483874595
 20
4.2437359312
 30
0.0
 11
1.8688568119
 21
4.0980889206
 31
0.0
 11
1.8701897283
 21
4.1054269901
 31
0.0
 11
1.8711238693
 21
4.1135328751
 31
0.0
 11
1.8716579286
 21
4.1223033256
 31
0.0
 11
1.8717991935
 21
4.1316364548
 31
0.0
 11
1.871558018
 21
4.1414270643
 31
0.0
 11
1.8709476519
 21
4.1515556447
 31
0.0
 11
1.8699826978
 21
4.1618980018
 31
0.0
 11
1.8686802269
 21
4.1723253543
 31
0.0
 11
1.8670581027
 21
4.182707826
 31
0.0
 11
1.8651349746
 21
4.1929155229
 31
0.0
 11
1.8629299532
 21
4.2028199009
 31
0.0
 11
1.8604632031
 21
4.2122976349
 31
0.0
 11
1.8577548389
 21
4.2212304977
 31
0.0
 11
1.8548238486
 21
4.2295145077
 31
0.0
 11
1.8516914425
 21
4.2370493441
 31
0.0
 11
1.8483874595
 21
4.2437359312
 31
0.0
  0
SPLINE
  5
325
100
AcDbEntity
  8
0
100
AcDbSpline
 62
6
  6
CONTINUOUS
 70
0
 71
3
 72
15
 73
11
 74
9
 42
0.0000001
 43
0.0000001
 44
0.0000000001
 12
0.0260895144
 22
0.0698629224
 32
0.0
 13
0.0
 23
0.0745754027
 33
0.0
 40
0.0
 40
0.0
 40
0.0
 40
0.0
 40
0.1000033602
 40
0.2094143401
 40
0.3272485768
 40
0.4524152974
 40
0.5837215347
 40
0.7198103398
 40
0.859184785
 40
1.0
 40
1.0
 40
1.0
 40
1.0
 10
1.8483874595
 20
4.2437359312
 30
0.0
 10
1.8492571392
 20
4.2460647735
 30
0.0
 10
1.8508740349
 20
4.2510187307
 30
0.0
 10
1.8529020579
 20
4.2589009492
 30
0.0
 10
1.854630267
 20
4.2674929182
 30
0.0
 10
1.856052793
 20
4.2766909385
 30
0.0
 10
1.8571637745
 20
4.286388236
 30
0.0
 10
1.85796002
 20
4.2964704491
 30
0.0
 10
1.8584377946
 20
4.3068091059
 30
0.0
 10
1.8585443077
 20
4.3137746643
 30
0.0
 10
1.8585443077
 20
4.3172751148
 30
0.0
 11
1.8483874595
 21
4.2437359312
 31
0.0
 11
1.8507286266
 21
4.2508167208
 31
0.0
 11
1.8527817319
 21
4.2587135583
 31
0.0
 11
1.8545312544
 21
4.2673251757
 31
0.0
 11
1.8559701866
 21
4.2765479586
 31
0.0
 11
1.8570939755
 21
4.2862754754
 31
0.0
 11
1.8578991461
 21
4.2963923629
 31
0.0
 11
1.8583829254
 21
4.3067750036
 31
0.0
 11
1.8585443077
 21
4.3172751148
 31
0.0
  0
SPLINE
  5
326
100
AcDbEntity
  8
0
100
AcDbSpline
 62
6
  6
CONTINUOUS
 70
0
 71
3
 72
41
 73
37
 74
35
 42
0.0000001
 43
0.0000001
 44
0.0000000001
 12
-0.2136476204
 22
-0.2000341198
 32
0.0
 13
0.2581403941
 23
-0.1379220493
 33
0.0
 40
0.0
 40
0.0
 40
0.0
 40
0.0
 40
0.0304569397
 40
0.0606664473
 40
0.0906620458
 40
0.1204754142
 40
0.1501668038
 40
0.1798202821
 40
0.2393608309
 40
0.2695084806
 40
0.3000833946
 40
0.3312452558
 40
0.3471028631
 40
0.3631728748
 40
0.396005348
 40
0.4298700394
 40
0.4471890397
 40
0.4646993867
 40
0.4823463849
 40
0.5000764995
 40
0.5178218253
 40
0.5355026504
 40
0.5530375063
 40
0.570346644
 40
0.604188329
 40
0.6370322189
 40
0.6689397185
 40
0.7000864603
 40
0.7306504928
 40
0.7607872305
 40
0.7906384044
 40
0.820330053
 40
0.8499732864
 40
0.8796522856
 40
0.9393807922
 40
1.0
 40
1.0
 40
1.0
 40
1.0
 10
1.9454421262
 20
4.3172751148
 30
0.0
 10
1.9432731086
 20
4.3152443058
 30
0.0
 10
1.939062201
 20
4.3110803534
 30
0.0
 10
1.9331177714
 20
4.3045253545
 30
0.0
 10
1.9275752294
 20
4.2977077105
 30
0.0
 10
1.9224341783
 20
4.2906451534
 30
0.0
 10
1.9176980785
 20
4.2833439861
 30
0.0
 10
1.9119238775
 20
4.2732804783
 30
0.0
 10
1.9069643543
 20
4.2627146406
 30
0.0
 10
1.9029083262
 20
4.2516998607
 30
0.0
 10
1.9003045331
 20
4.2431166051
 30
0.0
 10
1.8985457583
 20
4.2357486068
 30
0.0
 10
1.8973915014
 20
4.2297020414
 30
0.0
 10
1.8963975671
 20
4.2234619316
 30
0.0
 10
1.8955082614
 20
4.2154304233
 30
0.0
 10
1.8951476625
 20
4.2072352161
 30
0.0
 10
1.8951925943
 20
4.2005325893
 30
0.0
 10
1.8954036375
 20
4.1954163476
 30
0.0
 10
1.8957986056
 20
4.1902707401
 30
0.0
 10
1.8963860017
 20
4.1851203971
 30
0.0
 10
1.8971608286
 20
4.1799916425
 30
0.0
 10
1.8981121292
 20
4.174912126
 30
0.0
 10
1.8992301088
 20
4.1699102151
 30
0.0
 10
1.9009197979
 20
4.1634247
 30
0.0
 10
1.9033956301
 20
4.1556060374
 30
0.0
 10
1.9068987836
 20
4.1466412496
 30
0.0
 10
1.9108450976
 20
4.1381519222
 30
0.0
 10
1.91520086
 20
4.1301179095
 30
0.0
 10
1.9199345901
 20
4.1225037442
 30
0.0
 10
1.9250341883
 20
4.1152840935
 30
0.0
 10
1.9304857853
 20
4.108435183
 30
0.0
 10
1.9362813457
 20
4.1019395748
 30
0.0
 10
1.9424108279
 20
4.095781725
 30
0.0
 10
1.9510418178
 20
4.0880027274
 30
0.0
 10
1.9626913335
 20
4.0790940152
 30
0.0
 10
1.9727534023
 20
4.0729921581
 30
0.0
 10
1.977969491
 20
4.0702052496
 30
0.0
 11
1.9454421262
 21
4.3172751148
 31
0.0
 11
1.9391038022
 21
4.3110073359
 31
0.0
 11
1.9331643152
 21
4.3044578256
 31
0.0
 11
1.9276261311
 21
4.2976461477
 31
0.0
 11
1.9224917232
 21
4.2905910291
 31
0.0
 11
1.917763666
 21
4.283299899
 31
0.0
 11
1.9134446062
 21
4.2757720768
 31
0.0
 11
1.9060523992
 21
4.2599916186
 31
0.0
 11
1.9030033913
 21
4.2517116833
 31
0.0
 11
1.9004070433
 21
4.2431480894
 31
0.0
 11
1.8982891334
 21
4.2342770929
 31
0.0
 11
1.8974186029
 21
4.2297183326
 31
0.0
 11
1.8966791455
 21
4.2250735266
 31
0.0
 11
1.8956236411
 21
4.2155224112
 31
0.0
 11
1.8951874701
 21
4.2056206474
 31
0.0
 11
1.8952214706
 21
4.2005519141
 31
0.0
 11
1.8954331445
 21
4.1954314376
 31
0.0
 11
1.8958295808
 21
4.1902818305
 31
0.0
 11
1.8964170162
 21
4.1851260174
 31
0.0
 11
1.8971918653
 21
4.1799905212
 31
0.0
 11
1.8981442452
 21
4.1749041715
 31
0.0
 11
1.8992641701
 21
4.1698958357
 31
0.0
 11
1.9005416508
 21
4.1649935912
 31
0.0
 11
1.9035290365
 21
4.1555502194
 31
0.0
 11
1.9070256754
 21
4.1465961343
 31
0.0
 11
1.9109632015
 21
4.1381282959
 31
0.0
 11
1.9153067651
 21
4.1301137542
 31
0.0
 11
1.9200301411
 21
4.122517117
 31
0.0
 11
1.9251179906
 21
4.1153121732
 31
0.0
 11
1.9305582345
 21
4.1084759603
 31
0.0
 11
1.9363420966
 21
4.1019903332
 31
0.0
 11
1.942462262
 21
4.0958410306
 31
0.0
 11
1.9489140257
 21
4.0900249464
 31
0.0
 11
1.962798806
 21
4.0794041777
 31
0.0
 11
1.977969491
 21
4.0702052496
 31
0.0
  0
SPLINE
  5
327
100
AcDbEntity
  8
0
100
AcDbSpline
 62
6
  6
CONTINUOUS
 70
0
 71
3
 72
41
 73
37
 74
35
 42
0.0000001
 43
0.0000001
 44
0.0000000001
 12
-0.1545951144
 22
-0.2485141955
 32
0.0
 13
0.2850413266
 23
-0.0664108191
 33
0.0
 40
0.0
 40
0.0
 40
0.0
 40
0.0
 40
0.0304569397
 40
0.0606664473
 40
0.0906620458
 40
0.1204754142
 40
0.1501668038
 40
0.1798202821
 40
0.2393608309
 40
0.2695084806
 40
0.3000833946
 40
0.3312452558
 40
0.3471028631
 40
0.3631728748
 40
0.396005348
 40
0.4298700394
 40
0.4471890397
 40
0.4646993867
 40
0.4823463849
 40
0.5000764995
 40
0.5178218253
 40
0.5355026504
 40
0.5530375063
 40
0.570346644
 40
0.604188329
 40
0.6370322189
 40
0.6689397185
 40
0.7000864603
 40
0.7306504928
 40
0.7607872305
 40
0.7906384044
 40
0.820330053
 40
0.8499732864
 40
0.8796522856
 40
0.9393807922
 40
1.0
 40
1.0
 40
1.0
 40
1.0
 10
1.977969491
 20
4.0702052496
 30
0.0
 10
1.976399993
 20
4.0676822557
 30
0.0
 10
1.9734102787
 20
4.0625703235
 30
0.0
 10
1.9693649592
 20
4.0547001491
 30
0.0
 10
1.9657758109
 20
4.0466802953
 30
0.0
 10
1.9626378611
 20
4.038527787
 30
0.0
 10
1.9599528211
 20
4.0302496082
 30
0.0
 10
1.9569799988
 20
4.0190345329
 30
0.0
 10
1.9549241073
 20
4.0075450983
 30
0.0
 10
1.9538571197
 20
3.9958558606
 30
0.0
 10
1.9535635587
 20
3.9868911612
 30
0.0
 10
1.9537716911
 20
3.9793190169
 30
0.0
 10
1.9542217307
 20
3.9731797395
 30
0.0
 10
1.9548767232
 20
3.9668950072
 30
0.0
 10
1.9560964273
 20
3.9589069966
 30
0.0
 10
1.9578691911
 20
3.9508977045
 30
0.0
 10
1.9596473594
 20
3.9444350933
 30
0.0
 10
1.9611753923
 20
3.9395478053
 30
0.0
 10
1.9628886833
 20
3.9346797555
 30
0.0
 10
1.9647890712
 20
3.9298569354
 30
0.0
 10
1.9668649159
 20
3.9251034788
 30
0.0
 10
1.9690984774
 20
3.9204432574
 30
0.0
 10
1.9714729526
 20
3.915901137
 30
0.0
 10
1.9747836417
 20
3.9100739341
 30
0.0
 10
1.9791987308
 20
3.9031624785
 30
0.0
 10
1.984902775
 20
3.8954098413
 30
0.0
 10
1.9909118213
 20
3.8882311619
 30
0.0
 10
1.9971985201
 20
3.8815982558
 30
0.0
 10
2.0037416433
 20
3.8754687164
 30
0.0
 10
2.01053606
 20
3.8698149425
 30
0.0
 10
2.0175745268
 20
3.8646103801
 30
0.0
 10
2.0248537954
 20
3.8598361058
 30
0.0
 10
2.0323681893
 20
3.8554745064
 30
0.0
 10
2.0427184381
 20
3.8501944362
 30
0.0
 10
2.0562767506
 20
3.8446043975
 30
0.0
 10
2.0675752396
 20
3.8413147112
 30
0.0
 10
2.0733348994
 20
3.8399727875
 30
0.0
 11
1.977969491
 21
4.0702052496
 31
0.0
 11
1.9734693607
 21
4.0625105612
 31
0.0
 11
1.9694273948
 21
4.0546469677
 31
0.0
 11
1.9658409117
 21
4.0466340045
 31
0.0
 11
1.9627074537
 21
4.0384904007
 31
0.0
 11
1.9600275844
 21
4.0302239986
 31
0.0
 11
1.9578040368
 21
4.0218348258
 31
0.0
 11
1.9547479963
 21
4.0046788297
 31
0.0
 11
1.9539458857
 21
3.9958918851
 31
0.0
 11
1.9536544273
 21
3.9869481042
 31
0.0
 11
1.9539046663
 21
3.9778312242
 31
0.0
 11
1.9542436924
 21
3.9732024901
 31
0.0
 11
1.9547315956
 21
3.9685245663
 31
0.0
 11
1.9561840672
 21
3.9590257126
 31
0.0
 11
1.9583255234
 21
3.9493484538
 31
0.0
 11
1.9596702501
 21
3.9444612334
 31
0.0
 11
1.9611999882
 21
3.9395700182
 31
0.0
 11
1.9629157327
 21
3.9346984849
 31
0.0
 11
1.9648175743
 21
3.9298703914
 31
0.0
 11
1.9668951853
 21
3.9251104286
 31
0.0
 11
1.9691315579
 21
3.9204438862
 31
0.0
 11
1.9715095749
 21
3.9158960632
 31
0.0
 11
1.9740123207
 21
3.9114914949
 31
0.0
 11
1.9793420383
 21
3.9031430906
 31
0.0
 11
1.9850370197
 21
3.8953991053
 31
0.0
 11
1.9910320158
 21
3.8882389082
 31
0.0
 11
1.9973018921
 21
3.8816216523
 31
0.0
 11
2.0038304773
 21
3.875506364
 31
0.0
 11
2.0106097393
 21
3.869863755
 31
0.0
 11
2.0176339534
 21
3.8646685192
 31
0.0
 11
2.0248993391
 21
3.8599008581
 31
0.0
 11
2.0324025215
 21
3.8555451033
 31
0.0
 11
2.04013976
 21
3.8515970366
 31
0.0
 11
2.0563002851
 21
3.8449318074
 31
0.0
 11
2.0733348994
 21
3.8399727875
 31
0.0
  0
SPLINE
  5
328
100
AcDbEntity
  8
0
100
AcDbSpline
 62
6
  6
CONTINUOUS
 70
0
 71
3
 72
39
 73
35
 74
33
 42
0.0000001
 43
0.0000001
 44
0.0000000001
 12
-0.085006452
 22
-0.2800559527
 32
0.0
 13
0.2925145662
 23
0.0096261131
 33
0.0
 40
0.0
 40
0.0
 40
0.0
 40
0.0
 40
0.0304577788
 40
0.0606684135
 40
0.0906655716
 40
0.1204807709
 40
0.1501733557
 40
0.1798279642
 40
0.2393714798
 40
0.2695202541
 40
0.3000961791
 40
0.3312592209
 40
0.3631866976
 40
0.3960253431
 40
0.4298837426
 40
0.4472039102
 40
0.4647189413
 40
0.4823689997
 40
0.5000962083
 40
0.5178351382
 40
0.5355091407
 40
0.5703420704
 40
0.6041816281
 40
0.6370229062
 40
0.6689301418
 40
0.7000783532
 40
0.7306435192
 40
0.7607810441
 40
0.7906330123
 40
0.8203255129
 40
0.8499695534
 40
0.8796492784
 40
0.9393792674
 40
1.0
 40
1.0
 40
1.0
 40
1.0
 10
2.0733348994
 20
3.8399727875
 30
0.0
 10
2.0724718635
 20
3.8371294934
 30
0.0
 10
2.0709070505
 20
3.8314178163
 30
0.0
 10
2.0690364846
 20
3.8227685422
 30
0.0
 10
2.0676453227
 20
3.8140926495
 30
0.0
 10
2.0667243504
 20
3.8054053983
 30
0.0
 10
2.0662731593
 20
3.796714033
 30
0.0
 10
2.0663044537
 20
3.7851112596
 30
0.0
 10
2.0672928532
 20
3.7734808335
 30
0.0
 10
2.0692878786
 20
3.7619134364
 30
0.0
 10
2.0713245597
 20
3.7531778392
 30
0.0
 10
2.0739328941
 20
3.7444143463
 30
0.0
 10
2.0771485671
 20
3.7356191591
 30
0.0
 10
2.0810149944
 20
3.7268015498
 30
0.0
 10
2.0848003617
 20
3.7195237724
 30
0.0
 10
2.0881916133
 20
3.7137423328
 30
0.0
 10
2.0909334777
 20
3.7094167046
 30
0.0
 10
2.0938483755
 20
3.7051574948
 30
0.0
 10
2.0969305049
 20
3.7009904049
 30
0.0
 10
2.1001649752
 20
3.6969374264
 30
0.0
 10
2.1046268408
 20
3.6917344529
 30
0.0
 10
2.1104402437
 20
3.6856278552
 30
0.0
 10
2.1177555009
 20
3.6789411101
 30
0.0
 10
2.1252710279
 20
3.6729286476
 30
0.0
 10
2.1329330956
 20
3.6675500075
 30
0.0
 10
2.1407224041
 20
3.662770095
 30
0.0
 10
2.14862916
 20
3.6585426395
 30
0.0
 10
2.1566555159
 20
3.6548399098
 30
0.0
 10
2.1648013229
 20
3.6516342731
 30
0.0
 10
2.173068372
 20
3.6489066063
 30
0.0
 10
2.1814557185
 20
3.6466383932
 30
0.0
 10
2.1928200541
 20
3.6442170047
 30
0.0
 10
2.2073634142
 20
3.6423265193
 30
0.0
 10
2.2191285404
 20
3.6420731761
 30
0.0
 10
2.2250393562
 20
3.6422676901
 30
0.0
 11
2.0733348994
 21
3.8399727875
 31
0.0
 11
2.0709795983
 21
3.8313754084
 31
0.0
 11
2.0691105742
 21
3.8227333725
 31
0.0
 11
2.0677201958
 21
3.8140648124
 31
0.0
 11
2.0668012056
 21
3.8053872379
 31
0.0
 11
2.0663520527
 21
3.7967086376
 31
0.0
 11
2.0663756401
 21
3.7880295691
 31
0.0
 11
2.0678646349
 21
3.7706665235
 31
0.0
 11
2.0693642677
 21
3.7619711624
 31
0.0
 11
2.071397589
 21
3.7532564827
 31
0.0
 11
2.0739989494
 21
3.7445147512
 31
0.0
 11
2.0772074562
 21
3.7357385579
 31
0.0
 11
2.0810696196
 21
3.7269377245
 31
0.0
 11
2.0856420996
 21
3.718146288
 31
0.0
 11
2.0882067334
 21
3.7137737746
 31
0.0
 11
2.0909514562
 21
3.709444321
 31
0.0
 11
2.0938698024
 21
3.7051819684
 31
0.0
 11
2.0969549946
 21
3.7010106648
 31
0.0
 11
2.1001924835
 21
3.6969520371
 31
0.0
 11
2.1035596006
 21
3.693025287
 31
0.0
 11
2.1105907886
 21
3.6856433234
 31
0.0
 11
2.1178990483
 21
3.6789592372
 31
0.0
 11
2.1254033238
 21
3.6729532706
 31
0.0
 11
2.1330470479
 21
3.6675886746
 31
0.0
 11
2.1408162182
 21
3.6628194206
 31
0.0
 11
2.1487052634
 21
3.6586019977
 31
0.0
 11
2.156714051
 21
3.6549061307
 31
0.0
 11
2.1648436733
 21
3.6517058171
 31
0.0
 11
2.1730956085
 21
3.6489809358
 31
0.0
 11
2.1814706188
 21
3.6467154754
 31
0.0
 11
2.1899661779
 21
3.6449044215
 31
0.0
 11
2.2073014052
 21
3.6426488755
 31
0.0
 11
2.2250393562
 21
3.6422676901
 31
0.0
  0
SPLINE
  5
329
100
AcDbEntity
  8
0
100
AcDbSpline
 62
6
  6
CONTINUOUS
 70
0
 71
3
 72
41
 73
37
 74
35
 42
0.0000001
 43
0.0000001
 44
0.0000000001
 12
-0.0096261986
 22
-0.2925171637
 32
0.0
 13
0.2800584395
 23
0.0850072068
 33
0.0
 40
0.0
 40
0.0
 40
0.0
 40
0.0
 40
0.0304569397
 40
0.0606664473
 40
0.0906620458
 40
0.1204754142
 40
0.1501668038
 40
0.1798202821
 40
0.2393608309
 40
0.2695084806
 40
0.3000833946
 40
0.3312452558
 40
0.3471028631
 40
0.3631728748
 40
0.396005348
 40
0.4298700394
 40
0.4471890397
 40
0.4646993867
 40
0.4823463849
 40
0.5000764995
 40
0.5178218253
 40
0.5355026504
 40
0.5530375063
 40
0.570346644
 40
0.604188329
 40
0.6370322189
 40
0.6689397185
 40
0.7000864603
 40
0.7306504928
 40
0.7607872305
 40
0.7906384044
 40
0.820330053
 40
0.8499732864
 40
0.8796522856
 40
0.9393807922
 40
1.0
 40
1.0
 40
1.0
 40
1.0
 10
2.2250393562
 20
3.6422676901
 30
0.0
 10
2.224941628
 20
3.6392979643
 30
0.0
 10
2.2249084256
 20
3.633376044
 30
0.0
 10
2.2253401633
 20
3.6245376133
 30
0.0
 10
2.2262417966
 20
3.615797642
 30
0.0
 10
2.2276005065
 20
3.6071683878
 30
0.0
 10
2.2294142831
 20
3.5986567547
 30
0.0
 10
2.2324472811
 20
3.5874578034
 30
0.0
 10
2.2364115441
 20
3.5764797154
 30
0.0
 10
2.2413321246
 20
3.5658230448
 30
0.0
 10
2.2455602431
 20
3.5579126069
 30
0.0
 10
2.2495265631
 20
3.5514590037
 30
0.0
 10
2.2529859475
 20
3.5463672534
 30
0.0
 10
2.2566955538
 20
3.5412520118
 30
0.0
 10
2.2617458538
 20
3.5349440437
 30
0.0
 10
2.2672857584
 20
3.5288941752
 30
0.0
 10
2.2720570029
 20
3.5241864739
 30
0.0
 10
2.2758239622
 20
3.5207179748
 30
0.0
 10
2.2797417407
 20
3.5173587655
 30
0.0
 10
2.2837989349
 20
3.5141322747
 30
0.0
 10
2.2879733975
 20
3.5110535829
 30
0.0
 10
2.2922378292
 20
3.5081344935
 30
0.0
 10
2.2965652452
 20
3.5053881394
 30
0.0
 10
2.3023459875
 20
3.5019969783
 30
0.0
 10
2.3096252946
 20
3.4982190267
 30
0.0
 10
2.3184414604
 20
3.494357068
 30
0.0
 10
2.3272347869
 20
3.4911446725
 30
0.0
 10
2.3359956808
 20
3.4885437567
 30
0.0
 10
2.3447269614
 20
3.4865069815
 30
0.0
 10
2.3534379858
 20
3.4850078779
 30
0.0
 10
2.3621357581
 20
3.4840198281
 30
0.0
 10
2.3708269267
 20
3.4835248196
 30
0.0
 10
2.3795153825
 20
3.4835047607
 30
0.0
 10
2.391118996
 20
3.4841072101
 30
0.0
 10
2.4056558583
 20
3.4860452509
 30
0.0
 10
2.41708548
 20
3.4888455435
 30
0.0
 10
2.4227444535
 20
3.4905632333
 30
0.0
 11
2.2250393562
 21
3.6422676901
 31
0.0
 11
2.2249894732
 21
3.6333538293
 31
0.0
 11
2.2254208248
 21
3.6245227746
 31
0.0
 11
2.226321321
 21
3.6157901034
 31
0.0
 11
2.2276794686
 21
3.6071708066
 31
0.0
 11
2.2294918348
 21
3.5986719578
 31
0.0
 11
2.2317607724
 21
3.5902949472
 31
0.0
 11
2.2376921618
 21
3.5739093985
 31
0.0
 11
2.2413909859
 21
3.5658986259
 31
0.0
 11
2.245610466
 21
3.5580073553
 31
0.0
 11
2.2503856193
 21
3.5502370251
 31
0.0
 11
2.2529935916
 21
3.5463979368
 31
0.0
 11
2.2557550901
 21
3.5425906876
 31
0.0
 11
2.2617623943
 21
3.5350906748
 31
0.0
 11
2.2684555791
 21
3.5277806509
 31
0.0
 11
2.2720637568
 21
3.5242205573
 31
0.0
 11
2.2758341565
 21
3.5207495097
 31
0.0
 11
2.2797558014
 21
3.5173885103
 31
0.0
 11
2.2838168914
 21
3.5141581795
 31
0.0
 11
2.2879961366
 21
3.5110747363
 31
0.0
 11
2.2922661633
 21
3.5081515783
 31
0.0
 11
2.296599498
 21
3.5054020566
 31
0.0
 11
2.3009692235
 21
3.5028389615
 31
0.0
 11
2.3097590965
 21
3.49827389
 31
0.0
 11
2.3185630878
 21
3.4944148927
 31
0.0
 11
2.3273350052
 21
3.4912114783
 31
0.0
 11
2.3360735053
 21
3.4886157047
 31
0.0
 11
2.3447850701
 21
3.4865840022
 31
0.0
 11
2.3534773877
 21
3.4850869905
 31
0.0
 11
2.3621581535
 21
3.4840998914
 31
0.0
 11
2.3708339925
 21
3.4836036686
 31
0.0
 11
2.3795098165
 21
3.4835830654
 31
0.0
 11
2.388184495
 21
3.4840325587
 31
0.0
 11
2.4055125348
 21
3.4863405634
 31
0.0
 11
2.4227444535
 21
3.4905632333
 31
0.0
  0
SPLINE
  5
32A
100
AcDbEntity
  8
0
100
AcDbSpline
 62
6
  6
CONTINUOUS
 70
0
 71
3
 72
40
 73
36
 74
34
 42
0.0000001
 43
0.0000001
 44
0.0000000001
 12
0.0664114882
 22
-0.2850441984
 32
0.0
 13
0.2485166993
 23
0.1545966719
 33
0.0
 40
0.0
 40
0.0
 40
0.0
 40
0.0
 40
0.0304500246
 40
0.060652936
 40
0.0906423408
 40
0.120449772
 40
0.1501347568
 40
0.1797817199
 40
0.2393091829
 40
0.2694494258
 40
0.3000162693
 40
0.3311694897
 40
0.3630856474
 40
0.3959114347
 40
0.4297608351
 40
0.447076175
 40
0.4645855571
 40
0.482230194
 40
0.4999532405
 40
0.5176896437
 40
0.535362968
 40
0.5702003461
 40
0.6040410751
 40
0.6368921101
 40
0.6688132619
 40
0.6999660457
 40
0.7606495213
 40
0.7905061105
 40
0.8202064691
 40
0.8498549643
 40
0.8795418099
 40
0.9093531972
 40
0.9393454126
 40
0.9695496426
 40
1.0
 40
1.0
 40
1.0
 40
1.0
 10
2.4227444535
 20
3.4905632333
 30
0.0
 10
2.4234185307
 20
3.4876700323
 30
0.0
 10
2.4249188105
 20
3.4819425135
 30
0.0
 10
2.4276226846
 20
3.4735186883
 30
0.0
 10
2.4307548293
 20
3.4653114272
 30
0.0
 10
2.4342996571
 20
3.4573293117
 30
0.0
 10
2.4382532538
 20
3.4495784267
 30
0.0
 10
2.4440795915
 20
3.4395478117
 30
0.0
 10
2.4507481026
 20
3.4299714899
 30
0.0
 10
2.45825652
 20
3.4209528133
 30
0.0
 10
2.4643855876
 20
3.4144069533
 30
0.0
 10
2.4710233532
 20
3.4081227408
 30
0.0
 10
2.4782021238
 20
3.4021142326
 30
0.0
 10
2.4859558417
 20
3.3964115439
 30
0.0
 10
2.4928700285
 20
3.3920014796
 30
0.0
 10
2.4986952243
 20
3.3886895436
 30
0.0
 10
2.5032306285
 20
3.386313812
 30
0.0
 10
2.5078828002
 20
3.3840821092
 30
0.0
 10
2.5126341536
 20
3.3820138773
 30
0.0
 10
2.5174607851
 20
3.3801203084
 30
0.0
 10
2.5239260456
 20
3.3778436885
 30
0.0
 10
2.5320136435
 20
3.3754589095
 30
0.0
 10
2.5416931741
 20
3.3733217812
 30
0.0
 10
2.5512103958
 20
3.371871414
 30
0.0
 10
2.5605381766
 20
3.3710405388
 30
0.0
 10
2.5726131617
 20
3.3707128909
 30
0.0
 10
2.5844951281
 20
3.371449524
 30
0.0
 10
2.5961008237
 20
3.3731879181
 30
0.0
 10
2.6046272408
 20
3.3749547809
 30
0.0
 10
2.6130274977
 20
3.3771821235
 30
0.0
 10
2.6213039745
 20
3.3798680245
 30
0.0
 10
2.6294556743
 20
3.3830058166
 30
0.0
 10
2.6374745978
 20
3.3865946719
 30
0.0
 10
2.6453434797
 20
3.3906394571
 30
0.0
 10
2.6504544416
 20
3.3936286503
 30
0.0
 10
2.6529769157
 20
3.395197825
 30
0.0
 11
2.4227444535
 21
3.4905632333
 31
0.0
 11
2.4250028052
 21
3.4819420516
 31
0.0
 11
2.4277043977
 21
3.4735252571
 31
0.0
 11
2.4308335568
 21
3.465324737
 31
0.0
 11
2.4343752657
 21
3.4573520115
 31
0.0
 11
2.438324236
 21
3.4496131691
 31
0.0
 11
2.4426826146
 21
3.4421101469
 31
0.0
 11
2.4526497178
 21
3.4278203921
 31
0.0
 11
2.4582938296
 21
3.4210409306
 31
0.0
 11
2.4644095484
 21
3.4145114979
 31
0.0
 11
2.4710303874
 21
3.4082425136
 31
0.0
 11
2.4781935717
 21
3.4022469918
 31
0.0
 11
2.4859347474
 21
3.3965569697
 31
0.0
 11
2.494287175
 21
3.3912291736
 31
0.0
 11
2.4986926723
 21
3.3887242855
 31
0.0
 11
2.5032323832
 21
3.3863467354
 31
0.0
 11
2.5078890315
 21
3.3841141044
 31
0.0
 11
2.5126450808
 21
3.3820437032
 31
0.0
 11
2.5174771318
 21
3.380146753
 31
0.0
 11
2.5223559901
 21
3.3784284554
 31
0.0
 11
2.5321366478
 21
3.3755474463
 31
0.0
 11
2.5418076788
 21
3.3734098454
 31
0.0
 11
2.5513122937
 21
3.3719584713
 31
0.0
 11
2.5606182147
 21
3.3711310432
 31
0.0
 11
2.5697325894
 21
3.3708830198
 31
0.0
 11
2.5874595526
 21
3.3719779546
 31
0.0
 11
2.5961018496
 21
3.373270238
 31
0.0
 11
2.6046138459
 21
3.3750332395
 31
0.0
 11
2.6130015685
 21
3.3772569071
 31
0.0
 11
2.621266477
 21
3.3799373546
 31
0.0
 11
2.6294094997
 21
3.3830709533
 31
0.0
 11
2.63742159
 21
3.3866571792
 31
0.0
 11
2.6452838386
 21
3.3906985776
 31
0.0
 11
2.6529769157
 21
3.395197825
 31
0.0
  0
SPLINE
  5
32B
100
AcDbEntity
  8
0
100
AcDbSpline
 62
6
  6
CONTINUOUS
 70
0
 71
3
 72
41
 73
37
 74
35
 42
0.0000001
 43
0.0000001
 44
0.0000000001
 12
0.1379220493
 22
-0.2581403941
 32
0.0
 13
0.2000341198
 23
0.2136476204
 33
0.0
 40
0.0
 40
0.0
 40
0.0
 40
0.0
 40
0.0304569397
 40
0.0606664473
 40
0.0906620458
 40
0.1204754142
 40
0.1501668038
 40
0.1798202821
 40
0.2393608309
 40
0.2695084806
 40
0.3000833946
 40
0.3312452558
 40
0.3471028631
 40
0.3631728748
 40
0.396005348
 40
0.4298700394
 40
0.4471890397
 40
0.4646993867
 40
0.4823463849
 40
0.5000764995
 40
0.5178218253
 40
0.5355026504
 40
0.5530375063
 40
0.570346644
 40
0.604188329
 40
0.6370322189
 40
0.6689397185
 40
0.7000864603
 40
0.7306504928
 40
0.7607872305
 40
0.7906384044
 40
0.820330053
 40
0.8499732864
 40
0.8796522856
 40
0.9393807922
 40
1.0
 40
1.0
 40
1.0
 40
1.0
 10
2.6529769157
 20
3.395197825
 30
0.0
 10
2.6543771435
 20
3.3925771028
 30
0.0
 10
2.6573093496
 20
3.3874319682
 30
0.0
 10
2.6621024607
 20
3.3799935316
 30
0.0
 10
2.6672532837
 20
3.372875311
 30
0.0
 10
2.6727445881
 20
3.3660815127
 30
0.0
 10
2.6785711812
 20
3.3596171104
 30
0.0
 10
2.6867973102
 20
3.3514350331
 30
0.0
 10
2.6957195067
 20
3.3439098615
 30
0.0
 10
2.7053091897
 20
3.3371412044
 30
0.0
 10
2.7129260667
 20
3.3324046234
 30
0.0
 10
2.7195878021
 20
3.3287987991
 30
0.0
 10
2.7251295921
 20
3.3261189062
 30
0.0
 10
2.7308998262
 20
3.3235437802
 30
0.0
 10
2.7384274983
 20
3.3206060696
 30
0.0
 10
2.7462501307
 20
3.318136682
 30
0.0
 10
2.7527360002
 20
3.3164453154
 30
0.0
 10
2.7577325323
 20
3.3153249867
 30
0.0
 10
2.7628050326
 20
3.3143747153
 30
0.0
 10
2.7679319113
 20
3.3136090895
 30
0.0
 10
2.7730864478
 20
3.3130300954
 30
0.0
 10
2.7782390987
 20
3.3126343057
 30
0.0
 10
2.783359928
 20
3.3124196013
 30
0.0
 10
2.7900617782
 20
3.3123731407
 30
0.0
 10
2.7982548189
 20
3.3127409923
 30
0.0
 10
2.8078208218
 20
3.3138045209
 30
0.0
 10
2.8170422636
 20
3.3154191679
 30
0.0
 10
2.8259298782
 20
3.3175471557
 30
0.0
 10
2.8345097766
 20
3.3201488969
 30
0.0
 10
2.8428032968
 20
3.3232061474
 30
0.0
 10
2.8508298135
 20
3.3266993573
 30
0.0
 10
2.8586040906
 20
3.3306162516
 30
0.0
 10
2.8661385435
 20
3.334943108
 30
0.0
 10
2.8758863428
 20
3.3412666513
 30
0.0
 10
2.8875066145
 20
3.350213475
 30
0.0
 10
2.8960048109
 20
3.3583534103
 30
0.0
 10
2.9000467809
 20
3.3626704601
 30
0.0
 11
2.6529769157
 21
3.395197825
 31
0.0
 11
2.6573906462
 21
3.3874532536
 31
0.0
 11
2.662179735
 21
3.3800210117
 31
0.0
 11
2.6673259231
 21
3.3729085446
 31
0.0
 11
2.6728117619
 21
3.3661230884
 31
0.0
 11
2.6786307414
 21
3.3596690525
 31
0.0
 11
2.6847842044
 21
3.3535488174
 31
0.0
 11
2.6981137126
 21
3.3423242106
 31
0.0
 11
2.7053223746
 21
3.3372360902
 31
0.0
 11
2.7129221868
 21
3.3325117894
 31
0.0
 11
2.720942756
 21
3.3281700627
 31
0.0
 11
2.7251208704
 21
3.3261493008
 31
0.0
 11
2.7294160228
 21
3.3242328755
 31
0.0
 11
2.7383685072
 21
3.320741326
 31
0.0
 11
2.7478199873
 21
3.3177572521
 31
0.0
 11
2.7527248076
 21
3.3164782094
 31
0.0
 11
2.7577255933
 21
3.3153573938
 31
0.0
 11
2.7628023371
 21
3.3144075054
 31
0.0
 11
2.7679345096
 21
3.3136405019
 31
0.0
 11
2.7730955638
 21
3.3130597844
 31
0.0
 11
2.7782550944
 21
3.3126632686
 31
0.0
 11
2.7833826332
 21
3.3124487803
 31
0.0
 11
2.788448474
 21
3.3124139376
 31
0.0
 11
2.7983432631
 21
3.3128554062
 31
0.0
 11
2.8078972418
 21
3.3139154122
 31
0.0
 11
2.8170956524
 21
3.3155271326
 31
0.0
 11
2.8259613022
 21
3.3176483767
 31
0.0
 11
2.8345215899
 21
3.3202446532
 31
0.0
 11
2.8427978636
 21
3.3232943618
 31
0.0
 11
2.8508091769
 21
3.3267798918
 31
0.0
 11
2.8585707853
 21
3.3306880698
 31
0.0
 11
2.8660945708
 21
3.3350081389
 31
0.0
 11
2.8733823161
 21
3.3397347508
 31
0.0
 11
2.8872348364
 21
3.3503975614
 31
0.0
 11
2.9000467809
 21
3.3626704601
 31
0.0
  0
SPLINE
  5
32C
100
AcDbEntity
  8
0
100
AcDbSpline
 62
6
  6
CONTINUOUS
 70
0
 71
3
 72
41
 73
37
 74
35
 42
0.0000001
 43
0.0000001
 44
0.0000000001
 12
0.2000341198
 22
-0.2136476204
 32
0.0
 13
0.1379220493
 23
0.2581403941
 33
0.0
 40
0.0
 40
0.0
 40
0.0
 40
0.0
 40
0.0304569397
 40
0.0606664473
 40
0.0906620458
 40
0.1204754142
 40
0.1501668038
 40
0.1798202821
 40
0.2393608309
 40
0.2695084806
 40
0.3000833946
 40
0.3312452558
 40
0.3471028631
 40
0.3631728748
 40
0.396005348
 40
0.4298700394
 40
0.4471890397
 40
0.4646993867
 40
0.4823463849
 40
0.5000764995
 40
0.5178218253
 40
0.5355026504
 40
0.5530375063
 40
0.570346644
 40
0.604188329
 40
0.6370322189
 40
0.6689397185
 40
0.7000864603
 40
0.7306504928
 40
0.7607872305
 40
0.7906384044
 40
0.820330053
 40
0.8499732864
 40
0.8796522856
 40
0.9393807922
 40
1.0
 40
1.0
 40
1.0
 40
1.0
 10
2.9000467809
 20
3.3626704601
 30
0.0
 10
2.9020775899
 20
3.3605014426
 30
0.0
 10
2.9062415423
 20
3.3562905349
 30
0.0
 10
2.9127965412
 20
3.3503461053
 30
0.0
 10
2.9196141852
 20
3.3448035634
 30
0.0
 10
2.9266767423
 20
3.3396625122
 30
0.0
 10
2.9339779095
 20
3.3349264124
 30
0.0
 10
2.9440414173
 20
3.3291522115
 30
0.0
 10
2.9546072551
 20
3.3241926883
 30
0.0
 10
2.965622035
 20
3.3201366601
 30
0.0
 10
2.9742052905
 20
3.317532867
 30
0.0
 10
2.9815732889
 20
3.3157740922
 30
0.0
 10
2.9876198542
 20
3.3146198353
 30
0.0
 10
2.993859964
 20
3.313625901
 30
0.0
 10
3.0018914724
 20
3.3127365954
 30
0.0
 10
3.0100866795
 20
3.3123759964
 30
0.0
 10
3.0167893064
 20
3.3124209282
 30
0.0
 10
3.0219055481
 20
3.3126319715
 30
0.0
 10
3.0270511555
 20
3.3130269395
 30
0.0
 10
3.0322014986
 20
3.3136143356
 30
0.0
 10
3.0373302532
 20
3.3143891625
 30
0.0
 10
3.0424097697
 20
3.3153404632
 30
0.0
 10
3.0474116805
 20
3.3164584428
 30
0.0
 10
3.0538971956
 20
3.3181481318
 30
0.0
 10
3.0617158582
 20
3.3206239641
 30
0.0
 10
3.070680646
 20
3.3241271175
 30
0.0
 10
3.0791699735
 20
3.3280734316
 30
0.0
 10
3.0872039862
 20
3.3324291939
 30
0.0
 10
3.0948181514
 20
3.3371629241
 30
0.0
 10
3.1020378021
 20
3.3422625222
 30
0.0
 10
3.1088867126
 20
3.3477141193
 30
0.0
 10
3.1153823208
 20
3.3535096796
 30
0.0
 10
3.1215401706
 20
3.3596391618
 30
0.0
 10
3.1293191683
 20
3.3682701517
 30
0.0
 10
3.1382278805
 20
3.3799196674
 30
0.0
 10
3.1443297376
 20
3.3899817362
 30
0.0
 10
3.147116646
 20
3.395197825
 30
0.0
 11
2.9000467809
 21
3.3626704601
 31
0.0
 11
2.9063145597
 21
3.3563321361
 31
0.0
 11
2.91286407
 21
3.3503926491
 31
0.0
 11
2.9196757479
 21
3.344854465
 31
0.0
 11
2.9267308666
 21
3.3397200572
 31
0.0
 11
2.9340219966
 21
3.334992
 31
0.0
 11
2.9415498188
 21
3.3306729402
 31
0.0
 11
2.957330277
 21
3.3232807332
 31
0.0
 11
2.9656102123
 21
3.3202317252
 31
0.0
 11
2.9741738062
 21
3.3176353772
 31
0.0
 11
2.9830448027
 21
3.3155174673
 31
0.0
 11
2.987603563
 21
3.3146469369
 31
0.0
 11
2.992248369
 21
3.3139074794
 31
0.0
 11
3.0017994844
 21
3.312851975
 31
0.0
 11
3.0117012483
 21
3.312415804
 31
0.0
 11
3.0167699815
 21
3.3124498046
 31
0.0
 11
3.021890458
 21
3.3126614785
 31
0.0
 11
3.0270400652
 21
3.3130579147
 31
0.0
 11
3.0321958783
 21
3.3136453501
 31
0.0
 11
3.0373313745
 21
3.3144201992
 31
0.0
 11
3.0424177242
 21
3.3153725792
 31
0.0
 11
3.04742606
 21
3.3164925041
 31
0.0
 11
3.0523283045
 21
3.3177699847
 31
0.0
 11
3.0617716763
 21
3.3207573705
 31
0.0
 11
3.0707257613
 21
3.3242540093
 31
0.0
 11
3.0791935997
 21
3.3281915355
 31
0.0
 11
3.0872081415
 21
3.332535099
 31
0.0
 11
3.0948047786
 21
3.337258475
 31
0.0
 11
3.1020097225
 21
3.3423463246
 31
0.0
 11
3.1088459353
 21
3.3477865685
 31
0.0
 11
3.1153315625
 21
3.3535704306
 31
0.0
 11
3.1214808651
 21
3.3596905959
 31
0.0
 11
3.1272969493
 21
3.3661423596
 31
0.0
 11
3.137917718
 21
3.3800271399
 31
0.0
 11
3.147116646
 21
3.395197825
 31
0.0
  0
SPLINE
  5
32D
100
AcDbEntity
  8
0
100
AcDbSpline
 62
6
  6
CONTINUOUS
 70
0
 71
3
 72
39
 73
35
 74
33
 42
0.0000001
 43
0.0000001
 44
0.0000000001
 12
0.24851194
 22
-0.1545937113
 32
0.0
 13
0.0664102164
 23
0.2850387395
 33
0.0
 40
0.0
 40
0.0
 40
0.0
 40
0.0
 40
0.0304571666
 40
0.0606668282
 40
0.0906625947
 40
0.1204762721
 40
0.150168294
 40
0.1798226184
 40
0.2393645446
 40
0.269512554
 40
0.3000878079
 40
0.3312498108
 40
0.3631738794
 40
0.3960070386
 40
0.4298707002
 40
0.4471901507
 40
0.4647014797
 40
0.4823490859
 40
0.5000787562
 40
0.5178232502
 40
0.5355034971
 40
0.5703435251
 40
0.6041853329
 40
0.6370288904
 40
0.6689367772
 40
0.7000838225
 40
0.7306480915
 40
0.7607850679
 40
0.7906365262
 40
0.8203284471
 40
0.8499719392
 40
0.8796512132
 40
0.9393802458
 40
1.0
 40
1.0
 40
1.0
 40
1.0
 10
3.147116646
 20
3.395197825
 30
0.0
 10
3.1496396359
 20
3.3936283295
 30
0.0
 10
3.1547515589
 20
3.3906386318
 30
0.0
 10
3.1626217175
 20
3.3865933405
 30
0.0
 10
3.1706415501
 20
3.3830041916
 30
0.0
 10
3.178794057
 20
3.3798661603
 30
0.0
 10
3.1870723123
 20
3.3771810394
 30
0.0
 10
3.1982875707
 20
3.3742082373
 30
0.0
 10
3.2097771853
 20
3.3721524078
 30
0.0
 10
3.2214664787
 20
3.3710854911
 30
0.0
 10
3.2304313147
 20
3.3707918458
 30
0.0
 10
3.2395707614
 20
3.3710433761
 30
0.0
 10
3.2488976552
 20
3.3718720269
 30
0.0
 10
3.258415163
 20
3.3733246828
 30
0.0
 10
3.2664245326
 20
3.3750975355
 30
0.0
 10
3.2728870586
 20
3.3768758538
 30
0.0
 10
3.2777744724
 20
3.378404004
 30
0.0
 10
3.2826426093
 20
3.3801172412
 30
0.0
 10
3.2874654147
 20
3.3820173266
 30
0.0
 10
3.2922186786
 20
3.384093182
 30
0.0
 10
3.2984011689
 20
3.3870564895
 30
0.0
 10
3.3058062606
 20
3.3910909292
 30
0.0
 10
3.314159396
 20
3.3964270171
 30
0.0
 10
3.3219121311
 20
3.4021311818
 30
0.0
 10
3.3290907213
 20
3.408140167
 30
0.0
 10
3.335723668
 20
3.4144268559
 30
0.0
 10
3.341853178
 20
3.4209699947
 30
0.0
 10
3.3475069505
 20
3.4277644051
 30
0.0
 10
3.352711518
 20
3.4348028656
 30
0.0
 10
3.3574857985
 20
3.4420821311
 30
0.0
 10
3.3618473886
 20
3.4495965302
 30
0.0
 10
3.3671274624
 20
3.4599467747
 30
0.0
 10
3.372717499
 20
3.4735050869
 30
0.0
 10
3.3760071845
 20
3.4848035739
 30
0.0
 10
3.3773491082
 20
3.4905632333
 30
0.0
 11
3.147116646
 21
3.395197825
 31
0.0
 11
3.1548113272
 21
3.3906977109
 31
0.0
 11
3.1626748953
 21
3.3866557725
 31
0.0
 11
3.1706878239
 21
3.3830692871
 31
0.0
 11
3.178831416
 21
3.3799357671
 31
0.0
 11
3.1870979066
 21
3.3772558264
 31
0.0
 11
3.1954872515
 21
3.3750322692
 31
0.0
 11
3.2126435106
 21
3.3719763084
 31
0.0
 11
3.2214304838
 21
3.3711742332
 31
0.0
 11
3.230374283
 21
3.3708827777
 31
0.0
 11
3.239491123
 21
3.3711329708
 31
0.0
 11
3.2487977543
 21
3.3719600276
 31
0.0
 11
3.2582967246
 21
3.3734124876
 31
0.0
 11
3.2679735988
 21
3.3755538708
 31
0.0
 11
3.2728608736
 21
3.3768987227
 31
0.0
 11
3.2777523015
 21
3.378428588
 31
0.0
 11
3.2826239867
 21
3.3801442956
 31
0.0
 11
3.2874519819
 21
3.3820459036
 31
0.0
 11
3.2922116671
 21
3.3841234239
 31
0.0
 11
3.2968779513
 21
3.3863598353
 31
0.0
 11
3.3058305551
 21
3.391240839
 31
0.0
 11
3.3141789664
 21
3.3965704454
 31
0.0
 11
3.3219227784
 21
3.4022653511
 31
0.0
 11
3.3290829946
 21
3.4082603686
 31
0.0
 11
3.3357002656
 21
3.4145302379
 31
0.0
 11
3.3418155347
 21
3.4210588247
 31
0.0
 11
3.3474581357
 21
3.4278380801
 31
0.0
 11
3.3526533795
 21
3.4348622933
 31
0.0
 11
3.3574210444
 21
3.4421276774
 31
0.0
 11
3.3617767931
 21
3.4496308598
 31
0.0
 11
3.3657248613
 21
3.4573680994
 31
0.0
 11
3.372390089
 21
3.4735286199
 31
0.0
 11
3.3773491082
 21
3.4905632333
 31
0.0
  0
SPLINE
  5
32E
100
AcDbEntity
  8
0
100
AcDbSpline
 62
6
  6
CONTINUOUS
 70
0
 71
3
 72
41
 73
37
 74
35
 42
0.0000001
 43
0.0000001
 44
0.0000000001
 12
0.2800584395
 22
-0.0850072068
 32
0.0
 13
-0.0096261986
 23
0.2925171637
 33
0.0
 40
0.0
 40
0.0
 40
0.0
 40
0.0
 40
0.0304569397
 40
0.0606664473
 40
0.0906620458
 40
0.1204754142
 40
0.1501668038
 40
0.1798202821
 40
0.2393608309
 40
0.2695084806
 40
0.3000833946
 40
0.3312452558
 40
0.3471028631
 40
0.3631728748
 40
0.396005348
 40
0.4298700394
 40
0.4471890397
 40
0.4646993867
 40
0.4823463849
 40
0.5000764995
 40
0.5178218253
 40
0.5355026504
 40
0.5530375063
 40
0.570346644
 40
0.604188329
 40
0.6370322189
 40
0.6689397185
 40
0.7000864603
 40
0.7306504928
 40
0.7607872305
 40
0.7906384044
 40
0.820330053
 40
0.8499732864
 40
0.8796522856
 40
0.9393807922
 40
1.0
 40
1.0
 40
1.0
 40
1.0
 10
3.3773491082
 20
3.4905632333
 30
0.0
 10
3.3801923492
 20
3.4897002135
 30
0.0
 10
3.3859038915
 20
3.4881354367
 30
0.0
 10
3.3945529019
 20
3.4862649091
 30
0.0
 10
3.4032284258
 20
3.484873749
 30
0.0
 10
3.4119153052
 20
3.4839527466
 30
0.0
 10
3.4206063514
 20
3.4835017475
 30
0.0
 10
3.4322087054
 20
3.4835328967
 30
0.0
 10
3.4438387509
 20
3.4845207425
 30
0.0
 10
3.4554058441
 20
3.486515509
 30
0.0
 10
3.464141058
 20
3.4885521858
 30
0.0
 10
3.4714013191
 20
3.4907130414
 30
0.0
 10
3.4772149268
 20
3.4927367082
 30
0.0
 10
3.4831159876
 20
3.4949959908
 30
0.0
 10
3.4905161307
 20
3.4982415837
 30
0.0
 10
3.4977936877
 20
3.5020268994
 30
0.0
 10
3.5035758669
 20
3.5054171249
 30
0.0
 10
3.5079011406
 20
3.5081580145
 30
0.0
 10
3.5121598834
 20
3.5110728706
 30
0.0
 10
3.5163265132
 20
3.5141567421
 30
0.0
 10
3.5203807316
 20
3.5173921392
 30
0.0
 10
3.5243040716
 20
3.520755748
 30
0.0
 10
3.5280768636
 20
3.5242249021
 30
0.0
 10
3.5328486399
 20
3.5289309733
 30
0.0
 10
3.5383818842
 20
3.5349844382
 30
0.0
 10
3.5443940415
 20
3.542500652
 30
0.0
 10
3.5497728577
 20
3.550162924
 30
0.0
 10
3.5545526356
 20
3.5579521311
 30
0.0
 10
3.5587798311
 20
3.5658587443
 30
0.0
 10
3.5624824329
 20
3.5738849512
 30
0.0
 10
3.5656879649
 20
3.582030628
 30
0.0
 10
3.5684155464
 20
3.5902975346
 30
0.0
 10
3.5706836596
 20
3.5986847468
 30
0.0
 10
3.5731049743
 20
3.6100489022
 30
0.0
 10
3.5749953875
 20
3.6245920348
 30
0.0
 10
3.5752487164
 20
3.6363569706
 30
0.0
 10
3.5750542055
 20
3.6422676901
 30
0.0
 11
3.3773491082
 21
3.4905632333
 31
0.0
 11
3.3859463259
 21
3.4882079731
 31
0.0
 11
3.3945881117
 21
3.4863389816
 31
0.0
 11
3.4032562899
 21
3.4849486125
 31
0.0
 11
3.4119334058
 21
3.4840296442
 31
0.0
 11
3.4206117382
 21
3.4835805915
 31
0.0
 11
3.4292905534
 21
3.4836040871
 31
0.0
 11
3.4466529346
 21
3.4850924772
 31
0.0
 11
3.4553480729
 21
3.4865919265
 31
0.0
 11
3.4640625367
 21
3.4886252201
 31
0.0
 11
3.472804
 21
3.4912265546
 31
0.0
 11
3.4771872674
 21
3.4927520332
 31
0.0
 11
3.4815795162
 21
3.4944340473
 31
0.0
 11
3.4903787769
 21
3.4982955114
 31
0.0
 11
3.4991720415
 21
3.5028686581
 31
0.0
 11
3.503544693
 21
3.5054324701
 31
0.0
 11
3.5078733187
 21
3.5081760233
 31
0.0
 11
3.5121347912
 21
3.5110941508
 31
0.0
 11
3.5163061386
 21
3.5141807913
 31
0.0
 11
3.5203661843
 21
3.5174195784
 31
0.0
 11
3.5242949024
 21
3.5207875385
 31
0.0
 11
3.5280722859
 21
3.5242615898
 31
0.0
 11
3.5316790139
 21
3.5278190427
 31
0.0
 11
3.5383635209
 21
3.5351278806
 31
0.0
 11
3.5443696666
 21
3.5426331012
 31
0.0
 11
3.5497342667
 21
3.550277018
 31
0.0
 11
3.5545032817
 21
3.5580459253
 31
0.0
 11
3.5587204744
 21
3.5659348075
 31
0.0
 11
3.562416214
 21
3.5739434864
 31
0.0
 11
3.5656164261
 21
3.5820729822
 31
0.0
 11
3.5683412129
 21
3.5903247673
 31
0.0
 11
3.5706065825
 21
3.5986996373
 31
0.0
 11
3.5724175773
 21
3.6071950707
 31
0.0
 11
3.5746730427
 21
3.6245300274
 31
0.0
 11
3.5750542055
 21
3.6422676901
 31
0.0
  0
SPLINE
  5
32F
100
AcDbEntity
  8
0
100
AcDbSpline
 62
6
  6
CONTINUOUS
 70
0
 71
3
 72
44
 73
40
 74
38
 42
0.0000001
 43
0.0000001
 44
0.0000000001
 12
0.2925367804
 22
-0.0096268442
 32
0.0
 13
-0.0850129076
 23
0.2800772207
 33
0.0
 40
0.0
 40
0.0
 40
0.0
 40
0.0
 40
0.0304373569
 40
0.0606295437
 40
0.0906109763
 40
0.1204126587
 40
0.1500881653
 40
0.1797251246
 40
0.2094163479
 40
0.2392641751
 40
0.2693949054
 40
0.2999474167
 40
0.3310798639
 40
0.3629850438
 40
0.3792951753
 40
0.3958641283
 40
0.4297309402
 40
0.4470149122
 40
0.464522272
 40
0.4822139819
 40
0.5000016722
 40
0.5177924468
 40
0.5354932305
 40
0.5530125687
 40
0.5702986763
 40
0.6041518484
 40
0.637019435
 40
0.668925975
 40
0.7000600837
 40
0.7306125622
 40
0.7607425803
 40
0.7905893405
 40
0.8202799792
 40
0.8499170516
 40
0.87959191
 40
0.9093915244
 40
0.9393714682
 40
0.9695628745
 40
1.0
 40
1.0
 40
1.0
 40
1.0
 10
3.5750542055
 20
3.6422676901
 30
0.0
 10
3.578022221
 20
3.6421700182
 30
0.0
 10
3.5839409309
 20
3.6421367482
 30
0.0
 10
3.592774993
 20
3.6425679539
 30
0.0
 10
3.6015113863
 20
3.6434687422
 30
0.0
 10
3.6101373576
 20
3.6448262822
 30
0.0
 10
3.618645596
 20
3.6466364242
 30
0.0
 10
3.6270320407
 20
3.6489056146
 30
0.0
 10
3.6352969059
 20
3.6516381135
 30
0.0
 10
3.6434424319
 20
3.6548428534
 30
0.0
 10
3.6514669712
 20
3.6585456167
 30
0.0
 10
3.6593723841
 20
3.6627697107
 30
0.0
 10
3.6671604813
 20
3.6675470701
 30
0.0
 10
3.6735004445
 20
3.6719992207
 30
0.0
 10
3.6784982465
 20
3.6758702137
 30
0.0
 10
3.683518482
 20
3.680019348
 30
0.0
 10
3.6884014808
 20
3.6844790678
 30
0.0
 10
3.6931079354
 20
3.6892472607
 30
0.0
 10
3.6965719972
 20
3.6930198185
 30
0.0
 10
3.6999289223
 20
3.6969526959
 30
0.0
 10
3.7031636772
 20
3.7010219962
 30
0.0
 10
3.7062561314
 20
3.7052015581
 30
0.0
 10
3.7091867558
 20
3.7094644264
 30
0.0
 10
3.7119367556
 20
3.7137878839
 30
0.0
 10
3.7153256497
 20
3.7195674804
 30
0.0
 10
3.7191012753
 20
3.7268499195
 30
0.0
 10
3.7229646274
 20
3.7356697251
 30
0.0
 10
3.726179595
 20
3.7444638429
 30
0.0
 10
3.7287792363
 20
3.7532232746
 30
0.0
 10
3.7308130396
 20
3.7619527219
 30
0.0
 10
3.7323126806
 20
3.7706620127
 30
0.0
 10
3.7332996134
 20
3.7793592544
 30
0.0
 10
3.7337993391
 20
3.7880495984
 30
0.0
 10
3.7338208692
 20
3.7967374702
 30
0.0
 10
3.7333675264
 20
3.8054240656
 30
0.0
 10
3.7324460509
 20
3.8141070414
 30
0.0
 10
3.7310550102
 20
3.8227784592
 30
0.0
 10
3.7291851501
 20
3.8314228733
 30
0.0
 10
3.7276211785
 20
3.8371312056
 30
0.0
 10
3.7267586624
 20
3.8399727875
 30
0.0
 11
3.5750542055
 21
3.6422676901
 31
0.0
 11
3.5839629317
 21
3.6422177151
 31
0.0
 11
3.5927895306
 21
3.6426485289
 31
0.0
 11
3.6015187125
 21
3.6435481799
 31
0.0
 11
3.6101353618
 21
3.6449049133
 31
0.0
 11
3.6186307183
 21
3.6467141589
 31
0.0
 11
3.6270040474
 21
3.6489804198
 31
0.0
 11
3.6352551296
 21
3.6517087945
 31
0.0
 11
3.6433840461
 21
3.6549094034
 31
0.0
 11
3.6513916207
 21
3.6586047512
 31
0.0
 11
3.6592787789
 21
3.6628192881
 31
0.0
 11
3.6670452249
 21
3.6675854835
 31
0.0
 11
3.6746883253
 21
3.672951155
 31
0.0
 11
3.6784626549
 21
3.6758742563
 31
0.0
 11
3.6822005202
 21
3.6789641572
 31
0.0
 11
3.6895174464
 21
3.6856517012
 31
0.0
 11
3.693070764
 21
3.689252639
 31
0.0
 11
3.6965367588
 21
3.6930269636
 31
0.0
 11
3.6998996357
 21
3.6969646807
 31
0.0
 11
3.7031396459
 21
3.7010400491
 31
0.0
 11
3.7062367506
 21
3.7052261735
 31
0.0
 11
3.709170911
 21
3.7094961586
 31
0.0
 11
3.7119223737
 21
3.7138232874
 31
0.0
 11
3.714482129
 21
3.7181875509
 31
0.0
 11
3.7190464106
 21
3.7269823707
 31
0.0
 11
3.7229080453
 21
3.7357934828
 31
0.0
 11
3.7261127084
 21
3.7445653118
 31
0.0
 11
3.728706997
 21
3.7533010333
 31
0.0
 11
3.7307364787
 21
3.7620102594
 31
0.0
 11
3.7322332359
 21
3.7707012253
 31
0.0
 11
3.733220494
 21
3.7793812624
 31
0.0
 11
3.7337199667
 21
3.7880572027
 31
0.0
 11
3.7337419384
 21
3.7967318018
 31
0.0
 11
3.7332909654
 21
3.8054057731
 31
0.0
 11
3.7323712584
 21
3.8140793509
 31
0.0
 11
3.7309809686
 21
3.8227434974
 31
0.0
 11
3.7291126538
 21
3.8313806156
 31
0.0
 11
3.7267586624
 21
3.8399727875
 31
0.0
  0
SPLINE
  5
330
100
AcDbEntity
  8
0
100
AcDbSpline
 62
6
  6
CONTINUOUS
 70
0
 71
3
 72
22
 73
18
 74
16
 42
0.0000001
 43
0.0000001
 44
0.0000000001
 12
0.1370703214
 22
0.0319355527
 32
0.0
 13
0.0588836328
 23
0.1278314136
 33
0.0
 40
0.0
 40
0.0
 40
0.0
 40
0.0
 40
0.0612026656
 40
0.121922703
 40
0.182223388
 40
0.242162754
 40
0.3018445825
 40
0.3614247511
 40
0.4210653107
 40
0.4809564193
 40
0.6024081058
 40
0.6645593024
 40
0.7280620671
 40
0.7932275099
 40
0.8602889308
 40
0.9293975146
 40
1.0
 40
1.0
 40
1.0
 40
1.0
 10
3.7267586624
 20
3.8399727875
 30
0.0
 10
3.7295550187
 20
3.8406243011
 30
0.0
 10
3.7350925645
 20
3.842069414
 30
0.0
 10
3.7432429724
 20
3.8446610067
 30
0.0
 10
3.7511917515
 20
3.8476534188
 30
0.0
 10
3.7589307717
 20
3.851032448
 30
0.0
 10
3.7664542146
 20
3.854792838
 30
0.0
 10
3.7737572473
 20
3.8589367634
 30
0.0
 10
3.7808401985
 20
3.8634655707
 30
0.0
 10
3.7900289676
 20
3.8700588712
 30
0.0
 10
3.7987457033
 20
3.8774864656
 30
0.0
 10
3.8068980591
 20
3.8857354477
 30
0.0
 10
3.8128084178
 20
3.8924664269
 30
0.0
 10
3.8184490748
 20
3.8997191619
 30
0.0
 10
3.8237719452
 20
3.9075299329
 30
0.0
 10
3.8287051662
 20
3.9158899659
 30
0.0
 10
3.8316569352
 20
3.921748861
 30
0.0
 10
3.8330427121
 20
3.9247572662
 30
0.0
 11
3.7267586624
 21
3.8399727875
 31
0.0
 11
3.7350932575
 21
3.8421479273
 31
0.0
 11
3.7432372968
 21
3.8447374747
 31
0.0
 11
3.7511800318
 21
3.8477272611
 31
0.0
 11
3.7589109126
 21
3.8511034688
 31
0.0
 11
3.7664237812
 21
3.8548600462
 31
0.0
 11
3.7737167762
 21
3.8589985403
 31
0.0
 11
3.7807881968
 21
3.8635209884
 31
0.0
 11
3.7876355223
 21
3.8684367676
 31
0.0
 11
3.8006430485
 21
3.8795266123
 31
0.0
 11
3.8067914389
 21
3.8857484816
 31
0.0
 11
3.81268938
 21
3.8924635891
 31
0.0
 11
3.8183179748
 21
3.899704786
 31
0.0
 11
3.8236326268
 21
3.9075045536
 31
0.0
 11
3.8285761814
 21
3.9158810047
 31
0.0
 11
3.8330427121
 21
3.9247572662
 31
0.0
  0
SPLINE
  5
331
100
AcDbEntity
  8
0
100
AcDbSpline
 62
6
  6
CONTINUOUS
 70
0
 71
3
 72
23
 73
19
 74
17
 42
0.0000001
 43
0.0000001
 44
0.0000000001
 12
-0.1422300844
 22
-0.0449061834
 32
0.0
 13
-0.0779808495
 23
-0.127141454
 33
0.0
 40
0.0
 40
0.0
 40
0.0
 40
0.0
 40
0.0500040567
 40
0.1047106595
 40
0.1636221469
 40
0.2262044324
 40
0.291866697
 40
0.3598982086
 40
0.4295409797
 40
0.4999957317
 40
0.5704507688
 40
0.6400935435
 40
0.7081244384
 40
0.7737860519
 40
0.8363697809
 40
0.8952848943
 40
0.9499946754
 40
1.0
 40
1.0
 40
1.0
 40
1.0
 10
9.8554625777
 20
3.5338315027
 30
0.0
 10
9.853091884
 20
3.5330830056
 30
0.0
 10
9.8481925259
 20
3.5313070114
 30
0.0
 10
9.8407327626
 20
3.5280524241
 30
0.0
 10
9.8328983625
 20
3.5241248321
 30
0.0
 10
9.8247743906
 20
3.5195827433
 30
0.0
 10
9.8164491832
 20
3.5144878291
 30
0.0
 10
9.8080159521
 20
3.508909604
 30
0.0
 10
9.7995748789
 20
3.5029216457
 30
0.0
 10
9.791227332
 20
3.4966024468
 30
0.0
 10
9.7830763638
 20
3.4900316373
 30
0.0
 10
9.7752241827
 20
3.4832899557
 30
0.0
 10
9.7677714775
 20
3.4764568088
 30
0.0
 10
9.7608138149
 20
3.4696114944
 30
0.0
 10
9.7544410869
 20
3.4628275489
 30
0.0
 10
9.7487345626
 20
3.4561757377
 30
0.0
 10
9.7437717243
 20
3.4497246014
 30
0.0
 10
9.7408630619
 20
3.445400268
 30
0.0
 10
9.7395632427
 20
3.4432810182
 30
0.0
 11
9.8554625777
 21
3.5338315027
 31
0.0
 11
9.8484411649
 21
3.5313168074
 31
0.0
 11
9.840954192
 21
3.5280728547
 31
0.0
 11
9.8330917295
 21
3.5241501384
 31
0.0
 11
9.8249383701
 21
3.5196059128
 31
0.0
 11
9.8165800412
 21
3.5145017439
 31
0.0
 11
9.8081136164
 21
3.5089088612
 31
0.0
 11
9.7996393494
 21
3.5029020078
 31
0.0
 11
9.7912602327
 21
3.4965603587
 31
0.0
 11
9.7830798106
 21
3.4899643221
 31
0.0
 11
9.7752012498
 21
3.4831949958
 31
0.0
 11
9.7677263175
 21
3.4763332023
 31
0.0
 11
9.7607517342
 21
3.4694580671
 31
0.0
 11
9.7543698301
 21
3.4626461235
 31
0.0
 11
9.7486611622
 21
3.4559658064
 31
0.0
 11
9.7437020055
 21
3.449485645
 31
0.0
 11
9.7395632427
 21
3.4432810182
 31
0.0
  0
LINE
  5
332
100
AcDbEntity
  8
0
100
AcDbLine
 62
6
  6
CONTINUOUS
 10
1.7414292574
 20
4.3982935445
 11
1.8483874595
 21
4.3908142984
  0
LINE
  5
333
100
AcDbEntity
  8
0
100
AcDbLine
 62
6
  6
CONTINUOUS
 10
1.8483874595
 20
4.2437359312
 11
1.7414292574
 21
4.2362566851
  0
SPLINE
  5
334
100
AcDbEntity
  8
0
100
AcDbSpline
 62
6
  6
CONTINUOUS
 70
0
 71
3
 72
23
 73
19
 74
17
 42
0.0000001
 43
0.0000001
 44
0.0000000001
 12
-0.1470956438
 22
-0.0246745576
 32
0.0
 13
-0.0949166156
 23
-0.1150512855
 33
0.0
 40
0.0
 40
0.0
 40
0.0
 40
0.0
 40
0.0500040567
 40
0.1047106595
 40
0.1636221469
 40
0.2262044324
 40
0.291866697
 40
0.3598982086
 40
0.4295409797
 40
0.4999957317
 40
0.5704507688
 40
0.6400935435
 40
0.7081244384
 40
0.7737860519
 40
0.8363697809
 40
0.8952848943
 40
0.9499946754
 40
1.0
 40
1.0
 40
1.0
 40
1.0
 10
9.7395632427
 20
3.4432810182
 30
0.0
 10
9.7371114497
 20
3.4428697422
 30
0.0
 10
9.7320126013
 20
3.4417928907
 30
0.0
 10
9.7241724849
 20
3.4396081752
 30
0.0
 10
9.7158677135
 20
3.436809144
 30
0.0
 10
9.7071906669
 20
3.4334418969
 30
0.0
 10
9.6982374049
 20
3.429555211
 30
0.0
 10
9.6891099065
 20
3.4252049516
 30
0.0
 10
9.6799176186
 20
3.4204500381
 30
0.0
 10
9.6707718468
 20
3.4153540912
 30
0.0
 10
9.6617857234
 20
3.4099816239
 30
0.0
 10
9.6530716985
 20
3.4043983642
 30
0.0
 10
9.6447405322
 20
3.3986689332
 30
0.0
 10
9.6368978975
 20
3.3928585564
 30
0.0
 10
9.6296430457
 20
3.3870275441
 30
0.0
 10
9.6230663037
 20
3.3812346626
 30
0.0
 10
9.6172539387
 20
3.3755370018
 30
0.0
 10
9.6137717524
 20
3.3716595602
 30
0.0
 10
9.6121896404
 20
3.3697418346
 30
0.0
 11
9.7395632427
 21
3.4432810182
 31
0.0
 11
9.7322601839
 21
3.4417679875
 31
0.0
 11
9.7243946028
 21
3.43959759
 31
0.0
 11
9.7160627206
 21
3.4368072925
 31
0.0
 11
9.7073562751
 21
3.4334420193
 31
0.0
 11
9.698368926
 21
3.4295507785
 31
0.0
 11
9.6892065169
 21
3.4251906239
 31
0.0
 11
9.6799787285
 21
3.4204216188
 31
0.0
 11
9.6707985698
 21
3.4153078338
 31
0.0
 11
9.6617797682
 21
3.4099144841
 31
0.0
 11
9.6530357728
 21
3.4043075202
 31
0.0
 11
9.6446786091
 21
3.3985528147
 31
0.0
 11
9.636815068
 21
3.3927152622
 31
0.0
 11
9.6295472328
 21
3.3868578013
 31
0.0
 11
9.6229644008
 21
3.3810369897
 31
0.0
 11
9.6171516422
 21
3.3753100739
 31
0.0
 11
9.6121896404
 21
3.3697418346
 31
0.0
  0
SPLINE
  5
335
100
AcDbEntity
  8
0
100
AcDbSpline
 62
6
  6
CONTINUOUS
 70
0
 71
3
 72
23
 73
19
 74
17
 42
0.0000001
 43
0.0000001
 44
0.0000000001
 12
-0.1490981437
 22
-0.0039626694
 32
0.0
 13
-0.1100049304
 23
-0.1007217677
 33
0.0
 40
0.0
 40
0.0
 40
0.0
 40
0.0
 40
0.0500034777
 40
0.1047087537
 40
0.1636185142
 40
0.2261993312
 40
0.2918599894
 40
0.3598898542
 40
0.4295315148
 40
0.4999859539
 40
0.5704417586
 40
0.640085049
 40
0.7081149613
 40
0.7737721008
 40
0.8363502866
 40
0.8952673539
 40
0.9499879669
 40
1.0
 40
1.0
 40
1.0
 40
1.0
 10
9.6121896404
 20
3.3697418346
 30
0.0
 10
9.6097044985
 20
3.3696757855
 30
0.0
 10
9.6045054969
 20
3.3693190591
 30
0.0
 10
9.5964378052
 20
3.3682467652
 30
0.0
 10
9.5878245254
 20
3.3666308274
 30
0.0
 10
9.5787635203
 20
3.3645040421
 30
0.0
 10
9.5693566834
 20
3.3619013414
 30
0.0
 10
9.5597127715
 20
3.3588638184
 30
0.0
 10
9.549948319
 20
3.3554345833
 30
0.0
 10
9.5401823492
 20
3.3516611302
 30
0.0
 10
9.5305359112
 20
3.3475916032
 30
0.0
 10
9.5211296239
 20
3.3432754618
 30
0.0
 10
9.5120823652
 20
3.3387613895
 30
0.0
 10
9.5035078554
 20
3.3340993705
 30
0.0
 10
9.4955122861
 20
3.3293352324
 30
0.0
 10
9.4881931043
 20
3.3245137199
 30
0.0
 10
9.4816435744
 20
3.3196798603
 30
0.0
 10
9.4776548097
 20
3.3163244086
 30
0.0
 10
9.475820953
 20
3.3146453085
 30
0.0
 11
9.6121896404
 21
3.3697418346
 31
0.0
 11
9.6047471672
 21
3.3692599353
 31
0.0
 11
9.5966562682
 21
3.3682053702
 31
0.0
 11
9.5880173886
 21
3.3666018605
 31
0.0
 11
9.578927526
 21
3.3644811172
 31
0.0
 11
9.5694863058
 21
3.361878646
 31
0.0
 11
9.5598064724
 21
3.3588361939
 31
0.0
 11
9.5500049154
 21
3.3553979512
 31
0.0
 11
9.5402024236
 21
3.3516116246
 31
0.0
 11
9.5305206595
 21
3.3475259374
 31
0.0
 11
9.5210813384
 21
3.3431904676
 31
0.0
 11
9.5120047248
 21
3.3386549501
 31
0.0
 11
9.5034058193
 21
3.3339690094
 31
0.0
 11
9.4953941317
 21
3.3291806182
 31
0.0
 11
9.4880650406
 21
3.3243324165
 31
0.0
 11
9.4815104926
 21
3.3194692912
 31
0.0
 11
9.475820953
 21
3.3146453085
 31
0.0
  0
SPLINE
  5
336
100
AcDbEntity
  8
0
100
AcDbSpline
 62
6
  6
CONTINUOUS
 70
0
 71
3
 72
23
 73
19
 74
17
 42
0.0000001
 43
0.0000001
 44
0.0000000001
 12
-0.148198629
 22
0.0168263462
 32
0.0
 13
-0.1229521317
 23
-0.0844318238
 33
0.0
 40
0.0
 40
0.0
 40
0.0
 40
0.0
 40
0.0500103041
 40
0.1047266955
 40
0.1636393352
 40
0.2262162827
 40
0.2918752097
 40
0.3599065645
 40
0.4295498877
 40
0.500004977
 40
0.5704593255
 40
0.640100837
 40
0.7081301424
 40
0.7737903179
 40
0.8363727563
 40
0.8952864304
 40
0.9499951333
 40
1.0
 40
1.0
 40
1.0
 40
1.0
 10
9.475820953
 20
3.3146453085
 30
0.0
 10
9.4733504668
 20
3.3149258054
 30
0.0
 10
9.4681515039
 20
3.3152959264
 30
0.0
 10
9.4600120658
 20
3.3153568981
 30
0.0
 10
9.4512572017
 20
3.3149555017
 30
0.0
 10
9.4419885449
 20
3.3141101939
 30
0.0
 10
9.4323112494
 20
3.3128419132
 30
0.0
 10
9.4223383869
 20
3.3111760701
 30
0.0
 10
9.4121915318
 20
3.3091390532
 30
0.0
 10
9.4019954212
 20
3.3067613776
 30
0.0
 10
9.3918766416
 20
3.3040739211
 30
0.0
 10
9.3819614064
 20
3.3011088797
 30
0.0
 10
9.3723739427
 20
3.2978978168
 30
0.0
 10
9.3632337764
 20
3.2944742874
 30
0.0
 10
9.3546529212
 20
3.2908689258
 30
0.0
 10
9.3467343915
 20
3.2871133214
 30
0.0
 10
9.3395768313
 20
3.283238551
 30
0.0
 10
9.3351608435
 20
3.2804711651
 30
0.0
 10
9.3331114419
 20
3.2790638311
 30
0.0
 11
9.475820953
 21
3.3146453085
 31
0.0
 11
9.4683828134
 21
3.3152037915
 31
0.0
 11
9.4602222291
 21
3.3152854971
 31
0.0
 11
9.4514438272
 21
3.3148998918
 31
0.0
 11
9.4421478678
 21
3.3140647139
 31
0.0
 11
9.4324366081
 21
3.3128014358
 31
0.0
 11
9.422427341
 21
3.3111356706
 31
0.0
 11
9.4122424316
 21
3.309094885
 31
0.0
 11
9.4020083091
 21
3.3067095357
 31
0.0
 11
9.3918523828
 21
3.3040110185
 31
0.0
 11
9.3819018169
 21
3.3010314531
 31
0.0
 11
9.3722824192
 21
3.297803267
 31
0.0
 11
9.3631146642
 21
3.2943593806
 31
0.0
 11
9.3545140244
 21
3.2907321687
 31
0.0
 11
9.3465819651
 21
3.2869514043
 31
0.0
 11
9.3394159756
 21
3.2830486247
 31
0.0
 11
9.3331114419
 21
3.2790638311
 31
0.0
  0
LINE
  5
337
100
AcDbEntity
  8
0
100
AcDbLine
 62
6
  6
CONTINUOUS
 10
1.8688568119
 20
4.0980889206
 11
1.7639804296
 21
4.0757967573
  0
SPLINE
  5
338
100
AcDbEntity
  8
0
100
AcDbSpline
 62
6
  6
CONTINUOUS
 70
0
 71
3
 72
23
 73
19
 74
17
 42
0.0000001
 43
0.0000001
 44
0.0000000001
 12
-0.144414604
 22
0.0372878583
 32
0.0
 13
-0.1335062167
 23
-0.0664985136
 33
0.0
 40
0.0
 40
0.0
 40
0.0
 40
0.0
 40
0.0500040567
 40
0.1047106595
 40
0.1636221469
 40
0.2262044324
 40
0.291866697
 40
0.3598982086
 40
0.4295409797
 40
0.4999957317
 40
0.5704507688
 40
0.6400935435
 40
0.7081244384
 40
0.7737860519
 40
0.8363697809
 40
0.8952848943
 40
0.9499946754
 40
1.0
 40
1.0
 40
1.0
 40
1.0
 10
9.3331114419
 20
3.2790638311
 30
0.0
 10
9.3307043365
 20
3.2796853458
 30
0.0
 10
9.3256083117
 20
3.2807754816
 30
0.0
 10
9.3175574051
 20
3.2819685072
 30
0.0
 10
9.3088321504
 20
3.2827893199
 30
0.0
 10
9.2995356911
 20
3.2832424593
 30
0.0
 10
9.2897756217
 20
3.2833334148
 30
0.0
 10
9.2796678271
 20
3.2830717432
 30
0.0
 10
9.2693362567
 20
3.2824667539
 30
0.0
 10
9.2589084701
 20
3.2815312953
 30
0.0
 10
9.2485140585
 20
3.2802782878
 30
0.0
 10
9.2382824844
 20
3.2787220396
 30
0.0
 10
9.2283412157
 20
3.2768765345
 30
0.0
 10
9.2188133193
 20
3.2747583781
 30
0.0
 10
9.2098139959
 20
3.2723822973
 30
0.0
 10
9.201449666
 20
3.2697652387
 30
0.0
 10
9.193822359
 20
3.2669242684
 30
0.0
 10
9.1890641259
 20
3.264798382
 30
0.0
 10
9.1868387854
 20
3.2636899554
 30
0.0
 11
9.3331114419
 21
3.2790638311
 31
0.0
 11
9.3258243606
 21
3.2806520304
 31
0.0
 11
9.3177560145
 21
3.2818684937
 31
0.0
 11
9.3090095452
 21
3.2827083119
 31
0.0
 11
9.2996870316
 21
3.2831752123
 31
0.0
 11
9.2898939693
 21
3.2832758711
 31
0.0
 11
9.2797502575
 21
3.2830193591
 31
0.0
 11
9.2693805242
 21
3.2824159359
 31
0.0
 11
9.2589140682
 21
3.2814781678
 31
0.0
 11
9.2484813099
 21
3.2802193748
 31
0.0
 11
9.238212715
 21
3.2786536616
 31
0.0
 11
9.2282374164
 21
3.2767956413
 31
0.0
 11
9.2186793677
 21
3.2746611621
 31
0.0
 11
9.209657426
 21
3.2722662002
 31
0.0
 11
9.2012761723
 21
3.2696261031
 31
0.0
 11
9.1936366065
 21
3.2667585672
 31
0.0
 11
9.1868387854
 21
3.2636899554
 31
0.0
  0
SPLINE
  5
339
100
AcDbEntity
  8
0
100
AcDbSpline
 62
6
  6
CONTINUOUS
 70
0
 71
3
 72
23
 73
19
 74
17
 42
0.0000001
 43
0.0000001
 44
0.0000000001
 12
-0.1378197041
 22
0.0570236037
 32
0.0
 13
-0.1414617478
 23
-0.0472708805
 33
0.0
 40
0.0
 40
0.0
 40
0.0
 40
0.0
 40
0.0500040567
 40
0.1047106595
 40
0.1636221469
 40
0.2262044324
 40
0.291866697
 40
0.3598982086
 40
0.4295409797
 40
0.4999957317
 40
0.5704507688
 40
0.6400935435
 40
0.7081244384
 40
0.7737860519
 40
0.8363697809
 40
0.8952848943
 40
0.9499946754
 40
1.0
 40
1.0
 40
1.0
 40
1.0
 10
9.1868387854
 20
3.2636899554
 30
0.0
 10
9.1845416039
 20
3.2646404259
 30
0.0
 10
9.1796468908
 20
3.2664291821
 30
0.0
 10
9.1718403722
 20
3.268731067
 30
0.0
 10
9.1633142661
 20
3.2707582122
 30
0.0
 10
9.1541713442
 20
3.2725007589
 30
0.0
 10
9.1445189176
 20
3.2739491683
 30
0.0
 10
9.1344730738
 20
3.2750967764
 30
0.0
 10
9.1241578512
 20
3.2759355515
 30
0.0
 10
9.1137013565
 20
3.276460464
 30
0.0
 10
9.1032337176
 20
3.2766662733
 30
0.0
 10
9.0928851286
 20
3.2765491302
 30
0.0
 10
9.082783763
 20
3.2761051426
 30
0.0
 10
9.073053801
 20
3.2753336269
 30
0.0
 10
9.0638113719
 20
3.2742331337
 30
0.0
 10
9.0551642189
 20
3.2728056339
 30
0.0
 10
9.0472157537
 20
3.2710538277
 30
0.0
 10
9.0422079612
 20
3.2696108483
 30
0.0
 10
9.0398500143
 20
3.2688229164
 30
0.0
 11
9.1868387854
 21
3.2636899554
 31
0.0
 11
9.1798436561
 21
3.2662768642
 31
0.0
 11
9.1720231296
 21
3.2686043857
 31
0.0
 11
9.1634786604
 21
3.2706533041
 31
0.0
 11
9.1543118528
 21
3.2724131037
 31
0.0
 11
9.144628105
 21
3.2738757137
 31
0.0
 11
9.1345474115
 21
3.27503343
 31
0.0
 11
9.1241946155
 21
3.2758790672
 31
0.0
 11
9.1136995062
 21
3.2764070745
 31
0.0
 11
9.1031930887
 21
3.2766124913
 31
0.0
 11
9.0928065219
 21
3.2764911278
 31
0.0
 11
9.0826697158
 21
3.2760394828
 31
0.0
 11
9.0729076232
 21
3.2752559995
 31
0.0
 11
9.0636401681
 21
3.2741399568
 31
0.0
 11
9.0549730497
 21
3.272691998
 31
0.0
 11
9.0470087478
 21
3.2709155908
 31
0.0
 11
9.0398500143
 21
3.2688229164
 31
0.0
  0
SPLINE
  5
33A
100
AcDbEntity
  8
0
100
AcDbSpline
 62
6
  6
CONTINUOUS
 70
0
 71
3
 72
23
 73
19
 74
17
 42
0.0000001
 43
0.0000001
 44
0.0000000001
 12
-0.1285423005
 22
0.0756494495
 32
0.0
 13
-0.1466638868
 23
-0.0271231734
 33
0.0
 40
0.0
 40
0.0
 40
0.0
 40
0.0
 40
0.0500040567
 40
0.1047106595
 40
0.1636221469
 40
0.2262044324
 40
0.291866697
 40
0.3598982086
 40
0.4295409797
 40
0.4999957317
 40
0.5704507688
 40
0.6400935435
 40
0.7081244384
 40
0.7737860519
 40
0.8363697809
 40
0.8952848943
 40
0.9499946754
 40
1.0
 40
1.0
 40
1.0
 40
1.0
 10
9.0398500143
 20
3.2688229164
 30
0.0
 10
9.0377074688
 20
3.2700838428
 30
0.0
 10
9.0331093375
 20
3.2725364034
 30
0.0
 10
9.0256991519
 20
3.2759023439
 30
0.0
 10
9.0175381453
 20
3.2790963657
 30
0.0
 10
9.0087267173
 20
3.2820944028
 30
0.0
 10
8.9993698071
 20
3.2848720745
 30
0.0
 10
8.9895814449
 20
3.2874066254
 30
0.0
 10
8.9794833443
 20
3.2896728391
 30
0.0
 10
8.9692016652
 20
3.2916479061
 30
0.0
 10
8.9588645398
 20
3.2933085262
 30
0.0
 10
8.9486003593
 20
3.2946327684
 30
0.0
 10
8.9385355084
 20
3.29559894
 30
0.0
 10
8.9287928635
 20
3.2961890816
 30
0.0
 10
8.9194872221
 20
3.2963855958
 30
0.0
 10
8.9107255529
 20
3.2961754394
 30
0.0
 10
8.9026106373
 20
3.2955468942
 30
0.0
 10
8.8974507564
 20
3.2948149078
 30
0.0
 10
8.895006098
 20
3.2943628068
 30
0.0
 11
9.0398500143
 21
3.2688229164
 31
0.0
 11
9.0332829893
 21
3.2723581834
 31
0.0
 11
9.0258625
 21
3.2757514605
 31
0.0
 11
9.0176863393
 21
3.2789695993
 31
0.0
 11
9.0088536592
 21
3.2819880457
 31
0.0
 11
8.999467709
 21
3.2847841389
 31
0.0
 11
8.9896462431
 21
3.2873335497
 31
0.0
 11
8.9795118897
 21
3.2896117879
 31
0.0
 11
8.9691924025
 21
3.2915952937
 31
0.0
 11
8.9588168212
 21
3.2932609221
 31
0.0
 11
8.9485144452
 21
3.2945862703
 31
0.0
 11
8.938413433
 21
3.2955497915
 31
0.0
 11
8.9286373046
 21
3.2961325536
 31
0.0
 11
8.9193047166
 21
3.2963171526
 31
0.0
 11
8.9105204292
 21
3.2960895151
 31
0.0
 11
8.9023864072
 21
3.2954388124
 31
0.0
 11
8.895006098
 21
3.2943628068
 31
0.0
  0
LINE
  5
33B
100
AcDbEntity
  8
0
100
AcDbLine
 62
6
  6
CONTINUOUS
 10
1.9093971042
 20
3.9567081199
 11
1.8086438411
 21
3.9200369311
  0
SPLINE
  5
33C
100
AcDbEntity
  8
0
100
AcDbSpline
 62
6
  6
CONTINUOUS
 70
0
 71
3
 72
23
 73
19
 74
17
 42
0.0000001
 43
0.0000001
 44
0.0000000001
 12
-0.1167629716
 22
0.0928028683
 32
0.0
 13
-0.1490113857
 23
-0.0064475449
 33
0.0
 40
0.0
 40
0.0
 40
0.0
 40
0.0
 40
0.0500024162
 40
0.1047078434
 40
0.1636227436
 40
0.2262094559
 40
0.2918738196
 40
0.3599058143
 40
0.4295482783
 40
0.5000021051
 40
0.5704553116
 40
0.640096442
 40
0.7081269644
 40
0.7737902536
 40
0.8363768207
 40
0.8952920242
 40
0.9499975835
 40
1.0
 40
1.0
 40
1.0
 40
1.0
 10
8.895006098
 20
3.2943628068
 30
0.0
 10
8.8930599545
 20
3.295909596
 30
0.0
 10
8.8888480534
 20
3.2989781935
 30
0.0
 10
8.8819783906
 20
3.3033426722
 30
0.0
 10
8.8743410092
 20
3.3076415091
 30
0.0
 10
8.8660321639
 20
3.3118369567
 30
0.0
 10
8.8571525583
 20
3.3158899395
 30
0.0
 10
8.8478120692
 20
3.319762088
 30
0.0
 10
8.8381276629
 20
3.3234115907
 30
0.0
 10
8.8282210552
 20
3.3267982939
 30
0.0
 10
8.8182158453
 20
3.3298813152
 30
0.0
 10
8.8082360328
 20
3.3326210973
 30
0.0
 10
8.7984036142
 20
3.33497862
 30
0.0
 10
8.7888377082
 20
3.3369189538
 30
0.0
 10
8.7796497337
 20
3.3384085729
 30
0.0
 10
8.7709441559
 20
3.3394198894
 30
0.0
 10
8.7628210841
 20
3.3399268411
 30
0.0
 10
8.7576099016
 20
3.339919986
 30
0.0
 10
8.7551262585
 20
3.3398125218
 30
0.0
 11
8.895006098
 21
3.2943628068
 31
0.0
 11
8.8889952195
 21
3.2987775123
 31
0.0
 11
8.8821193434
 21
3.3031704001
 31
0.0
 11
8.8744701703
 21
3.307495342
 31
0.0
 11
8.8661429556
 21
3.311714001
 31
0.0
 11
8.8572371942
 21
3.3157892621
 31
0.0
 11
8.8478660323
 21
3.3196807251
 31
0.0
 11
8.8381474053
 21
3.323347172
 31
0.0
 11
8.8282045183
 21
3.326747498
 31
0.0
 11
8.8181619754
 21
3.3298408146
 31
0.0
 11
8.808144546
 21
3.3325869972
 31
0.0
 11
8.7982759849
 21
3.3349469132
 31
0.0
 11
8.7886758501
 21
3.3368845956
 31
0.0
 11
8.7794593476
 21
3.3383662387
 31
0.0
 11
8.770728855
 21
3.339363368
 31
0.0
 11
8.7625840602
 21
3.3398509883
 31
0.0
 11
8.7551262585
 21
3.3398125218
 31
0.0
  0
SPLINE
  5
33D
100
AcDbEntity
  8
0
100
AcDbSpline
 62
6
  6
CONTINUOUS
 70
0
 71
3
 72
23
 73
19
 74
17
 42
0.0000001
 43
0.0000001
 44
0.0000000001
 12
-0.1027109755
 22
0.1081499779
 32
0.0
 13
-0.1484585363
 23
0.0143535782
 33
0.0
 40
0.0
 40
0.0
 40
0.0
 40
0.0
 40
0.0500040567
 40
0.1047106595
 40
0.1636221469
 40
0.2262044324
 40
0.291866697
 40
0.3598982086
 40
0.4295409797
 40
0.4999957317
 40
0.5704507688
 40
0.6400935435
 40
0.7081244384
 40
0.7737860519
 40
0.8363697809
 40
0.8952848943
 40
0.9499946754
 40
1.0
 40
1.0
 40
1.0
 40
1.0
 10
8.7551262585
 20
3.3398125218
 30
0.0
 10
8.75341427
 20
3.3416151676
 30
0.0
 10
8.7496702798
 20
3.3452401369
 30
0.0
 10
8.7434749311
 20
3.3505182106
 30
0.0
 10
8.7365104599
 20
3.3558379797
 30
0.0
 10
8.7288667426
 20
3.3611486366
 30
0.0
 10
8.7206379334
 20
3.36639782
 30
0.0
 10
8.7119273726
 20
3.371532225
 30
0.0
 10
8.7028451085
 20
3.3764940632
 30
0.0
 10
8.6935061264
 20
3.3812266343
 30
0.0
 10
8.6840271727
 20
3.3856722227
 30
0.0
 10
8.6745256197
 20
3.3897743575
 30
0.0
 10
8.6651169771
 20
3.3934773502
 30
0.0
 10
8.6559144108
 20
3.3967300676
 30
0.0
 10
8.6470234208
 20
3.3994839516
 30
0.0
 10
8.6385432369
 20
3.4016969796
 30
0.0
 10
8.6305694288
 20
3.4033295571
 30
0.0
 10
8.6254076702
 20
3.4040481825
 30
0.0
 10
8.6229330977
 20
3.4042874343
 30
0.0
 11
8.7551262585
 21
3.3398125218
 31
0.0
 11
8.7497880806
 21
3.3450209559
 31
0.0
 11
8.7435903623
 21
3.3503281473
 31
0.0
 11
8.7366179715
 21
3.3556752762
 31
0.0
 11
8.7289594511
 21
3.3610114097
 31
0.0
 11
8.7207078043
 21
3.3662863055
 31
0.0
 11
8.7119695182
 21
3.3714441194
 31
0.0
 11
8.7028557201
 21
3.3764275088
 31
0.0
 11
8.6934827206
 21
3.3811786131
 31
0.0
 11
8.6839681811
 21
3.3856396156
 31
0.0
 11
8.6744302172
 21
3.3897533418
 31
0.0
 11
8.6649860835
 21
3.3934637542
 31
0.0
 11
8.6557492968
 21
3.3967186073
 31
0.0
 11
8.6468291198
 21
3.3994684651
 31
0.0
 11
8.6383223753
 21
3.4016709236
 31
0.0
 11
8.6303240936
 21
3.4032874683
 31
0.0
 11
8.6229330977
 21
3.4042874343
 31
0.0
  0
SPLINE
  5
33E
100
AcDbEntity
  8
0
100
AcDbSpline
 62
6
  6
CONTINUOUS
 70
0
 71
3
 72
23
 73
19
 74
17
 42
0.0000001
 43
0.0000001
 44
0.0000000001
 12
-0.0866598316
 22
0.1213920748
 32
0.0
 13
-0.1450161161
 23
0.0348753251
 33
0.0
 40
0.0
 40
0.0
 40
0.0
 40
0.0
 40
0.0500040567
 40
0.1047106595
 40
0.1636221469
 40
0.2262044324
 40
0.291866697
 40
0.3598982086
 40
0.4295409797
 40
0.4999957317
 40
0.5704507688
 40
0.6400935435
 40
0.7081244384
 40
0.7737860519
 40
0.8363697809
 40
0.8952848943
 40
0.9499946754
 40
1.0
 40
1.0
 40
1.0
 40
1.0
 10
8.6229330977
 20
3.4042874343
 30
0.0
 10
8.62148865
 20
3.4063107996
 30
0.0
 10
8.6182855943
 20
3.4104215537
 30
0.0
 10
8.6128851042
 20
3.4165104874
 30
0.0
 10
8.6067287795
 20
3.422747752
 30
0.0
 10
8.5998985509
 20
3.4290705258
 30
0.0
 10
8.5924803691
 20
3.4354138534
 30
0.0
 10
8.5845691499
 20
3.4417105664
 30
0.0
 10
8.5762658281
 20
3.4478881232
 30
0.0
 10
8.567676379
 20
3.4538743723
 30
0.0
 10
8.5589083801
 20
3.4595959119
 30
0.0
 10
8.5500702024
 20
3.4649804857
 30
0.0
 10
8.541268481
 20
3.4699568711
 30
0.0
 10
8.5326081642
 20
3.4744586829
 30
0.0
 10
8.5241869673
 20
3.478423153
 30
0.0
 10
8.516097306
 20
3.4817948574
 30
0.0
 10
8.5084283093
 20
3.4845212864
 30
0.0
 10
8.5034167979
 20
3.4859512961
 30
0.0
 10
8.5009996052
 20
3.4865326134
 30
0.0
 11
8.6229330977
 21
3.4042874343
 31
0.0
 11
8.6183717445
 21
3.4101881111
 31
0.0
 11
8.6129729603
 21
3.4163062089
 31
0.0
 11
8.6068126008
 21
3.4225716691
 31
0.0
 11
8.5999712588
 21
3.4289217318
 31
0.0
 11
8.5925340402
 21
3.4352937
 31
0.0
 11
8.5845986234
 21
3.4416174527
 31
0.0
 11
8.5762670739
 21
3.4478207397
 31
0.0
 11
8.5676465177
 21
3.453830076
 31
0.0
 11
8.5588454246
 21
3.4595718323
 31
0.0
 11
8.5499728036
 21
3.464972952
 31
0.0
 11
8.5411369691
 21
3.4699616242
 31
0.0
 11
8.5324430621
 21
3.4744703136
 31
0.0
 11
8.523992402
 21
3.4784348586
 31
0.0
 11
8.5158749675
 21
3.481799793
 31
0.0
 11
8.508179504
 21
3.4845137513
 31
0.0
 11
8.5009996052
 21
3.4865326134
 31
0.0
  0
LINE
  5
33F
100
AcDbEntity
  8
0
100
AcDbLine
 62
6
  6
CONTINUOUS
 10
1.9692192655
 20
3.8223453456
 11
1.8745501693
 21
3.7720088943
  0
SPLINE
  5
340
100
AcDbEntity
  8
0
100
AcDbSpline
 62
6
  6
CONTINUOUS
 70
0
 71
3
 72
23
 73
19
 74
17
 42
0.0000001
 43
0.0000001
 44
0.0000000001
 12
-0.0689219526
 22
0.1322714129
 32
0.0
 13
-0.1387511221
 23
0.0547182634
 33
0.0
 40
0.0
 40
0.0
 40
0.0
 40
0.0
 40
0.0500040567
 40
0.1047106595
 40
0.1636221469
 40
0.2262044324
 40
0.291866697
 40
0.3598982086
 40
0.4295409797
 40
0.4999957317
 40
0.5704507688
 40
0.6400935435
 40
0.7081244384
 40
0.7737860519
 40
0.8363697809
 40
0.8952848943
 40
0.9499946754
 40
1.0
 40
1.0
 40
1.0
 40
1.0
 10
8.5009996052
 20
3.4865326134
 30
0.0
 10
8.4998508128
 20
3.4887373158
 30
0.0
 10
8.4972510354
 20
3.4932538435
 30
0.0
 10
8.4927505183
 20
3.5000351231
 30
0.0
 10
8.4875221659
 20
3.5070684818
 30
0.0
 10
8.4816383688
 20
3.5142803069
 30
0.0
 10
8.4751752007
 20
3.5215943131
 30
0.0
 10
8.4682173061
 20
3.5289307759
 30
0.0
 10
8.4608545414
 20
3.5362038121
 30
0.0
 10
8.453181809
 20
3.5433272237
 30
0.0
 10
8.4452954241
 20
3.5502133513
 30
0.0
 10
8.4372926468
 20
3.5567755594
 30
0.0
 10
8.4292691621
 20
3.5629284778
 30
0.0
 10
8.421319658
 20
3.5685917614
 30
0.0
 10
8.4135321632
 20
3.5736896536
 30
0.0
 10
8.4059904805
 20
3.5781544081
 30
0.0
 10
8.3987755636
 20
3.5819216217
 30
0.0
 10
8.3940118427
 20
3.5840351823
 30
0.0
 10
8.3916990777
 20
3.5849472505
 30
0.0
 11
8.5009996052
 21
3.4865326134
 31
0.0
 11
8.4973038583
 21
3.493010683
 31
0.0
 11
8.4928090893
 21
3.4998206054
 31
0.0
 11
8.4875806655
 21
3.5068824469
 31
0.0
 11
8.4816896609
 21
3.514122842
 31
0.0
 11
8.4752116273
 21
3.5214678594
 31
0.0
 11
8.4682335338
 21
3.5288344664
 31
0.0
 11
8.460846397
 21
3.536136911
 31
0.0
 11
8.4531460734
 21
3.5432875144
 31
0.0
 11
8.4452297301
 21
3.5501982677
 31
0.0
 11
8.4371951473
 21
3.5567816543
 31
0.0
 11
8.4291395915
 21
3.5629514876
 31
0.0
 11
8.4211577814
 21
3.5686262567
 31
0.0
 11
8.4133411205
 21
3.5737283236
 31
0.0
 11
8.4057709927
 21
3.5781902392
 31
0.0
 11
8.3985281309
 21
3.5819487869
 31
0.0
 11
8.3916990777
 21
3.5849472505
 31
0.0
  0
SPLINE
  5
341
100
AcDbEntity
  8
0
100
AcDbSpline
 62
6
  6
CONTINUOUS
 70
0
 71
3
 72
23
 73
19
 74
17
 42
0.0000001
 43
0.0000001
 44
0.0000000001
 12
-0.049842584
 22
0.1405762324
 32
0.0
 13
-0.1297854897
 23
0.0734961697
 33
0.0
 40
0.0
 40
0.0
 40
0.0
 40
0.0
 40
0.0500036657
 40
0.1047093487
 40
0.1636196449
 40
0.2262009542
 40
0.2918621948
 40
0.3598926623
 40
0.429534757
 40
0.4999893992
 40
0.5704451015
 40
0.6400883368
 40
0.7081185579
 40
0.7737771094
 40
0.8363570119
 40
0.8952732329
 40
0.9499901711
 40
1.0
 40
1.0
 40
1.0
 40
1.0
 10
8.3916990777
 20
3.5849472505
 30
0.0
 10
8.3908683071
 20
3.5872903594
 30
0.0
 10
8.3889224448
 20
3.5921246951
 30
0.0
 10
8.3854095535
 20
3.5994662191
 30
0.0
 10
8.3812110179
 20
3.607158644
 30
0.0
 10
8.3763882716
 20
3.6151190236
 30
0.0
 10
8.3710060248
 20
3.6232612397
 30
0.0
 10
8.3651369804
 20
3.6314945583
 30
0.0
 10
8.3588581551
 20
3.6397214543
 30
0.0
 10
8.3522515078
 20
3.6478433931
 30
0.0
 10
8.345400228
 20
3.6557601371
 30
0.0
 10
8.3383886171
 20
3.6633722845
 30
0.0
 10
8.3312996586
 20
3.6705818673
 30
0.0
 10
8.3242160011
 20
3.6772961655
 30
0.0
 10
8.3172141222
 20
3.6834282071
 30
0.0
 10
8.3103669809
 20
3.6888991843
 30
0.0
 10
8.3037460571
 20
3.6936342156
 30
0.0
 10
8.2993224423
 20
3.6963906394
 30
0.0
 10
8.2971589256
 20
3.6976158163
 30
0.0
 11
8.3916990777
 21
3.5849472505
 31
0.0
 11
8.3889408999
 21
3.591876573
 31
0.0
 11
8.3854376953
 21
3.5992456506
 31
0.0
 11
8.3812430647
 21
3.6069662701
 31
0.0
 11
8.3764171504
 21
3.6149559561
 31
0.0
 11
8.3710244967
 21
3.6231309476
 31
0.0
 11
8.3651396578
 21
3.6313969133
 31
0.0
 11
8.3588407974
 21
3.6396563165
 31
0.0
 11
8.3522106184
 21
3.6478090144
 31
0.0
 11
8.3453330657
 21
3.6557543495
 31
0.0
 11
8.3382928746
 21
3.6633919292
 31
0.0
 11
8.3311744724
 21
3.6706227746
 31
0.0
 11
8.3240604917
 21
3.6773529026
 31
0.0
 11
8.3170304809
 21
3.6834928995
 31
0.0
 11
8.3101548609
 21
3.6889650353
 31
0.0
 11
8.3035047221
 21
3.6936956588
 31
0.0
 11
8.2971589256
 21
3.6976158163
 31
0.0
  0
SPLINE
  5
342
100
AcDbEntity
  8
0
100
AcDbSpline
 62
6
  6
CONTINUOUS
 70
0
 71
3
 72
23
 73
19
 74
17
 42
0.0000001
 43
0.0000001
 44
0.0000000001
 12
-0.0297930877
 22
0.1461448937
 32
0.0
 13
-0.1182937303
 23
0.0908435545
 33
0.0
 40
0.0
 40
0.0
 40
0.0
 40
0.0
 40
0.0500133258
 40
0.104734792
 40
0.1636485907
 40
0.226223184
 40
0.291880479
 40
0.3599117074
 40
0.4295551234
 40
0.5000101776
 40
0.5704640482
 40
0.6401048463
 40
0.7081333086
 40
0.7737927162
 40
0.8363744483
 40
0.8952873266
 40
0.9499954176
 40
1.0
 40
1.0
 40
1.0
 40
1.0
 10
8.2971589256
 20
3.6976158163
 30
0.0
 10
8.2966622418
 20
3.7000522137
 30
0.0
 10
8.295407473
 20
3.70511146
 30
0.0
 10
8.2929500885
 20
3.7128717982
 30
0.0
 10
8.2898629328
 20
3.7210743373
 30
0.0
 10
8.2861947613
 20
3.72962796
 30
0.0
 10
8.2819981553
 20
3.7384394895
 30
0.0
 10
8.2773320889
 20
3.7474093928
 30
0.0
 10
8.2722592063
 20
3.7564301407
 30
0.0
 10
8.2668471157
 20
3.765392442
 30
0.0
 10
8.2611643314
 20
3.7741854391
 30
0.0
 10
8.2552804767
 20
3.7826990465
 30
0.0
 10
8.2492639407
 20
3.7908248903
 30
0.0
 10
8.2431835599
 20
3.798459673
 30
0.0
 10
8.2371030914
 20
3.805506339
 30
0.0
 10
8.231084408
 20
3.8118766824
 30
0.0
 10
8.2251875342
 20
3.8174864972
 30
0.0
 10
8.2211910084
 20
3.8208311476
 30
0.0
 10
8.2192192655
 20
3.8223453456
 30
0.0
 11
8.2971589256
 21
3.6976158163
 31
0.0
 11
8.2953913762
 21
3.7048629063
 31
0.0
 11
8.29294707
 21
3.7126500449
 31
0.0
 11
8.2898676206
 21
3.7208798114
 31
0.0
 11
8.2862007727
 21
3.7294623546
 31
0.0
 11
8.2819984362
 21
3.7383076942
 31
0.0
 11
8.2773211594
 21
3.7473122982
 31
0.0
 11
8.2722329238
 21
3.7563680878
 31
0.0
 11
8.2668017833
 21
3.7653641841
 31
0.0
 11
8.2610970058
 21
3.774189083
 31
0.0
 11
8.2551884222
 21
3.7827317989
 31
0.0
 11
8.2491457383
 21
3.7908827136
 31
0.0
 11
8.2430374727
 21
3.7985374459
 31
0.0
 11
8.2369301047
 21
3.8055961819
 31
0.0
 11
8.2308833207
 21
3.8119716078
 31
0.0
 11
8.2249572081
 21
3.817580778
 31
0.0
 11
8.2192192655
 21
3.8223453456
 31
0.0
  0
LINE
  5
343
100
AcDbEntity
  8
0
100
AcDbLine
 62
6
  6
CONTINUOUS
 10
2.0471589256
 20
3.6976158163
 11
1.9604166226
 21
3.6345938442
  0
SPLINE
  5
344
100
AcDbEntity
  8
0
100
AcDbSpline
 62
6
  6
CONTINUOUS
 70
0
 71
3
 72
19
 73
15
 74
13
 42
0.0000001
 43
0.0000001
 44
0.0000000001
 12
-0.0062123412
 22
0.1009226181
 32
0.0
 13
-0.0484824264
 23
0.0887323074
 33
0.0
 40
0.0
 40
0.0
 40
0.0
 40
0.0
 40
0.0478396482
 40
0.0987974589
 40
0.152675194
 40
0.2092580333
 40
0.2683231449
 40
0.3296378878
 40
0.3929522833
 40
0.4579691609
 40
0.5918394531
 40
0.728629225
 40
0.8655983204
 40
1.0
 40
1.0
 40
1.0
 40
1.0
 10
8.2192192655
 20
3.8223453456
 30
0.0
 10
8.2191202001
 20
3.8239547131
 30
0.0
 10
8.218824327
 20
3.8272730981
 30
0.0
 10
8.2181346226
 20
3.8323739366
 30
0.0
 10
8.2171913551
 20
3.8377334102
 30
0.0
 10
8.2160014104
 20
3.8433229972
 30
0.0
 10
8.2145751587
 20
3.8491153336
 30
0.0
 10
8.2129232016
 20
3.8550830058
 30
0.0
 10
8.2110566804
 20
3.8611970711
 30
0.0
 10
8.208271847
 20
3.8695849542
 30
0.0
 10
8.204339181
 20
3.8801974719
 30
0.0
 10
8.1990352259
 20
3.8928753036
 30
0.0
 10
8.1932203921
 20
3.9053467032
 30
0.0
 10
8.1890167898
 20
3.9134736858
 30
0.0
 10
8.18684475
 20
3.9174489429
 30
0.0
 11
8.2192192655
 21
3.8223453456
 31
0.0
 11
8.2187983915
 21
3.8271642423
 31
0.0
 11
8.2181149654
 21
3.8322712464
 31
0.0
 11
8.2171762679
 21
3.8376375381
 31
0.0
 11
8.2159900326
 21
3.843234509
 31
0.0
 11
8.2145662407
 21
3.8490345991
 31
0.0
 11
8.212915569
 21
3.8550105733
 31
0.0
 11
8.2110491079
 21
3.8611344016
 31
0.0
 11
8.2089798704
 21
3.86737435
 31
0.0
 11
8.2042875664
 21
3.8800711458
 31
0.0
 11
8.1989531659
 21
3.89283239
 31
0.0
 11
8.1930978275
 21
3.9053831709
 31
0.0
 11
8.18684475
 21
3.9174489429
 31
0.0
  0
LINE
  5
345
100
AcDbEntity
  8
0
100
AcDbLine
 62
6
  6
CONTINUOUS
 10
2.1416990777
 20
3.5849472505
 11
2.0645719081
 21
3.5104664085
  0
LINE
  5
346
100
AcDbEntity
  8
0
100
AcDbLine
 62
6
  6
CONTINUOUS
 10
2.2509996052
 20
3.4865326134
 11
2.1849887617
 21
3.4020425866
  0
SPLINE
  5
347
100
AcDbEntity
  8
0
100
AcDbSpline
 62
6
  6
CONTINUOUS
 70
0
 71
3
 72
18
 73
14
 74
12
 42
0.0000001
 43
0.0000001
 44
0.0000000001
 12
0.0621911848
 22
-0.1166375292
 32
0.0
 13
0.1287340582
 23
-0.0299933149
 33
0.0
 40
0.0
 40
0.0
 40
0.0
 40
0.0
 40
0.0699437169
 40
0.1379981873
 40
0.2042143693
 40
0.2687193256
 40
0.3318237802
 40
0.3938305492
 40
0.5155511147
 40
0.6357883777
 40
0.755977973
 40
0.8771332222
 40
1.0
 40
1.0
 40
1.0
 40
1.0
 10
8.2208558185
 20
3.9171084101
 30
0.0
 10
8.2223057793
 20
3.914389056
 30
0.0
 10
8.2253379487
 20
3.909113112
 30
0.0
 10
8.2303055762
 20
3.9016044956
 30
0.0
 10
8.2355668771
 20
3.8945965067
 30
0.0
 10
8.2410788012
 20
3.888067433
 30
0.0
 10
8.2468223873
 20
3.8819941131
 30
0.0
 10
8.2547166639
 20
3.8745072299
 30
0.0
 10
8.2651640961
 20
3.8660838367
 30
0.0
 10
8.278577394
 20
3.8573929029
 30
0.0
 10
8.2927644032
 20
3.850086871
 30
0.0
 10
8.3077055884
 20
3.8441654245
 30
0.0
 10
8.3180625197
 20
3.8412011815
 30
0.0
 10
8.3233348994
 20
3.8399727875
 30
0.0
 11
8.2208558185
 21
3.9171084101
 31
0.0
 11
8.2254628764
 21
3.9090927706
 31
0.0
 11
8.2304242119
 21
3.9015890766
 31
0.0
 11
8.235678214
 21
3.8945888522
 31
0.0
 11
8.2411790493
 21
3.8880742451
 31
0.0
 11
8.246909486
 21
3.8820129884
 31
0.0
 11
8.2528568488
 21
3.8763732962
 31
0.0
 11
8.2653784284
 21
3.8662701175
 31
0.0
 11
8.2787113085
 21
3.8576198099
 31
0.0
 11
8.2928335006
 21
3.8503426563
 31
0.0
 11
8.3077207473
 21
3.8444405279
 31
0.0
 11
8.3233348994
 21
3.8399727875
 31
0.0
  0
SPLINE
  5
348
100
AcDbEntity
  8
0
100
AcDbSpline
 62
6
  6
CONTINUOUS
 70
0
 71
3
 72
39
 73
35
 74
33
 42
0.0000001
 43
0.0000001
 44
0.0000000001
 12
-0.085006452
 22
-0.2800559527
 32
0.0
 13
0.2925145662
 23
0.0096261131
 33
0.0
 40
0.0
 40
0.0
 40
0.0
 40
0.0
 40
0.0304577788
 40
0.0606684135
 40
0.0906655716
 40
0.1204807709
 40
0.1501733557
 40
0.1798279642
 40
0.2393714798
 40
0.2695202541
 40
0.3000961791
 40
0.3312592209
 40
0.3631866976
 40
0.3960253431
 40
0.4298837426
 40
0.4472039102
 40
0.4647189413
 40
0.4823689997
 40
0.5000962083
 40
0.5178351382
 40
0.5355091407
 40
0.5703420704
 40
0.6041816281
 40
0.6370229062
 40
0.6689301418
 40
0.7000783532
 40
0.7306435192
 40
0.7607810441
 40
0.7906330123
 40
0.8203255129
 40
0.8499695534
 40
0.8796492784
 40
0.9393792674
 40
1.0
 40
1.0
 40
1.0
 40
1.0
 10
8.3233348994
 20
3.8399727875
 30
0.0
 10
8.3224718635
 20
3.8371294934
 30
0.0
 10
8.3209070505
 20
3.8314178163
 30
0.0
 10
8.3190364846
 20
3.8227685422
 30
0.0
 10
8.3176453227
 20
3.8140926495
 30
0.0
 10
8.3167243504
 20
3.8054053983
 30
0.0
 10
8.3162731593
 20
3.796714033
 30
0.0
 10
8.3163044537
 20
3.7851112596
 30
0.0
 10
8.3172928532
 20
3.7734808335
 30
0.0
 10
8.3192878786
 20
3.7619134364
 30
0.0
 10
8.3213245597
 20
3.7531778392
 30
0.0
 10
8.3239328941
 20
3.7444143463
 30
0.0
 10
8.3271485671
 20
3.7356191591
 30
0.0
 10
8.3310149944
 20
3.7268015498
 30
0.0
 10
8.3348003617
 20
3.7195237724
 30
0.0
 10
8.3381916133
 20
3.7137423328
 30
0.0
 10
8.3409334777
 20
3.7094167046
 30
0.0
 10
8.3438483755
 20
3.7051574948
 30
0.0
 10
8.3469305049
 20
3.7009904049
 30
0.0
 10
8.3501649752
 20
3.6969374264
 30
0.0
 10
8.3546268408
 20
3.6917344529
 30
0.0
 10
8.3604402437
 20
3.6856278552
 30
0.0
 10
8.3677555009
 20
3.6789411101
 30
0.0
 10
8.3752710279
 20
3.6729286476
 30
0.0
 10
8.3829330956
 20
3.6675500075
 30
0.0
 10
8.3907224041
 20
3.662770095
 30
0.0
 10
8.39862916
 20
3.6585426395
 30
0.0
 10
8.4066555159
 20
3.6548399098
 30
0.0
 10
8.4148013229
 20
3.6516342731
 30
0.0
 10
8.423068372
 20
3.6489066063
 30
0.0
 10
8.4314557185
 20
3.6466383932
 30
0.0
 10
8.4428200541
 20
3.6442170047
 30
0.0
 10
8.4573634142
 20
3.6423265193
 30
0.0
 10
8.4691285404
 20
3.6420731761
 30
0.0
 10
8.4750393562
 20
3.6422676901
 30
0.0
 11
8.3233348994
 21
3.8399727875
 31
0.0
 11
8.3209795983
 21
3.8313754084
 31
0.0
 11
8.3191105742
 21
3.8227333725
 31
0.0
 11
8.3177201958
 21
3.8140648124
 31
0.0
 11
8.3168012056
 21
3.8053872379
 31
0.0
 11
8.3163520527
 21
3.7967086376
 31
0.0
 11
8.3163756401
 21
3.7880295691
 31
0.0
 11
8.3178646349
 21
3.7706665235
 31
0.0
 11
8.3193642677
 21
3.7619711624
 31
0.0
 11
8.321397589
 21
3.7532564827
 31
0.0
 11
8.3239989494
 21
3.7445147512
 31
0.0
 11
8.3272074562
 21
3.7357385579
 31
0.0
 11
8.3310696196
 21
3.7269377245
 31
0.0
 11
8.3356420996
 21
3.718146288
 31
0.0
 11
8.3382067334
 21
3.7137737746
 31
0.0
 11
8.3409514562
 21
3.709444321
 31
0.0
 11
8.3438698024
 21
3.7051819684
 31
0.0
 11
8.3469549946
 21
3.7010106648
 31
0.0
 11
8.3501924835
 21
3.6969520371
 31
0.0
 11
8.3535596006
 21
3.693025287
 31
0.0
 11
8.3605907886
 21
3.6856433234
 31
0.0
 11
8.3678990483
 21
3.6789592372
 31
0.0
 11
8.3754033238
 21
3.6729532706
 31
0.0
 11
8.3830470479
 21
3.6675886746
 31
0.0
 11
8.3908162182
 21
3.6628194206
 31
0.0
 11
8.3987052634
 21
3.6586019977
 31
0.0
 11
8.406714051
 21
3.6549061307
 31
0.0
 11
8.4148436733
 21
3.6517058171
 31
0.0
 11
8.4230956085
 21
3.6489809358
 31
0.0
 11
8.4314706188
 21
3.6467154754
 31
0.0
 11
8.4399661779
 21
3.6449044215
 31
0.0
 11
8.4573014052
 21
3.6426488755
 31
0.0
 11
8.4750393562
 21
3.6422676901
 31
0.0
  0
LINE
  5
349
100
AcDbEntity
  8
0
100
AcDbLine
 62
6
  6
CONTINUOUS
 10
2.3729330977
 20
3.4042874343
 11
2.3193234062
 21
3.3114327247
  0
SPLINE
  5
34A
100
AcDbEntity
  8
0
100
AcDbSpline
 62
6
  6
CONTINUOUS
 70
0
 71
3
 72
41
 73
37
 74
35
 42
0.0000001
 43
0.0000001
 44
0.0000000001
 12
-0.0096261986
 22
-0.2925171637
 32
0.0
 13
0.2800584395
 23
0.0850072068
 33
0.0
 40
0.0
 40
0.0
 40
0.0
 40
0.0
 40
0.0304569397
 40
0.0606664473
 40
0.0906620458
 40
0.1204754142
 40
0.1501668038
 40
0.1798202821
 40
0.2393608309
 40
0.2695084806
 40
0.3000833946
 40
0.3312452558
 40
0.3471028631
 40
0.3631728748
 40
0.396005348
 40
0.4298700394
 40
0.4471890397
 40
0.4646993867
 40
0.4823463849
 40
0.5000764995
 40
0.5178218253
 40
0.5355026504
 40
0.5530375063
 40
0.570346644
 40
0.604188329
 40
0.6370322189
 40
0.6689397185
 40
0.7000864603
 40
0.7306504928
 40
0.7607872305
 40
0.7906384044
 40
0.820330053
 40
0.8499732864
 40
0.8796522856
 40
0.9393807922
 40
1.0
 40
1.0
 40
1.0
 40
1.0
 10
8.4750393562
 20
3.6422676901
 30
0.0
 10
8.474941628
 20
3.6392979643
 30
0.0
 10
8.4749084256
 20
3.633376044
 30
0.0
 10
8.4753401633
 20
3.6245376133
 30
0.0
 10
8.4762417966
 20
3.615797642
 30
0.0
 10
8.4776005065
 20
3.6071683878
 30
0.0
 10
8.4794142831
 20
3.5986567547
 30
0.0
 10
8.4824472811
 20
3.5874578034
 30
0.0
 10
8.4864115441
 20
3.5764797154
 30
0.0
 10
8.4913321246
 20
3.5658230448
 30
0.0
 10
8.4955602431
 20
3.5579126069
 30
0.0
 10
8.4995265631
 20
3.5514590037
 30
0.0
 10
8.5029859475
 20
3.5463672534
 30
0.0
 10
8.5066955538
 20
3.5412520118
 30
0.0
 10
8.5117458538
 20
3.5349440437
 30
0.0
 10
8.5172857584
 20
3.5288941752
 30
0.0
 10
8.5220570029
 20
3.5241864739
 30
0.0
 10
8.5258239622
 20
3.5207179748
 30
0.0
 10
8.5297417407
 20
3.5173587655
 30
0.0
 10
8.5337989349
 20
3.5141322747
 30
0.0
 10
8.5379733975
 20
3.5110535829
 30
0.0
 10
8.5422378292
 20
3.5081344935
 30
0.0
 10
8.5465652452
 20
3.5053881394
 30
0.0
 10
8.5523459875
 20
3.5019969783
 30
0.0
 10
8.5596252946
 20
3.4982190267
 30
0.0
 10
8.5684414604
 20
3.494357068
 30
0.0
 10
8.5772347869
 20
3.4911446725
 30
0.0
 10
8.5859956808
 20
3.4885437567
 30
0.0
 10
8.5947269614
 20
3.4865069815
 30
0.0
 10
8.6034379858
 20
3.4850078779
 30
0.0
 10
8.6121357581
 20
3.4840198281
 30
0.0
 10
8.6208269267
 20
3.4835248196
 30
0.0
 10
8.6295153825
 20
3.4835047607
 30
0.0
 10
8.641118996
 20
3.4841072101
 30
0.0
 10
8.6556558583
 20
3.4860452509
 30
0.0
 10
8.66708548
 20
3.4888455435
 30
0.0
 10
8.6727444535
 20
3.4905632333
 30
0.0
 11
8.4750393562
 21
3.6422676901
 31
0.0
 11
8.4749894732
 21
3.6333538293
 31
0.0
 11
8.4754208248
 21
3.6245227746
 31
0.0
 11
8.476321321
 21
3.6157901034
 31
0.0
 11
8.4776794686
 21
3.6071708066
 31
0.0
 11
8.4794918348
 21
3.5986719578
 31
0.0
 11
8.4817607724
 21
3.5902949472
 31
0.0
 11
8.4876921618
 21
3.5739093985
 31
0.0
 11
8.4913909859
 21
3.5658986259
 31
0.0
 11
8.495610466
 21
3.5580073553
 31
0.0
 11
8.5003856193
 21
3.5502370251
 31
0.0
 11
8.5029935916
 21
3.5463979368
 31
0.0
 11
8.5057550901
 21
3.5425906876
 31
0.0
 11
8.5117623943
 21
3.5350906748
 31
0.0
 11
8.5184555791
 21
3.5277806509
 31
0.0
 11
8.5220637568
 21
3.5242205573
 31
0.0
 11
8.5258341565
 21
3.5207495097
 31
0.0
 11
8.5297558014
 21
3.5173885103
 31
0.0
 11
8.5338168914
 21
3.5141581795
 31
0.0
 11
8.5379961366
 21
3.5110747363
 31
0.0
 11
8.5422661633
 21
3.5081515783
 31
0.0
 11
8.546599498
 21
3.5054020566
 31
0.0
 11
8.5509692235
 21
3.5028389615
 31
0.0
 11
8.5597590965
 21
3.49827389
 31
0.0
 11
8.5685630878
 21
3.4944148927
 31
0.0
 11
8.5773350052
 21
3.4912114783
 31
0.0
 11
8.5860735053
 21
3.4886157047
 31
0.0
 11
8.5947850701
 21
3.4865840022
 31
0.0
 11
8.6034773877
 21
3.4850869905
 31
0.0
 11
8.6121581535
 21
3.4840998914
 31
0.0
 11
8.6208339925
 21
3.4836036686
 31
0.0
 11
8.6295098165
 21
3.4835830654
 31
0.0
 11
8.638184495
 21
3.4840325587
 31
0.0
 11
8.6555125348
 21
3.4863405634
 31
0.0
 11
8.6727444535
 21
3.4905632333
 31
0.0
  0
SPLINE
  5
34B
100
AcDbEntity
  8
0
100
AcDbSpline
 62
6
  6
CONTINUOUS
 70
0
 71
3
 72
40
 73
36
 74
34
 42
0.0000001
 43
0.0000001
 44
0.0000000001
 12
0.0664114882
 22
-0.2850441984
 32
0.0
 13
0.2485166993
 23
0.1545966719
 33
0.0
 40
0.0
 40
0.0
 40
0.0
 40
0.0
 40
0.0304500246
 40
0.060652936
 40
0.0906423408
 40
0.120449772
 40
0.1501347568
 40
0.1797817199
 40
0.2393091829
 40
0.2694494258
 40
0.3000162693
 40
0.3311694897
 40
0.3630856474
 40
0.3959114347
 40
0.4297608351
 40
0.447076175
 40
0.4645855571
 40
0.482230194
 40
0.4999532405
 40
0.5176896437
 40
0.535362968
 40
0.5702003461
 40
0.6040410751
 40
0.6368921101
 40
0.6688132619
 40
0.6999660457
 40
0.7606495213
 40
0.7905061105
 40
0.8202064691
 40
0.8498549643
 40
0.8795418099
 40
0.9093531972
 40
0.9393454126
 40
0.9695496426
 40
1.0
 40
1.0
 40
1.0
 40
1.0
 10
8.6727444535
 20
3.4905632333
 30
0.0
 10
8.6734185307
 20
3.4876700323
 30
0.0
 10
8.6749188105
 20
3.4819425135
 30
0.0
 10
8.6776226846
 20
3.4735186883
 30
0.0
 10
8.6807548293
 20
3.4653114272
 30
0.0
 10
8.6842996571
 20
3.4573293117
 30
0.0
 10
8.6882532538
 20
3.4495784267
 30
0.0
 10
8.6940795915
 20
3.4395478117
 30
0.0
 10
8.7007481026
 20
3.4299714899
 30
0.0
 10
8.70825652
 20
3.4209528133
 30
0.0
 10
8.7143855876
 20
3.4144069533
 30
0.0
 10
8.7210233532
 20
3.4081227408
 30
0.0
 10
8.7282021238
 20
3.4021142326
 30
0.0
 10
8.7359558417
 20
3.3964115439
 30
0.0
 10
8.7428700285
 20
3.3920014796
 30
0.0
 10
8.7486952243
 20
3.3886895436
 30
0.0
 10
8.7532306285
 20
3.386313812
 30
0.0
 10
8.7578828002
 20
3.3840821092
 30
0.0
 10
8.7626341536
 20
3.3820138773
 30
0.0
 10
8.7674607851
 20
3.3801203084
 30
0.0
 10
8.7739260456
 20
3.3778436885
 30
0.0
 10
8.7820136435
 20
3.3754589095
 30
0.0
 10
8.7916931741
 20
3.3733217812
 30
0.0
 10
8.8012103958
 20
3.371871414
 30
0.0
 10
8.8105381766
 20
3.3710405388
 30
0.0
 10
8.8226131617
 20
3.3707128909
 30
0.0
 10
8.8344951281
 20
3.371449524
 30
0.0
 10
8.8461008237
 20
3.3731879181
 30
0.0
 10
8.8546272408
 20
3.3749547809
 30
0.0
 10
8.8630274977
 20
3.3771821235
 30
0.0
 10
8.8713039745
 20
3.3798680245
 30
0.0
 10
8.8794556743
 20
3.3830058166
 30
0.0
 10
8.8874745978
 20
3.3865946719
 30
0.0
 10
8.8953434797
 20
3.3906394571
 30
0.0
 10
8.9004544416
 20
3.3936286503
 30
0.0
 10
8.9029769157
 20
3.395197825
 30
0.0
 11
8.6727444535
 21
3.4905632333
 31
0.0
 11
8.6750028052
 21
3.4819420516
 31
0.0
 11
8.6777043977
 21
3.4735252571
 31
0.0
 11
8.6808335568
 21
3.465324737
 31
0.0
 11
8.6843752657
 21
3.4573520115
 31
0.0
 11
8.688324236
 21
3.4496131691
 31
0.0
 11
8.6926826146
 21
3.4421101469
 31
0.0
 11
8.7026497178
 21
3.4278203921
 31
0.0
 11
8.7082938296
 21
3.4210409306
 31
0.0
 11
8.7144095484
 21
3.4145114979
 31
0.0
 11
8.7210303874
 21
3.4082425136
 31
0.0
 11
8.7281935717
 21
3.4022469918
 31
0.0
 11
8.7359347474
 21
3.3965569697
 31
0.0
 11
8.744287175
 21
3.3912291736
 31
0.0
 11
8.7486926723
 21
3.3887242855
 31
0.0
 11
8.7532323832
 21
3.3863467354
 31
0.0
 11
8.7578890315
 21
3.3841141044
 31
0.0
 11
8.7626450808
 21
3.3820437032
 31
0.0
 11
8.7674771318
 21
3.380146753
 31
0.0
 11
8.7723559901
 21
3.3784284554
 31
0.0
 11
8.7821366478
 21
3.3755474463
 31
0.0
 11
8.7918076788
 21
3.3734098454
 31
0.0
 11
8.8013122937
 21
3.3719584713
 31
0.0
 11
8.8106182147
 21
3.3711310432
 31
0.0
 11
8.8197325894
 21
3.3708830198
 31
0.0
 11
8.8374595526
 21
3.3719779546
 31
0.0
 11
8.8461018496
 21
3.373270238
 31
0.0
 11
8.8546138459
 21
3.3750332395
 31
0.0
 11
8.8630015685
 21
3.3772569071
 31
0.0
 11
8.871266477
 21
3.3799373546
 31
0.0
 11
8.8794094997
 21
3.3830709533
 31
0.0
 11
8.88742159
 21
3.3866571792
 31
0.0
 11
8.8952838386
 21
3.3906985776
 31
0.0
 11
8.9029769157
 21
3.395197825
 31
0.0
  0
SPLINE
  5
34C
100
AcDbEntity
  8
0
100
AcDbSpline
 62
6
  6
CONTINUOUS
 70
0
 71
3
 72
41
 73
37
 74
35
 42
0.0000001
 43
0.0000001
 44
0.0000000001
 12
0.1379220493
 22
-0.2581403941
 32
0.0
 13
0.2000341198
 23
0.2136476204
 33
0.0
 40
0.0
 40
0.0
 40
0.0
 40
0.0
 40
0.0304569397
 40
0.0606664473
 40
0.0906620458
 40
0.1204754142
 40
0.1501668038
 40
0.1798202821
 40
0.2393608309
 40
0.2695084806
 40
0.3000833946
 40
0.3312452558
 40
0.3471028631
 40
0.3631728748
 40
0.396005348
 40
0.4298700394
 40
0.4471890397
 40
0.4646993867
 40
0.4823463849
 40
0.5000764995
 40
0.5178218253
 40
0.5355026504
 40
0.5530375063
 40
0.570346644
 40
0.604188329
 40
0.6370322189
 40
0.6689397185
 40
0.7000864603
 40
0.7306504928
 40
0.7607872305
 40
0.7906384044
 40
0.820330053
 40
0.8499732864
 40
0.8796522856
 40
0.9393807922
 40
1.0
 40
1.0
 40
1.0
 40
1.0
 10
8.9029769157
 20
3.395197825
 30
0.0
 10
8.9043771435
 20
3.3925771028
 30
0.0
 10
8.9073093496
 20
3.3874319682
 30
0.0
 10
8.9121024607
 20
3.3799935316
 30
0.0
 10
8.9172532837
 20
3.372875311
 30
0.0
 10
8.9227445881
 20
3.3660815127
 30
0.0
 10
8.9285711812
 20
3.3596171104
 30
0.0
 10
8.9367973102
 20
3.3514350331
 30
0.0
 10
8.9457195067
 20
3.3439098615
 30
0.0
 10
8.9553091897
 20
3.3371412044
 30
0.0
 10
8.9629260667
 20
3.3324046234
 30
0.0
 10
8.9695878021
 20
3.3287987991
 30
0.0
 10
8.9751295921
 20
3.3261189062
 30
0.0
 10
8.9808998262
 20
3.3235437802
 30
0.0
 10
8.9884274983
 20
3.3206060696
 30
0.0
 10
8.9962501307
 20
3.318136682
 30
0.0
 10
9.0027360002
 20
3.3164453154
 30
0.0
 10
9.0077325323
 20
3.3153249867
 30
0.0
 10
9.0128050326
 20
3.3143747153
 30
0.0
 10
9.0179319113
 20
3.3136090895
 30
0.0
 10
9.0230864478
 20
3.3130300954
 30
0.0
 10
9.0282390987
 20
3.3126343057
 30
0.0
 10
9.033359928
 20
3.3124196013
 30
0.0
 10
9.0400617782
 20
3.3123731407
 30
0.0
 10
9.0482548189
 20
3.3127409923
 30
0.0
 10
9.0578208218
 20
3.3138045209
 30
0.0
 10
9.0670422636
 20
3.3154191679
 30
0.0
 10
9.0759298782
 20
3.3175471557
 30
0.0
 10
9.0845097766
 20
3.3201488969
 30
0.0
 10
9.0928032968
 20
3.3232061474
 30
0.0
 10
9.1008298135
 20
3.3266993573
 30
0.0
 10
9.1086040906
 20
3.3306162516
 30
0.0
 10
9.1161385435
 20
3.334943108
 30
0.0
 10
9.1258863428
 20
3.3412666513
 30
0.0
 10
9.1375066145
 20
3.350213475
 30
0.0
 10
9.1460048109
 20
3.3583534103
 30
0.0
 10
9.1500467809
 20
3.3626704601
 30
0.0
 11
8.9029769157
 21
3.395197825
 31
0.0
 11
8.9073906462
 21
3.3874532536
 31
0.0
 11
8.912179735
 21
3.3800210117
 31
0.0
 11
8.9173259231
 21
3.3729085446
 31
0.0
 11
8.9228117619
 21
3.3661230884
 31
0.0
 11
8.9286307414
 21
3.3596690525
 31
0.0
 11
8.9347842044
 21
3.3535488174
 31
0.0
 11
8.9481137126
 21
3.3423242106
 31
0.0
 11
8.9553223746
 21
3.3372360902
 31
0.0
 11
8.9629221868
 21
3.3325117894
 31
0.0
 11
8.970942756
 21
3.3281700627
 31
0.0
 11
8.9751208704
 21
3.3261493008
 31
0.0
 11
8.9794160228
 21
3.3242328755
 31
0.0
 11
8.9883685072
 21
3.320741326
 31
0.0
 11
8.9978199873
 21
3.3177572521
 31
0.0
 11
9.0027248076
 21
3.3164782094
 31
0.0
 11
9.0077255933
 21
3.3153573938
 31
0.0
 11
9.0128023371
 21
3.3144075054
 31
0.0
 11
9.0179345096
 21
3.3136405019
 31
0.0
 11
9.0230955638
 21
3.3130597844
 31
0.0
 11
9.0282550944
 21
3.3126632686
 31
0.0
 11
9.0333826332
 21
3.3124487803
 31
0.0
 11
9.038448474
 21
3.3124139376
 31
0.0
 11
9.0483432631
 21
3.3128554062
 31
0.0
 11
9.0578972418
 21
3.3139154122
 31
0.0
 11
9.0670956524
 21
3.3155271326
 31
0.0
 11
9.0759613022
 21
3.3176483767
 31
0.0
 11
9.0845215899
 21
3.3202446532
 31
0.0
 11
9.0927978636
 21
3.3232943618
 31
0.0
 11
9.1008091769
 21
3.3267798918
 31
0.0
 11
9.1085707853
 21
3.3306880698
 31
0.0
 11
9.1160945708
 21
3.3350081389
 31
0.0
 11
9.1233823161
 21
3.3397347508
 31
0.0
 11
9.1372348364
 21
3.3503975614
 31
0.0
 11
9.1500467809
 21
3.3626704601
 31
0.0
  0
LINE
  5
34D
100
AcDbEntity
  8
0
100
AcDbLine
 62
6
  6
CONTINUOUS
 10
2.5051262585
 20
3.3398125218
 11
2.4649611707
 21
3.2404004409
  0
SPLINE
  5
34E
100
AcDbEntity
  8
0
100
AcDbSpline
 62
6
  6
CONTINUOUS
 70
0
 71
3
 72
41
 73
37
 74
35
 42
0.0000001
 43
0.0000001
 44
0.0000000001
 12
0.2000341198
 22
-0.2136476204
 32
0.0
 13
0.1379220493
 23
0.2581403941
 33
0.0
 40
0.0
 40
0.0
 40
0.0
 40
0.0
 40
0.0304569397
 40
0.0606664473
 40
0.0906620458
 40
0.1204754142
 40
0.1501668038
 40
0.1798202821
 40
0.2393608309
 40
0.2695084806
 40
0.3000833946
 40
0.3312452558
 40
0.3471028631
 40
0.3631728748
 40
0.396005348
 40
0.4298700394
 40
0.4471890397
 40
0.4646993867
 40
0.4823463849
 40
0.5000764995
 40
0.5178218253
 40
0.5355026504
 40
0.5530375063
 40
0.570346644
 40
0.604188329
 40
0.6370322189
 40
0.6689397185
 40
0.7000864603
 40
0.7306504928
 40
0.7607872305
 40
0.7906384044
 40
0.820330053
 40
0.8499732864
 40
0.8796522856
 40
0.9393807922
 40
1.0
 40
1.0
 40
1.0
 40
1.0
 10
9.1500467809
 20
3.3626704601
 30
0.0
 10
9.1520775899
 20
3.3605014426
 30
0.0
 10
9.1562415423
 20
3.3562905349
 30
0.0
 10
9.1627965412
 20
3.3503461053
 30
0.0
 10
9.1696141852
 20
3.3448035634
 30
0.0
 10
9.1766767423
 20
3.3396625122
 30
0.0
 10
9.1839779095
 20
3.3349264124
 30
0.0
 10
9.1940414173
 20
3.3291522115
 30
0.0
 10
9.2046072551
 20
3.3241926883
 30
0.0
 10
9.215622035
 20
3.3201366601
 30
0.0
 10
9.2242052905
 20
3.317532867
 30
0.0
 10
9.2315732889
 20
3.3157740922
 30
0.0
 10
9.2376198542
 20
3.3146198353
 30
0.0
 10
9.243859964
 20
3.313625901
 30
0.0
 10
9.2518914724
 20
3.3127365954
 30
0.0
 10
9.2600866795
 20
3.3123759964
 30
0.0
 10
9.2667893064
 20
3.3124209282
 30
0.0
 10
9.2719055481
 20
3.3126319715
 30
0.0
 10
9.2770511555
 20
3.3130269395
 30
0.0
 10
9.2822014986
 20
3.3136143356
 30
0.0
 10
9.2873302532
 20
3.3143891625
 30
0.0
 10
9.2924097697
 20
3.3153404632
 30
0.0
 10
9.2974116805
 20
3.3164584428
 30
0.0
 10
9.3038971956
 20
3.3181481318
 30
0.0
 10
9.3117158582
 20
3.3206239641
 30
0.0
 10
9.320680646
 20
3.3241271175
 30
0.0
 10
9.3291699735
 20
3.3280734316
 30
0.0
 10
9.3372039862
 20
3.3324291939
 30
0.0
 10
9.3448181514
 20
3.3371629241
 30
0.0
 10
9.3520378021
 20
3.3422625222
 30
0.0
 10
9.3588867126
 20
3.3477141193
 30
0.0
 10
9.3653823208
 20
3.3535096796
 30
0.0
 10
9.3715401706
 20
3.3596391618
 30
0.0
 10
9.3793191683
 20
3.3682701517
 30
0.0
 10
9.3882278805
 20
3.3799196674
 30
0.0
 10
9.3943297376
 20
3.3899817362
 30
0.0
 10
9.397116646
 20
3.395197825
 30
0.0
 11
9.1500467809
 21
3.3626704601
 31
0.0
 11
9.1563145597
 21
3.3563321361
 31
0.0
 11
9.16286407
 21
3.3503926491
 31
0.0
 11
9.1696757479
 21
3.344854465
 31
0.0
 11
9.1767308666
 21
3.3397200572
 31
0.0
 11
9.1840219966
 21
3.334992
 31
0.0
 11
9.1915498188
 21
3.3306729402
 31
0.0
 11
9.207330277
 21
3.3232807332
 31
0.0
 11
9.2156102123
 21
3.3202317252
 31
0.0
 11
9.2241738062
 21
3.3176353772
 31
0.0
 11
9.2330448027
 21
3.3155174673
 31
0.0
 11
9.237603563
 21
3.3146469369
 31
0.0
 11
9.242248369
 21
3.3139074794
 31
0.0
 11
9.2517994844
 21
3.312851975
 31
0.0
 11
9.2617012483
 21
3.312415804
 31
0.0
 11
9.2667699815
 21
3.3124498046
 31
0.0
 11
9.271890458
 21
3.3126614785
 31
0.0
 11
9.2770400652
 21
3.3130579147
 31
0.0
 11
9.2821958783
 21
3.3136453501
 31
0.0
 11
9.2873313745
 21
3.3144201992
 31
0.0
 11
9.2924177242
 21
3.3153725792
 31
0.0
 11
9.29742606
 21
3.3164925041
 31
0.0
 11
9.3023283045
 21
3.3177699847
 31
0.0
 11
9.3117716763
 21
3.3207573705
 31
0.0
 11
9.3207257613
 21
3.3242540093
 31
0.0
 11
9.3291935997
 21
3.3281915355
 31
0.0
 11
9.3372081415
 21
3.332535099
 31
0.0
 11
9.3448047786
 21
3.337258475
 31
0.0
 11
9.3520097225
 21
3.3423463246
 31
0.0
 11
9.3588459353
 21
3.3477865685
 31
0.0
 11
9.3653315625
 21
3.3535704306
 31
0.0
 11
9.3714808651
 21
3.3596905959
 31
0.0
 11
9.3772969493
 21
3.3661423596
 31
0.0
 11
9.387917718
 21
3.3800271399
 31
0.0
 11
9.397116646
 21
3.395197825
 31
0.0
  0
SPLINE
  5
34F
100
AcDbEntity
  8
0
100
AcDbSpline
 62
6
  6
CONTINUOUS
 70
0
 71
3
 72
39
 73
35
 74
33
 42
0.0000001
 43
0.0000001
 44
0.0000000001
 12
0.24851194
 22
-0.1545937113
 32
0.0
 13
0.0664102164
 23
0.2850387395
 33
0.0
 40
0.0
 40
0.0
 40
0.0
 40
0.0
 40
0.0304571666
 40
0.0606668282
 40
0.0906625947
 40
0.1204762721
 40
0.150168294
 40
0.1798226184
 40
0.2393645446
 40
0.269512554
 40
0.3000878079
 40
0.3312498108
 40
0.3631738794
 40
0.3960070386
 40
0.4298707002
 40
0.4471901507
 40
0.4647014797
 40
0.4823490859
 40
0.5000787562
 40
0.5178232502
 40
0.5355034971
 40
0.5703435251
 40
0.6041853329
 40
0.6370288904
 40
0.6689367772
 40
0.7000838225
 40
0.7306480915
 40
0.7607850679
 40
0.7906365262
 40
0.8203284471
 40
0.8499719392
 40
0.8796512132
 40
0.9393802458
 40
1.0
 40
1.0
 40
1.0
 40
1.0
 10
9.397116646
 20
3.395197825
 30
0.0
 10
9.3996396359
 20
3.3936283295
 30
0.0
 10
9.4047515589
 20
3.3906386318
 30
0.0
 10
9.4126217175
 20
3.3865933405
 30
0.0
 10
9.4206415501
 20
3.3830041916
 30
0.0
 10
9.428794057
 20
3.3798661603
 30
0.0
 10
9.4370723123
 20
3.3771810394
 30
0.0
 10
9.4482875707
 20
3.3742082373
 30
0.0
 10
9.4597771853
 20
3.3721524078
 30
0.0
 10
9.4714664787
 20
3.3710854911
 30
0.0
 10
9.4804313147
 20
3.3707918458
 30
0.0
 10
9.4895707614
 20
3.3710433761
 30
0.0
 10
9.4988976552
 20
3.3718720269
 30
0.0
 10
9.508415163
 20
3.3733246828
 30
0.0
 10
9.5164245326
 20
3.3750975355
 30
0.0
 10
9.5228870586
 20
3.3768758538
 30
0.0
 10
9.5277744724
 20
3.378404004
 30
0.0
 10
9.5326426093
 20
3.3801172412
 30
0.0
 10
9.5374654147
 20
3.3820173266
 30
0.0
 10
9.5422186786
 20
3.384093182
 30
0.0
 10
9.5484011689
 20
3.3870564895
 30
0.0
 10
9.5558062606
 20
3.3910909292
 30
0.0
 10
9.564159396
 20
3.3964270171
 30
0.0
 10
9.5719121311
 20
3.4021311818
 30
0.0
 10
9.5790907213
 20
3.408140167
 30
0.0
 10
9.585723668
 20
3.4144268559
 30
0.0
 10
9.591853178
 20
3.4209699947
 30
0.0
 10
9.5975069505
 20
3.4277644051
 30
0.0
 10
9.602711518
 20
3.4348028656
 30
0.0
 10
9.6074857985
 20
3.4420821311
 30
0.0
 10
9.6118473886
 20
3.4495965302
 30
0.0
 10
9.6171274624
 20
3.4599467747
 30
0.0
 10
9.622717499
 20
3.4735050869
 30
0.0
 10
9.6260071845
 20
3.4848035739
 30
0.0
 10
9.6273491082
 20
3.4905632333
 30
0.0
 11
9.397116646
 21
3.395197825
 31
0.0
 11
9.4048113272
 21
3.3906977109
 31
0.0
 11
9.4126748953
 21
3.3866557725
 31
0.0
 11
9.4206878239
 21
3.3830692871
 31
0.0
 11
9.428831416
 21
3.3799357671
 31
0.0
 11
9.4370979066
 21
3.3772558264
 31
0.0
 11
9.4454872515
 21
3.3750322692
 31
0.0
 11
9.4626435106
 21
3.3719763084
 31
0.0
 11
9.4714304838
 21
3.3711742332
 31
0.0
 11
9.480374283
 21
3.3708827777
 31
0.0
 11
9.489491123
 21
3.3711329708
 31
0.0
 11
9.4987977543
 21
3.3719600276
 31
0.0
 11
9.5082967246
 21
3.3734124876
 31
0.0
 11
9.5179735988
 21
3.3755538708
 31
0.0
 11
9.5228608736
 21
3.3768987227
 31
0.0
 11
9.5277523015
 21
3.378428588
 31
0.0
 11
9.5326239867
 21
3.3801442956
 31
0.0
 11
9.5374519819
 21
3.3820459036
 31
0.0
 11
9.5422116671
 21
3.3841234239
 31
0.0
 11
9.5468779513
 21
3.3863598353
 31
0.0
 11
9.5558305551
 21
3.391240839
 31
0.0
 11
9.5641789664
 21
3.3965704454
 31
0.0
 11
9.5719227784
 21
3.4022653511
 31
0.0
 11
9.5790829946
 21
3.4082603686
 31
0.0
 11
9.5857002656
 21
3.4145302379
 31
0.0
 11
9.5918155347
 21
3.4210588247
 31
0.0
 11
9.5974581357
 21
3.4278380801
 31
0.0
 11
9.6026533795
 21
3.4348622933
 31
0.0
 11
9.6074210444
 21
3.4421276774
 31
0.0
 11
9.6117767931
 21
3.4496308598
 31
0.0
 11
9.6157248613
 21
3.4573680994
 31
0.0
 11
9.622390089
 21
3.4735286199
 31
0.0
 11
9.6273491082
 21
3.4905632333
 31
0.0
  0
SPLINE
  5
350
100
AcDbEntity
  8
0
100
AcDbSpline
 62
6
  6
CONTINUOUS
 70
0
 71
3
 72
41
 73
37
 74
35
 42
0.0000001
 43
0.0000001
 44
0.0000000001
 12
0.2800584395
 22
-0.0850072068
 32
0.0
 13
-0.0096261986
 23
0.2925171637
 33
0.0
 40
0.0
 40
0.0
 40
0.0
 40
0.0
 40
0.0304569397
 40
0.0606664473
 40
0.0906620458
 40
0.1204754142
 40
0.1501668038
 40
0.1798202821
 40
0.2393608309
 40
0.2695084806
 40
0.3000833946
 40
0.3312452558
 40
0.3471028631
 40
0.3631728748
 40
0.396005348
 40
0.4298700394
 40
0.4471890397
 40
0.4646993867
 40
0.4823463849
 40
0.5000764995
 40
0.5178218253
 40
0.5355026504
 40
0.5530375063
 40
0.570346644
 40
0.604188329
 40
0.6370322189
 40
0.6689397185
 40
0.7000864603
 40
0.7306504928
 40
0.7607872305
 40
0.7906384044
 40
0.820330053
 40
0.8499732864
 40
0.8796522856
 40
0.9393807922
 40
1.0
 40
1.0
 40
1.0
 40
1.0
 10
9.6273491082
 20
3.4905632333
 30
0.0
 10
9.6301923492
 20
3.4897002135
 30
0.0
 10
9.6359038915
 20
3.4881354367
 30
0.0
 10
9.6445529019
 20
3.4862649091
 30
0.0
 10
9.6532284258
 20
3.484873749
 30
0.0
 10
9.6619153052
 20
3.4839527466
 30
0.0
 10
9.6706063514
 20
3.4835017475
 30
0.0
 10
9.6822087054
 20
3.4835328967
 30
0.0
 10
9.6938387509
 20
3.4845207425
 30
0.0
 10
9.7054058441
 20
3.486515509
 30
0.0
 10
9.714141058
 20
3.4885521858
 30
0.0
 10
9.7214013191
 20
3.4907130414
 30
0.0
 10
9.7272149268
 20
3.4927367082
 30
0.0
 10
9.7331159876
 20
3.4949959908
 30
0.0
 10
9.7405161307
 20
3.4982415837
 30
0.0
 10
9.7477936877
 20
3.5020268994
 30
0.0
 10
9.7535758669
 20
3.5054171249
 30
0.0
 10
9.7579011406
 20
3.5081580145
 30
0.0
 10
9.7621598834
 20
3.5110728706
 30
0.0
 10
9.7663265132
 20
3.5141567421
 30
0.0
 10
9.7703807316
 20
3.5173921392
 30
0.0
 10
9.7743040716
 20
3.520755748
 30
0.0
 10
9.7780768636
 20
3.5242249021
 30
0.0
 10
9.7828486399
 20
3.5289309733
 30
0.0
 10
9.7883818842
 20
3.5349844382
 30
0.0
 10
9.7943940415
 20
3.542500652
 30
0.0
 10
9.7997728577
 20
3.550162924
 30
0.0
 10
9.8045526356
 20
3.5579521311
 30
0.0
 10
9.8087798311
 20
3.5658587443
 30
0.0
 10
9.8124824329
 20
3.5738849512
 30
0.0
 10
9.8156879649
 20
3.582030628
 30
0.0
 10
9.8184155464
 20
3.5902975346
 30
0.0
 10
9.8206836596
 20
3.5986847468
 30
0.0
 10
9.8231049743
 20
3.6100489022
 30
0.0
 10
9.8249953875
 20
3.6245920348
 30
0.0
 10
9.8252487164
 20
3.6363569706
 30
0.0
 10
9.8250542055
 20
3.6422676901
 30
0.0
 11
9.6273491082
 21
3.4905632333
 31
0.0
 11
9.6359463259
 21
3.4882079731
 31
0.0
 11
9.6445881117
 21
3.4863389816
 31
0.0
 11
9.6532562899
 21
3.4849486125
 31
0.0
 11
9.6619334058
 21
3.4840296442
 31
0.0
 11
9.6706117382
 21
3.4835805915
 31
0.0
 11
9.6792905534
 21
3.4836040871
 31
0.0
 11
9.6966529346
 21
3.4850924772
 31
0.0
 11
9.7053480729
 21
3.4865919265
 31
0.0
 11
9.7140625367
 21
3.4886252201
 31
0.0
 11
9.722804
 21
3.4912265546
 31
0.0
 11
9.7271872674
 21
3.4927520332
 31
0.0
 11
9.7315795162
 21
3.4944340473
 31
0.0
 11
9.7403787769
 21
3.4982955114
 31
0.0
 11
9.7491720415
 21
3.5028686581
 31
0.0
 11
9.753544693
 21
3.5054324701
 31
0.0
 11
9.7578733187
 21
3.5081760233
 31
0.0
 11
9.7621347912
 21
3.5110941508
 31
0.0
 11
9.7663061386
 21
3.5141807913
 31
0.0
 11
9.7703661843
 21
3.5174195784
 31
0.0
 11
9.7742949024
 21
3.5207875385
 31
0.0
 11
9.7780722859
 21
3.5242615898
 31
0.0
 11
9.7816790139
 21
3.5278190427
 31
0.0
 11
9.7883635209
 21
3.5351278806
 31
0.0
 11
9.7943696666
 21
3.5426331012
 31
0.0
 11
9.7997342667
 21
3.550277018
 31
0.0
 11
9.8045032817
 21
3.5580459253
 31
0.0
 11
9.8087204744
 21
3.5659348075
 31
0.0
 11
9.812416214
 21
3.5739434864
 31
0.0
 11
9.8156164261
 21
3.5820729822
 31
0.0
 11
9.8183412129
 21
3.5903247673
 31
0.0
 11
9.8206065825
 21
3.5986996373
 31
0.0
 11
9.8224175773
 21
3.6071950707
 31
0.0
 11
9.8246730427
 21
3.6245300274
 31
0.0
 11
9.8250542055
 21
3.6422676901
 31
0.0
  0
LINE
  5
351
100
AcDbEntity
  8
0
100
AcDbLine
 62
6
  6
CONTINUOUS
 10
2.645006098
 20
3.2943628068
 11
2.6190673816
 21
3.1903282976
  0
SPLINE
  5
352
100
AcDbEntity
  8
0
100
AcDbSpline
 62
6
  6
CONTINUOUS
 70
0
 71
3
 72
44
 73
40
 74
38
 42
0.0000001
 43
0.0000001
 44
0.0000000001
 12
0.2925367804
 22
-0.0096268442
 32
0.0
 13
-0.0850129076
 23
0.2800772207
 33
0.0
 40
0.0
 40
0.0
 40
0.0
 40
0.0
 40
0.0304373569
 40
0.0606295437
 40
0.0906109763
 40
0.1204126587
 40
0.1500881653
 40
0.1797251246
 40
0.2094163479
 40
0.2392641751
 40
0.2693949054
 40
0.2999474167
 40
0.3310798639
 40
0.3629850438
 40
0.3792951753
 40
0.3958641283
 40
0.4297309402
 40
0.4470149122
 40
0.464522272
 40
0.4822139819
 40
0.5000016722
 40
0.5177924468
 40
0.5354932305
 40
0.5530125687
 40
0.5702986763
 40
0.6041518484
 40
0.637019435
 40
0.668925975
 40
0.7000600837
 40
0.7306125622
 40
0.7607425803
 40
0.7905893405
 40
0.8202799792
 40
0.8499170516
 40
0.87959191
 40
0.9093915244
 40
0.9393714682
 40
0.9695628745
 40
1.0
 40
1.0
 40
1.0
 40
1.0
 10
9.8250542055
 20
3.6422676901
 30
0.0
 10
9.828022221
 20
3.6421700182
 30
0.0
 10
9.8339409309
 20
3.6421367482
 30
0.0
 10
9.842774993
 20
3.6425679539
 30
0.0
 10
9.8515113863
 20
3.6434687422
 30
0.0
 10
9.8601373576
 20
3.6448262822
 30
0.0
 10
9.868645596
 20
3.6466364242
 30
0.0
 10
9.8770320407
 20
3.6489056146
 30
0.0
 10
9.8852969059
 20
3.6516381135
 30
0.0
 10
9.8934424319
 20
3.6548428534
 30
0.0
 10
9.9014669712
 20
3.6585456167
 30
0.0
 10
9.9093723841
 20
3.6627697107
 30
0.0
 10
9.9171604813
 20
3.6675470701
 30
0.0
 10
9.9235004445
 20
3.6719992207
 30
0.0
 10
9.9284982465
 20
3.6758702137
 30
0.0
 10
9.933518482
 20
3.680019348
 30
0.0
 10
9.9384014808
 20
3.6844790678
 30
0.0
 10
9.9431079354
 20
3.6892472607
 30
0.0
 10
9.9465719972
 20
3.6930198185
 30
0.0
 10
9.9499289223
 20
3.6969526959
 30
0.0
 10
9.9531636772
 20
3.7010219962
 30
0.0
 10
9.9562561314
 20
3.7052015581
 30
0.0
 10
9.9591867558
 20
3.7094644264
 30
0.0
 10
9.9619367556
 20
3.7137878839
 30
0.0
 10
9.9653256497
 20
3.7195674804
 30
0.0
 10
9.9691012753
 20
3.7268499195
 30
0.0
 10
9.9729646274
 20
3.7356697251
 30
0.0
 10
9.976179595
 20
3.7444638429
 30
0.0
 10
9.9787792363
 20
3.7532232746
 30
0.0
 10
9.9808130396
 20
3.7619527219
 30
0.0
 10
9.9823126806
 20
3.7706620127
 30
0.0
 10
9.9832996134
 20
3.7793592544
 30
0.0
 10
9.9837993391
 20
3.7880495984
 30
0.0
 10
9.9838208692
 20
3.7967374702
 30
0.0
 10
9.9833675264
 20
3.8054240656
 30
0.0
 10
9.9824460509
 20
3.8141070414
 30
0.0
 10
9.9810550102
 20
3.8227784592
 30
0.0
 10
9.9791851501
 20
3.8314228733
 30
0.0
 10
9.9776211785
 20
3.8371312056
 30
0.0
 10
9.9767586624
 20
3.8399727875
 30
0.0
 11
9.8250542055
 21
3.6422676901
 31
0.0
 11
9.8339629317
 21
3.6422177151
 31
0.0
 11
9.8427895306
 21
3.6426485289
 31
0.0
 11
9.8515187125
 21
3.6435481799
 31
0.0
 11
9.8601353618
 21
3.6449049133
 31
0.0
 11
9.8686307183
 21
3.6467141589
 31
0.0
 11
9.8770040474
 21
3.6489804198
 31
0.0
 11
9.8852551296
 21
3.6517087945
 31
0.0
 11
9.8933840461
 21
3.6549094034
 31
0.0
 11
9.9013916207
 21
3.6586047512
 31
0.0
 11
9.9092787789
 21
3.6628192881
 31
0.0
 11
9.9170452249
 21
3.6675854835
 31
0.0
 11
9.9246883253
 21
3.672951155
 31
0.0
 11
9.9284626549
 21
3.6758742563
 31
0.0
 11
9.9322005202
 21
3.6789641572
 31
0.0
 11
9.9395174464
 21
3.6856517012
 31
0.0
 11
9.943070764
 21
3.689252639
 31
0.0
 11
9.9465367588
 21
3.6930269636
 31
0.0
 11
9.9498996357
 21
3.6969646807
 31
0.0
 11
9.9531396459
 21
3.7010400491
 31
0.0
 11
9.9562367506
 21
3.7052261735
 31
0.0
 11
9.959170911
 21
3.7094961586
 31
0.0
 11
9.9619223737
 21
3.7138232874
 31
0.0
 11
9.964482129
 21
3.7181875509
 31
0.0
 11
9.9690464106
 21
3.7269823707
 31
0.0
 11
9.9729080453
 21
3.7357934828
 31
0.0
 11
9.9761127084
 21
3.7445653118
 31
0.0
 11
9.978706997
 21
3.7533010333
 31
0.0
 11
9.9807364787
 21
3.7620102594
 31
0.0
 11
9.9822332359
 21
3.7707012253
 31
0.0
 11
9.983220494
 21
3.7793812624
 31
0.0
 11
9.9837199667
 21
3.7880572027
 31
0.0
 11
9.9837419384
 21
3.7967318018
 31
0.0
 11
9.9832909654
 21
3.8054057731
 31
0.0
 11
9.9823712584
 21
3.8140793509
 31
0.0
 11
9.9809809686
 21
3.8227434974
 31
0.0
 11
9.9791126538
 21
3.8313806156
 31
0.0
 11
9.9767586624
 21
3.8399727875
 31
0.0
  0
SPLINE
  5
353
100
AcDbEntity
  8
0
100
AcDbSpline
 62
6
  6
CONTINUOUS
 70
0
 71
3
 72
41
 73
37
 74
35
 42
0.0000001
 43
0.0000001
 44
0.0000000001
 12
0.2850413266
 22
0.0664108191
 32
0.0
 13
-0.1545951144
 23
0.2485141955
 33
0.0
 40
0.0
 40
0.0
 40
0.0
 40
0.0
 40
0.0304569397
 40
0.0606664473
 40
0.0906620458
 40
0.1204754142
 40
0.1501668038
 40
0.1798202821
 40
0.2393608309
 40
0.2695084806
 40
0.3000833946
 40
0.3312452558
 40
0.3471028631
 40
0.3631728748
 40
0.396005348
 40
0.4298700394
 40
0.4471890397
 40
0.4646993867
 40
0.4823463849
 40
0.5000764995
 40
0.5178218253
 40
0.5355026504
 40
0.5530375063
 40
0.570346644
 40
0.604188329
 40
0.6370322189
 40
0.6689397185
 40
0.7000864603
 40
0.7306504928
 40
0.7607872305
 40
0.7906384044
 40
0.820330053
 40
0.8499732864
 40
0.8796522856
 40
0.9393807922
 40
1.0
 40
1.0
 40
1.0
 40
1.0
 10
9.9767586624
 20
3.8399727875
 30
0.0
 10
9.9796524912
 20
3.8406470109
 30
0.0
 10
9.9853812204
 20
3.8421476456
 30
0.0
 10
9.9938067469
 20
3.8448522264
 30
0.0
 10
10.002015551
 20
3.8479852083
 30
0.0
 10
10.0099991105
 20
3.8515310366
 30
0.0
 10
10.0177512768
 20
3.855485983
 30
0.0
 10
10.0277836354
 20
3.861314136
 30
0.0
 10
10.0373616274
 20
3.8679846583
 30
0.0
 10
10.0463816408
 20
3.8754957234
 30
0.0
 10
10.0529282195
 20
3.8816271442
 30
0.0
 10
10.0581353623
 20
3.8871286305
 30
0.0
 10
10.0621582608
 20
3.8917879813
 30
0.0
 10
10.0661390881
 20
3.8966951077
 30
0.0
 10
10.0709250035
 20
3.9032059452
 30
0.0
 10
10.075334895
 20
3.9101229033
 30
0.0
 10
10.0786472963
 20
3.9159500143
 30
0.0
 10
10.0810226483
 20
3.9204863312
 30
0.0
 10
10.0832533997
 20
3.925140042
 30
0.0
 10
10.0853198713
 20
3.929894068
 30
0.0
 10
10.0872132288
 20
3.9347231132
 30
0.0
 10
10.0889291365
 20
3.9395977539
 30
0.0
 10
10.0904618932
 20
3.9444885255
 30
0.0
 10
10.0922413371
 20
3.9509499909
 30
0.0
 10
10.0940065348
 20
3.9589590674
 30
0.0
 10
10.0954551088
 20
3.9684743782
 30
0.0
 10
10.0962821643
 20
3.9777995084
 30
0.0
 10
10.0965269698
 20
3.9869350486
 30
0.0
 10
10.0962345219
 20
3.9958959743
 30
0.0
 10
10.0954279657
 20
4.0046981743
 30
0.0
 10
10.0941311994
 20
4.0133553033
 30
0.0
 10
10.092359901
 20
4.0218784451
 30
0.0
 10
10.0901305386
 20
4.0302760406
 30
0.0
 10
10.0865453809
 20
4.0413283451
 30
0.0
 10
10.0809109605
 20
4.0548682741
 30
0.0
 10
10.0752478818
 20
4.0651836717
 30
0.0
 10
10.0721240707
 20
4.0702052496
 30
0.0
 11
9.9767586624
 21
3.8399727875
 31
0.0
 11
9.9853817014
 21
3.8422316812
 31
0.0
 11
9.9938002032
 21
3.84493398
 31
0.0
 11
10.0020022503
 21
3.848063974
 31
0.0
 11
10.0099763372
 21
3.8516066821
 31
0.0
 11
10.0177165199
 21
3.8555569573
 31
0.0
 11
10.0252208465
 21
3.8599167127
 31
0.0
 11
10.0395129147
 21
3.8698868869
 31
0.0
 11
10.0462934006
 21
3.8755330172
 31
0.0
 11
10.0528237009
 21
3.8816511331
 31
0.0
 11
10.0590933629
 21
3.8882746865
 31
0.0
 11
10.0621266446
 21
3.8917874235
 31
0.0
 11
10.0650894365
 21
3.8954402147
 31
0.0
 11
10.0707790878
 21
3.9031839711
 31
0.0
 11
10.076107705
 21
3.9115410646
 31
0.0
 11
10.0786126262
 21
3.9159477167
 31
0.0
 11
10.0809895495
 21
3.9204880163
 31
0.0
 11
10.0832210292
 21
3.9251459251
 31
0.0
 11
10.0852902018
 21
3.9299047079
 31
0.0
 11
10.0871869109
 21
3.9347396026
 31
0.0
 11
10.0889053005
 21
3.9396207007
 31
0.0
 11
10.090439585
 21
3.9445180091
 31
0.0
 11
10.0917843765
 21
3.9494022177
 31
0.0
 11
10.0939189105
 21
3.9590741105
 31
0.0
 11
10.0953677749
 21
3.968576895
 31
0.0
 11
10.0961916965
 21
3.9778790213
 31
0.0
 11
10.096437331
 21
3.9869915998
 31
0.0
 11
10.0961450859
 21
3.9959321686
 31
0.0
 11
10.0953413509
 21
4.0047157578
 31
0.0
 11
10.0940480679
 21
4.0133562137
 31
0.0
 11
10.0922819099
 21
4.0218648626
 31
0.0
 11
10.0900563426
 21
4.0302503976
 31
0.0
 11
10.0873769934
 21
4.0385131561
 31
0.0
 11
10.0806628053
 21
4.0546534017
 31
0.0
 11
10.0721240707
 21
4.0702052496
 31
0.0
  0
SPLINE
  5
354
100
AcDbEntity
  8
0
100
AcDbSpline
 62
6
  6
CONTINUOUS
 70
0
 71
3
 72
38
 73
34
 74
32
 42
0.0000001
 43
0.0000001
 44
0.0000000001
 12
0.2581324521
 22
0.137917806
 32
0.0
 13
-0.2136410473
 23
0.2000279655
 33
0.0
 40
0.0
 40
0.0
 40
0.0
 40
0.0
 40
0.0304576488
 40
0.0606681225
 40
0.0906650761
 40
0.1204800511
 40
0.1501724828
 40
0.1798268974
 40
0.2393697198
 40
0.2695183027
 40
0.3000942605
 40
0.3312569699
 40
0.3631825529
 40
0.3960186031
 40
0.4298802291
 40
0.4472029218
 40
0.4647197369
 40
0.4823708842
 40
0.5000986277
 40
0.5178386483
 40
0.5355158206
 40
0.5703655358
 40
0.6042087054
 40
0.6370485352
 40
0.6689577229
 40
0.700104944
 40
0.7306689262
 40
0.7608057665
 40
0.790657462
 40
0.8203495373
 40
0.8796507972
 40
0.9393799831
 40
1.0
 40
1.0
 40
1.0
 40
1.0
 10
10.0721240707
 20
4.0702052496
 30
0.0
 10
10.0747447732
 20
4.071605467
 30
0.0
 10
10.0798898939
 20
4.0745376595
 30
0.0
 10
10.0873283526
 20
4.0793307801
 30
0.0
 10
10.0944466528
 20
4.0844816879
 30
0.0
 10
10.1012405243
 20
4.0899730908
 30
0.0
 10
10.1077051176
 20
4.0957995949
 30
0.0
 10
10.1158872082
 20
4.1040257982
 30
0.0
 10
10.1234122014
 20
4.1129482288
 30
0.0
 10
10.1301808145
 20
4.1225379492
 30
0.0
 10
10.1349175747
 20
4.1301548707
 30
0.0
 10
10.1392697583
 20
4.138195581
 30
0.0
 10
10.1432152508
 20
4.1466877081
 30
0.0
 10
10.1467163964
 20
4.1556562783
 30
0.0
 10
10.1491858816
 20
4.163479243
 30
0.0
 10
10.1508763428
 20
4.1699658317
 30
0.0
 10
10.1519965129
 20
4.1749636661
 30
0.0
 10
10.1529472851
 20
4.1800367124
 30
0.0
 10
10.1537145556
 20
4.1851628278
 30
0.0
 10
10.1542930374
 20
4.1903162263
 30
0.0
 10
10.1548166082
 20
4.1971522409
 30
0.0
 10
10.1550246569
 20
4.2055830092
 30
0.0
 10
10.1545814875
 20
4.2154856614
 30
0.0
 10
10.1535168978
 20
4.2250514114
 30
0.0
 10
10.1519021981
 20
4.2342722775
 30
0.0
 10
10.1497744962
 20
4.2431599058
 30
0.0
 10
10.1471723985
 20
4.2517394767
 30
0.0
 10
10.1441152254
 20
4.260032733
 30
0.0
 10
10.1406219382
 20
4.2680592489
 30
0.0
 10
10.1354033774
 20
4.2784178257
 30
0.0
 10
10.1278200378
 20
4.2908236716
 30
0.0
 10
10.117108589
 20
4.304734374
 30
0.0
 10
10.1089684101
 20
4.3132332152
 30
0.0
 10
10.1046514355
 20
4.3172751148
 30
0.0
 11
10.0721240707
 21
4.0702052496
 31
0.0
 11
10.0798685864
 21
4.074618943
 31
0.0
 11
10.0873008379
 21
4.0794080368
 31
0.0
 11
10.0944133967
 21
4.0845543138
 31
0.0
 11
10.1011990148
 21
4.0900402732
 31
0.0
 11
10.1076531576
 21
4.0958591904
 31
0.0
 11
10.1137733874
 21
4.1020126686
 31
0.0
 11
10.1249978702
 21
4.1153424502
 31
0.0
 11
10.1300859622
 21
4.1225511343
 31
0.0
 11
10.1348103438
 21
4.1301509318
 31
0.0
 11
10.1391521971
 21
4.1381713956
 31
0.0
 11
10.1430891778
 21
4.1466450069
 31
0.0
 11
10.1465812377
 21
4.1555980986
 31
0.0
 11
10.1495647832
 21
4.1650484849
 31
0.0
 11
10.150843439
 21
4.1699543617
 31
0.0
 11
10.1519642789
 21
4.1749569203
 31
0.0
 11
10.1529148209
 21
4.1800346155
 31
0.0
 11
10.153682839
 21
4.1851657732
 31
0.0
 11
10.1542632095
 21
4.1903251431
 31
0.0
 11
10.1546586556
 21
4.195483524
 31
0.0
 11
10.154907323
 21
4.2056798366
 31
0.0
 11
10.1544666117
 21
4.2155747892
 31
0.0
 11
10.1534062458
 21
4.2251272349
 31
0.0
 11
10.1517942774
 21
4.2343258119
 31
0.0
 11
10.1496731486
 21
4.2431913452
 31
0.0
 11
10.147076719
 21
4.2517512835
 31
0.0
 11
10.1440270034
 21
4.2600272974
 31
0.0
 11
10.1405415184
 21
4.2680385036
 31
0.0
 11
10.1366334047
 21
4.2757999848
 31
0.0
 11
10.1275867752
 21
4.2906111839
 31
0.0
 11
10.1169241356
 21
4.304463408
 31
0.0
 11
10.1046514355
 21
4.3172751148
 31
0.0
  0
LINE
  5
355
100
AcDbEntity
  8
0
100
AcDbLine
 62
6
  6
CONTINUOUS
 10
2.7898500143
 20
3.2688229164
 11
2.778642537
 21
3.1621908923
  0
LINE
  5
356
100
AcDbEntity
  8
0
100
AcDbLine
 62
6
  6
CONTINUOUS
 10
2.9368387854
 20
3.2636899554
 11
2.9405806879
 21
3.1565358874
  0
LINE
  5
357
100
AcDbEntity
  8
0
100
AcDbLine
 62
6
  6
CONTINUOUS
 10
3.0831114419
 20
3.2790638311
 11
3.1017298923
 21
3.1734733513
  0
LINE
  5
358
100
AcDbEntity
  8
0
100
AcDbLine
 62
6
  6
CONTINUOUS
 10
3.225820953
 20
3.3146453085
 11
3.2589535645
 21
3.2126736155
  0
LINE
  5
359
100
AcDbEntity
  8
0
100
AcDbLine
 62
6
  6
CONTINUOUS
 10
3.3621896404
 20
3.3697418346
 11
3.4091915243
 21
3.2733736914
  0
LINE
  5
35A
100
AcDbEntity
  8
0
100
AcDbLine
 62
6
  6
CONTINUOUS
 10
3.4895632427
 20
3.4432810182
 11
3.5495195608
 21
3.3543921211
  0
LINE
  5
35B
100
AcDbEntity
  8
0
100
AcDbLine
 62
6
  6
CONTINUOUS
 10
3.6054625777
 20
3.5338315027
 11
3.6772063485
 21
3.454151973
  0
LINE
  5
35C
100
AcDbEntity
  8
0
100
AcDbLine
 62
6
  6
CONTINUOUS
 10
3.7076317966
 20
3.639630826
 11
3.7897666092
 21
3.570711535
  0
LINE
  5
35D
100
AcDbEntity
  8
0
100
AcDbLine
 62
6
  6
CONTINUOUS
 10
3.7940822917
 20
3.7586197245
 11
3.8850094854
 21
3.7018021079
  0
LINE
  5
35E
100
AcDbEntity
  8
0
100
AcDbLine
 62
6
  6
CONTINUOUS
 10
3.8631314026
 20
3.8884822148
 11
3.961081183
 21
3.8448721629
  0
LINE
  5
35F
100
AcDbEntity
  8
0
100
AcDbLine
 62
6
  6
CONTINUOUS
 10
3.8631314026
 20
4.7460680148
 11
3.961081183
 21
4.7896780667
  0
LINE
  5
360
100
AcDbEntity
  8
0
100
AcDbLine
 62
6
  6
CONTINUOUS
 10
3.7940822917
 20
4.8759305051
 11
3.8850094854
 21
4.9327481217
  0
LINE
  5
361
100
AcDbEntity
  8
0
100
AcDbLine
 62
6
  6
CONTINUOUS
 10
3.7076317966
 20
4.9949194036
 11
3.7897666092
 21
5.0638386946
  0
LINE
  5
362
100
AcDbEntity
  8
0
100
AcDbLine
 62
6
  6
CONTINUOUS
 10
3.6054625777
 20
5.1007187269
 11
3.6772063485
 21
5.1803982566
  0
LINE
  5
363
100
AcDbEntity
  8
0
100
AcDbLine
 62
6
  6
CONTINUOUS
 10
3.4895632427
 20
5.1912692114
 11
3.5495195608
 21
5.2801581085
  0
LINE
  5
364
100
AcDbEntity
  8
0
100
AcDbLine
 62
6
  6
CONTINUOUS
 10
3.3621896404
 20
5.264808395
 11
3.4091915243
 21
5.3611765382
  0
LINE
  5
365
100
AcDbEntity
  8
0
100
AcDbLine
 62
6
  6
CONTINUOUS
 10
3.225820953
 20
5.3199049211
 11
3.2589535645
 21
5.4218766141
  0
LINE
  5
366
100
AcDbEntity
  8
0
100
AcDbLine
 62
6
  6
CONTINUOUS
 10
3.0831114419
 20
5.3554863985
 11
3.1017298923
 21
5.4610768783
  0
LINE
  5
367
100
AcDbEntity
  8
0
100
AcDbLine
 62
6
  6
CONTINUOUS
 10
2.9368387854
 20
5.3708602742
 11
2.9405806879
 21
5.4780143422
  0
LINE
  5
368
100
AcDbEntity
  8
0
100
AcDbLine
 62
6
  6
CONTINUOUS
 10
2.7898500143
 20
5.3657273132
 11
2.778642537
 21
5.4723593373
  0
LINE
  5
369
100
AcDbEntity
  8
0
100
AcDbLine
 62
6
  6
CONTINUOUS
 10
2.645006098
 20
5.3401874228
 11
2.6190673816
 21
5.444221932
  0
LINE
  5
36A
100
AcDbEntity
  8
0
100
AcDbLine
 62
6
  6
CONTINUOUS
 10
2.5051262585
 20
5.2947377078
 11
2.4649611707
 21
5.3941497887
  0
LINE
  5
36B
100
AcDbEntity
  8
0
100
AcDbLine
 62
6
  6
CONTINUOUS
 10
2.3729330977
 20
5.2302627953
 11
2.3193234062
 21
5.3231175049
  0
LINE
  5
36C
100
AcDbEntity
  8
0
100
AcDbLine
 62
6
  6
CONTINUOUS
 10
2.2509996052
 20
5.1480176162
 11
2.1849887617
 21
5.232507643
  0
LINE
  5
36D
100
AcDbEntity
  8
0
100
AcDbLine
 62
6
  6
CONTINUOUS
 10
2.1416990777
 20
5.0496029791
 11
2.0645719081
 21
5.1240838211
  0
LINE
  5
36E
100
AcDbEntity
  8
0
100
AcDbLine
 62
6
  6
CONTINUOUS
 10
2.0471589256
 20
4.9369344132
 11
1.9604166226
 21
4.9999563854
  0
LINE
  5
36F
100
AcDbEntity
  8
0
100
AcDbLine
 62
6
  6
CONTINUOUS
 10
1.9692192655
 20
4.812204884
 11
1.8745501693
 21
4.8625413353
  0
LINE
  5
370
100
AcDbEntity
  8
0
100
AcDbLine
 62
6
  6
CONTINUOUS
 10
1.9093971042
 20
4.6778421097
 11
1.8086438411
 21
4.7145132985
  0
LINE
  5
371
100
AcDbEntity
  8
0
100
AcDbLine
 62
6
  6
CONTINUOUS
 10
1.8688568119
 20
4.536461309
 11
1.7639804296
 21
4.5587534722
  0
LINE
  5
372
100
AcDbEntity
  8
0
100
AcDbLine
 62
6
  6
CONTINUOUS
 10
8.2192192655
 20
3.8223453456
 11
8.1245501693
 21
3.7720088943
  0
LINE
  5
373
100
AcDbEntity
  8
0
100
AcDbLine
 62
6
  6
CONTINUOUS
 10
8.2971589256
 20
3.6976158163
 11
8.2104166226
 21
3.6345938442
  0
LINE
  5
374
100
AcDbEntity
  8
0
100
AcDbLine
 62
6
  6
CONTINUOUS
 10
8.3916990777
 20
3.5849472505
 11
8.3145719081
 21
3.5104664085
  0
LINE
  5
375
100
AcDbEntity
  8
0
100
AcDbLine
 62
6
  6
CONTINUOUS
 10
8.5009996052
 20
3.4865326134
 11
8.4349887617
 21
3.4020425866
  0
LINE
  5
376
100
AcDbEntity
  8
0
100
AcDbLine
 62
6
  6
CONTINUOUS
 10
8.6229330977
 20
3.4042874343
 11
8.5693234062
 21
3.3114327247
  0
LINE
  5
377
100
AcDbEntity
  8
0
100
AcDbLine
 62
6
  6
CONTINUOUS
 10
8.7551262585
 20
3.3398125218
 11
8.7149611707
 21
3.2404004409
  0
LINE
  5
378
100
AcDbEntity
  8
0
100
AcDbLine
 62
6
  6
CONTINUOUS
 10
8.895006098
 20
3.2943628068
 11
8.8690673816
 21
3.1903282976
  0
LINE
  5
379
100
AcDbEntity
  8
0
100
AcDbLine
 62
6
  6
CONTINUOUS
 10
9.0398500143
 20
3.2688229164
 11
9.028642537
 21
3.1621908923
  0
LINE
  5
37A
100
AcDbEntity
  8
0
100
AcDbLine
 62
6
  6
CONTINUOUS
 10
9.1868387854
 20
3.2636899554
 11
9.1905806879
 21
3.1565358874
  0
LINE
  5
37B
100
AcDbEntity
  8
0
100
AcDbLine
 62
6
  6
CONTINUOUS
 10
9.3331114419
 20
3.2790638311
 11
9.3517298923
 21
3.1734733513
  0
LINE
  5
37C
100
AcDbEntity
  8
0
100
AcDbLine
 62
6
  6
CONTINUOUS
 10
9.475820953
 20
3.3146453085
 11
9.5089535645
 21
3.2126736155
  0
LINE
  5
37D
100
AcDbEntity
  8
0
100
AcDbLine
 62
6
  6
CONTINUOUS
 10
9.6121896404
 20
3.3697418346
 11
9.6591915243
 21
3.2733736914
  0
LINE
  5
37E
100
AcDbEntity
  8
0
100
AcDbLine
 62
6
  6
CONTINUOUS
 10
9.7395632427
 20
3.4432810182
 11
9.7995195608
 21
3.3543921211
  0
LINE
  5
37F
100
AcDbEntity
  8
0
100
AcDbLine
 62
6
  6
CONTINUOUS
 10
9.8554625777
 20
3.5338315027
 11
9.9272063485
 21
3.454151973
  0
LINE
  5
380
100
AcDbEntity
  8
0
100
AcDbLine
 62
6
  6
CONTINUOUS
 10
9.9576317966
 20
3.639630826
 11
10.0397666092
 21
3.570711535
  0
LINE
  5
381
100
AcDbEntity
  8
0
100
AcDbLine
 62
6
  6
CONTINUOUS
 10
10.0440822917
 20
3.7586197245
 11
10.1350094854
 21
3.7018021079
  0
ENDSEC
  0
SECTION
  2
OBJECTS
  0
DICTIONARY
  5
C
100
AcDbDictionary
280
0
281
1
  3
ACAD_GROUP
350
D
  3
ACAD_MLINESTYLE
350
17
  3
ACAD_LAYOUT
350
1A
  3
ACAD_PLOTSETTINGS
350
19
  3
ACAD_PLOTSTYLENAME
350
E
  0
DICTIONARY
  5
D
102
{ACAD_REACTORS
330
C
102
}
100
AcDbDictionary
280
0
281
1
  0
ACDBDICTIONARYWDFLT
  5
E
102
{ACAD_REACTORS
330
C
102
}
100
AcDbDictionary
281
1
  3
Normal
350
F
100
AcDbDictionaryWithDefault
340
F
  0
DICTIONARY
  5
17
102
{ACAD_REACTORS
330
C
102
}
100
AcDbDictionary
280
0
281
1
  3
Standard
350
18
  0
DICTIONARY
  5
19
102
{ACAD_REACTORS
330
C
102
}
100
AcDbDictionary
281
1
  0
DICTIONARY
  5
1A
102
{ACAD_REACTORS
330
C
102
}
100
AcDbDictionary
281
1
  3
Model
350
382
  3
Layout1
350
383
  0
ACDBPLACEHOLDER
  5
F
102
{ACAD_REACTORS
330
E
102
}
  0
MLINESTYLE
  5
18
102
{ACAD_REACTORS
330
17
102
}
100
AcDbMlineStyle
  2
STANDARD
 70
0
  3

 62
256
 51
90.0
 52
90.0
 71
2
 49
0.5
 62
256
  6
BYLAYER
 49
-0.5
 62
256
  6
BYLAYER
  0
LAYOUT
  5
382
102
{ACAD_REACTORS
330
1A
102
}
100
AcDbPlotSettings
  1

  2
none_device
  4
ISO_A4_(297.00_x_210.00_MM)
  6

 40
0.0
 41
0.0
 42
0.0
 43
0.0
 44
297.0
 45
210.0
 46
0.0
 47
0.0
 48
0.0
 49
0.0
140
0.0
141
0.0
142
1.0
143
1.0
 70
1024
 72
0
 73
0
 74
0
  7

 75
0
147
1.0
148
0.0
149
0.0
100
AcDbLayout
  1
Model
 70
0
 71
0
 10
0.0
 20
0.0
 11
11.6929133858
 21
8.2677165354
 12
0.0
 22
0.0
 32
0.0
 14
0.0
 24
0.0
 34
0.0
 15
0.0
 25
0.0
 35
0.0
146
0.0
 13
0.0
 23
0.0
 33
0.0
 16
1.0
 26
0.0
 36
0.0
 17
0.0
 27
1.0
 37
0.0
 76
0
330
204
345
0
346
0
  0
LAYOUT
  5
383
102
{ACAD_REACTORS
330
1A
102
}
100
AcDbPlotSettings
  1

  2
none_device
  4
ISO_A4_(297.00_x_210.00_MM)
  6

 40
0.0
 41
0.0
 42
0.0
 43
0.0
 44
297.0
 45
210.0
 46
0.0
 47
0.0
 48
0.0
 49
0.0
140
0.0
141
0.0
142
1.0
143
1.0
 70
0
 72
0
 73
0
 74
0
  7

 75
0
147
1.0
148
0.0
149
0.0
100
AcDbLayout
  1
Layout1
 70
0
 71
1
 10
0.0
 20
0.0
 11
11.6929133858
 21
8.2677165354
 12
0.0
 22
0.0
 32
0.0
 14
0.0
 24
0.0
 34
0.0
 15
0.0
 25
0.0
 35
0.0
146
0.0
 13
0.0
 23
0.0
 33
0.0
 16
1.0
 26
0.0
 36
0.0
 17
0.0
 27
1.0
 37
0.0
 76
0
330
205
345
0
346
0
  0
ENDSEC
  0
EOF
