999
DXF file: 2201_front.dxf
999
Pro/ENGINEER 2018400 by Parametric Technology Corporation
  0
SECTION
  2
HEADER
  9
$ACADVER
  1
AC1027
  9
$DWGCODEPAGE
  3
ANSI_1252
  9
$EXTMAX
 10
11.0
 20
8.5
 30
0.0
  9
$EXTMIN
 10
0.0
 20
0.0
 30
0.0
  9
$LIMMIN
 10
0.0
 20
0.0
  9
$LIMMAX
 10
11.0
 20
8.5
  9
$VIEWCTR
 10
5.5
 20
4.25
  9
$VIEWSIZE
 40
8.5
  9
$CLAYER
  8
0
  9
$LTSCALE
 40
0.605
  9
$CELTYPE
  6
BYLAYER
  9
$DIMSCALE
 40
1.0
  9
$DIMASZ
 40
0.1
  9
$DIMEXO
 40
0.0625
  9
$DIMDLI
 40
0.418
  9
$DIMEXE
 40
0.125
  9
$DIMCEN
 40
0.099
  9
$DIMLFAC
 40
1.0
  9
$DIMBLK
  1
_FILLED
  9
$DIMALT
 70
1
  9
$DIMALTD
 70
2
  9
$DIMALTTD
 70
2
  9
$DIMALTF
 40
25.4
  9
$DIMTXT
 40
0.08
  9
$DIMTOL
 70
1
  9
$DIMLIM
 70
0
  9
$DIMTFAC
 40
1.0
  9
$DIMTP
 40
0.001
  9
$DIMTM
 40
0.001
  9
$DIMGAP
 40
0.09
  9
$DIMDSEP
 70
46
  9
$AUNITS
 70
0
  9
$PDMODE
 70
3
  9
$PDSIZE
 40
0.3125
  9
$HANDSEED
  5
27A
  9
$TILEMODE
 70
1
  9
$MEASUREMENT
 70
0
  9
$INSUNITS
 70
1
  0
ENDSEC
  0
SECTION
  2
CLASSES
  0
CLASS
  1
ACDBDICTIONARYWDFLT
  2
AcDbDictionaryWithDefault
  3
AutoCAD 2000
 90
0
 91
1
280
0
281
0
  0
CLASS
  1
ACDBPLACEHOLDER
  2
AcDbPlaceHolder
  3
AutoCAD 2000
 90
0
 91
1
280
0
281
0
  0
CLASS
  1
LAYOUT
  2
AcDbLayout
  3
AutoCAD 2000
 90
0
 91
0
280
0
281
0
  0
ENDSEC
  0
SECTION
  2
TABLES
  0
TABLE
  2
VPORT
  5
8
100
AcDbSymbolTable
 70
2
  0
VPORT
  5
1F4
100
AcDbSymbolTableRecord
100
AcDbViewportTableRecord
  2
*ACTIVE
 70
0
 10
0.0
 20
0.0
 11
1.0
 21
1.0
 12
5.5
 22
4.25
 13
0.0
 23
0.0
 14
1.0
 24
1.0
 15
0.0
 25
0.0
 16
0.0
 26
0.0
 36
1.0
 17
0.0
 27
0.0
 37
0.0
 40
8.5
 41
1.2941176471
 42
50.0
 43
0.0
 44
0.0
 50
0.0
 51
0.0
 71
0
 72
100
 73
1
 74
1
 75
0
 76
0
 77
0
 78
0
  0
ENDTAB
  0
TABLE
  2
LTYPE
  5
5
100
AcDbSymbolTable
 70
6
  0
LTYPE
  5
14
100
AcDbSymbolTableRecord
100
AcDbLinetypeTableRecord
  2
BYBLOCK
 70
0
  3

 72
65
 73
0
 40
0.0
  0
LTYPE
  5
15
100
AcDbSymbolTableRecord
100
AcDbLinetypeTableRecord
  2
BYLAYER
 70
0
  3

 72
65
 73
0
 40
0.0
  0
LTYPE
  5
16
100
AcDbSymbolTableRecord
100
AcDbLinetypeTableRecord
  2
CONTINUOUS
 70
64
  3
Solid line
 72
65
 73
0
 40
0.0
  0
LTYPE
  5
1F5
100
AcDbSymbolTableRecord
100
AcDbLinetypeTableRecord
  2
CENTER
 70
64
  3
____ _ ____ _ ____ _ ____ _ ____ _ ____ _ ____
 72
65
 73
4
 40
0.6
 49
0.375
 74
0
 49
-0.075
 74
0
 49
0.075
 74
0
 49
-0.075
 74
0
  0
LTYPE
  5
1F6
100
AcDbSymbolTableRecord
100
AcDbLinetypeTableRecord
  2
HIDDEN
 70
64
  3
- - - - - - - - - - - - - - - - - - - -
 72
65
 73
2
 40
0.2
 49
0.1
 74
0
 49
-0.1
 74
0
  0
LTYPE
  5
1F7
100
AcDbSymbolTableRecord
100
AcDbLinetypeTableRecord
  2
PHANTOM
 70
64
  3
_____ _ _ _____ _ _ _____ _ _ _____
 72
65
 73
6
 40
0.8
 49
0.45
 74
0
 49
-0.05
 74
0
 49
0.1
 74
0
 49
-0.05
 74
0
 49
0.1
 74
0
 49
-0.05
 74
0
  0
LTYPE
  5
1F8
100
AcDbSymbolTableRecord
100
AcDbLinetypeTableRecord
  2
DOT
 70
64
  3
. . . . . . . . . . . . . . . . . . . .
 72
65
 73
2
 40
0.2
 49
0.1
 74
0
 49
-0.1
 74
0
  0
LTYPE
  5
1F9
100
AcDbSymbolTableRecord
100
AcDbLinetypeTableRecord
  2
DASHED
 70
64
  3
- - - - - - - - - - - - - - - - - - - -
 72
65
 73
2
 40
0.2
 49
0.1
 74
0
 49
-0.1
 74
0
  0
ENDTAB
  0
TABLE
  2
LAYER
  5
2
100
AcDbSymbolTable
 70
36
  0
LAYER
  5
10
100
AcDbSymbolTableRecord
100
AcDbLayerTableRecord
  2
0
 70
0
 62
7
  6
CONTINUOUS
370
-3
390
F
  0
LAYER
  5
1FA
100
AcDbSymbolTableRecord
100
AcDbLayerTableRecord
  2
DEFAULT_1
 70
0
 62
7
  6
CENTER
370
-3
390
F
  0
LAYER
  5
1FB
100
AcDbSymbolTableRecord
100
AcDbLayerTableRecord
  2
DEFAULT_2
 70
0
 62
8
  6
HIDDEN
370
-3
390
F
  0
LAYER
  5
1FC
100
AcDbSymbolTableRecord
100
AcDbLayerTableRecord
  2
DEFAULT_3
 70
0
 62
7
  6
PHANTOM
370
-3
390
F
  0
LAYER
  5
1FD
100
AcDbSymbolTableRecord
100
AcDbLayerTableRecord
  2
2201_ASSY_PLANES
 70
0
 62
7
  6
CONTINUOUS
370
-3
390
F
  0
LAYER
  5
1FE
100
AcDbSymbolTableRecord
100
AcDbLayerTableRecord
  2
ALL_ASSEMBLY_MEMBERS
 70
0
 62
7
  6
CONTINUOUS
370
-3
390
F
  0
LAYER
  5
1FF
100
AcDbSymbolTableRecord
100
AcDbLayerTableRecord
  2
ALL_FEATURES
 70
0
 62
7
  6
CONTINUOUS
370
-3
390
F
  0
LAYER
  5
200
100
AcDbSymbolTableRecord
100
AcDbLayerTableRecord
  2
AXES_FEATURES
 70
0
 62
7
  6
CONTINUOUS
370
-3
390
F
  0
LAYER
  5
201
100
AcDbSymbolTableRecord
100
AcDbLayerTableRecord
  2
CHAMFER_FEATURES
 70
0
 62
7
  6
CONTINUOUS
370
-3
390
F
  0
LAYER
  5
202
100
AcDbSymbolTableRecord
100
AcDbLayerTableRecord
  2
CUT_FEATURES
 70
0
 62
7
  6
CONTINUOUS
370
-3
390
F
  0
LAYER
  5
203
100
AcDbSymbolTableRecord
100
AcDbLayerTableRecord
  2
DATUM_CURVES
 70
0
 62
7
  6
CONTINUOUS
370
-3
390
F
  0
LAYER
  5
204
100
AcDbSymbolTableRecord
100
AcDbLayerTableRecord
  2
DATUM_PLANES
 70
0
 62
7
  6
CONTINUOUS
370
-3
390
F
  0
LAYER
  5
205
100
AcDbSymbolTableRecord
100
AcDbLayerTableRecord
  2
DATUM_POINTS
 70
0
 62
7
  6
CONTINUOUS
370
-3
390
F
  0
LAYER
  5
206
100
AcDbSymbolTableRecord
100
AcDbLayerTableRecord
  2
DEFAULT_COORDINATE_SYSTEM
 70
0
 62
7
  6
CONTINUOUS
370
-3
390
F
  0
LAYER
  5
207
100
AcDbSymbolTableRecord
100
AcDbLayerTableRecord
  2
DEFAULT_DATUM_AXES
 70
0
 62
7
  6
CONTINUOUS
370
-3
390
F
  0
LAYER
  5
208
100
AcDbSymbolTableRecord
100
AcDbLayerTableRecord
  2
DEFAULT_DATUM_PLANES
 70
0
 62
7
  6
CONTINUOUS
370
-3
390
F
  0
LAYER
  5
209
100
AcDbSymbolTableRecord
100
AcDbLayerTableRecord
  2
DIMENSIONS
 70
0
 62
7
  6
CONTINUOUS
370
-3
390
F
  0
LAYER
  5
20A
100
AcDbSymbolTableRecord
100
AcDbLayerTableRecord
  2
INTF_1
 70
0
 62
7
  6
CONTINUOUS
370
-3
390
F
  0
LAYER
  5
20B
100
AcDbSymbolTableRecord
100
AcDbLayerTableRecord
  2
POINTS
 70
0
 62
7
  6
CONTINUOUS
370
-3
390
F
  0
LAYER
  5
20C
100
AcDbSymbolTableRecord
100
AcDbLayerTableRecord
  2
PROTRUSION_FEATURES
 70
0
 62
7
  6
CONTINUOUS
370
-3
390
F
  0
LAYER
  5
20D
100
AcDbSymbolTableRecord
100
AcDbLayerTableRecord
  2
QUILT
 70
0
 62
7
  6
CONTINUOUS
370
-3
390
F
  0
LAYER
  5
20E
100
AcDbSymbolTableRecord
100
AcDbLayerTableRecord
  2
QUILTS
 70
0
 62
7
  6
CONTINUOUS
370
-3
390
F
  0
LAYER
  5
20F
100
AcDbSymbolTableRecord
100
AcDbLayerTableRecord
  2
REF_CURVES
 70
0
 62
7
  6
CONTINUOUS
370
-3
390
F
  0
LAYER
  5
210
100
AcDbSymbolTableRecord
100
AcDbLayerTableRecord
  2
RGB(   0_   0_   0 )
 70
0
 62
7
  6
CONTINUOUS
370
-3
390
F
  0
LAYER
  5
211
100
AcDbSymbolTableRecord
100
AcDbLayerTableRecord
  2
ROUND_FEATURES
 70
0
 62
7
  6
CONTINUOUS
370
-3
390
F
  0
LAYER
  5
212
100
AcDbSymbolTableRecord
100
AcDbLayerTableRecord
  2
SHELL_FEATURES
 70
0
 62
7
  6
CONTINUOUS
370
-3
390
F
  0
LAYER
  5
213
100
AcDbSymbolTableRecord
100
AcDbLayerTableRecord
  2
SIZE_REF
 70
0
 62
7
  6
CONTINUOUS
370
-3
390
F
  0
LAYER
  5
214
100
AcDbSymbolTableRecord
100
AcDbLayerTableRecord
  2
SURFACE_FEATURES
 70
0
 62
7
  6
CONTINUOUS
370
-3
390
F
  0
ENDTAB
  0
TABLE
  2
STYLE
  5
3
100
AcDbSymbolTable
 70
1
  0
STYLE
  5
11
100
AcDbSymbolTableRecord
100
AcDbTextStyleTableRecord
  2
STANDARD
 70
0
 40
0.0
 41
0.8
 50
0.0
 71
0
 42
0.2
  3
txt
  4

  0
STYLE
  5
215
100
AcDbSymbolTableRecord
100
AcDbTextStyleTableRecord
  2
TEXTSTYLE_1
 70
0
 40
0.0
 41
0.8
 50
0.0
 71
0
 42
0.2
  3
gdt
  4

  0
ENDTAB
  0
TABLE
  2
VIEW
  5
6
100
AcDbSymbolTable
 70
0
  0
ENDTAB
  0
TABLE
  2
UCS
  5
7
100
AcDbSymbolTable
 70
0
  0
ENDTAB
  0
TABLE
  2
APPID
  5
9
100
AcDbSymbolTable
 70
1
  0
APPID
  5
216
100
AcDbSymbolTableRecord
100
AcDbRegAppTableRecord
  2
ACAD
 70
0
  0
ENDTAB
  0
TABLE
  2
BLOCK_RECORD
  5
1
100
AcDbSymbolTable
 70
0
  0
BLOCK_RECORD
  5
217
100
AcDbSymbolTableRecord
100
AcDbBlockTableRecord
  2
*Model_Space
  0
BLOCK_RECORD
  5
218
100
AcDbSymbolTableRecord
100
AcDbBlockTableRecord
  2
*Paper_Space
  0
BLOCK_RECORD
  5
219
100
AcDbSymbolTableRecord
100
AcDbBlockTableRecord
  2
_FILLED
  0
ENDTAB
  0
TABLE
  2
DIMSTYLE
  5
A
100
AcDbSymbolTable
 70
1
100
AcDbDimStyleTable
 71
0
  0
DIMSTYLE
105
21A
100
AcDbSymbolTableRecord
100
AcDbDimStyleTableRecord
  2
STANDARD
 70
0
  3

  4

 40
1.0
 41
0.1
 42
0.0625
 43
0.38
 44
0.125
 45
0.0
 46
0.0
 47
0.001
 48
0.001
140
0.08
141
0.09
142
0.0
143
25.4
144
1.0
145
0.0
146
1.0
147
0.09
 71
1.0
 72
0.0
 73
1
 74
1
 75
0
 76
0
 77
0
 78
4
 79
1
170
1
171
2
172
0
173
0
174
0
175
0
176
0
177
0
178
0
270
2
179
3
271
3
272
3
273
2
274
2
275
0
280
0
281
0
282
0
283
1
284
4
285
0
286
0
287
3
288
0
340
11
278
46
341
219
342
219
343
219
344
219
  0
ENDTAB
  0
ENDSEC
  0
SECTION
  2
BLOCKS
  0
BLOCK
  5
20
100
AcDbEntity
  8
0
100
AcDbBlockBegin
  2
*Model_Space
 70
0
 10
0.0
 20
0.0
 30
0.0
  3
*Model_Space
  1

  0
ENDBLK
  5
21
100
AcDbEntity
  8
0
100
AcDbBlockEnd
  0
BLOCK
  5
1C
100
AcDbEntity
  8
0
100
AcDbBlockBegin
  2
*Paper_Space
 70
0
 10
0.0
 20
0.0
 30
0.0
  3
*Paper_Space
  1

  0
ENDBLK
  5
1D
100
AcDbEntity
  8
0
100
AcDbBlockEnd
  0
BLOCK
  5
21B
100
AcDbEntity
  8
0
100
AcDbBlockBegin
  2
_FILLED
 70
64
 10
0.0
 20
0.0
  3
_FILLED
  1

  0
SOLID
  5
21C
100
AcDbEntity
  8
0
  6
BYBLOCK
 62
0
100
AcDbTrace
 10
0.0
 20
0.0
 11
-1.0
 21
0.2
 12
-1.0
 22
-0.2
 13
-1.0
 23
-0.2
  0
ENDBLK
  5
21D
100
AcDbEntity
  8
0
  6
BYBLOCK
 62
0
100
AcDbBlockEnd
  0
ENDSEC
  0
SECTION
  2
ENTITIES
  0
MTEXT
  5
21E
100
AcDbEntity
  8
0
100
AcDbMText
 62
2
  6
CONTINUOUS
  7
STANDARD
 71
3
 72
1
 10
5.4308229814
 20
3.1017986848
 30
0.0
 11
1.0
 21
0.0
 31
0.0
 73
2
 44
0.9
  1
SCALE  .500
 40
0.08
 41
0.704
  0
LINE
  5
21F
100
AcDbEntity
  8
0
100
AcDbLine
 62
7
  6
CONTINUOUS
 10
0.0
 20
0.0
 11
0.0
 21
8.5
  0
LINE
  5
220
100
AcDbEntity
  8
0
100
AcDbLine
 62
7
  6
CONTINUOUS
 10
0.0
 20
0.0
 11
11.0
 21
0.0
  0
LINE
  5
221
100
AcDbEntity
  8
0
100
AcDbLine
 62
7
  6
CONTINUOUS
 10
0.0
 20
8.5
 11
11.0
 21
8.5
  0
LINE
  5
222
100
AcDbEntity
  8
0
100
AcDbLine
 62
7
  6
CONTINUOUS
 10
11.0
 20
0.0
 11
11.0
 21
8.5
  0
LWPOLYLINE
  5
223
100
AcDbEntity
  8
ALL_ASSEMBLY_MEMBERS
100
AcDbPolyline
 62
7
  6
CONTINUOUS
 90
39
 70
0
 10
4.7863754824
 20
4.6629200311
 10
4.7840262024
 20
4.6565040867
 10
4.7816503169
 20
4.6499252146
 10
4.779250823
 20
4.6431855191
 10
4.776830829
 20
4.6362869568
 10
4.7743914121
 20
4.6292250156
 10
4.7719327579
 20
4.6219904165
 10
4.7694566619
 20
4.6145760132
 10
4.7669668841
 20
4.6069796146
 10
4.7644667558
 20
4.5991970627
 10
4.7619593451
 20
4.5912225743
 10
4.7594480583
 20
4.5830505404
 10
4.756936719
 20
4.5746758213
 10
4.7544291235
 20
4.566092281
 10
4.7519290032
 20
4.5572925283
 10
4.7494401569
 20
4.5482682278
 10
4.7469673065
 20
4.5390132034
 10
4.7445146302
 20
4.5295180453
 10
4.7420854324
 20
4.5197681715
 10
4.7396851798
 20
4.5097557024
 10
4.7373192118
 20
4.4994706981
 10
4.7349912973
 20
4.4888939522
 10
4.7327079569
 20
4.4780157486
 10
4.7304760065
 20
4.4668256642
 10
4.7283006379
 20
4.455301885
 10
4.7261898779
 20
4.4434334109
 10
4.7241521975
 20
4.4312088138
 10
4.7221947329
 20
4.4186041459
 10
4.7203267524
 20
4.4056027227
 10
4.7185594122
 20
4.3921963709
 10
4.7169038629
 20
4.3783731648
 10
4.7153709299
 20
4.364111983
 10
4.7139739655
 20
4.3494080884
 10
4.7127280137
 20
4.3342755894
 10
4.7116455161
 20
4.3186987125
 10
4.7107401465
 20
4.3026700626
 10
4.7100273587
 20
4.2862201827
 10
4.7095203771
 20
4.269354179
 10
4.7092332813
 20
4.2521353636
  0
LINE
  5
224
100
AcDbEntity
  8
ALL_ASSEMBLY_MEMBERS
100
AcDbLine
 62
7
  6
CONTINUOUS
 10
4.7909906765
 20
4.6752750473
 11
4.7863754824
 21
4.6629200311
  0
LINE
  5
225
100
AcDbEntity
  8
ALL_ASSEMBLY_MEMBERS
100
AcDbLine
 62
7
  6
CONTINUOUS
 10
4.7954615079
 20
4.6869383054
 11
4.7909906765
 21
4.6752750473
  0
LINE
  5
226
100
AcDbEntity
  8
ALL_ASSEMBLY_MEMBERS
100
AcDbLine
 62
7
  6
CONTINUOUS
 10
4.7997644765
 20
4.6978929863
 11
4.7954615079
 21
4.6869383054
  0
LINE
  5
227
100
AcDbEntity
  8
ALL_ASSEMBLY_MEMBERS
100
AcDbLine
 62
7
  6
CONTINUOUS
 10
4.803868163
 20
4.7081082239
 11
4.7997644765
 21
4.6978929863
  0
LINE
  5
228
100
AcDbEntity
  8
ALL_ASSEMBLY_MEMBERS
100
AcDbLine
 62
7
  6
CONTINUOUS
 10
4.807763868
 20
4.7176072326
 11
4.803868163
 21
4.7081082239
  0
LINE
  5
229
100
AcDbEntity
  8
ALL_ASSEMBLY_MEMBERS
100
AcDbLine
 62
7
  6
CONTINUOUS
 10
4.8114480512
 20
4.7264203736
 11
4.807763868
 21
4.7176072326
  0
LINE
  5
22A
100
AcDbEntity
  8
ALL_ASSEMBLY_MEMBERS
100
AcDbLine
 62
7
  6
CONTINUOUS
 10
4.8149258712
 20
4.7345931571
 11
4.8114480512
 21
4.7264203736
  0
LINE
  5
22B
100
AcDbEntity
  8
ALL_ASSEMBLY_MEMBERS
100
AcDbLine
 62
7
  6
CONTINUOUS
 10
4.8182042164
 20
4.7421694385
 11
4.8149258712
 21
4.7345931571
  0
LINE
  5
22C
100
AcDbEntity
  8
ALL_ASSEMBLY_MEMBERS
100
AcDbLine
 62
7
  6
CONTINUOUS
 10
4.8212892517
 20
4.7491869135
 11
4.8182042164
 21
4.7421694385
  0
LINE
  5
22D
100
AcDbEntity
  8
ALL_ASSEMBLY_MEMBERS
100
AcDbLine
 62
7
  6
CONTINUOUS
 10
4.8241926824
 20
4.7556920255
 11
4.8212892517
 21
4.7491869135
  0
LINE
  5
22E
100
AcDbEntity
  8
ALL_ASSEMBLY_MEMBERS
100
AcDbLine
 62
7
  6
CONTINUOUS
 10
4.8269263624
 20
4.7617278961
 11
4.8241926824
 21
4.7556920255
  0
LINE
  5
22F
100
AcDbEntity
  8
ALL_ASSEMBLY_MEMBERS
100
AcDbLine
 62
7
  6
CONTINUOUS
 10
4.8294979151
 20
4.7673257164
 11
4.8269263624
 21
4.7617278961
  0
LINE
  5
230
100
AcDbEntity
  8
ALL_ASSEMBLY_MEMBERS
100
AcDbLine
 62
7
  6
CONTINUOUS
 10
4.8319180685
 20
4.7725217229
 11
4.8294979151
 21
4.7673257164
  0
LINE
  5
231
100
AcDbEntity
  8
ALL_ASSEMBLY_MEMBERS
100
AcDbLine
 62
7
  6
CONTINUOUS
 10
4.8341948249
 20
4.7773443481
 11
4.8319180685
 21
4.7725217229
  0
LINE
  5
232
100
AcDbEntity
  8
ALL_ASSEMBLY_MEMBERS
100
AcDbLine
 62
7
  6
CONTINUOUS
 10
4.8363309791
 20
4.7818095967
 11
4.8341948249
 21
4.7773443481
  0
LINE
  5
233
100
AcDbEntity
  8
ALL_ASSEMBLY_MEMBERS
100
AcDbLine
 62
7
  6
CONTINUOUS
 10
4.8383246993
 20
4.7859229961
 11
4.8363309791
 21
4.7818095967
  0
LINE
  5
234
100
AcDbEntity
  8
ALL_ASSEMBLY_MEMBERS
100
AcDbLine
 62
7
  6
CONTINUOUS
 10
4.8401872394
 20
4.7897160926
 11
4.8383246993
 21
4.7859229961
  0
LINE
  5
235
100
AcDbEntity
  8
ALL_ASSEMBLY_MEMBERS
100
AcDbLine
 62
7
  6
CONTINUOUS
 10
4.8419279133
 20
4.7932137393
 11
4.8401872394
 21
4.7897160926
  0
LINE
  5
236
100
AcDbEntity
  8
ALL_ASSEMBLY_MEMBERS
100
AcDbLine
 62
7
  6
CONTINUOUS
 10
4.8435579949
 20
4.7964424152
 11
4.8419279133
 21
4.7932137393
  0
LINE
  5
237
100
AcDbEntity
  8
ALL_ASSEMBLY_MEMBERS
100
AcDbLine
 62
7
  6
CONTINUOUS
 10
4.8451183133
 20
4.7994842313
 11
4.8435579949
 21
4.7964424152
  0
LWPOLYLINE
  5
238
100
AcDbEntity
  8
ALL_ASSEMBLY_MEMBERS
100
AcDbPolyline
 62
7
  6
CONTINUOUS
 90
7
 70
0
 10
4.8505774072
 20
4.8096161389
 10
4.8498063384
 20
4.8082441322
 10
4.8490146656
 20
4.8068134136
 10
4.8482371103
 20
4.8053868344
 10
4.8474361213
 20
4.8038968638
 10
4.8466436365
 20
4.8024040361
 10
4.8451183133
 20
4.7994842313
  0
LWPOLYLINE
  5
239
100
AcDbEntity
  8
ALL_ASSEMBLY_MEMBERS
100
AcDbPolyline
 62
7
  6
CONTINUOUS
 90
5
 70
0
 10
4.8517317826
 20
4.8116312458
 10
4.8518714586
 20
4.8118758822
 10
4.851863055
 20
4.8118615324
 10
4.8516065106
 20
4.8114168126
 10
4.8505774072
 20
4.8096161389
  0
LINE
  5
23A
100
AcDbEntity
  8
ALL_ASSEMBLY_MEMBERS
100
AcDbLine
 62
7
  6
CONTINUOUS
 10
5.0272903727
 20
4.3213625681
 11
5.0272903727
 21
5.315305251
  0
LINE
  5
23B
100
AcDbEntity
  8
ALL_ASSEMBLY_MEMBERS
100
AcDbLine
 62
7
  6
CONTINUOUS
 10
4.812573536
 20
4.7290552832
 11
4.458929434
 21
4.7290553524
  0
LINE
  5
23C
100
AcDbEntity
  8
ALL_ASSEMBLY_MEMBERS
100
AcDbLine
 62
7
  6
CONTINUOUS
 10
5.2479679058
 20
4.7290552089
 11
5.5956513489
 21
4.7290553524
  0
LWPOLYLINE
  5
23D
100
AcDbEntity
  8
ALL_ASSEMBLY_MEMBERS
100
AcDbPolyline
 62
7
  6
CONTINUOUS
 90
17
 70
0
 10
5.203449013
 20
4.8123227392
 10
5.2027011125
 20
4.813481434
 10
5.2019344246
 20
4.814656203
 10
5.2011162859
 20
4.8158946621
 10
5.2002449393
 20
4.8171957954
 10
5.1993204
 20
4.8185554748
 10
5.1983103508
 20
4.8200155501
 10
5.197182266
 20
4.8216141196
 10
5.1959603848
 20
4.8233066686
 10
5.1946963972
 20
4.8250146018
 10
5.1933634038
 20
4.8267687037
 10
5.1919805518
 20
4.8285388586
 10
5.190676825
 20
4.8301631703
 10
5.1894573118
 20
4.8316448785
 10
5.188323649
 20
4.832990848
 10
5.1874100166
 20
4.834054403
 10
5.1868257271
 20
4.834725073
  0
LINE
  5
23E
100
AcDbEntity
  8
ALL_ASSEMBLY_MEMBERS
100
AcDbLine
 62
7
  6
CONTINUOUS
 10
5.2049022522
 20
4.810037316
 11
5.203449013
 21
4.8123227392
  0
LINE
  5
23F
100
AcDbEntity
  8
ALL_ASSEMBLY_MEMBERS
100
AcDbLine
 62
7
  6
CONTINUOUS
 10
5.2063293519
 20
4.8077523508
 11
5.2049022522
 21
4.810037316
  0
LINE
  5
240
100
AcDbEntity
  8
ALL_ASSEMBLY_MEMBERS
100
AcDbLine
 62
7
  6
CONTINUOUS
 10
5.2077538955
 20
4.8054346654
 11
5.2063293519
 21
4.8077523508
  0
LINE
  5
241
100
AcDbEntity
  8
ALL_ASSEMBLY_MEMBERS
100
AcDbLine
 62
7
  6
CONTINUOUS
 10
5.2091961068
 20
4.8030538746
 11
5.2077538955
 21
4.8054346654
  0
LINE
  5
242
100
AcDbEntity
  8
ALL_ASSEMBLY_MEMBERS
100
AcDbLine
 62
7
  6
CONTINUOUS
 10
5.2106842429
 20
4.8005638532
 11
5.2091961068
 21
4.8030538746
  0
LINE
  5
243
100
AcDbEntity
  8
ALL_ASSEMBLY_MEMBERS
100
AcDbLine
 62
7
  6
CONTINUOUS
 10
5.2122326548
 20
4.7979389108
 11
5.2106842429
 21
4.8005638532
  0
LINE
  5
244
100
AcDbEntity
  8
ALL_ASSEMBLY_MEMBERS
100
AcDbLine
 62
7
  6
CONTINUOUS
 10
5.2138568557
 20
4.7951497547
 11
5.2122326548
 21
4.7979389108
  0
LINE
  5
245
100
AcDbEntity
  8
ALL_ASSEMBLY_MEMBERS
100
AcDbLine
 62
7
  6
CONTINUOUS
 10
5.215562092
 20
4.7921836189
 11
5.2138568557
 21
4.7951497547
  0
LINE
  5
246
100
AcDbEntity
  8
ALL_ASSEMBLY_MEMBERS
100
AcDbLine
 62
7
  6
CONTINUOUS
 10
5.2173541071
 20
4.7890262813
 11
5.215562092
 21
4.7921836189
  0
LINE
  5
247
100
AcDbEntity
  8
ALL_ASSEMBLY_MEMBERS
100
AcDbLine
 62
7
  6
CONTINUOUS
 10
5.2192407882
 20
4.7856590059
 11
5.2173541071
 21
4.7890262813
  0
LINE
  5
248
100
AcDbEntity
  8
ALL_ASSEMBLY_MEMBERS
100
AcDbLine
 62
7
  6
CONTINUOUS
 10
5.2212299562
 20
4.7820622548
 11
5.2192407882
 21
4.7856590059
  0
LINE
  5
249
100
AcDbEntity
  8
ALL_ASSEMBLY_MEMBERS
100
AcDbLine
 62
7
  6
CONTINUOUS
 10
5.2233276852
 20
4.7782187172
 11
5.2212299562
 21
4.7820622548
  0
LINE
  5
24A
100
AcDbEntity
  8
ALL_ASSEMBLY_MEMBERS
100
AcDbLine
 62
7
  6
CONTINUOUS
 10
5.2255423559
 20
4.7741057451
 11
5.2233276852
 21
4.7782187172
  0
LINE
  5
24B
100
AcDbEntity
  8
ALL_ASSEMBLY_MEMBERS
100
AcDbLine
 62
7
  6
CONTINUOUS
 10
5.2278754438
 20
4.7697121522
 11
5.2255423559
 21
4.7741057451
  0
LINE
  5
24C
100
AcDbEntity
  8
ALL_ASSEMBLY_MEMBERS
100
AcDbLine
 62
7
  6
CONTINUOUS
 10
5.2303287553
 20
4.765025221
 11
5.2278754438
 21
4.7697121522
  0
LINE
  5
24D
100
AcDbEntity
  8
ALL_ASSEMBLY_MEMBERS
100
AcDbLine
 62
7
  6
CONTINUOUS
 10
5.2329027626
 20
4.760033856
 11
5.2303287553
 21
4.765025221
  0
LINE
  5
24E
100
AcDbEntity
  8
ALL_ASSEMBLY_MEMBERS
100
AcDbLine
 62
7
  6
CONTINUOUS
 10
5.235599645
 20
4.7547228325
 11
5.2329027626
 21
4.760033856
  0
LINE
  5
24F
100
AcDbEntity
  8
ALL_ASSEMBLY_MEMBERS
100
AcDbLine
 62
7
  6
CONTINUOUS
 10
5.2384201421
 20
4.7490786567
 11
5.235599645
 21
4.7547228325
  0
LINE
  5
250
100
AcDbEntity
  8
ALL_ASSEMBLY_MEMBERS
100
AcDbLine
 62
7
  6
CONTINUOUS
 10
5.2413634675
 20
4.7430895538
 11
5.2384201421
 21
4.7490786567
  0
LINE
  5
251
100
AcDbEntity
  8
ALL_ASSEMBLY_MEMBERS
100
AcDbLine
 62
7
  6
CONTINUOUS
 10
5.2444273848
 20
4.7367441854
 11
5.2413634675
 21
4.7430895538
  0
LINE
  5
252
100
AcDbEntity
  8
ALL_ASSEMBLY_MEMBERS
100
AcDbLine
 62
7
  6
CONTINUOUS
 10
5.2476074574
 20
4.7300337311
 11
5.2444273848
 21
4.7367441854
  0
LINE
  5
253
100
AcDbEntity
  8
ALL_ASSEMBLY_MEMBERS
100
AcDbLine
 62
7
  6
CONTINUOUS
 10
5.2508948666
 20
4.722957462
 11
5.2476074574
 21
4.7300337311
  0
LINE
  5
254
100
AcDbEntity
  8
ALL_ASSEMBLY_MEMBERS
100
AcDbLine
 62
7
  6
CONTINUOUS
 10
5.2542801366
 20
4.7155153281
 11
5.2508948666
 21
4.722957462
  0
LINE
  5
255
100
AcDbEntity
  8
ALL_ASSEMBLY_MEMBERS
100
AcDbLine
 62
7
  6
CONTINUOUS
 10
5.2577535718
 20
4.7077071075
 11
5.2542801366
 21
4.7155153281
  0
LWPOLYLINE
  5
256
100
AcDbEntity
  8
ALL_ASSEMBLY_MEMBERS
100
AcDbPolyline
 62
7
  6
CONTINUOUS
 90
62
 70
0
 10
5.3453560328
 20
4.2521139513
 10
5.3453186017
 20
4.2574042487
 10
5.3451614346
 20
4.268907847
 10
5.3449312444
 20
4.2802716702
 10
5.3446297377
 20
4.291493534
 10
5.3442583272
 20
4.3025770491
 10
5.3438185468
 20
4.3135178243
 10
5.3433119229
 20
4.3243115213
 10
5.3427395124
 20
4.3349620539
 10
5.3421026478
 20
4.3454656584
 10
5.3414026544
 20
4.3558186793
 10
5.3406402455
 20
4.366025356
 10
5.3398165299
 20
4.3760828003
 10
5.3389326582
 20
4.3859876215
 10
5.337989098
 20
4.3957434004
 10
5.3369865816
 20
4.405349538
 10
5.3359263683
 20
4.4148014314
 10
5.3348106428
 20
4.4240978645
 10
5.3336423387
 20
4.4332374683
 10
5.3324240544
 20
4.4422211731
 10
5.331158004
 20
4.4510518859
 10
5.3298468564
 20
4.4597286172
 10
5.328492936
 20
4.4682523443
 10
5.3270976653
 20
4.4766288581
 10
5.3256632576
 20
4.4848582438
 10
5.3241918763
 20
4.4929406047
 10
5.3226845588
 20
4.5008816377
 10
5.3211432405
 20
4.5086815201
 10
5.3195698089
 20
4.5163404737
 10
5.317964931
 20
4.5238641676
 10
5.3163301732
 20
4.53125336
 10
5.3146672598
 20
4.5385079241
 10
5.312976847
 20
4.5456320865
 10
5.3112600528
 20
4.5526276018
 10
5.3095186519
 20
4.5594942131
 10
5.3077543034
 20
4.5662344707
 10
5.3059683031
 20
4.5728525508
 10
5.3041624273
 20
4.5793506583
 10
5.3023391553
 20
4.5857285287
 10
5.3004998858
 20
4.5919897354
 10
5.2986461717
 20
4.5981371448
 10
5.2967808022
 20
4.6041695403
 10
5.29490532
 20
4.610089838
 10
5.293021036
 20
4.6159015043
 10
5.2911304916
 20
4.6216041239
 10
5.289235032
 20
4.6272008881
 10
5.2873360663
 20
4.6326946036
 10
5.2854363594
 20
4.6380840946
 10
5.2835372836
 20
4.6433721376
 10
5.2816401535
 20
4.6485614751
 10
5.2797477894
 20
4.6536506418
 10
5.2778622813
 20
4.6586401604
 10
5.2759841787
 20
4.6635344633
 10
5.2741138777
 20
4.6683378089
 10
5.2722516953
 20
4.6730532525
 10
5.2703986315
 20
4.6776815899
 10
5.2685557276
 20
4.6822233635
 10
5.2667233016
 20
4.6866807233
 10
5.2649021244
 20
4.6910545185
 10
5.2630939349
 20
4.6953431625
 10
5.2612986354
 20
4.6995493129
 10
5.2577535718
 20
4.7077071075
  0
ARC
  5
257
100
AcDbEntity
  8
ALL_ASSEMBLY_MEMBERS
100
AcDbCircle
 62
7
  6
CONTINUOUS
 10
5.0272903727
 20
4.7290553524
 40
0.7125
100
AcDbArc
 50
297.6989375416
 51
242.3037969193
  0
ARC
  5
258
100
AcDbEntity
  8
ALL_ASSEMBLY_MEMBERS
100
AcDbCircle
 62
7
  6
CONTINUOUS
 10
5.0272903727
 20
4.7290553524
 40
0.6465838329
100
AcDbArc
 50
303.2279138004
 51
236.7734769991
  0
ARC
  5
259
100
AcDbEntity
  8
ALL_ASSEMBLY_MEMBERS
100
AcDbCircle
 62
7
  6
CONTINUOUS
 10
5.0272903727
 20
4.7290553524
 40
0.6265
100
AcDbArc
 50
303.7875830421
 51
236.2164434042
  0
ARC
  5
25A
100
AcDbEntity
  8
ALL_ASSEMBLY_MEMBERS
100
AcDbCircle
 62
7
  6
CONTINUOUS
 10
5.0272903727
 20
4.7290553524
 40
0.58625
100
AcDbArc
 50
303.9275105631
 51
236.0737480021
  0
ARC
  5
25B
100
AcDbEntity
  8
ALL_ASSEMBLY_MEMBERS
100
AcDbCircle
 62
7
  6
CONTINUOUS
 10
4.8045623729
 20
4.1556362977
 40
0.1351650713
100
AcDbArc
 50
118.1741062976
 51
120.9088452904
  0
ARC
  5
25C
100
AcDbEntity
  8
ALL_ASSEMBLY_MEMBERS
100
AcDbCircle
 62
7
  6
CONTINUOUS
 10
5.2522604968
 20
4.1595925541
 40
0.1306189849
100
AcDbArc
 50
59.0435550244
 51
61.8734933875
  0
SPLINE
  5
25D
100
AcDbEntity
  8
ALL_ASSEMBLY_MEMBERS
100
AcDbSpline
 62
7
  6
CONTINUOUS
 70
0
 71
3
 72
49
 73
45
 74
0
 42
0.0000001
 43
0.0000001
 44
0.0000000001
 40
0.0
 40
0.0
 40
0.0
 40
0.0
 40
0.0088307183
 40
0.0182007687
 40
0.0281136908
 40
0.0385701492
 40
0.0495674157
 40
0.0611005377
 40
0.0731625951
 40
0.0857443118
 40
0.0988352503
 40
0.1124231923
 40
0.1410334974
 40
0.1714544328
 40
0.2035472549
 40
0.2371590504
 40
0.2721248248
 40
0.3082694693
 40
0.3454093448
 40
0.3833537091
 40
0.4219061752
 40
0.4608662546
 40
0.5000307094
 40
0.5391948793
 40
0.5781541056
 40
0.6167051562
 40
0.6546475525
 40
0.6917849213
 40
0.727926537
 40
0.7628887825
 40
0.7964965758
 40
0.8285849534
 40
0.8590010369
 40
0.887606125
 40
0.9011913386
 40
0.9142794754
 40
0.9268583285
 40
0.938917467
 40
0.950447624
 40
0.9614418936
 40
0.9718953321
 40
0.981805229
 40
0.9911722658
 40
1.0
 40
1.0
 40
1.0
 40
1.0
 10
5.3248120539
 20
4.2682853465
 30
0.0
 10
5.3233138423
 20
4.2692760627
 30
0.0
 10
5.3201723266
 20
4.2712377371
 30
0.0
 10
5.3151899871
 20
4.2740471487
 30
0.0
 10
5.3098054805
 20
4.2768065925
 30
0.0
 10
5.3040262111
 20
4.2795119184
 30
0.0
 10
5.2978601355
 20
4.2821596455
 30
0.0
 10
5.2913157373
 20
4.2847460419
 30
0.0
 10
5.2844020284
 20
4.2872673658
 30
0.0
 10
5.2771286552
 20
4.2897203066
 30
0.0
 10
5.2695056696
 20
4.2921012622
 30
0.0
 10
5.258703069
 20
4.2952293776
 30
0.0
 10
5.2443967234
 20
4.2989180657
 30
0.0
 10
5.2262998761
 20
4.3029356479
 30
0.0
 10
5.20709067
 20
4.3065940731
 30
0.0
 10
5.1868763202
 20
4.3098725699
 30
0.0
 10
5.1657695125
 20
4.3127525049
 30
0.0
 10
5.1438881364
 20
4.3152175124
 30
0.0
 10
5.1213544557
 20
4.3172535672
 30
0.0
 10
5.0982944699
 20
4.318849089
 30
0.0
 10
5.0748371789
 20
4.3199950734
 30
0.0
 10
5.0511138267
 20
4.3206850303
 30
0.0
 10
5.0272571558
 20
4.320915036
 30
0.0
 10
5.0034006708
 20
4.3206837478
 30
0.0
 10
4.9796778751
 20
4.3199925153
 30
0.0
 10
4.9562215084
 20
4.3188452698
 30
0.0
 10
4.9331628091
 20
4.3172485088
 30
0.0
 10
4.9106307698
 20
4.3152112439
 30
0.0
 10
4.888751381
 20
4.3127450612
 30
0.0
 10
4.867646895
 20
4.3098639933
 30
0.0
 10
4.847435188
 20
4.3065844125
 30
0.0
 10
4.8282289302
 20
4.3029249588
 30
0.0
 10
4.8101353203
 20
4.2989064087
 30
0.0
 10
4.7958318634
 20
4.2952169347
 30
0.0
 10
4.7850317117
 20
4.2920882197
 30
0.0
 10
4.7774106426
 20
4.2897068536
 30
0.0
 10
4.7701392433
 20
4.2872535225
 30
0.0
 10
4.763227563
 20
4.2847318275
 30
0.0
 10
4.7566852457
 20
4.2821450789
 30
0.0
 10
4.7505212992
 20
4.2794970216
 30
0.0
 10
4.7447442051
 20
4.2767913845
 30
0.0
 10
4.739361916
 20
4.2740316509
 30
0.0
 10
4.7343818329
 20
4.2712219716
 30
0.0
 10
4.7312418693
 20
4.2692601118
 30
0.0
 10
4.7297444437
 20
4.2682693074
 30
0.0
  0
SPLINE
  5
25E
100
AcDbEntity
  8
ALL_ASSEMBLY_MEMBERS
100
AcDbSpline
 62
7
  6
CONTINUOUS
 70
0
 71
3
 72
22
 73
18
 74
0
 42
0.0000001
 43
0.0000001
 44
0.0000000001
 40
0.0
 40
0.0
 40
0.0
 40
0.0
 40
0.112810862
 40
0.1702820379
 40
0.2286062128
 40
0.2878996564
 40
0.3482851021
 40
0.4097488487
 40
0.4722609547
 40
0.5358119253
 40
0.6003000138
 40
0.6656248221
 40
0.7316773556
 40
0.7982509634
 40
0.8651575386
 40
0.9323765142
 40
1.0
 40
1.0
 40
1.0
 40
1.0
 10
5.3248013364
 20
4.2682958324
 30
0.0
 10
5.3285996999
 20
4.2657838851
 30
0.0
 10
5.3341876558
 20
4.2617629559
 30
0.0
 10
5.3413082867
 20
4.2558892155
 30
0.0
 10
5.3465399085
 20
4.2511323078
 30
0.0
 10
5.3516015581
 20
4.2460275374
 30
0.0
 10
5.3564603659
 20
4.2405579078
 30
0.0
 10
5.3610755266
 20
4.2347140566
 30
0.0
 10
5.3653979869
 20
4.2284934735
 30
0.0
 10
5.3693734059
 20
4.2219019864
 30
0.0
 10
5.3729539283
 20
4.2149594106
 30
0.0
 10
5.3760854074
 20
4.2076922624
 30
0.0
 10
5.3787152864
 20
4.2001394269
 30
0.0
 10
5.3808111414
 20
4.1923549646
 30
0.0
 10
5.382333364
 20
4.1843897903
 30
0.0
 10
5.3832568505
 20
4.1762909161
 30
0.0
 10
5.3834635502
 20
4.1708454713
 30
0.0
 10
5.3834635502
 20
4.1681157126
 30
0.0
  0
SPLINE
  5
25F
100
AcDbEntity
  8
ALL_ASSEMBLY_MEMBERS
100
AcDbSpline
 62
7
  6
CONTINUOUS
 70
0
 71
3
 72
24
 73
20
 74
0
 42
0.0000001
 43
0.0000001
 44
0.0000000001
 40
0.0
 40
0.0
 40
0.0
 40
0.0
 40
0.0676814494
 40
0.1348600004
 40
0.2017028749
 40
0.2682484135
 40
0.3343086414
 40
0.3670890763
 40
0.3996627652
 40
0.4641479992
 40
0.5277044032
 40
0.5902217736
 40
0.6516524219
 40
0.7120395256
 40
0.7713883048
 40
0.8296990882
 40
0.887124034
 40
0.9438416676
 40
1.0
 40
1.0
 40
1.0
 40
1.0
 10
4.6711171952
 20
4.1681157126
 30
0.0
 10
4.6711171952
 20
4.1708469177
 30
0.0
 10
4.6713231599
 20
4.1762913135
 30
0.0
 10
4.6722459577
 20
4.1843857232
 30
0.0
 10
4.6737671869
 20
4.1923429953
 30
0.0
 10
4.6758618504
 20
4.2001213729
 30
0.0
 10
4.678057774
 20
4.2064302503
 30
0.0
 10
4.6800666385
 20
4.211339148
 30
0.0
 10
4.6822228195
 20
4.2161154907
 30
0.0
 10
4.6851958118
 20
4.2218810206
 30
0.0
 10
4.6891695312
 20
4.2284707092
 30
0.0
 10
4.6934866487
 20
4.2346909215
 30
0.0
 10
4.6980989029
 20
4.2405326965
 30
0.0
 10
4.7029569546
 20
4.2460010629
 30
0.0
 10
4.7080169839
 20
4.2511065741
 30
0.0
 10
4.7132424765
 20
4.255866208
 30
0.0
 10
4.7186101605
 20
4.2602994479
 30
0.0
 10
4.7241030283
 20
4.2644329002
 30
0.0
 10
4.7278545611
 20
4.2670187219
 30
0.0
 10
4.7297444452
 20
4.2682693278
 30
0.0
  0
SPLINE
  5
260
100
AcDbEntity
  8
ALL_ASSEMBLY_MEMBERS
100
AcDbSpline
 62
7
  6
CONTINUOUS
 70
0
 71
3
 72
51
 73
47
 74
0
 42
0.0000001
 43
0.0000001
 44
0.0000000001
 40
0.0
 40
0.0
 40
0.0
 40
0.0
 40
0.0077403192
 40
0.0160538837
 40
0.0249600579
 40
0.0344714412
 40
0.0445947809
 40
0.055331532
 40
0.0666798367
 40
0.078633854
 40
0.0911850666
 40
0.1043227196
 40
0.1180332363
 40
0.1323017151
 40
0.1624414003
 40
0.1945897582
 40
0.2285716571
 40
0.2641942328
 40
0.3012497578
 40
0.339518047
 40
0.3787685982
 40
0.4187628038
 40
0.4592561147
 40
0.5
 40
0.5407438853
 40
0.5812371962
 40
0.6212314018
 40
0.660481953
 40
0.6987502422
 40
0.7358057672
 40
0.7714283429
 40
0.8054102418
 40
0.8375585997
 40
0.8676982849
 40
0.8819667637
 40
0.8956772804
 40
0.9088149334
 40
0.921366146
 40
0.9333201633
 40
0.944668468
 40
0.9554052191
 40
0.9655285588
 40
0.9750399421
 40
0.9839461163
 40
0.9922596808
 40
1.0
 40
1.0
 40
1.0
 40
1.0
 10
5.2946429301
 20
4.1173308054
 30
0.0
 10
5.2935992005
 20
4.1183021286
 30
0.0
 10
5.2913523754
 20
4.1202296005
 30
0.0
 10
5.2876663239
 20
4.1229822693
 30
0.0
 10
5.2835531101
 20
4.1256935796
 30
0.0
 10
5.2790193444
 20
4.1283590791
 30
0.0
 10
5.2740720589
 20
4.1309746493
 30
0.0
 10
5.2687192416
 20
4.1335363783
 30
0.0
 10
5.2629693561
 20
4.1360398179
 30
0.0
 10
5.2568317714
 20
4.1384811013
 30
0.0
 10
5.25031643
 20
4.1408562062
 30
0.0
 10
5.2434339158
 20
4.1431610339
 30
0.0
 10
5.2361955173
 20
4.1453920953
 30
0.0
 10
5.2258964353
 20
4.1483166879
 30
0.0
 10
5.212213019
 20
4.1517423227
 30
0.0
 10
5.1948650051
 20
4.1554327651
 30
0.0
 10
5.1764148884
 20
4.1587495723
 30
0.0
 10
5.1569838544
 20
4.1616705425
 30
0.0
 10
5.1366993434
 20
4.1641760474
 30
0.0
 10
5.115694674
 20
4.1662492613
 30
0.0
 10
5.0941080001
 20
4.1678762974
 30
0.0
 10
5.0720813972
 20
4.1690463089
 30
0.0
 10
5.0497598662
 20
4.1697514748
 30
0.0
 10
5.0272903727
 20
4.1699870675
 30
0.0
 10
5.0048208791
 20
4.1697514748
 30
0.0
 10
4.9824993481
 20
4.1690463089
 30
0.0
 10
4.9604727452
 20
4.1678762974
 30
0.0
 10
4.9388860713
 20
4.1662492613
 30
0.0
 10
4.9178814019
 20
4.1641760474
 30
0.0
 10
4.897596891
 20
4.1616705425
 30
0.0
 10
4.8781658569
 20
4.1587495723
 30
0.0
 10
4.8597157403
 20
4.1554327651
 30
0.0
 10
4.8423677263
 20
4.1517423227
 30
0.0
 10
4.82868431
 20
4.1483166879
 30
0.0
 10
4.818385228
 20
4.1453920953
 30
0.0
 10
4.8111468295
 20
4.1431610339
 30
0.0
 10
4.8042643154
 20
4.1408562062
 30
0.0
 10
4.797748974
 20
4.1384811013
 30
0.0
 10
4.7916113892
 20
4.1360398179
 30
0.0
 10
4.7858615037
 20
4.1335363783
 30
0.0
 10
4.7805086865
 20
4.1309746493
 30
0.0
 10
4.7755614009
 20
4.1283590791
 30
0.0
 10
4.7710276353
 20
4.1256935796
 30
0.0
 10
4.7669144214
 20
4.1229822693
 30
0.0
 10
4.7632283699
 20
4.1202296005
 30
0.0
 10
4.7609815448
 20
4.1183021286
 30
0.0
 10
4.7599378153
 20
4.1173308054
 30
0.0
  0
SPLINE
  5
261
100
AcDbEntity
  8
ALL_ASSEMBLY_MEMBERS
100
AcDbSpline
 62
7
  6
CONTINUOUS
 70
0
 71
3
 72
22
 73
18
 74
0
 42
0.0000001
 43
0.0000001
 44
0.0000000001
 40
0.0
 40
0.0
 40
0.0
 40
0.0
 40
0.112810862
 40
0.1702820379
 40
0.2286062128
 40
0.2878996564
 40
0.3482851021
 40
0.4097488487
 40
0.4722609547
 40
0.5358119253
 40
0.6003000138
 40
0.6656248221
 40
0.7316773556
 40
0.7982509634
 40
0.8651575386
 40
0.9323765142
 40
1.0
 40
1.0
 40
1.0
 40
1.0
 10
4.7297794089
 20
4.0679355929
 30
0.0
 10
4.7259810455
 20
4.0704475402
 30
0.0
 10
4.7203930895
 20
4.0744684694
 30
0.0
 10
4.7132724587
 20
4.0803422098
 30
0.0
 10
4.7080408369
 20
4.0850991175
 30
0.0
 10
4.7029791872
 20
4.0902038879
 30
0.0
 10
4.6981203794
 20
4.0956735175
 30
0.0
 10
4.6935052188
 20
4.1015173687
 30
0.0
 10
4.6891827584
 20
4.1077379518
 30
0.0
 10
4.6852073395
 20
4.1143294389
 30
0.0
 10
4.681626817
 20
4.1212720147
 30
0.0
 10
4.678495338
 20
4.1285391629
 30
0.0
 10
4.6758654589
 20
4.1360919984
 30
0.0
 10
4.673769604
 20
4.1438764607
 30
0.0
 10
4.6722473813
 20
4.151841635
 30
0.0
 10
4.6713238949
 20
4.1599405092
 30
0.0
 10
4.6711171952
 20
4.165385954
 30
0.0
 10
4.6711171952
 20
4.1681157126
 30
0.0
  0
SPLINE
  5
262
100
AcDbEntity
  8
ALL_ASSEMBLY_MEMBERS
100
AcDbSpline
 62
7
  6
CONTINUOUS
 70
0
 71
3
 72
49
 73
45
 74
0
 42
0.0000001
 43
0.0000001
 44
0.0000000001
 40
0.0
 40
0.0
 40
0.0
 40
0.0
 40
0.0088277342
 40
0.018194771
 40
0.0281046679
 40
0.0385581064
 40
0.049552376
 40
0.061082533
 40
0.0731416715
 40
0.0857205246
 40
0.0988086614
 40
0.112393875
 40
0.1409989631
 40
0.1714150466
 40
0.2035034242
 40
0.2371112175
 40
0.272073463
 40
0.3082150787
 40
0.3453524475
 40
0.3832948438
 40
0.4218458944
 40
0.4608051207
 40
0.4999692906
 40
0.5391337454
 40
0.5780938248
 40
0.6166462909
 40
0.6545906552
 40
0.6917305307
 40
0.7278751752
 40
0.7628409496
 40
0.7964527451
 40
0.8285455672
 40
0.8589665026
 40
0.8875768077
 40
0.9011647497
 40
0.9142556882
 40
0.9268374049
 40
0.9388994623
 40
0.9504325843
 40
0.9614298508
 40
0.9718863092
 40
0.9817992313
 40
0.9911692817
 40
1.0
 40
1.0
 40
1.0
 40
1.0
 10
5.3248363016
 20
4.0679621179
 30
0.0
 10
5.3233388761
 20
4.0669713135
 30
0.0
 10
5.3201989125
 20
4.0650094537
 30
0.0
 10
5.3152188293
 20
4.0621997744
 30
0.0
 10
5.3098365402
 20
4.0594400408
 30
0.0
 10
5.3040594461
 20
4.0567344037
 30
0.0
 10
5.2978954997
 20
4.0540863464
 30
0.0
 10
5.2913531823
 20
4.0514995978
 30
0.0
 10
5.2844415021
 20
4.0489779028
 30
0.0
 10
5.2771701027
 20
4.0465245717
 30
0.0
 10
5.2695490336
 20
4.0441432056
 30
0.0
 10
5.258748882
 20
4.0410144906
 30
0.0
 10
5.244445425
 20
4.0373250166
 30
0.0
 10
5.2263518151
 20
4.0333064665
 30
0.0
 10
5.2071455574
 20
4.0296470128
 30
0.0
 10
5.1869338503
 20
4.026367432
 30
0.0
 10
5.1658293643
 20
4.0234863641
 30
0.0
 10
5.1439499755
 20
4.0210201814
 30
0.0
 10
5.1214179362
 20
4.0189829165
 30
0.0
 10
5.0983592369
 20
4.0173861555
 30
0.0
 10
5.0749028702
 20
4.01623891
 30
0.0
 10
5.0511800745
 20
4.0155476775
 30
0.0
 10
5.0273235896
 20
4.0153163893
 30
0.0
 10
5.0034669187
 20
4.015546395
 30
0.0
 10
4.9797435664
 20
4.0162363519
 30
0.0
 10
4.9562862754
 20
4.0173823363
 30
0.0
 10
4.9332262897
 20
4.0189778581
 30
0.0
 10
4.910692609
 20
4.0210139129
 30
0.0
 10
4.8888112329
 20
4.0234789204
 30
0.0
 10
4.8677044251
 20
4.0263588554
 30
0.0
 10
4.8474900754
 20
4.0296373522
 30
0.0
 10
4.8282808693
 20
4.0332957774
 30
0.0
 10
4.8101840219
 20
4.0373133596
 30
0.0
 10
4.7958776763
 20
4.0410020477
 30
0.0
 10
4.7850750757
 20
4.0441301631
 30
0.0
 10
4.7774520901
 20
4.0465111187
 30
0.0
 10
4.7701787169
 20
4.0489640595
 30
0.0
 10
4.7632650081
 20
4.0514853834
 30
0.0
 10
4.7567206099
 20
4.0540717798
 30
0.0
 10
4.7505545343
 20
4.0567195069
 30
0.0
 10
4.7447752649
 20
4.0594248328
 30
0.0
 10
4.7393907582
 20
4.0621842766
 30
0.0
 10
4.7344084187
 20
4.0649936882
 30
0.0
 10
4.7312669031
 20
4.0669553626
 30
0.0
 10
4.7297686915
 20
4.0679460788
 30
0.0
  0
SPLINE
  5
263
100
AcDbEntity
  8
ALL_ASSEMBLY_MEMBERS
100
AcDbSpline
 62
7
  6
CONTINUOUS
 70
0
 71
3
 72
24
 73
20
 74
0
 42
0.0000001
 43
0.0000001
 44
0.0000000001
 40
0.0
 40
0.0
 40
0.0
 40
0.0
 40
0.0676814494
 40
0.1348600004
 40
0.2017028749
 40
0.2682484135
 40
0.3343086414
 40
0.3670890763
 40
0.3996627652
 40
0.4641479992
 40
0.5277044032
 40
0.5902217736
 40
0.6516524219
 40
0.7120395256
 40
0.7713883048
 40
0.8296990882
 40
0.887124034
 40
0.9438416676
 40
1.0
 40
1.0
 40
1.0
 40
1.0
 10
5.3834635502
 20
4.1681157126
 30
0.0
 10
5.3834635502
 20
4.1653845076
 30
0.0
 10
5.3832575854
 20
4.1599401118
 30
0.0
 10
5.3823347877
 20
4.1518457021
 30
0.0
 10
5.3808135584
 20
4.14388843
 30
0.0
 10
5.3787188949
 20
4.1361100524
 30
0.0
 10
5.3765229713
 20
4.129801175
 30
0.0
 10
5.3745141068
 20
4.1248922773
 30
0.0
 10
5.3723579259
 20
4.1201159346
 30
0.0
 10
5.3693849335
 20
4.1143504047
 30
0.0
 10
5.3654112141
 20
4.1077607161
 30
0.0
 10
5.3610940966
 20
4.1015405038
 30
0.0
 10
5.3564818424
 20
4.0956987288
 30
0.0
 10
5.3516237907
 20
4.0902303624
 30
0.0
 10
5.3465637615
 20
4.0851248512
 30
0.0
 10
5.3413382688
 20
4.0803652173
 30
0.0
 10
5.3359705849
 20
4.0759319774
 30
0.0
 10
5.330477717
 20
4.0717985251
 30
0.0
 10
5.3267261842
 20
4.0692127034
 30
0.0
 10
5.3248363001
 20
4.0679620975
 30
0.0
  0
SPLINE
  5
264
100
AcDbEntity
  8
ALL_ASSEMBLY_MEMBERS
100
AcDbSpline
 62
7
  6
CONTINUOUS
 70
0
 71
3
 72
15
 73
11
 74
0
 42
0.0000001
 43
0.0000001
 44
0.0000000001
 40
0.0
 40
0.0
 40
0.0
 40
0.0
 40
0.1090070644
 40
0.2197704873
 40
0.3339039867
 40
0.4528768766
 40
0.5779788818
 40
0.7103002197
 40
0.8507386095
 40
1.0
 40
1.0
 40
1.0
 40
1.0
 10
5.3047903727
 20
4.0980860902
 30
0.0
 10
5.3047903727
 20
4.0988992688
 30
0.0
 10
5.3046818684
 20
4.1005406925
 30
0.0
 10
5.3041962355
 20
4.1029902561
 30
0.0
 10
5.303389088
 20
4.105431716
 30
0.0
 10
5.3022624355
 20
4.1078606753
 30
0.0
 10
5.3008193277
 20
4.1102746553
 30
0.0
 10
5.2990624115
 20
4.1126715966
 30
0.0
 10
5.2969941671
 20
4.1150492565
 30
0.0
 10
5.2954580381
 20
4.1165722438
 30
0.0
 10
5.2946429301
 20
4.1173308054
 30
0.0
  0
SPLINE
  5
265
100
AcDbEntity
  8
ALL_ASSEMBLY_MEMBERS
100
AcDbSpline
 62
7
  6
CONTINUOUS
 70
0
 71
3
 72
63
 73
59
 74
0
 42
0.0000001
 43
0.0000001
 44
0.0000000001
 40
0.0
 40
0.0
 40
0.0
 40
0.0
 40
0.0029531662
 40
0.0059317262
 40
0.0089592785
 40
0.0120582116
 40
0.0185466617
 40
0.0255467424
 40
0.0331698567
 40
0.041496458
 40
0.0505825295
 40
0.0604645812
 40
0.0711643368
 40
0.082691899
 40
0.0950479779
 40
0.1082262429
 40
0.1222138119
 40
0.1369933089
 40
0.1525423245
 40
0.1688354108
 40
0.1858430525
 40
0.2035335154
 40
0.2218717588
 40
0.2408209566
 40
0.2803914801
 40
0.3219108867
 40
0.3650184141
 40
0.4093338159
 40
0.4544624185
 40
0.5
 40
0.5455375815
 40
0.5906661841
 40
0.6349815859
 40
0.6780891133
 40
0.7196085199
 40
0.7591790434
 40
0.7781282412
 40
0.7964664846
 40
0.8141569475
 40
0.8311645892
 40
0.8474576755
 40
0.8630066911
 40
0.8777861881
 40
0.8917737571
 40
0.9049520221
 40
0.917308101
 40
0.9288356632
 40
0.9395354188
 40
0.9494174705
 40
0.958503542
 40
0.9668301433
 40
0.9744532576
 40
0.9814533383
 40
0.9879417884
 40
0.9910407215
 40
0.9940682738
 40
0.9970468338
 40
1.0
 40
1.0
 40
1.0
 40
1.0
 10
5.3047903727
 20
4.0980860902
 30
0.0
 10
5.3047903727
 20
4.0974980639
 30
0.0
 10
5.3047340263
 20
4.0963161986
 30
0.0
 10
5.3044812388
 20
4.0945477821
 30
0.0
 10
5.3040604027
 20
4.0927817086
 30
0.0
 10
5.3032641169
 20
4.0903964622
 30
0.0
 10
5.3018205986
 20
4.0874088294
 30
0.0
 10
5.2994534114
 20
4.0839204412
 30
0.0
 10
5.2964349513
 20
4.0804764737
 30
0.0
 10
5.2927745096
 20
4.0770816146
 30
0.0
 10
5.2884803455
 20
4.0737410133
 30
0.0
 10
5.2835621432
 20
4.0704606879
 30
0.0
 10
5.2780307543
 20
4.0672473614
 30
0.0
 10
5.2718986495
 20
4.0641081385
 30
0.0
 10
5.2651799171
 20
4.0610501081
 30
0.0
 10
5.2578901377
 20
4.0580806779
 30
0.0
 10
5.2500464922
 20
4.0552066622
 30
0.0
 10
5.2416674892
 20
4.0524352949
 30
0.0
 10
5.2327730999
 20
4.0497729221
 30
0.0
 10
5.223384512
 20
4.0472263655
 30
0.0
 10
5.2135242133
 20
4.0448014279
 30
0.0
 10
5.2032158182
 20
4.0425043636
 30
0.0
 10
5.1924840538
 20
4.040340371
 30
0.0
 10
5.1774268101
 20
4.0376004071
 30
0.0
 10
5.1577358228
 20
4.0345640507
 30
0.0
 10
5.1331836346
 20
4.0315746461
 30
0.0
 10
5.1076138413
 20
4.0292185481
 30
0.0
 10
5.0812721813
 20
4.0275188629
 30
0.0
 10
5.054411632
 20
4.02649233
 30
0.0
 10
5.0272903727
 20
4.0261490274
 30
0.0
 10
5.0001691133
 20
4.02649233
 30
0.0
 10
4.973308564
 20
4.0275188629
 30
0.0
 10
4.9469669041
 20
4.0292185481
 30
0.0
 10
4.9213971107
 20
4.0315746461
 30
0.0
 10
4.8968449226
 20
4.0345640507
 30
0.0
 10
4.8771539352
 20
4.0376004071
 30
0.0
 10
4.8620966915
 20
4.040340371
 30
0.0
 10
4.8513649271
 20
4.0425043636
 30
0.0
 10
4.841056532
 20
4.0448014279
 30
0.0
 10
4.8311962333
 20
4.0472263655
 30
0.0
 10
4.8218076454
 20
4.0497729221
 30
0.0
 10
4.8129132562
 20
4.0524352949
 30
0.0
 10
4.8045342531
 20
4.0552066622
 30
0.0
 10
4.7966906077
 20
4.0580806779
 30
0.0
 10
4.7894008282
 20
4.0610501081
 30
0.0
 10
4.7826820958
 20
4.0641081385
 30
0.0
 10
4.776549991
 20
4.0672473614
 30
0.0
 10
4.7710186021
 20
4.0704606879
 30
0.0
 10
4.7661003998
 20
4.0737410133
 30
0.0
 10
4.7618062358
 20
4.0770816146
 30
0.0
 10
4.758145794
 20
4.0804764737
 30
0.0
 10
4.755127334
 20
4.0839204412
 30
0.0
 10
4.7527601467
 20
4.0874088294
 30
0.0
 10
4.7513166285
 20
4.0903964622
 30
0.0
 10
4.7505203427
 20
4.0927817086
 30
0.0
 10
4.7500995066
 20
4.0945477821
 30
0.0
 10
4.7498467191
 20
4.0963161986
 30
0.0
 10
4.7497903727
 20
4.0974980639
 30
0.0
 10
4.7497903727
 20
4.0980860902
 30
0.0
  0
SPLINE
  5
266
100
AcDbEntity
  8
ALL_ASSEMBLY_MEMBERS
100
AcDbSpline
 62
7
  6
CONTINUOUS
 70
0
 71
3
 72
15
 73
11
 74
0
 42
0.0000001
 43
0.0000001
 44
0.0000000001
 40
0.0
 40
0.0
 40
0.0
 40
0.0
 40
0.1492613905
 40
0.2896997803
 40
0.4220211182
 40
0.5471231234
 40
0.6660960133
 40
0.7802295127
 40
0.8909929356
 40
1.0
 40
1.0
 40
1.0
 40
1.0
 10
4.7599378153
 20
4.1173308054
 30
0.0
 10
4.7591227073
 20
4.1165722438
 30
0.0
 10
4.7575865782
 20
4.1150492565
 30
0.0
 10
4.7555183338
 20
4.1126715966
 30
0.0
 10
4.7537614177
 20
4.1102746553
 30
0.0
 10
4.7523183099
 20
4.1078606753
 30
0.0
 10
4.7511916573
 20
4.105431716
 30
0.0
 10
4.7503845098
 20
4.1029902561
 30
0.0
 10
4.749898877
 20
4.1005406925
 30
0.0
 10
4.7497903727
 20
4.0988992688
 30
0.0
 10
4.7497903727
 20
4.0980860902
 30
0.0
  0
SPLINE
  5
267
100
AcDbEntity
  8
ALL_ASSEMBLY_MEMBERS
100
AcDbSpline
 62
7
  6
CONTINUOUS
 70
0
 71
3
 72
17
 73
13
 74
0
 42
0.0000001
 43
0.0000001
 44
0.0000000001
 40
0.0
 40
0.0
 40
0.0
 40
0.0
 40
0.1613247615
 40
0.3100898758
 40
0.446936014
 40
0.5728083964
 40
0.6890244049
 40
0.7973632632
 40
0.849308493
 40
0.9001648134
 40
0.9502753598
 40
1.0
 40
1.0
 40
1.0
 40
1.0
 10
4.7297686915
 20
4.0679460788
 30
0.0
 10
4.7280281863
 20
4.0690970155
 30
0.0
 10
4.7247479823
 20
4.07141121
 30
0.0
 10
4.720277567
 20
4.0750856958
 30
0.0
 10
4.71646891
 20
4.078814538
 30
0.0
 10
4.7133302706
 20
4.0825924086
 30
0.0
 10
4.7108707893
 20
4.0864144591
 30
0.0
 10
4.7093744418
 20
4.089679634
 30
0.0
 10
4.7085483976
 20
4.0922855835
 30
0.0
 10
4.7081113437
 20
4.0942171079
 30
0.0
 10
4.7078488609
 20
4.0961508867
 30
0.0
 10
4.7077903727
 20
4.0974429355
 30
0.0
 10
4.7077903727
 20
4.0980860902
 30
0.0
  0
SPLINE
  5
268
100
AcDbEntity
  8
ALL_ASSEMBLY_MEMBERS
100
AcDbSpline
 62
7
  6
CONTINUOUS
 70
0
 71
3
 72
65
 73
61
 74
0
 42
0.0000001
 43
0.0000001
 44
0.0000000001
 40
0.0
 40
0.0
 40
0.0
 40
0.0
 40
0.0029532862
 40
0.0059318949
 40
0.0089594293
 40
0.0120582902
 40
0.0185465678
 40
0.0255466239
 40
0.0331697895
 40
0.0414963395
 40
0.0505824209
 40
0.0604643656
 40
0.0711641935
 40
0.0826916072
 40
0.095047787
 40
0.1082258641
 40
0.1222135578
 40
0.1369928445
 40
0.1525419881
 40
0.1688348602
 40
0.1858426131
 40
0.2035328781
 40
0.2218711993
 40
0.2408202299
 40
0.2603409782
 40
0.2803920672
 40
0.3219113735
 40
0.3650187917
 40
0.4093340751
 40
0.4544625507
 40
0.5
 40
0.5455374493
 40
0.5906659249
 40
0.6349812083
 40
0.6780886265
 40
0.7196079328
 40
0.7396590218
 40
0.7591797701
 40
0.7781288007
 40
0.7964671219
 40
0.8141573869
 40
0.8311651398
 40
0.8474580119
 40
0.8630071555
 40
0.8777864422
 40
0.8917741359
 40
0.904952213
 40
0.9173083928
 40
0.9288358065
 40
0.9395356344
 40
0.9494175791
 40
0.9585036605
 40
0.9668302105
 40
0.9744533761
 40
0.9814534322
 40
0.9879417098
 40
0.9910405707
 40
0.9940681051
 40
0.9970467138
 40
1.0
 40
1.0
 40
1.0
 40
1.0
 10
5.3467903727
 20
4.0980860902
 30
0.0
 10
5.3467903727
 20
4.0987631446
 30
0.0
 10
5.3467255079
 20
4.1001239296
 30
0.0
 10
5.3464344782
 20
4.1021600417
 30
0.0
 10
5.3459499598
 20
4.1041934136
 30
0.0
 10
5.3450331062
 20
4.1069396
 30
0.0
 10
5.3433711117
 20
4.1103793542
 30
0.0
 10
5.3406456623
 20
4.1143957016
 30
0.0
 10
5.3371703639
 20
4.1183609365
 30
0.0
 10
5.3329559358
 20
4.1222696731
 30
0.0
 10
5.3280117869
 20
4.1261157779
 30
0.0
 10
5.3223492624
 20
4.1298926902
 30
0.0
 10
5.3159806413
 20
4.1335922336
 30
0.0
 10
5.3089204824
 20
4.1372067372
 30
0.0
 10
5.3011848131
 20
4.140727431
 30
0.0
 10
5.2927917541
 20
4.1441464719
 30
0.0
 10
5.2837609281
 20
4.1474552816
 30
0.0
 10
5.274113777
 20
4.150646297
 30
0.0
 10
5.2638731884
 20
4.1537114248
 30
0.0
 10
5.2530636392
 20
4.1566436013
 30
0.0
 10
5.2417109616
 20
4.1594353678
 30
0.0
 10
5.2298423795
 20
4.1620802799
 30
0.0
 10
5.2174863595
 20
4.1645716025
 30
0.0
 10
5.2046725868
 20
4.1669035833
 30
0.0
 10
5.1914318323
 20
4.16907032
 30
0.0
 10
5.1730366819
 20
4.1717634215
 30
0.0
 10
5.149210571
 20
4.1746640764
 30
0.0
 10
5.119770964
 20
4.1773768565
 30
0.0
 10
5.0894423905
 20
4.1793337622
 30
0.0
 10
5.0585164748
 20
4.1805156655
 30
0.0
 10
5.0272903727
 20
4.1809109234
 30
0.0
 10
4.9960642706
 20
4.1805156655
 30
0.0
 10
4.9651383549
 20
4.1793337622
 30
0.0
 10
4.9348097813
 20
4.1773768565
 30
0.0
 10
4.9053701743
 20
4.1746640764
 30
0.0
 10
4.8815440634
 20
4.1717634215
 30
0.0
 10
4.863148913
 20
4.16907032
 30
0.0
 10
4.8499081585
 20
4.1669035833
 30
0.0
 10
4.8370943858
 20
4.1645716025
 30
0.0
 10
4.8247383658
 20
4.1620802799
 30
0.0
 10
4.8128697837
 20
4.1594353678
 30
0.0
 10
4.8015171062
 20
4.1566436013
 30
0.0
 10
4.7907075569
 20
4.1537114248
 30
0.0
 10
4.7804669683
 20
4.150646297
 30
0.0
 10
4.7708198172
 20
4.1474552816
 30
0.0
 10
4.7617889913
 20
4.1441464719
 30
0.0
 10
4.7533959322
 20
4.140727431
 30
0.0
 10
4.745660263
 20
4.1372067372
 30
0.0
 10
4.738600104
 20
4.1335922336
 30
0.0
 10
4.7322314829
 20
4.1298926902
 30
0.0
 10
4.7265689584
 20
4.1261157779
 30
0.0
 10
4.7216248096
 20
4.1222696731
 30
0.0
 10
4.7174103815
 20
4.1183609365
 30
0.0
 10
4.7139350831
 20
4.1143957016
 30
0.0
 10
4.7112096336
 20
4.1103793542
 30
0.0
 10
4.7095476392
 20
4.1069396
 30
0.0
 10
4.7086307856
 20
4.1041934136
 30
0.0
 10
4.7081462671
 20
4.1021600417
 30
0.0
 10
4.7078552374
 20
4.1001239296
 30
0.0
 10
4.7077903727
 20
4.0987631446
 30
0.0
 10
4.7077903727
 20
4.0980860902
 30
0.0
  0
SPLINE
  5
269
100
AcDbEntity
  8
ALL_ASSEMBLY_MEMBERS
100
AcDbSpline
 62
7
  6
CONTINUOUS
 70
0
 71
3
 72
17
 73
13
 74
0
 42
0.0000001
 43
0.0000001
 44
0.0000000001
 40
0.0
 40
0.0
 40
0.0
 40
0.0
 40
0.0497340617
 40
0.0998536838
 40
0.1507184128
 40
0.2026710946
 40
0.3110210792
 40
0.4272419639
 40
0.5531122498
 40
0.6899491698
 40
0.8386980604
 40
1.0
 40
1.0
 40
1.0
 40
1.0
 10
5.3467903727
 20
4.0980860902
 30
0.0
 10
5.3467903727
 20
4.0974432952
 30
0.0
 10
5.3467319503
 20
4.0961519754
 30
0.0
 10
5.3464697624
 20
4.0942192824
 30
0.0
 10
5.3460331991
 20
4.092288839
 30
0.0
 10
5.3452080922
 20
4.0896843762
 30
0.0
 10
5.3437134547
 20
4.0864210542
 30
0.0
 10
5.3412567244
 20
4.0826010728
 30
0.0
 10
5.3381215696
 20
4.0788252003
 30
0.0
 10
5.3343171146
 20
4.0750982811
 30
0.0
 10
5.3298516056
 20
4.0714256322
 30
0.0
 10
5.3265749328
 20
4.0691125213
 30
0.0
 10
5.3248363016
 20
4.0679621179
 30
0.0
  0
SPLINE
  5
26A
100
AcDbEntity
  8
ALL_ASSEMBLY_MEMBERS
100
AcDbSpline
 62
7
  6
CONTINUOUS
 70
0
 71
3
 72
30
 73
26
 74
0
 42
0.0000001
 43
0.0000001
 44
0.0000000001
 40
0.0
 40
0.0
 40
0.0
 40
0.0
 40
0.0118525576
 40
0.0240918125
 40
0.0370691215
 40
0.0510716256
 40
0.0663180903
 40
0.0829698728
 40
0.1011428239
 40
0.1209098662
 40
0.1423104563
 40
0.1653642576
 40
0.1900766903
 40
0.2164364122
 40
0.2444138746
 40
0.2739721977
 40
0.337652487
 40
0.4070473591
 40
0.4816231426
 40
0.5607713328
 40
0.6438037943
 40
0.7300113064
 40
0.8186667761
 40
0.9089794524
 40
1.0
 40
1.0
 40
1.0
 40
1.0
 10
4.739219339
 20
4.0980860902
 30
0.0
 10
4.739219339
 20
4.0968611576
 30
0.0
 10
4.7394594033
 20
4.0943653081
 30
0.0
 10
4.7405294431
 20
4.0906667351
 30
0.0
 10
4.7423013745
 20
4.0870024517
 30
0.0
 10
4.7447596275
 20
4.083381062
 30
0.0
 10
4.7478925678
 20
4.0798057667
 30
0.0
 10
4.751691729
 20
4.0762810433
 30
0.0
 10
4.7561496815
 20
4.0728133562
 30
0.0
 10
4.7612558956
 20
4.0694085577
 30
0.0
 10
4.7669979914
 20
4.066072769
 30
0.0
 10
4.7733631585
 20
4.0628134675
 30
0.0
 10
4.7803377622
 20
4.0596388728
 30
0.0
 10
4.7879057535
 20
4.0565567863
 30
0.0
 10
4.7960484499
 20
4.0535733735
 30
0.0
 10
4.8079436996
 20
4.0496386408
 30
0.0
 10
4.8241250224
 20
4.0450610392
 30
0.0
 10
4.8450324046
 20
4.0401938332
 30
0.0
 10
4.8676885802
 20
4.0358738003
 30
0.0
 10
4.8918754918
 20
4.032144628
 30
0.0
 10
4.9173614282
 20
4.0290404767
 30
0.0
 10
4.9439054111
 20
4.0265949218
 30
0.0
 10
4.9712570895
 20
4.0248297508
 30
0.0
 10
4.9991424227
 20
4.0237660018
 30
0.0
 10
5.0178836229
 20
4.0235274436
 30
0.0
 10
5.0272903727
 20
4.0235274436
 30
0.0
  0
SPLINE
  5
26B
100
AcDbEntity
  8
ALL_ASSEMBLY_MEMBERS
100
AcDbSpline
 62
7
  6
CONTINUOUS
 70
0
 71
3
 72
30
 73
26
 74
0
 42
0.0000001
 43
0.0000001
 44
0.0000000001
 40
0.0
 40
0.0
 40
0.0
 40
0.0
 40
0.0910205476
 40
0.1813332239
 40
0.2699886936
 40
0.3561962057
 40
0.4392286672
 40
0.5183768574
 40
0.5929526409
 40
0.662347513
 40
0.7260278023
 40
0.7555861254
 40
0.7835635878
 40
0.8099233097
 40
0.8346357424
 40
0.8576895437
 40
0.8790901338
 40
0.8988571761
 40
0.9170301272
 40
0.9336819097
 40
0.9489283744
 40
0.9629308785
 40
0.9759081875
 40
0.9881474424
 40
1.0
 40
1.0
 40
1.0
 40
1.0
 10
5.0272903727
 20
4.0235274436
 30
0.0
 10
5.0366971224
 20
4.0235274436
 30
0.0
 10
5.0554383227
 20
4.0237660018
 30
0.0
 10
5.0833236558
 20
4.0248297508
 30
0.0
 10
5.1106753343
 20
4.0265949218
 30
0.0
 10
5.1372193172
 20
4.0290404767
 30
0.0
 10
5.1627052535
 20
4.032144628
 30
0.0
 10
5.1868921652
 20
4.0358738003
 30
0.0
 10
5.2095483408
 20
4.0401938332
 30
0.0
 10
5.2304557229
 20
4.0450610392
 30
0.0
 10
5.2466370457
 20
4.0496386408
 30
0.0
 10
5.2585322954
 20
4.0535733735
 30
0.0
 10
5.2666749918
 20
4.0565567863
 30
0.0
 10
5.2742429831
 20
4.0596388728
 30
0.0
 10
5.2812175868
 20
4.0628134675
 30
0.0
 10
5.287582754
 20
4.066072769
 30
0.0
 10
5.2933248498
 20
4.0694085577
 30
0.0
 10
5.2984310639
 20
4.0728133562
 30
0.0
 10
5.3028890163
 20
4.0762810433
 30
0.0
 10
5.3066881776
 20
4.0798057667
 30
0.0
 10
5.3098211178
 20
4.083381062
 30
0.0
 10
5.3122793708
 20
4.0870024517
 30
0.0
 10
5.3140513022
 20
4.0906667351
 30
0.0
 10
5.3151213421
 20
4.0943653081
 30
0.0
 10
5.3153614063
 20
4.0968611576
 30
0.0
 10
5.3153614063
 20
4.0980860902
 30
0.0
  0
SPLINE
  5
26C
100
AcDbEntity
  8
ALL_ASSEMBLY_MEMBERS
100
AcDbSpline
 62
7
  6
CONTINUOUS
 70
0
 71
3
 72
20
 73
16
 74
0
 42
0.0000001
 43
0.0000001
 44
0.0000000001
 40
0.0
 40
0.0
 40
0.0
 40
0.0
 40
0.1519983872
 40
0.3012267051
 40
0.444948503
 40
0.5139236269
 40
0.5805813721
 40
0.6446406571
 40
0.7058249202
 40
0.7638642614
 40
0.8185063364
 40
0.8695701322
 40
0.9169153674
 40
0.9604219091
 40
1.0
 40
1.0
 40
1.0
 40
1.0
 10
5.0272903727
 20
4.3213625681
 30
0.0
 10
5.0124714198
 20
4.3213625681
 30
0.0
 10
4.9831006848
 20
4.3208276298
 30
0.0
 10
4.9397765152
 20
4.3184581735
 30
0.0
 10
4.904632954
 20
4.3151742672
 30
0.0
 10
4.8776113739
 20
4.3117521673
 30
0.0
 10
4.8583557257
 20
4.3088666014
 30
0.0
 10
4.8399242409
 20
4.3056430468
 30
0.0
 10
4.8224081482
 20
4.3020975569
 30
0.0
 10
4.8058976293
 20
4.2982467448
 30
0.0
 10
4.7904770115
 20
4.2941034236
 30
0.0
 10
4.7762185813
 20
4.2896911784
 30
0.0
 10
4.7631840735
 20
4.2850353957
 30
0.0
 10
4.7514334343
 20
4.2801603243
 30
0.0
 10
4.7441445778
 20
4.2766098161
 30
0.0
 10
4.7407438562
 20
4.2747865953
 30
0.0
  0
SPLINE
  5
26D
100
AcDbEntity
  8
ALL_ASSEMBLY_MEMBERS
100
AcDbSpline
 62
7
  6
CONTINUOUS
 70
0
 71
3
 72
20
 73
16
 74
0
 42
0.0000001
 43
0.0000001
 44
0.0000000001
 40
0.0
 40
0.0
 40
0.0
 40
0.0
 40
0.0395780909
 40
0.0830846326
 40
0.1304298678
 40
0.1814936636
 40
0.2361357386
 40
0.2941750798
 40
0.3553593429
 40
0.4194186279
 40
0.4860763731
 40
0.555051497
 40
0.6987732949
 40
0.8480016128
 40
1.0
 40
1.0
 40
1.0
 40
1.0
 10
5.3138368892
 20
4.2747865953
 30
0.0
 10
5.3104361675
 20
4.2766098161
 30
0.0
 10
5.3031473111
 20
4.2801603243
 30
0.0
 10
5.2913966719
 20
4.2850353957
 30
0.0
 10
5.278362164
 20
4.2896911784
 30
0.0
 10
5.2641037338
 20
4.2941034236
 30
0.0
 10
5.248683116
 20
4.2982467448
 30
0.0
 10
5.2321725971
 20
4.3020975569
 30
0.0
 10
5.2146565045
 20
4.3056430468
 30
0.0
 10
5.1962250197
 20
4.3088666014
 30
0.0
 10
5.1769693715
 20
4.3117521673
 30
0.0
 10
5.1499477913
 20
4.3151742672
 30
0.0
 10
5.1148042302
 20
4.3184581735
 30
0.0
 10
5.0714800605
 20
4.3208276298
 30
0.0
 10
5.0421093256
 20
4.3213625681
 30
0.0
 10
5.0272903727
 20
4.3213625681
 30
0.0
  0
SPLINE
  5
26E
100
AcDbEntity
  8
ALL_ASSEMBLY_MEMBERS
100
AcDbSpline
 62
7
  6
CONTINUOUS
 70
0
 71
3
 72
20
 73
16
 74
0
 42
0.0000001
 43
0.0000001
 44
0.0000000001
 40
0.0
 40
0.0
 40
0.0
 40
0.0
 40
0.1581254328
 40
0.3128593077
 40
0.4606647747
 40
0.5310076462
 40
0.5984745122
 40
0.662704858
 40
0.723385306
 40
0.7802292444
 40
0.8329801478
 40
0.8814446759
 40
0.925468826
 40
0.9649759221
 40
1.0
 40
1.0
 40
1.0
 40
1.0
 10
5.0272903727
 20
4.1726447369
 30
0.0
 10
5.0125830537
 20
4.1726447369
 30
0.0
 10
4.9834803234
 20
4.1720698757
 30
0.0
 10
4.940699695
 20
4.1695005282
 30
0.0
 10
4.906188028
 20
4.1659328071
 30
0.0
 10
4.8798799403
 20
4.1622279593
 30
0.0
 10
4.8613443311
 20
4.1591206864
 30
0.0
 10
4.8437872887
 20
4.1556549153
 30
0.0
 10
4.827311911
 20
4.1518533136
 30
0.0
 10
4.8120141074
 20
4.147739528
 30
0.0
 10
4.7979830806
 20
4.1433351294
 30
0.0
 10
4.7852988868
 20
4.1386701253
 30
0.0
 10
4.7740326864
 20
4.1337699514
 30
0.0
 10
4.7642491725
 20
4.1286618127
 30
0.0
 10
4.7583995957
 20
4.1249148619
 30
0.0
 10
4.755768576
 20
4.1229939951
 30
0.0
  0
SPLINE
  5
26F
100
AcDbEntity
  8
ALL_ASSEMBLY_MEMBERS
100
AcDbSpline
 62
7
  6
CONTINUOUS
 70
0
 71
3
 72
15
 73
11
 74
0
 42
0.0000001
 43
0.0000001
 44
0.0000000001
 40
0.0
 40
0.0
 40
0.0
 40
0.0
 40
0.1576915161
 40
0.3038847246
 40
0.4392993144
 40
0.5648990892
 40
0.6819493286
 40
0.7920752831
 40
0.8973054541
 40
1.0
 40
1.0
 40
1.0
 40
1.0
 10
4.755768576
 20
4.1229939951
 30
0.0
 10
4.7544522179
 20
4.1220329424
 30
0.0
 10
4.7519715923
 20
4.120101671
 30
0.0
 10
4.7486030986
 20
4.1170501489
 30
0.0
 10
4.7457357329
 20
4.1139608752
 30
0.0
 10
4.7433747767
 20
4.1108375885
 30
0.0
 10
4.7415261569
 20
4.1076837122
 30
0.0
 10
4.7401980622
 20
4.1045022491
 30
0.0
 10
4.7393982515
 20
4.1013005406
 30
0.0
 10
4.739219339
 20
4.0991475108
 30
0.0
 10
4.739219339
 20
4.0980860902
 30
0.0
  0
SPLINE
  5
270
100
AcDbEntity
  8
ALL_ASSEMBLY_MEMBERS
100
AcDbSpline
 62
7
  6
CONTINUOUS
 70
0
 71
3
 72
15
 73
11
 74
0
 42
0.0000001
 43
0.0000001
 44
0.0000000001
 40
0.0
 40
0.0
 40
0.0
 40
0.0
 40
0.1026945459
 40
0.2079247169
 40
0.3180506714
 40
0.4351009108
 40
0.5607006856
 40
0.6961152754
 40
0.8423084839
 40
1.0
 40
1.0
 40
1.0
 40
1.0
 10
5.3153614063
 20
4.0980860902
 30
0.0
 10
5.3153614063
 20
4.0991475108
 30
0.0
 10
5.3151824939
 20
4.1013005406
 30
0.0
 10
5.3143826831
 20
4.1045022491
 30
0.0
 10
5.3130545884
 20
4.1076837122
 30
0.0
 10
5.3112059686
 20
4.1108375885
 30
0.0
 10
5.3088450124
 20
4.1139608752
 30
0.0
 10
5.3059776467
 20
4.1170501489
 30
0.0
 10
5.302609153
 20
4.120101671
 30
0.0
 10
5.3001285275
 20
4.1220329424
 30
0.0
 10
5.2988121694
 20
4.1229939951
 30
0.0
  0
SPLINE
  5
271
100
AcDbEntity
  8
ALL_ASSEMBLY_MEMBERS
100
AcDbSpline
 62
7
  6
CONTINUOUS
 70
0
 71
3
 72
20
 73
16
 74
0
 42
0.0000001
 43
0.0000001
 44
0.0000000001
 40
0.0
 40
0.0
 40
0.0
 40
0.0
 40
0.0350240779
 40
0.074531174
 40
0.1185553241
 40
0.1670198522
 40
0.2197707556
 40
0.276614694
 40
0.337295142
 40
0.4015254878
 40
0.4689923538
 40
0.5393352253
 40
0.6871406923
 40
0.8418745672
 40
1.0
 40
1.0
 40
1.0
 40
1.0
 10
5.2988121694
 20
4.1229939951
 30
0.0
 10
5.2961811497
 20
4.1249148619
 30
0.0
 10
5.2903315729
 20
4.1286618127
 30
0.0
 10
5.280548059
 20
4.1337699514
 30
0.0
 10
5.2692818585
 20
4.1386701253
 30
0.0
 10
5.2565976648
 20
4.1433351294
 30
0.0
 10
5.2425666379
 20
4.147739528
 30
0.0
 10
5.2272688343
 20
4.1518533136
 30
0.0
 10
5.2107934567
 20
4.1556549153
 30
0.0
 10
5.1932364142
 20
4.1591206864
 30
0.0
 10
5.1747008051
 20
4.1622279593
 30
0.0
 10
5.1483927174
 20
4.1659328071
 30
0.0
 10
5.1138810504
 20
4.1695005282
 30
0.0
 10
5.0711004219
 20
4.1720698757
 30
0.0
 10
5.0419976917
 20
4.1726447369
 30
0.0
 10
5.0272903727
 20
4.1726447369
 30
0.0
  0
SPLINE
  5
272
100
AcDbEntity
  8
ALL_ASSEMBLY_MEMBERS
100
AcDbSpline
 62
7
  6
CONTINUOUS
 70
0
 71
3
 72
28
 73
24
 74
0
 42
0.0000001
 43
0.0000001
 44
0.0000000001
 40
0.0
 40
0.0
 40
0.0
 40
0.0
 40
0.0624815578
 40
0.0937499825
 40
0.1250141627
 40
0.1875082177
 40
0.2500027194
 40
0.2812617582
 40
0.3125206932
 40
0.3750184138
 40
0.40627674
 40
0.4375351272
 40
0.5000329906
 40
0.5625304987
 40
0.6250280967
 40
0.6875247485
 40
0.7187825118
 40
0.7500401932
 40
0.8125362176
 40
0.875027426
 40
0.9062814395
 40
0.9375351583
 40
1.0
 40
1.0
 40
1.0
 40
1.0
 10
5.5956513871
 20
4.7290553523
 30
0.0
 10
5.5957498476
 20
4.7476728442
 30
0.0
 10
5.5945333827
 20
4.7756395993
 30
0.0
 10
5.5901944776
 20
4.8126475081
 30
0.0
 10
5.5840385702
 20
4.8494037705
 30
0.0
 10
5.5729590404
 20
4.8947078397
 30
0.0
 10
5.5574513335
 20
4.9386927006
 30
0.0
 10
5.5424820935
 20
4.9728177734
 30
0.0
 10
5.5258359182
 20
5.0061564564
 30
0.0
 10
5.5067113206
 20
5.0382089102
 30
0.0
 10
5.4852852851
 20
5.0686959682
 30
0.0
 10
5.4623641447
 20
5.098077217
 30
0.0
 10
5.4310129008
 20
5.1326119044
 30
0.0
 10
5.3894631318
 20
5.1700945129
 30
0.0
 10
5.3444085252
 20
5.2032802194
 30
0.0
 10
5.3043051806
 20
5.2270937302
 30
0.0
 10
5.270949589
 20
5.2437050842
 30
0.0
 10
5.2368161881
 20
5.2586533472
 30
0.0
 10
5.1928398064
 20
5.2741763558
 30
0.0
 10
5.147561433
 20
5.2853358229
 30
0.0
 10
5.1108322429
 20
5.2915996222
 30
0.0
 10
5.0738533913
 20
5.2960753319
 30
0.0
 10
5.0459031439
 20
5.2974179249
 30
0.0
 10
5.0272903726
 20
5.2974156231
 30
0.0
  0
LINE
  5
273
100
AcDbEntity
  8
ALL_ASSEMBLY_MEMBERS
100
AcDbLine
 62
7
  6
CONTINUOUS
 10
5.5956513871
 20
4.7290553523
 11
5.6135396489
 21
4.7294197173
  0
SPLINE
  5
274
100
AcDbEntity
  8
ALL_ASSEMBLY_MEMBERS
100
AcDbSpline
 62
7
  6
CONTINUOUS
 70
0
 71
3
 72
28
 73
24
 74
0
 42
0.0000001
 43
0.0000001
 44
0.0000000001
 40
0.0
 40
0.0
 40
0.0
 40
0.0
 40
0.0624588837
 40
0.0937008239
 40
0.1249431238
 40
0.187415759
 40
0.249895207
 40
0.2811467454
 40
0.3124005801
 40
0.3748961787
 40
0.4373998969
 40
0.4999061533
 40
0.5624120688
 40
0.5936742604
 40
0.6249363658
 40
0.6874416004
 40
0.7187043082
 40
0.7499671166
 40
0.8124691047
 40
0.8749707115
 40
0.9062387141
 40
0.9375109611
 40
1.0
 40
1.0
 40
1.0
 40
1.0
 10
5.0272903727
 20
5.2974153592
 30
0.0
 10
5.0086804013
 20
5.2974125404
 30
0.0
 10
4.9807373035
 20
5.2960631761
 30
0.0
 10
4.943770472
 20
5.2915786058
 30
0.0
 10
4.9070567192
 20
5.2853111262
 30
0.0
 10
4.8617967632
 20
5.2741465509
 30
0.0
 10
4.8178352065
 20
5.2586268043
 30
0.0
 10
4.7837114805
 20
5.243681389
 30
0.0
 10
4.7503598237
 20
5.2270742486
 30
0.0
 10
4.7102568478
 20
5.2032645952
 30
0.0
 10
4.6651970027
 20
5.1700844646
 30
0.0
 10
4.6236374443
 20
5.1326071933
 30
0.0
 10
4.5922764448
 20
5.0980765603
 30
0.0
 10
4.5693472249
 20
5.0686983066
 30
0.0
 10
4.5479129992
 20
5.0382140162
 30
0.0
 10
4.5287800285
 20
5.0061636992
 30
0.0
 10
4.512125773
 20
4.9728263216
 30
0.0
 10
4.4971487263
 20
4.9387020166
 30
0.0
 10
4.4816323257
 20
4.8947169193
 30
0.0
 10
4.470546453
 20
4.8494111512
 30
0.0
 10
4.4643873255
 20
4.8126528963
 30
0.0
 10
4.4600465304
 20
4.7756427217
 30
0.0
 10
4.4588301609
 20
4.7476740443
 30
0.0
 10
4.4589294163
 20
4.7290553524
 30
0.0
  0
SPLINE
  5
275
100
AcDbEntity
  8
ALL_ASSEMBLY_MEMBERS
100
AcDbSpline
 62
7
  6
CONTINUOUS
 70
0
 71
3
 72
22
 73
18
 74
0
 42
0.0000001
 43
0.0000001
 44
0.0000000001
 40
0.0
 40
0.0
 40
0.0
 40
0.0
 40
0.1249377609
 40
0.1874580689
 40
0.2499622587
 40
0.312459934
 40
0.3749607566
 40
0.4374650149
 40
0.4999693266
 40
0.5624728482
 40
0.6249760331
 40
0.6874795542
 40
0.7499835527
 40
0.8124873772
 40
0.8749916724
 40
0.9374960429
 40
1.0
 40
1.0
 40
1.0
 40
1.0
 10
4.4589293526
 20
4.7290553521
 30
0.0
 10
4.4590547747
 20
4.7059719376
 30
0.0
 10
4.4613402455
 20
4.6713010837
 30
0.0
 10
4.4685267279
 20
4.6256611412
 30
0.0
 10
4.4759776763
 20
4.5918013662
 30
0.0
 10
4.485453111
 20
4.5584576744
 30
0.0
 10
4.4969241467
 20
4.5257460854
 30
0.0
 10
4.5103464034
 20
4.4937844388
 30
0.0
 10
4.5256750577
 20
4.4626912436
 30
0.0
 10
4.542859614
 20
4.4325842911
 30
0.0
 10
4.5618320009
 20
4.4035709144
 30
0.0
 10
4.5825286095
 20
4.3757610038
 30
0.0
 10
4.6048729058
 20
4.3492566666
 30
0.0
 10
4.6287843693
 20
4.3241567621
 30
0.0
 10
4.6541813657
 20
4.3005604379
 30
0.0
 10
4.6809645559
 20
4.2785522128
 30
0.0
 10
4.6996840889
 20
4.264993966
 30
0.0
 10
4.709239448
 20
4.2585086213
 30
0.0
  0
LINE
  5
276
100
AcDbEntity
  8
ALL_ASSEMBLY_MEMBERS
100
AcDbLine
 62
7
  6
CONTINUOUS
 10
4.4589293526
 20
4.7290553521
 11
4.4410409348
 21
4.7294225755
  0
SPLINE
  5
277
100
AcDbEntity
  8
ALL_ASSEMBLY_MEMBERS
100
AcDbSpline
 62
7
  6
CONTINUOUS
 70
0
 71
3
 72
22
 73
18
 74
0
 42
0.0000001
 43
0.0000001
 44
0.0000000001
 40
0.0
 40
0.0
 40
0.0
 40
0.0
 40
0.0625040704
 40
0.1250085374
 40
0.1875129083
 40
0.2500167744
 40
0.3125208189
 40
0.3750243866
 40
0.437527596
 40
0.5000311278
 40
0.5625354073
 40
0.6250396282
 40
0.6875404292
 40
0.7500380592
 40
0.8125421709
 40
0.8750623449
 40
1.0
 40
1.0
 40
1.0
 40
1.0
 10
5.3454050679
 20
4.2584557148
 30
0.0
 10
5.3549606101
 20
4.2649415127
 30
0.0
 10
5.3736802214
 20
4.2785010685
 30
0.0
 10
5.4004625859
 20
4.300512239
 30
0.0
 10
5.4258577631
 20
4.3241123128
 30
0.0
 10
5.4497663629
 20
4.3492166118
 30
0.0
 10
5.4721068439
 20
4.3757257293
 30
0.0
 10
5.4927988343
 20
4.4035405577
 30
0.0
 10
5.5117659392
 20
4.432558795
 30
0.0
 10
5.5289446963
 20
4.4626703925
 30
0.0
 10
5.5442671929
 20
4.4937678988
 30
0.0
 10
5.5576831557
 20
4.5257334174
 30
0.0
 10
5.5691480686
 20
4.5584483452
 30
0.0
 10
5.5786178223
 20
4.5917948102
 30
0.0
 10
5.5860636833
 20
4.6256568194
 30
0.0
 10
5.5932444159
 20
4.671299154
 30
0.0
 10
5.5955269864
 20
4.705971182
 30
0.0
 10
5.5956514266
 20
4.7290553521
 30
0.0
  0
ENDSEC
  0
SECTION
  2
OBJECTS
  0
DICTIONARY
  5
C
100
AcDbDictionary
280
0
281
1
  3
ACAD_GROUP
350
D
  3
ACAD_MLINESTYLE
350
17
  3
ACAD_LAYOUT
350
1A
  3
ACAD_PLOTSETTINGS
350
19
  3
ACAD_PLOTSTYLENAME
350
E
  0
DICTIONARY
  5
D
102
{ACAD_REACTORS
330
C
102
}
100
AcDbDictionary
280
0
281
1
  0
ACDBDICTIONARYWDFLT
  5
E
102
{ACAD_REACTORS
330
C
102
}
100
AcDbDictionary
281
1
  3
Normal
350
F
100
AcDbDictionaryWithDefault
340
F
  0
DICTIONARY
  5
17
102
{ACAD_REACTORS
330
C
102
}
100
AcDbDictionary
280
0
281
1
  3
Standard
350
18
  0
DICTIONARY
  5
19
102
{ACAD_REACTORS
330
C
102
}
100
AcDbDictionary
281
1
  0
DICTIONARY
  5
1A
102
{ACAD_REACTORS
330
C
102
}
100
AcDbDictionary
281
1
  3
Model
350
278
  3
Layout1
350
279
  0
ACDBPLACEHOLDER
  5
F
102
{ACAD_REACTORS
330
E
102
}
  0
MLINESTYLE
  5
18
102
{ACAD_REACTORS
330
17
102
}
100
AcDbMlineStyle
  2
STANDARD
 70
0
  3

 62
256
 51
90.0
 52
90.0
 71
2
 49
0.5
 62
256
  6
BYLAYER
 49
-0.5
 62
256
  6
BYLAYER
  0
LAYOUT
  5
278
102
{ACAD_REACTORS
330
1A
102
}
100
AcDbPlotSettings
  1

  2
none_device
  4
ANSI_A_(11.00_x_8.50_Inches)
  6

 40
0.0
 41
0.0
 42
0.0
 43
0.0
 44
279.4
 45
215.9
 46
0.0
 47
0.0
 48
0.0
 49
0.0
140
0.0
141
0.0
142
1.0
143
1.0
 70
1024
 72
0
 73
0
 74
0
  7

 75
0
147
1.0
148
0.0
149
0.0
100
AcDbLayout
  1
Model
 70
0
 71
0
 10
0.0
 20
0.0
 11
11.0
 21
8.5
 12
0.0
 22
0.0
 32
0.0
 14
0.0
 24
0.0
 34
0.0
 15
0.0
 25
0.0
 35
0.0
146
0.0
 13
0.0
 23
0.0
 33
0.0
 16
1.0
 26
0.0
 36
0.0
 17
0.0
 27
1.0
 37
0.0
 76
0
330
217
345
0
346
0
  0
LAYOUT
  5
279
102
{ACAD_REACTORS
330
1A
102
}
100
AcDbPlotSettings
  1

  2
none_device
  4
ANSI_A_(11.00_x_8.50_Inches)
  6

 40
0.0
 41
0.0
 42
0.0
 43
0.0
 44
279.4
 45
215.9
 46
0.0
 47
0.0
 48
0.0
 49
0.0
140
0.0
141
0.0
142
1.0
143
1.0
 70
0
 72
0
 73
0
 74
0
  7

 75
0
147
1.0
148
0.0
149
0.0
100
AcDbLayout
  1
Layout1
 70
0
 71
1
 10
0.0
 20
0.0
 11
11.0
 21
8.5
 12
0.0
 22
0.0
 32
0.0
 14
0.0
 24
0.0
 34
0.0
 15
0.0
 25
0.0
 35
0.0
146
0.0
 13
0.0
 23
0.0
 33
0.0
 16
1.0
 26
0.0
 36
0.0
 17
0.0
 27
1.0
 37
0.0
 76
0
330
218
345
0
346
0
  0
ENDSEC
  0
EOF
