999
DXF file: 2201_right.dxf
999
Pro/ENGINEER 2018400 by Parametric Technology Corporation
  0
SECTION
  2
HEADER
  9
$ACADVER
  1
AC1027
  9
$DWGCODEPAGE
  3
ANSI_1252
  9
$EXTMAX
 10
11.0
 20
8.5
 30
0.0
  9
$EXTMIN
 10
0.0
 20
0.0
 30
0.0
  9
$LIMMIN
 10
0.0
 20
0.0
  9
$LIMMAX
 10
11.0
 20
8.5
  9
$VIEWCTR
 10
5.5
 20
4.25
  9
$VIEWSIZE
 40
8.5
  9
$CLAYER
  8
0
  9
$LTSCALE
 40
0.605
  9
$CELTYPE
  6
BYLAYER
  9
$DIMSCALE
 40
1.0
  9
$DIMASZ
 40
0.1
  9
$DIMEXO
 40
0.0625
  9
$DIMDLI
 40
0.418
  9
$DIMEXE
 40
0.125
  9
$DIMCEN
 40
0.099
  9
$DIMLFAC
 40
1.0
  9
$DIMBLK
  1
_FILLED
  9
$DIMALT
 70
1
  9
$DIMALTD
 70
2
  9
$DIMALTTD
 70
2
  9
$DIMALTF
 40
25.4
  9
$DIMTXT
 40
0.08
  9
$DIMTOL
 70
1
  9
$DIMLIM
 70
0
  9
$DIMTFAC
 40
1.0
  9
$DIMTP
 40
0.001
  9
$DIMTM
 40
0.001
  9
$DIMGAP
 40
0.09
  9
$DIMDSEP
 70
46
  9
$AUNITS
 70
0
  9
$PDMODE
 70
3
  9
$PDSIZE
 40
0.3125
  9
$HANDSEED
  5
250
  9
$TILEMODE
 70
1
  9
$MEASUREMENT
 70
0
  9
$INSUNITS
 70
1
  0
ENDSEC
  0
SECTION
  2
CLASSES
  0
CLASS
  1
ACDBDICTIONARYWDFLT
  2
AcDbDictionaryWithDefault
  3
AutoCAD 2000
 90
0
 91
1
280
0
281
0
  0
CLASS
  1
ACDBPLACEHOLDER
  2
AcDbPlaceHolder
  3
AutoCAD 2000
 90
0
 91
1
280
0
281
0
  0
CLASS
  1
LAYOUT
  2
AcDbLayout
  3
AutoCAD 2000
 90
0
 91
0
280
0
281
0
  0
ENDSEC
  0
SECTION
  2
TABLES
  0
TABLE
  2
VPORT
  5
8
100
AcDbSymbolTable
 70
2
  0
VPORT
  5
1F4
100
AcDbSymbolTableRecord
100
AcDbViewportTableRecord
  2
*ACTIVE
 70
0
 10
0.0
 20
0.0
 11
1.0
 21
1.0
 12
5.5
 22
4.25
 13
0.0
 23
0.0
 14
1.0
 24
1.0
 15
0.0
 25
0.0
 16
0.0
 26
0.0
 36
1.0
 17
0.0
 27
0.0
 37
0.0
 40
8.5
 41
1.2941176471
 42
50.0
 43
0.0
 44
0.0
 50
0.0
 51
0.0
 71
0
 72
100
 73
1
 74
1
 75
0
 76
0
 77
0
 78
0
  0
ENDTAB
  0
TABLE
  2
LTYPE
  5
5
100
AcDbSymbolTable
 70
6
  0
LTYPE
  5
14
100
AcDbSymbolTableRecord
100
AcDbLinetypeTableRecord
  2
BYBLOCK
 70
0
  3

 72
65
 73
0
 40
0.0
  0
LTYPE
  5
15
100
AcDbSymbolTableRecord
100
AcDbLinetypeTableRecord
  2
BYLAYER
 70
0
  3

 72
65
 73
0
 40
0.0
  0
LTYPE
  5
16
100
AcDbSymbolTableRecord
100
AcDbLinetypeTableRecord
  2
CONTINUOUS
 70
64
  3
Solid line
 72
65
 73
0
 40
0.0
  0
LTYPE
  5
1F5
100
AcDbSymbolTableRecord
100
AcDbLinetypeTableRecord
  2
CENTER
 70
64
  3
____ _ ____ _ ____ _ ____ _ ____ _ ____ _ ____
 72
65
 73
4
 40
0.6
 49
0.375
 74
0
 49
-0.075
 74
0
 49
0.075
 74
0
 49
-0.075
 74
0
  0
LTYPE
  5
1F6
100
AcDbSymbolTableRecord
100
AcDbLinetypeTableRecord
  2
HIDDEN
 70
64
  3
- - - - - - - - - - - - - - - - - - - -
 72
65
 73
2
 40
0.2
 49
0.1
 74
0
 49
-0.1
 74
0
  0
LTYPE
  5
1F7
100
AcDbSymbolTableRecord
100
AcDbLinetypeTableRecord
  2
PHANTOM
 70
64
  3
_____ _ _ _____ _ _ _____ _ _ _____
 72
65
 73
6
 40
0.8
 49
0.45
 74
0
 49
-0.05
 74
0
 49
0.1
 74
0
 49
-0.05
 74
0
 49
0.1
 74
0
 49
-0.05
 74
0
  0
LTYPE
  5
1F8
100
AcDbSymbolTableRecord
100
AcDbLinetypeTableRecord
  2
DOT
 70
64
  3
. . . . . . . . . . . . . . . . . . . .
 72
65
 73
2
 40
0.2
 49
0.1
 74
0
 49
-0.1
 74
0
  0
LTYPE
  5
1F9
100
AcDbSymbolTableRecord
100
AcDbLinetypeTableRecord
  2
DASHED
 70
64
  3
- - - - - - - - - - - - - - - - - - - -
 72
65
 73
2
 40
0.2
 49
0.1
 74
0
 49
-0.1
 74
0
  0
ENDTAB
  0
TABLE
  2
LAYER
  5
2
100
AcDbSymbolTable
 70
36
  0
LAYER
  5
10
100
AcDbSymbolTableRecord
100
AcDbLayerTableRecord
  2
0
 70
0
 62
7
  6
CONTINUOUS
370
-3
390
F
  0
LAYER
  5
1FA
100
AcDbSymbolTableRecord
100
AcDbLayerTableRecord
  2
DEFAULT_1
 70
0
 62
7
  6
CENTER
370
-3
390
F
  0
LAYER
  5
1FB
100
AcDbSymbolTableRecord
100
AcDbLayerTableRecord
  2
DEFAULT_2
 70
0
 62
8
  6
HIDDEN
370
-3
390
F
  0
LAYER
  5
1FC
100
AcDbSymbolTableRecord
100
AcDbLayerTableRecord
  2
DEFAULT_3
 70
0
 62
7
  6
PHANTOM
370
-3
390
F
  0
LAYER
  5
1FD
100
AcDbSymbolTableRecord
100
AcDbLayerTableRecord
  2
2201_ASSY_PLANES
 70
0
 62
7
  6
CONTINUOUS
370
-3
390
F
  0
LAYER
  5
1FE
100
AcDbSymbolTableRecord
100
AcDbLayerTableRecord
  2
ALL_ASSEMBLY_MEMBERS
 70
0
 62
7
  6
CONTINUOUS
370
-3
390
F
  0
LAYER
  5
1FF
100
AcDbSymbolTableRecord
100
AcDbLayerTableRecord
  2
ALL_FEATURES
 70
0
 62
7
  6
CONTINUOUS
370
-3
390
F
  0
LAYER
  5
200
100
AcDbSymbolTableRecord
100
AcDbLayerTableRecord
  2
AXES_FEATURES
 70
0
 62
7
  6
CONTINUOUS
370
-3
390
F
  0
LAYER
  5
201
100
AcDbSymbolTableRecord
100
AcDbLayerTableRecord
  2
CHAMFER_FEATURES
 70
0
 62
7
  6
CONTINUOUS
370
-3
390
F
  0
LAYER
  5
202
100
AcDbSymbolTableRecord
100
AcDbLayerTableRecord
  2
CUT_FEATURES
 70
0
 62
7
  6
CONTINUOUS
370
-3
390
F
  0
LAYER
  5
203
100
AcDbSymbolTableRecord
100
AcDbLayerTableRecord
  2
DATUM_CURVES
 70
0
 62
7
  6
CONTINUOUS
370
-3
390
F
  0
LAYER
  5
204
100
AcDbSymbolTableRecord
100
AcDbLayerTableRecord
  2
DATUM_PLANES
 70
0
 62
7
  6
CONTINUOUS
370
-3
390
F
  0
LAYER
  5
205
100
AcDbSymbolTableRecord
100
AcDbLayerTableRecord
  2
DATUM_POINTS
 70
0
 62
7
  6
CONTINUOUS
370
-3
390
F
  0
LAYER
  5
206
100
AcDbSymbolTableRecord
100
AcDbLayerTableRecord
  2
DEFAULT_COORDINATE_SYSTEM
 70
0
 62
7
  6
CONTINUOUS
370
-3
390
F
  0
LAYER
  5
207
100
AcDbSymbolTableRecord
100
AcDbLayerTableRecord
  2
DEFAULT_DATUM_AXES
 70
0
 62
7
  6
CONTINUOUS
370
-3
390
F
  0
LAYER
  5
208
100
AcDbSymbolTableRecord
100
AcDbLayerTableRecord
  2
DEFAULT_DATUM_PLANES
 70
0
 62
7
  6
CONTINUOUS
370
-3
390
F
  0
LAYER
  5
209
100
AcDbSymbolTableRecord
100
AcDbLayerTableRecord
  2
DIMENSIONS
 70
0
 62
7
  6
CONTINUOUS
370
-3
390
F
  0
LAYER
  5
20A
100
AcDbSymbolTableRecord
100
AcDbLayerTableRecord
  2
INTF_1
 70
0
 62
7
  6
CONTINUOUS
370
-3
390
F
  0
LAYER
  5
20B
100
AcDbSymbolTableRecord
100
AcDbLayerTableRecord
  2
POINTS
 70
0
 62
7
  6
CONTINUOUS
370
-3
390
F
  0
LAYER
  5
20C
100
AcDbSymbolTableRecord
100
AcDbLayerTableRecord
  2
PROTRUSION_FEATURES
 70
0
 62
7
  6
CONTINUOUS
370
-3
390
F
  0
LAYER
  5
20D
100
AcDbSymbolTableRecord
100
AcDbLayerTableRecord
  2
QUILT
 70
0
 62
7
  6
CONTINUOUS
370
-3
390
F
  0
LAYER
  5
20E
100
AcDbSymbolTableRecord
100
AcDbLayerTableRecord
  2
QUILTS
 70
0
 62
7
  6
CONTINUOUS
370
-3
390
F
  0
LAYER
  5
20F
100
AcDbSymbolTableRecord
100
AcDbLayerTableRecord
  2
REF_CURVES
 70
0
 62
7
  6
CONTINUOUS
370
-3
390
F
  0
LAYER
  5
210
100
AcDbSymbolTableRecord
100
AcDbLayerTableRecord
  2
RGB(   0_   0_   0 )
 70
0
 62
7
  6
CONTINUOUS
370
-3
390
F
  0
LAYER
  5
211
100
AcDbSymbolTableRecord
100
AcDbLayerTableRecord
  2
ROUND_FEATURES
 70
0
 62
7
  6
CONTINUOUS
370
-3
390
F
  0
LAYER
  5
212
100
AcDbSymbolTableRecord
100
AcDbLayerTableRecord
  2
SHELL_FEATURES
 70
0
 62
7
  6
CONTINUOUS
370
-3
390
F
  0
LAYER
  5
213
100
AcDbSymbolTableRecord
100
AcDbLayerTableRecord
  2
SIZE_REF
 70
0
 62
7
  6
CONTINUOUS
370
-3
390
F
  0
LAYER
  5
214
100
AcDbSymbolTableRecord
100
AcDbLayerTableRecord
  2
SURFACE_FEATURES
 70
0
 62
7
  6
CONTINUOUS
370
-3
390
F
  0
ENDTAB
  0
TABLE
  2
STYLE
  5
3
100
AcDbSymbolTable
 70
1
  0
STYLE
  5
11
100
AcDbSymbolTableRecord
100
AcDbTextStyleTableRecord
  2
STANDARD
 70
0
 40
0.0
 41
0.8
 50
0.0
 71
0
 42
0.2
  3
txt
  4

  0
STYLE
  5
215
100
AcDbSymbolTableRecord
100
AcDbTextStyleTableRecord
  2
TEXTSTYLE_1
 70
0
 40
0.0
 41
0.8
 50
0.0
 71
0
 42
0.2
  3
gdt
  4

  0
ENDTAB
  0
TABLE
  2
VIEW
  5
6
100
AcDbSymbolTable
 70
0
  0
ENDTAB
  0
TABLE
  2
UCS
  5
7
100
AcDbSymbolTable
 70
0
  0
ENDTAB
  0
TABLE
  2
APPID
  5
9
100
AcDbSymbolTable
 70
1
  0
APPID
  5
216
100
AcDbSymbolTableRecord
100
AcDbRegAppTableRecord
  2
ACAD
 70
0
  0
ENDTAB
  0
TABLE
  2
BLOCK_RECORD
  5
1
100
AcDbSymbolTable
 70
0
  0
BLOCK_RECORD
  5
217
100
AcDbSymbolTableRecord
100
AcDbBlockTableRecord
  2
*Model_Space
  0
BLOCK_RECORD
  5
218
100
AcDbSymbolTableRecord
100
AcDbBlockTableRecord
  2
*Paper_Space
  0
BLOCK_RECORD
  5
219
100
AcDbSymbolTableRecord
100
AcDbBlockTableRecord
  2
_FILLED
  0
ENDTAB
  0
TABLE
  2
DIMSTYLE
  5
A
100
AcDbSymbolTable
 70
1
100
AcDbDimStyleTable
 71
0
  0
DIMSTYLE
105
21A
100
AcDbSymbolTableRecord
100
AcDbDimStyleTableRecord
  2
STANDARD
 70
0
  3

  4

 40
1.0
 41
0.1
 42
0.0625
 43
0.38
 44
0.125
 45
0.0
 46
0.0
 47
0.001
 48
0.001
140
0.08
141
0.09
142
0.0
143
25.4
144
1.0
145
0.0
146
1.0
147
0.09
 71
1.0
 72
0.0
 73
1
 74
1
 75
0
 76
0
 77
0
 78
4
 79
1
170
1
171
2
172
0
173
0
174
0
175
0
176
0
177
0
178
0
270
2
179
3
271
3
272
3
273
2
274
2
275
0
280
0
281
0
282
0
283
1
284
4
285
0
286
0
287
3
288
0
340
11
278
46
341
219
342
219
343
219
344
219
  0
ENDTAB
  0
ENDSEC
  0
SECTION
  2
BLOCKS
  0
BLOCK
  5
20
100
AcDbEntity
  8
0
100
AcDbBlockBegin
  2
*Model_Space
 70
0
 10
0.0
 20
0.0
 30
0.0
  3
*Model_Space
  1

  0
ENDBLK
  5
21
100
AcDbEntity
  8
0
100
AcDbBlockEnd
  0
BLOCK
  5
1C
100
AcDbEntity
  8
0
100
AcDbBlockBegin
  2
*Paper_Space
 70
0
 10
0.0
 20
0.0
 30
0.0
  3
*Paper_Space
  1

  0
ENDBLK
  5
1D
100
AcDbEntity
  8
0
100
AcDbBlockEnd
  0
BLOCK
  5
21B
100
AcDbEntity
  8
0
100
AcDbBlockBegin
  2
_FILLED
 70
64
 10
0.0
 20
0.0
  3
_FILLED
  1

  0
SOLID
  5
21C
100
AcDbEntity
  8
0
  6
BYBLOCK
 62
0
100
AcDbTrace
 10
0.0
 20
0.0
 11
-1.0
 21
0.2
 12
-1.0
 22
-0.2
 13
-1.0
 23
-0.2
  0
ENDBLK
  5
21D
100
AcDbEntity
  8
0
  6
BYBLOCK
 62
0
100
AcDbBlockEnd
  0
ENDSEC
  0
SECTION
  2
ENTITIES
  0
MTEXT
  5
21E
100
AcDbEntity
  8
0
100
AcDbMText
 62
2
  6
CONTINUOUS
  7
STANDARD
 71
3
 72
1
 10
5.9775782703
 20
3.1017986848
 30
0.0
 11
1.0
 21
0.0
 31
0.0
 73
2
 44
0.9
  1
SCALE  .500
 40
0.08
 41
0.704
  0
LINE
  5
21F
100
AcDbEntity
  8
0
100
AcDbLine
 62
7
  6
CONTINUOUS
 10
0.0
 20
0.0
 11
0.0
 21
8.5
  0
LINE
  5
220
100
AcDbEntity
  8
0
100
AcDbLine
 62
7
  6
CONTINUOUS
 10
0.0
 20
0.0
 11
11.0
 21
0.0
  0
LINE
  5
221
100
AcDbEntity
  8
0
100
AcDbLine
 62
7
  6
CONTINUOUS
 10
0.0
 20
8.5
 11
11.0
 21
8.5
  0
LINE
  5
222
100
AcDbEntity
  8
0
100
AcDbLine
 62
7
  6
CONTINUOUS
 10
11.0
 20
0.0
 11
11.0
 21
8.5
  0
LINE
  5
223
100
AcDbEntity
  8
ALL_ASSEMBLY_MEMBERS
100
AcDbLine
 62
7
  6
CONTINUOUS
 10
3.4370195766
 20
4.3127039817
 11
3.4376666242
 21
4.3151187963
  0
LINE
  5
224
100
AcDbEntity
  8
ALL_ASSEMBLY_MEMBERS
100
AcDbLine
 62
7
  6
CONTINUOUS
 10
3.369134171
 20
4.1807787752
 11
3.986360774
 21
4.0153934053
  0
LINE
  5
225
100
AcDbEntity
  8
ALL_ASSEMBLY_MEMBERS
100
AcDbLine
 62
7
  6
CONTINUOUS
 10
3.9935328916
 20
4.1635866884
 11
3.9941799392
 21
4.1660015029
  0
LWPOLYLINE
  5
226
100
AcDbEntity
  8
ALL_ASSEMBLY_MEMBERS
100
AcDbPolyline
 62
7
  6
CONTINUOUS
 90
33
 70
0
 10
4.0289315972
 20
4.1566898243
 10
4.0350310433
 20
4.1770011954
 10
4.0438760323
 20
4.2016735347
 10
4.0539981512
 20
4.2255029023
 10
4.0652647584
 20
4.2483412065
 10
4.077628373
 20
4.2702258092
 10
4.0911751163
 20
4.2913538679
 10
4.1058694401
 20
4.3116604156
 10
4.1216568225
 20
4.3310858493
 10
4.1386729993
 20
4.3497875916
 10
4.1568915365
 20
4.3676877613
 10
4.1762839332
 20
4.3847070247
 10
4.1970483334
 20
4.4009325674
 10
4.2192046824
 20
4.4162558626
 10
4.242707093
 20
4.4305194512
 10
4.2676923456
 20
4.44365792
 10
4.2941890439
 20
4.4555008063
 10
4.3220925492
 20
4.4658032745
 10
4.3513378414
 20
4.474335158
 10
4.3817799915
 20
4.4810347059
 10
4.4132635073
 20
4.4864723648
 10
4.4456862033
 20
4.4914008671
 10
4.4789357069
 20
4.4961390703
 10
4.513040718
 20
4.5006439185
 10
4.5481923444
 20
4.5048906772
 10
4.5843670507
 20
4.5088499531
 10
4.6215789308
 20
4.5124981538
 10
4.6600760455
 20
4.5158205619
 10
4.6998477628
 20
4.51877087
 10
4.7409156028
 20
4.5213076595
 10
4.7835835249
 20
4.5234002793
 10
4.8279535528
 20
4.5249933877
 10
4.8396001281
 20
4.5253134775
  0
LINE
  5
227
100
AcDbEntity
  8
ALL_ASSEMBLY_MEMBERS
100
AcDbLine
 62
7
  6
CONTINUOUS
 10
3.4066629326
 20
4.32083802
 11
4.0238895356
 21
4.1554526501
  0
LINE
  5
228
100
AcDbEntity
  8
ALL_ASSEMBLY_MEMBERS
100
AcDbLine
 62
7
  6
CONTINUOUS
 10
4.0289315984
 20
4.1566898239
 11
3.4143646257
 21
4.321362548
  0
LINE
  5
229
100
AcDbEntity
  8
ALL_ASSEMBLY_MEMBERS
100
AcDbLine
 62
7
  6
CONTINUOUS
 10
6.6386724384
 20
4.0165553524
 11
6.7051724384
 21
4.0165553524
  0
LINE
  5
22A
100
AcDbEntity
  8
ALL_ASSEMBLY_MEMBERS
100
AcDbLine
 62
7
  6
CONTINUOUS
 10
6.4916724384
 20
4.1025553524
 11
6.4926313483
 21
4.1025553524
  0
LINE
  5
22B
100
AcDbEntity
  8
ALL_ASSEMBLY_MEMBERS
100
AcDbLine
 62
7
  6
CONTINUOUS
 10
6.4176724384
 20
4.1428053524
 11
6.3463650242
 21
4.1428053524
  0
LINE
  5
22C
100
AcDbEntity
  8
ALL_ASSEMBLY_MEMBERS
100
AcDbLine
 62
7
  6
CONTINUOUS
 10
4.8923886363
 20
4.5262536701
 11
4.9214742781
 21
4.5264145697
  0
LWPOLYLINE
  5
22D
100
AcDbEntity
  8
ALL_ASSEMBLY_MEMBERS
100
AcDbPolyline
 62
7
  6
CONTINUOUS
 90
19
 70
0
 10
4.8923886363
 20
4.5262536701
 10
4.9774043141
 20
4.5260112945
 10
5.0740832541
 20
4.5231000632
 10
5.1711105776
 20
4.517349538
 10
5.2697551066
 20
4.5085852903
 10
5.3685689322
 20
4.4968415968
 10
5.4621792667
 20
4.4829206317
 10
5.5483757991
 20
4.4677383885
 10
5.6293209544
 20
4.4510302659
 10
5.7061947681
 20
4.4320204099
 10
5.7782280555
 20
4.4110830505
 10
5.8460953017
 20
4.388394784
 10
5.913124618
 20
4.3630928
 10
5.9803308746
 20
4.3347406311
 10
6.0464631616
 20
4.3037721914
 10
6.1113280521
 20
4.2702616905
 10
6.1748020683
 20
4.234280775
 10
6.2368213007
 20
4.1958736947
 10
6.2892859947
 20
4.1606957593
  0
LINE
  5
22E
100
AcDbEntity
  8
ALL_ASSEMBLY_MEMBERS
100
AcDbLine
 62
7
  6
CONTINUOUS
 10
6.289287173
 20
4.7290553523
 11
6.3463632964
 21
4.7294197173
  0
LINE
  5
22F
100
AcDbEntity
  8
ALL_ASSEMBLY_MEMBERS
100
AcDbLine
 62
7
  6
CONTINUOUS
 10
5.8676724384
 20
4.7290553525
 11
6.2892871996
 21
4.7290553524
  0
LWPOLYLINE
  5
230
100
AcDbEntity
  8
ALL_ASSEMBLY_MEMBERS
100
AcDbPolyline
 62
7
  6
CONTINUOUS
 90
11
 70
0
 10
6.2892863448
 20
5.2974152661
 10
6.2311203463
 20
5.2585667175
 10
6.165892084
 20
5.2185813868
 10
6.0990694587
 20
5.1812674174
 10
6.0307054814
 20
5.1466669
 10
5.9609627031
 20
5.1148802224
 10
5.8901262915
 20
5.0860307815
 10
5.8198035937
 20
5.0606188364
 10
5.7486803849
 20
5.0380201948
 10
5.6725077892
 20
5.0171912253
 10
5.5896912147
 20
4.9985254289
  0
LWPOLYLINE
  5
231
100
AcDbEntity
  8
ALL_ASSEMBLY_MEMBERS
100
AcDbPolyline
 62
7
  6
CONTINUOUS
 90
14
 70
0
 10
5.5896912147
 20
4.9985254289
 10
5.5018274067
 20
4.9830081754
 10
5.4094814778
 20
4.9697881994
 10
5.3106159899
 20
4.9570724158
 10
5.2076289619
 20
4.9450371962
 10
5.1079468195
 20
4.9346300914
 10
5.0137391556
 20
4.9258905049
 10
4.9228955759
 20
4.918477417
 10
4.8364863712
 20
4.9123488256
 10
4.7553269237
 20
4.9074077864
 10
4.6786385301
 20
4.9034637407
 10
4.6050974372
 20
4.9003422611
 10
4.5345008308
 20
4.8979500512
 10
4.5068052399
 20
4.8971749904
  0
LWPOLYLINE
  5
232
100
AcDbEntity
  8
ALL_ASSEMBLY_MEMBERS
100
AcDbPolyline
 62
7
  6
CONTINUOUS
 90
26
 70
0
 10
4.4154008815
 20
4.8952727343
 10
4.4021059099
 20
4.8950683898
 10
4.3395017602
 20
4.8944657214
 10
4.2794062282
 20
4.8928315803
 10
4.2216131188
 20
4.8879654562
 10
4.166318749
 20
4.8801900964
 10
4.1136139364
 20
4.8699625728
 10
4.063116151
 20
4.857456236
 10
4.0151711472
 20
4.8430204429
 10
3.969521164
 20
4.826857681
 10
3.9249100532
 20
4.8086636433
 10
3.8811225864
 20
4.7883541233
 10
3.8385394265
 20
4.7661103238
 10
3.7968846252
 20
4.741786812
 10
3.7560903013
 20
4.7152943075
 10
3.7164401779
 20
4.6867677777
 10
3.6781989905
 20
4.6563785126
 10
3.641487868
 20
4.6242224223
 10
3.606358589
 20
4.5903591487
 10
3.5729389614
 20
4.5549480379
 10
3.5412919196
 20
4.5180942214
 10
3.5114782141
 20
4.4798981675
 10
3.4835905757
 20
4.4405159701
 10
3.4576742652
 20
4.400063624
 10
3.4337510907
 20
4.3586146707
 10
3.4143645545
 20
4.321362567
  0
LINE
  5
233
100
AcDbEntity
  8
ALL_ASSEMBLY_MEMBERS
100
AcDbLine
 62
7
  6
CONTINUOUS
 10
6.4176724384
 20
5.3153053524
 11
6.3463649101
 21
5.3153053524
  0
LINE
  5
234
100
AcDbEntity
  8
ALL_ASSEMBLY_MEMBERS
100
AcDbLine
 62
7
  6
CONTINUOUS
 10
6.4916724384
 20
5.3555553524
 11
6.4926313483
 21
5.3555553524
  0
LINE
  5
235
100
AcDbEntity
  8
ALL_ASSEMBLY_MEMBERS
100
AcDbLine
 62
7
  6
CONTINUOUS
 10
6.6386724384
 20
5.4415553524
 11
6.7051724384
 21
5.4415553524
  0
LINE
  5
236
100
AcDbEntity
  8
ALL_ASSEMBLY_MEMBERS
100
AcDbLine
 62
7
  6
CONTINUOUS
 10
6.4176724384
 20
5.3153053524
 11
6.4176724384
 21
4.1428053524
  0
LINE
  5
237
100
AcDbEntity
  8
ALL_ASSEMBLY_MEMBERS
100
AcDbLine
 62
7
  6
CONTINUOUS
 10
6.4916724384
 20
4.1025553524
 11
6.4916724384
 21
5.3555553524
  0
LINE
  5
238
100
AcDbEntity
  8
ALL_ASSEMBLY_MEMBERS
100
AcDbLine
 62
7
  6
CONTINUOUS
 10
6.4926313483
 20
5.3555553524
 11
6.4926313483
 21
4.1025553524
  0
LINE
  5
239
100
AcDbEntity
  8
ALL_ASSEMBLY_MEMBERS
100
AcDbLine
 62
7
  6
CONTINUOUS
 10
6.5267367525
 20
5.3756391847
 11
6.5267367525
 21
4.0824715202
  0
LINE
  5
23A
100
AcDbEntity
  8
ALL_ASSEMBLY_MEMBERS
100
AcDbLine
 62
7
  6
CONTINUOUS
 10
6.6386724384
 20
4.0165553524
 11
6.6386724384
 21
5.4415553524
  0
LINE
  5
23B
100
AcDbEntity
  8
ALL_ASSEMBLY_MEMBERS
100
AcDbLine
 62
7
  6
CONTINUOUS
 10
6.7051724384
 20
4.0165553524
 11
6.7051724384
 21
5.4415553524
  0
ARC
  5
23C
100
AcDbEntity
  8
ALL_ASSEMBLY_MEMBERS
100
AcDbCircle
 62
7
  6
CONTINUOUS
 10
4.2844322765
 20
13.3906905366
 40
8.4964258767
100
AcDbArc
 50
270.8832236507
 51
271.4997467426
  0
ARC
  5
23D
100
AcDbEntity
  8
ALL_ASSEMBLY_MEMBERS
100
AcDbCircle
 62
7
  6
CONTINUOUS
 10
4.9253733148
 20
1.191865306
 40
3.3345515068
100
AcDbArc
 50
90.5667669793
 51
91.4739564477
  0
ARC
  5
23E
100
AcDbEntity
  8
ALL_ASSEMBLY_MEMBERS
100
AcDbCircle
 62
7
  6
CONTINUOUS
 10
6.6386724384
 20
4.1445553524
 40
0.128
100
AcDbArc
 50
209.0144340224
 51
270.0
  0
ARC
  5
23F
100
AcDbEntity
  8
ALL_ASSEMBLY_MEMBERS
100
AcDbCircle
 62
7
  6
CONTINUOUS
 10
6.6386724384
 20
5.3135553524
 40
0.128
100
AcDbArc
 50
90.0
 51
150.9855659776
  0
ARC
  5
240
100
AcDbEntity
  8
ALL_ASSEMBLY_MEMBERS
100
AcDbCircle
 62
7
  6
CONTINUOUS
 10
6.3463645954
 20
4.2428057358
 40
0.1000001902
100
AcDbArc
 50
235.1952825867
 51
270.000245687
  0
ARC
  5
241
100
AcDbEntity
  8
ALL_ASSEMBLY_MEMBERS
100
AcDbCircle
 62
7
  6
CONTINUOUS
 10
6.3463649484
 20
5.215305313
 40
0.0999999395
100
AcDbArc
 50
90.0000219451
 51
124.8048436736
  0
ARC
  5
242
100
AcDbEntity
  8
ALL_ASSEMBLY_MEMBERS
100
AcDbCircle
 62
7
  6
CONTINUOUS
 10
3.4394083069
 20
4.2370064003
 40
0.09
100
AcDbArc
 50
111.3360575146
 51
218.6639424854
  0
ARC
  5
243
100
AcDbEntity
  8
ALL_ASSEMBLY_MEMBERS
100
AcDbCircle
 62
7
  6
CONTINUOUS
 10
3.9536153997
 20
4.099225025
 40
0.09
100
AcDbArc
 50
291.3360575146
 51
38.6639424854
  0
ARC
  5
244
100
AcDbEntity
  8
ALL_ASSEMBLY_MEMBERS
100
AcDbCircle
 62
7
  6
CONTINUOUS
 10
6.4916724384
 20
4.1765553524
 40
0.074
100
AcDbArc
 50
180.0
 51
270.0
  0
ARC
  5
245
100
AcDbEntity
  8
ALL_ASSEMBLY_MEMBERS
100
AcDbCircle
 62
7
  6
CONTINUOUS
 10
6.4916724384
 20
5.2815553524
 40
0.074
100
AcDbArc
 50
90.0
 51
180.0
  0
ARC
  5
246
100
AcDbEntity
  8
ALL_ASSEMBLY_MEMBERS
100
AcDbCircle
 62
7
  6
CONTINUOUS
 10
6.4926313483
 20
5.3945553524
 40
0.039
100
AcDbArc
 50
270.0
 51
330.9855659776
  0
ARC
  5
247
100
AcDbEntity
  8
ALL_ASSEMBLY_MEMBERS
100
AcDbCircle
 62
7
  6
CONTINUOUS
 10
6.4926313483
 20
4.0635553524
 40
0.039
100
AcDbArc
 50
29.0144340224
 51
90.0
  0
SPLINE
  5
248
100
AcDbEntity
  8
ALL_ASSEMBLY_MEMBERS
100
AcDbSpline
 62
7
  6
CONTINUOUS
 70
0
 71
3
 72
52
 73
48
 74
0
 42
0.0000001
 43
0.0000001
 44
0.0000000001
 40
0.0
 40
0.0
 40
0.0
 40
0.0
 40
0.0315658113
 40
0.0473551047
 40
0.0631191175
 40
0.0788508878
 40
0.0945530349
 40
0.1102278435
 40
0.125874246
 40
0.1414890619
 40
0.1492843439
 40
0.1570702317
 40
0.1726203637
 40
0.1881614095
 40
0.2192395308
 40
0.2347816882
 40
0.2503211997
 40
0.2658710264
 40
0.281438633
 40
0.312631973
 40
0.3439102968
 40
0.3752759466
 40
0.3909916747
 40
0.4067261406
 40
0.4224760583
 40
0.4382373128
 40
0.4540033118
 40
0.4618846142
 40
0.4697681081
 40
0.4776563791
 40
0.4855482134
 40
0.4934410864
 40
0.501332761
 40
0.5171121275
 40
0.5328886449
 40
0.5486644439
 40
0.5644387167
 40
0.5959778813
 40
0.6275031594
 40
0.6590130038
 40
0.6905042881
 40
0.7219744716
 40
0.7534225582
 40
0.8162332449
 40
0.8785928067
 40
0.9399722448
 40
1.0
 40
1.0
 40
1.0
 40
1.0
 10
3.7216480746
 20
4.239026196
 30
0.0
 10
3.7280725673
 20
4.2630027293
 30
0.0
 10
3.739585673
 20
4.2985193618
 30
0.0
 10
3.7588862352
 20
4.3442710574
 30
0.0
 10
3.7753995517
 20
4.3776151464
 30
0.0
 10
3.7939980121
 20
4.409765522
 30
0.0
 10
3.8147027166
 20
4.4405184359
 30
0.0
 10
3.8373696222
 20
4.4697684818
 30
0.0
 10
3.8618725364
 20
4.4974055578
 30
0.0
 10
3.8837288929
 20
4.5190167521
 30
0.0
 10
3.9020030565
 20
4.5353886137
 30
0.0
 10
3.920767564
 20
4.5511169889
 30
0.0
 10
3.9451414767
 20
4.5696086721
 30
0.0
 10
3.9858330623
 20
4.5967462296
 30
0.0
 10
4.0287682321
 20
4.6203465976
 30
0.0
 10
4.0732561528
 20
4.6406267707
 30
0.0
 10
4.1073070799
 20
4.6542717898
 30
0.0
 10
4.1419290733
 20
4.6664451152
 30
0.0
 10
4.1887698187
 20
4.6808638118
 30
0.0
 10
4.2483730276
 20
4.6956910802
 30
0.0
 10
4.3209832287
 20
4.7090434369
 30
0.0
 10
4.3821120732
 20
4.7170076811
 30
0.0
 10
4.4312841816
 20
4.7217377397
 30
0.0
 10
4.4682986484
 20
4.7245255101
 30
0.0
 10
4.5053946591
 20
4.7266089537
 30
0.0
 10
4.5425458066
 20
4.7280448515
 30
0.0
 10
4.5735290501
 20
4.7287447761
 30
0.0
 10
4.5983228374
 20
4.7289896287
 30
0.0
 10
4.6169227602
 20
4.7290631675
 30
0.0
 10
4.6355310518
 20
4.7290799378
 30
0.0
 10
4.6541467171
 20
4.7290704265
 30
0.0
 10
4.6727650489
 20
4.7290514002
 30
0.0
 10
4.6975858897
 20
4.729039961
 30
0.0
 10
4.7286061757
 20
4.7290465636
 30
0.0
 10
4.7658262781
 20
4.7290621593
 30
0.0
 10
4.8030423793
 20
4.7290619231
 30
0.0
 10
4.8526537147
 20
4.7290521748
 30
0.0
 10
4.9146499331
 20
4.729051227
 30
0.0
 10
4.9890200957
 20
4.7290558605
 30
0.0
 10
5.063352607
 20
4.729055654
 30
0.0
 10
5.1376417936
 20
4.7290552127
 30
0.0
 10
5.211882416
 20
4.7290551887
 30
0.0
 10
5.3107516041
 20
4.7290554149
 30
0.0
 10
5.4339112011
 20
4.7290553235
 30
0.0
 10
5.5806078454
 20
4.7290553643
 30
0.0
 10
5.7251160824
 20
4.7290553479
 30
0.0
 10
5.8205867754
 20
4.7290553524
 30
0.0
 10
5.867790662
 20
4.7290553526
 30
0.0
  0
SPLINE
  5
249
100
AcDbEntity
  8
ALL_ASSEMBLY_MEMBERS
100
AcDbSpline
 62
7
  6
CONTINUOUS
 70
0
 71
3
 72
40
 73
36
 74
0
 42
0.0000001
 43
0.0000001
 44
0.0000000001
 40
0.0
 40
0.0
 40
0.0
 40
0.0
 40
0.0624694866
 40
0.0937223675
 40
0.1249702304
 40
0.156209859
 40
0.1874418418
 40
0.2186740699
 40
0.2499134543
 40
0.3123940249
 40
0.3436737823
 40
0.374960115
 40
0.4062359575
 40
0.4374888803
 40
0.4531071734
 40
0.4687185869
 40
0.4843240296
 40
0.4999261258
 40
0.515534653
 40
0.5311565704
 40
0.5467914811
 40
0.5624334126
 40
0.5702540742
 40
0.5780729469
 40
0.5937054789
 40
0.6093327069
 40
0.6249566281
 40
0.6562026385
 40
0.6874549777
 40
0.7187114571
 40
0.749967682
 40
0.812475253
 40
0.8749833746
 40
0.9374917403
 40
1.0
 40
1.0
 40
1.0
 40
1.0
 10
4.0289315984
 20
4.1566898239
 30
0.0
 10
4.0342594283
 20
4.1760800551
 30
0.0
 10
4.0442261477
 20
4.2046806706
 30
0.0
 10
4.0611795266
 20
4.2411830743
 30
0.0
 10
4.0756882766
 20
4.2676686088
 30
0.0
 10
4.0919259684
 20
4.2931206106
 30
0.0
 10
4.1098412052
 20
4.3174152133
 30
0.0
 10
4.1293435047
 20
4.3404565781
 30
0.0
 10
4.1573193404
 20
4.3693862128
 30
0.0
 10
4.1881151334
 20
4.3954999056
 30
0.0
 10
4.2212546503
 20
4.4183864585
 30
0.0
 10
4.2472132998
 20
4.4338814531
 30
0.0
 10
4.2741399124
 20
4.4476020924
 30
0.0
 10
4.2972964565
 20
4.457484545
 30
0.0
 10
4.3161836596
 20
4.4644088953
 30
0.0
 10
4.3305150208
 20
4.4690994081
 30
0.0
 10
4.344998352
 20
4.4732787411
 30
0.0
 10
4.359623632
 20
4.4769258169
 30
0.0
 10
4.3743621606
 20
4.4801044239
 30
0.0
 10
4.3891859519
 20
4.4829110106
 30
0.0
 10
4.4040708212
 20
4.4854347516
 30
0.0
 10
4.4165055331
 20
4.4873780455
 30
0.0
 10
4.4264620009
 20
4.4888824012
 30
0.0
 10
4.4364182563
 20
4.4903678506
 30
0.0
 10
4.4488652484
 20
4.4921882889
 30
0.0
 10
4.4638069249
 20
4.4943121099
 30
0.0
 10
4.4837363276
 20
4.4970591085
 30
0.0
 10
4.5086709639
 20
4.5003271317
 30
0.0
 10
4.5386310142
 20
4.5039644275
 30
0.0
 10
4.5686266319
 20
4.5073253842
 30
0.0
 10
4.6086594572
 20
4.5114461853
 30
0.0
 10
4.6587664517
 20
4.5159250293
 30
0.0
 10
4.7189816062
 20
4.5202057186
 30
0.0
 10
4.7792644244
 20
4.5233964901
 30
0.0
 10
4.8194854305
 20
4.5247958921
 30
0.0
 10
4.8396001281
 20
4.5253134775
 30
0.0
  0
SPLINE
  5
24A
100
AcDbEntity
  8
ALL_ASSEMBLY_MEMBERS
100
AcDbSpline
 62
7
  6
CONTINUOUS
 70
0
 71
3
 72
51
 73
47
 74
0
 42
0.0000001
 43
0.0000001
 44
0.0000000001
 40
0.0
 40
0.0
 40
0.0
 40
0.0
 40
0.0981714915
 40
0.1470124168
 40
0.1955059379
 40
0.2909741322
 40
0.3836668102
 40
0.4726695722
 40
0.557080463
 40
0.5973014418
 40
0.6360633966
 40
0.6732725864
 40
0.7088380474
 40
0.7426694415
 40
0.7746861558
 40
0.8048151209
 40
0.8329835817
 40
0.8591248547
 40
0.8831822393
 40
0.9050999123
 40
0.9248257086
 40
0.942321267
 40
0.9575514527
 40
0.9643060922
 40
0.9704823316
 40
0.9760779401
 40
0.9810907394
 40
0.9855185528
 40
0.9893592075
 40
0.9926105388
 40
0.994014639
 40
0.9952709541
 40
0.9963794757
 40
0.9973401945
 40
0.9981531002
 40
0.9988181815
 40
0.9990952842
 40
0.999335426
 40
0.9995386053
 40
0.9997048203
 40
0.9998340691
 40
0.99992635
 40
0.9999586268
 40
0.9999816609
 40
0.999995452
 40
1.0
 40
1.0
 40
1.0
 40
1.0
 10
6.289287173
 20
4.7290553523
 30
0.0
 10
6.2893305623
 20
4.7476543484
 30
0.0
 10
6.2894250429
 20
4.7755063849
 30
0.0
 10
6.2895554397
 20
4.812545665
 30
0.0
 10
6.2896665774
 20
4.8490728574
 30
0.0
 10
6.2897711796
 20
4.8939080155
 30
0.0
 10
6.2898910059
 20
4.9464178212
 30
0.0
 10
6.2900061161
 20
4.9968327726
 30
0.0
 10
6.2900864613
 20
5.0373067773
 30
0.0
 10
6.290108516
 20
5.0682624983
 30
0.0
 10
6.2900952364
 20
5.090275639
 30
0.0
 10
6.2900637798
 20
5.1114067464
 30
0.0
 10
6.2900270074
 20
5.1316037251
 30
0.0
 10
6.2900010308
 20
5.1508169819
 30
0.0
 10
6.2899834004
 20
5.1690002771
 30
0.0
 10
6.2899594724
 20
5.1861106969
 30
0.0
 10
6.2899151122
 20
5.20210795
 30
0.0
 10
6.2898437754
 20
5.2169548022
 30
0.0
 10
6.2897615106
 20
5.2306173304
 30
0.0
 10
6.2896811043
 20
5.243064404
 30
0.0
 10
6.2896164868
 20
5.254268383
 30
0.0
 10
6.2895637155
 20
5.2642054317
 30
0.0
 10
6.2895247552
 20
5.271685073
 30
0.0
 10
6.2894950057
 20
5.2770202351
 30
0.0
 10
6.2894739811
 20
5.2805301017
 30
0.0
 10
6.2894531675
 20
5.2837099635
 30
0.0
 10
6.2894323433
 20
5.2865585699
 30
0.0
 10
6.2894113017
 20
5.2890746806
 30
0.0
 10
6.2893898579
 20
5.2912570558
 30
0.0
 10
6.2893706466
 20
5.2928665665
 30
0.0
 10
6.2893545653
 20
5.2939864595
 30
0.0
 10
6.2893432289
 20
5.2947004125
 30
0.0
 10
6.2893322644
 20
5.295330359
 30
0.0
 10
6.2893219277
 20
5.2958762983
 30
0.0
 10
6.2893124715
 20
5.2963382234
 30
0.0
 10
6.2893051558
 20
5.296670659
 30
0.0
 10
6.2892999446
 20
5.2968945856
 30
0.0
 10
6.2892966668
 20
5.2970310569
 30
0.0
 10
6.2892937792
 20
5.2971464331
 30
0.0
 10
6.2892913942
 20
5.2972410588
 30
0.0
 10
6.2892893291
 20
5.2973140145
 30
0.0
 10
6.2892882355
 20
5.2973630722
 30
0.0
 10
6.2892871262
 20
5.2973896917
 30
0.0
 10
6.2892872496
 20
5.2974049617
 30
0.0
 10
6.2892861134
 20
5.2974089515
 30
0.0
 10
6.2892869191
 20
5.2974163812
 30
0.0
 10
6.2892865018
 20
5.2974156274
 30
0.0
  0
SPLINE
  5
24B
100
AcDbEntity
  8
ALL_ASSEMBLY_MEMBERS
100
AcDbSpline
 62
7
  6
CONTINUOUS
 70
0
 71
3
 72
54
 73
50
 74
0
 42
0.0000001
 43
0.0000001
 44
0.0000000001
 40
0.0
 40
0.0
 40
0.0
 40
0.0
 40
0.0980161836
 40
0.1467568966
 40
0.1951351645
 40
0.290336859
 40
0.3827372252
 40
0.471456335
 40
0.5556289068
 40
0.5957570194
 40
0.6344481087
 40
0.6716109447
 40
0.7071568259
 40
0.7409976756
 40
0.7730529512
 40
0.8032475331
 40
0.8315064249
 40
0.8577604734
 40
0.881949749
 40
0.9040151616
 40
0.9239008992
 40
0.9415623414
 40
0.9495457514
 40
0.9569572374
 40
0.9637915643
 40
0.9700446375
 40
0.9757134242
 40
0.980794931
 40
0.9852861642
 40
0.9891841312
 40
0.9909097054
 40
0.9924858454
 40
0.9939123003
 40
0.9951889749
 40
0.9963157838
 40
0.9972926415
 40
0.9981194615
 40
0.9987961574
 40
0.9990781815
 40
0.9993226419
 40
0.9995295277
 40
0.999698828
 40
0.9998305322
 40
0.9998822826
 40
0.9999246301
 40
0.9999575739
 40
0.9999811134
 40
0.9999952498
 40
1.0
 40
1.0
 40
1.0
 40
1.0
 10
6.3463632964
 20
4.7294197177
 30
0.0
 10
6.3462639837
 20
4.7485619566
 30
0.0
 10
6.3461252459
 20
4.7772231472
 30
0.0
 10
6.3459273907
 20
4.8153324048
 30
0.0
 10
6.3457097908
 20
4.8528918787
 30
0.0
 10
6.3454143856
 20
4.8989777369
 30
0.0
 10
6.3451213555
 20
4.9529423008
 30
0.0
 10
6.3449254083
 20
5.0047533257
 30
0.0
 10
6.3448476017
 20
5.046355897
 30
0.0
 10
6.3448128801
 20
5.0781880641
 30
0.0
 10
6.3447928366
 20
5.1008392722
 30
0.0
 10
6.3447888046
 20
5.1225955837
 30
0.0
 10
6.3448121293
 20
5.1434046428
 30
0.0
 10
6.3448780049
 20
5.1632161087
 30
0.0
 10
6.3449801851
 20
5.1819822924
 30
0.0
 10
6.3450994771
 20
5.1996581909
 30
0.0
 10
6.3452172196
 20
5.2162010954
 30
0.0
 10
6.3453232201
 20
5.2315712214
 30
0.0
 10
6.3454292866
 20
5.2457317341
 30
0.0
 10
6.3455440019
 20
5.2586484161
 30
0.0
 10
6.3456767865
 20
5.2702899714
 30
0.0
 10
6.3457979977
 20
5.2791812458
 30
0.0
 10
6.3458950267
 20
5.2856363984
 30
0.0
 10
6.3459635747
 20
5.2899772103
 30
0.0
 10
6.3460291061
 20
5.2939800931
 30
0.0
 10
6.3460906023
 20
5.297642648
 30
0.0
 10
6.3461473068
 20
5.3009629102
 30
0.0
 10
6.346198424
 20
5.3039391315
 30
0.0
 10
6.3462431697
 20
5.3065695712
 30
0.0
 10
6.3462757138
 20
5.3085447122
 30
0.0
 10
6.3462976485
 20
5.3099506342
 30
0.0
 10
6.3463113031
 20
5.3108739417
 30
0.0
 10
6.3463228474
 20
5.3117096006
 30
0.0
 10
6.3463325001
 20
5.3124575229
 30
0.0
 10
6.3463404476
 20
5.3131176536
 30
0.0
 10
6.3463468833
 20
5.3136899395
 30
0.0
 10
6.3463519986
 20
5.3141743282
 30
0.0
 10
6.3463555018
 20
5.3145230245
 30
0.0
 10
6.3463578261
 20
5.3147579948
 30
0.0
 10
6.3463592548
 20
5.314901211
 30
0.0
 10
6.3463604858
 20
5.3150224266
 30
0.0
 10
6.3463615833
 20
5.3151215837
 30
0.0
 10
6.3463623615
 20
5.315190535
 30
0.0
 10
6.34636306
 20
5.3152345328
 30
0.0
 10
6.3463633012
 20
5.3152595438
 30
0.0
 10
6.3463640884
 20
5.3152783175
 30
0.0
 10
6.3463635002
 20
5.3152932918
 30
0.0
 10
6.3463654441
 20
5.3152994881
 30
0.0
 10
6.3463639825
 20
5.3153053365
 30
0.0
 10
6.3463649101
 20
5.3153053524
 30
0.0
  0
SPLINE
  5
24C
100
AcDbEntity
  8
ALL_ASSEMBLY_MEMBERS
100
AcDbSpline
 62
7
  6
CONTINUOUS
 70
0
 71
3
 72
52
 73
48
 74
0
 42
0.0000001
 43
0.0000001
 44
0.0000000001
 40
0.0
 40
0.0
 40
0.0
 40
0.0
 40
0.0000046699
 40
0.0000187785
 40
0.0000423241
 40
0.000075305
 40
0.0001177192
 40
0.0001695648
 40
0.0003015421
 40
0.0004712216
 40
0.0006785877
 40
0.0009236251
 40
0.0012063182
 40
0.0018846106
 40
0.0027133424
 40
0.0036923919
 40
0.0048216383
 40
0.006100961
 40
0.0075302404
 40
0.0091093575
 40
0.010838194
 40
0.0147444152
 40
0.0192463763
 40
0.0243406772
 40
0.0300238996
 40
0.0362926217
 40
0.0431434204
 40
0.0505728625
 40
0.0585766912
 40
0.076284692
 40
0.0962210976
 40
0.1183392142
 40
0.1425849131
 40
0.1688952027
 40
0.1972065562
 40
0.2274510555
 40
0.293430196
 40
0.3661901564
 40
0.4048905852
 40
0.4450151685
 40
0.5291452019
 40
0.6177789558
 40
0.7100612791
 40
0.8051219002
 40
0.8534270575
 40
0.9020981305
 40
1.0
 40
1.0
 40
1.0
 40
1.0
 10
6.2892863713
 20
4.1606953519
 30
0.0
 10
6.2892871209
 20
4.160694882
 30
0.0
 10
6.289285492
 20
4.1607017489
 30
0.0
 10
6.2892873269
 20
4.1607065545
 30
0.0
 10
6.2892866251
 20
4.1607217689
 30
0.0
 10
6.2892873766
 20
4.160739699
 30
0.0
 10
6.2892876177
 20
4.1607641164
 30
0.0
 10
6.2892883872
 20
4.1608068221
 30
0.0
 10
6.2892893592
 20
4.1608738849
 30
0.0
 10
6.2892907726
 20
4.1609702682
 30
0.0
 10
6.2892923733
 20
4.1610881286
 30
0.0
 10
6.2892941764
 20
4.1612273783
 30
0.0
 10
6.2892969699
 20
4.1614558488
 30
0.0
 10
6.2893007567
 20
4.1617948947
 30
0.0
 10
6.2893054086
 20
4.1622658679
 30
0.0
 10
6.2893101973
 20
4.1628222776
 30
0.0
 10
6.2893149133
 20
4.1634640569
 30
0.0
 10
6.2893193468
 20
4.1641911376
 30
0.0
 10
6.2893232891
 20
4.1650034519
 30
0.0
 10
6.2893265278
 20
4.1659009319
 30
0.0
 10
6.2893297806
 20
4.1672676795
 30
0.0
 10
6.2893305101
 20
4.1691881755
 30
0.0
 10
6.2893270236
 20
4.1717462672
 30
0.0
 10
6.2893201679
 20
4.174641012
 30
0.0
 10
6.2893107479
 20
4.1778704701
 30
0.0
 10
6.2892996383
 20
4.1814326994
 30
0.0
 10
6.2892876885
 20
4.1853257552
 30
0.0
 10
6.2892758156
 20
4.1895475348
 30
0.0
 10
6.2892604327
 20
4.1958262478
 30
0.0
 10
6.2892436127
 20
4.2044744526
 30
0.0
 10
6.2892282357
 20
4.2157966654
 30
0.0
 10
6.2892189262
 20
4.2283574752
 30
0.0
 10
6.2892126823
 20
4.2421258414
 30
0.0
 10
6.2892009233
 20
4.2570675359
 30
0.0
 10
6.2891751777
 20
4.2731457109
 30
0.0
 10
6.2891157344
 20
4.2967392322
 30
0.0
 10
6.2890409181
 20
4.3287537086
 30
0.0
 10
6.2890491631
 20
4.3623702786
 30
0.0
 10
6.2890525189
 20
4.3910885883
 30
0.0
 10
6.2890368517
 20
4.4219609997
 30
0.0
 10
6.2889957357
 20
4.462293439
 30
0.0
 10
6.2889938995
 20
4.5125073779
 30
0.0
 10
6.2890443537
 20
4.5647921271
 30
0.0
 10
6.2891166343
 20
4.6094364398
 30
0.0
 10
6.289165136
 20
4.645818473
 30
0.0
 10
6.2892037237
 20
4.6827388
 30
0.0
 10
6.2892416663
 20
4.7105075505
 30
0.0
 10
6.2892871456
 20
4.7290553521
 30
0.0
  0
SPLINE
  5
24D
100
AcDbEntity
  8
ALL_ASSEMBLY_MEMBERS
100
AcDbSpline
 62
7
  6
CONTINUOUS
 70
0
 71
3
 72
54
 73
50
 74
0
 42
0.0000001
 43
0.0000001
 44
0.0000000001
 40
0.0
 40
0.0
 40
0.0
 40
0.0
 40
0.0000048161
 40
0.0000190231
 40
0.0000426479
 40
0.0000756924
 40
0.0001181559
 40
0.0001700368
 40
0.0003020433
 40
0.0004716959
 40
0.0006789778
 40
0.0009238718
 40
0.0012063607
 40
0.0018840545
 40
0.0027119213
 40
0.0036898236
 40
0.0048176245
 40
0.0060951874
 40
0.0075223764
 40
0.0090990562
 40
0.0108250921
 40
0.0147245594
 40
0.0192181846
 40
0.0243025565
 40
0.0299742486
 40
0.0362298325
 40
0.0430658794
 40
0.0504789512
 40
0.0584648317
 40
0.076132852
 40
0.0960249923
 40
0.1180959319
 40
0.1422929258
 40
0.1685546837
 40
0.196819428
 40
0.2270207744
 40
0.2590830815
 40
0.2929295939
 40
0.3656494759
 40
0.4043445973
 40
0.4444753781
 40
0.528650148
 40
0.6173647886
 40
0.7097546163
 40
0.757051066
 40
0.8049356285
 40
0.8532988504
 40
0.9020225423
 40
1.0
 40
1.0
 40
1.0
 40
1.0
 10
6.3463650242
 20
4.1428053524
 30
0.0
 10
6.3463640859
 20
4.1428054325
 30
0.0
 10
6.3463654893
 20
4.1428111716
 30
0.0
 10
6.3463637358
 20
4.1428175716
 30
0.0
 10
6.3463645016
 20
4.142832531
 30
0.0
 10
6.3463640826
 20
4.1428514295
 30
0.0
 10
6.3463643018
 20
4.142876527
 30
0.0
 10
6.3463644678
 20
4.1429206972
 30
0.0
 10
6.3463650761
 20
4.1429898846
 30
0.0
 10
6.3463660225
 20
4.1430893721
 30
0.0
 10
6.3463673215
 20
4.1432109662
 30
0.0
 10
6.3463689092
 20
4.1433546099
 30
0.0
 10
6.3463715634
 20
4.1435902358
 30
0.0
 10
6.3463754968
 20
4.1439398463
 30
0.0
 10
6.3463807525
 20
4.1444254321
 30
0.0
 10
6.3463865925
 20
4.1449990297
 30
0.0
 10
6.3463928115
 20
4.1456605611
 30
0.0
 10
6.346399204
 20
4.1464099475
 30
0.0
 10
6.3464055645
 20
4.1472471104
 30
0.0
 10
6.3464116833
 20
4.1481719712
 30
0.0
 10
6.3464195897
 20
4.1495802571
 30
0.0
 10
6.3464273504
 20
4.1515589276
 30
0.0
 10
6.3464339328
 20
4.1541942898
 30
0.0
 10
6.3464391711
 20
4.1571761946
 30
0.0
 10
6.3464439494
 20
4.160502632
 30
0.0
 10
6.3464492225
 20
4.1641715899
 30
0.0
 10
6.346455915
 20
4.1681810537
 30
0.0
 10
6.3464650377
 20
4.1725288542
 30
0.0
 10
6.3464818889
 20
4.1789947157
 30
0.0
 10
6.346510844
 20
4.1879006975
 30
0.0
 10
6.3465560767
 20
4.1995608171
 30
0.0
 10
6.3466135569
 20
4.2124975654
 30
0.0
 10
6.3466787903
 20
4.2266797997
 30
0.0
 10
6.3467417711
 20
4.2420731873
 30
0.0
 10
6.3467924357
 20
4.258640714
 30
0.0
 10
6.3468263345
 20
4.2763425171
 30
0.0
 10
6.3468576208
 20
4.2951357775
 30
0.0
 10
6.3469129893
 20
4.3222430437
 30
0.0
 10
6.3470064445
 20
4.3506471886
 30
0.0
 10
6.3470767967
 20
4.3802802227
 30
0.0
 10
6.3471136508
 20
4.4121532004
 30
0.0
 10
6.3471019435
 20
4.453806968
 30
0.0
 10
6.3470684782
 20
4.5056793955
 30
0.0
 10
6.3470196927
 20
4.5503406638
 30
0.0
 10
6.3469555308
 20
4.5870180268
 30
0.0
 10
6.3468863351
 20
4.615086443
 30
0.0
 10
6.3467886138
 20
4.6434338601
 30
0.0
 10
6.3466152649
 20
4.6815761664
 30
0.0
 10
6.3464604467
 20
4.7102615485
 30
0.0
 10
6.3463632964
 20
4.7294197177
 30
0.0
  0
ENDSEC
  0
SECTION
  2
OBJECTS
  0
DICTIONARY
  5
C
100
AcDbDictionary
280
0
281
1
  3
ACAD_GROUP
350
D
  3
ACAD_MLINESTYLE
350
17
  3
ACAD_LAYOUT
350
1A
  3
ACAD_PLOTSETTINGS
350
19
  3
ACAD_PLOTSTYLENAME
350
E
  0
DICTIONARY
  5
D
102
{ACAD_REACTORS
330
C
102
}
100
AcDbDictionary
280
0
281
1
  0
ACDBDICTIONARYWDFLT
  5
E
102
{ACAD_REACTORS
330
C
102
}
100
AcDbDictionary
281
1
  3
Normal
350
F
100
AcDbDictionaryWithDefault
340
F
  0
DICTIONARY
  5
17
102
{ACAD_REACTORS
330
C
102
}
100
AcDbDictionary
280
0
281
1
  3
Standard
350
18
  0
DICTIONARY
  5
19
102
{ACAD_REACTORS
330
C
102
}
100
AcDbDictionary
281
1
  0
DICTIONARY
  5
1A
102
{ACAD_REACTORS
330
C
102
}
100
AcDbDictionary
281
1
  3
Model
350
24E
  3
Layout1
350
24F
  0
ACDBPLACEHOLDER
  5
F
102
{ACAD_REACTORS
330
E
102
}
  0
MLINESTYLE
  5
18
102
{ACAD_REACTORS
330
17
102
}
100
AcDbMlineStyle
  2
STANDARD
 70
0
  3

 62
256
 51
90.0
 52
90.0
 71
2
 49
0.5
 62
256
  6
BYLAYER
 49
-0.5
 62
256
  6
BYLAYER
  0
LAYOUT
  5
24E
102
{ACAD_REACTORS
330
1A
102
}
100
AcDbPlotSettings
  1

  2
none_device
  4
ANSI_A_(11.00_x_8.50_Inches)
  6

 40
0.0
 41
0.0
 42
0.0
 43
0.0
 44
279.4
 45
215.9
 46
0.0
 47
0.0
 48
0.0
 49
0.0
140
0.0
141
0.0
142
1.0
143
1.0
 70
1024
 72
0
 73
0
 74
0
  7

 75
0
147
1.0
148
0.0
149
0.0
100
AcDbLayout
  1
Model
 70
0
 71
0
 10
0.0
 20
0.0
 11
11.0
 21
8.5
 12
0.0
 22
0.0
 32
0.0
 14
0.0
 24
0.0
 34
0.0
 15
0.0
 25
0.0
 35
0.0
146
0.0
 13
0.0
 23
0.0
 33
0.0
 16
1.0
 26
0.0
 36
0.0
 17
0.0
 27
1.0
 37
0.0
 76
0
330
217
345
0
346
0
  0
LAYOUT
  5
24F
102
{ACAD_REACTORS
330
1A
102
}
100
AcDbPlotSettings
  1

  2
none_device
  4
ANSI_A_(11.00_x_8.50_Inches)
  6

 40
0.0
 41
0.0
 42
0.0
 43
0.0
 44
279.4
 45
215.9
 46
0.0
 47
0.0
 48
0.0
 49
0.0
140
0.0
141
0.0
142
1.0
143
1.0
 70
0
 72
0
 73
0
 74
0
  7

 75
0
147
1.0
148
0.0
149
0.0
100
AcDbLayout
  1
Layout1
 70
0
 71
1
 10
0.0
 20
0.0
 11
11.0
 21
8.5
 12
0.0
 22
0.0
 32
0.0
 14
0.0
 24
0.0
 34
0.0
 15
0.0
 25
0.0
 35
0.0
146
0.0
 13
0.0
 23
0.0
 33
0.0
 16
1.0
 26
0.0
 36
0.0
 17
0.0
 27
1.0
 37
0.0
 76
0
330
218
345
0
346
0
  0
ENDSEC
  0
EOF
