999
DXF file: 220_right.dxf
999
Pro/ENGINEER 2018400 by Parametric Technology Corporation
  0
SECTION
  2
HEADER
  9
$ACADVER
  1
AC1027
  9
$DWGCODEPAGE
  3
ANSI_1252
  9
$EXTMAX
 10
11.0
 20
8.5
 30
0.0
  9
$EXTMIN
 10
0.0
 20
0.0
 30
0.0
  9
$LIMMIN
 10
0.0
 20
0.0
  9
$LIMMAX
 10
11.0
 20
8.5
  9
$VIEWCTR
 10
5.5
 20
4.25
  9
$VIEWSIZE
 40
8.5
  9
$CLAYER
  8
0
  9
$LTSCALE
 40
0.605
  9
$CELTYPE
  6
BYLAYER
  9
$DIMSCALE
 40
1.0
  9
$DIMASZ
 40
0.1
  9
$DIMEXO
 40
0.0625
  9
$DIMDLI
 40
0.418
  9
$DIMEXE
 40
0.125
  9
$DIMCEN
 40
0.099
  9
$DIMLFAC
 40
1.0
  9
$DIMBLK
  1
_FILLED
  9
$DIMALT
 70
1
  9
$DIMALTD
 70
2
  9
$DIMALTTD
 70
2
  9
$DIMALTF
 40
25.4
  9
$DIMTXT
 40
0.08
  9
$DIMTOL
 70
1
  9
$DIMLIM
 70
0
  9
$DIMTFAC
 40
1.0
  9
$DIMTP
 40
0.001
  9
$DIMTM
 40
0.001
  9
$DIMGAP
 40
0.09
  9
$DIMDSEP
 70
46
  9
$AUNITS
 70
0
  9
$PDMODE
 70
3
  9
$PDSIZE
 40
0.3125
  9
$HANDSEED
  5
263
  9
$TILEMODE
 70
1
  9
$MEASUREMENT
 70
0
  9
$INSUNITS
 70
1
  0
ENDSEC
  0
SECTION
  2
CLASSES
  0
CLASS
  1
ACDBDICTIONARYWDFLT
  2
AcDbDictionaryWithDefault
  3
AutoCAD 2000
 90
0
 91
1
280
0
281
0
  0
CLASS
  1
ACDBPLACEHOLDER
  2
AcDbPlaceHolder
  3
AutoCAD 2000
 90
0
 91
1
280
0
281
0
  0
CLASS
  1
LAYOUT
  2
AcDbLayout
  3
AutoCAD 2000
 90
0
 91
0
280
0
281
0
  0
ENDSEC
  0
SECTION
  2
TABLES
  0
TABLE
  2
VPORT
  5
8
100
AcDbSymbolTable
 70
2
  0
VPORT
  5
1F4
100
AcDbSymbolTableRecord
100
AcDbViewportTableRecord
  2
*ACTIVE
 70
0
 10
0.0
 20
0.0
 11
1.0
 21
1.0
 12
5.5
 22
4.25
 13
0.0
 23
0.0
 14
1.0
 24
1.0
 15
0.0
 25
0.0
 16
0.0
 26
0.0
 36
1.0
 17
0.0
 27
0.0
 37
0.0
 40
8.5
 41
1.2941176471
 42
50.0
 43
0.0
 44
0.0
 50
0.0
 51
0.0
 71
0
 72
100
 73
1
 74
1
 75
0
 76
0
 77
0
 78
0
  0
ENDTAB
  0
TABLE
  2
LTYPE
  5
5
100
AcDbSymbolTable
 70
6
  0
LTYPE
  5
14
100
AcDbSymbolTableRecord
100
AcDbLinetypeTableRecord
  2
BYBLOCK
 70
0
  3

 72
65
 73
0
 40
0.0
  0
LTYPE
  5
15
100
AcDbSymbolTableRecord
100
AcDbLinetypeTableRecord
  2
BYLAYER
 70
0
  3

 72
65
 73
0
 40
0.0
  0
LTYPE
  5
16
100
AcDbSymbolTableRecord
100
AcDbLinetypeTableRecord
  2
CONTINUOUS
 70
64
  3
Solid line
 72
65
 73
0
 40
0.0
  0
LTYPE
  5
1F5
100
AcDbSymbolTableRecord
100
AcDbLinetypeTableRecord
  2
CENTER
 70
64
  3
____ _ ____ _ ____ _ ____ _ ____ _ ____ _ ____
 72
65
 73
4
 40
0.6
 49
0.375
 74
0
 49
-0.075
 74
0
 49
0.075
 74
0
 49
-0.075
 74
0
  0
LTYPE
  5
1F6
100
AcDbSymbolTableRecord
100
AcDbLinetypeTableRecord
  2
HIDDEN
 70
64
  3
- - - - - - - - - - - - - - - - - - - -
 72
65
 73
2
 40
0.2
 49
0.1
 74
0
 49
-0.1
 74
0
  0
LTYPE
  5
1F7
100
AcDbSymbolTableRecord
100
AcDbLinetypeTableRecord
  2
PHANTOM
 70
64
  3
_____ _ _ _____ _ _ _____ _ _ _____
 72
65
 73
6
 40
0.8
 49
0.45
 74
0
 49
-0.05
 74
0
 49
0.1
 74
0
 49
-0.05
 74
0
 49
0.1
 74
0
 49
-0.05
 74
0
  0
LTYPE
  5
1F8
100
AcDbSymbolTableRecord
100
AcDbLinetypeTableRecord
  2
DOT
 70
64
  3
. . . . . . . . . . . . . . . . . . . .
 72
65
 73
2
 40
0.2
 49
0.1
 74
0
 49
-0.1
 74
0
  0
LTYPE
  5
1F9
100
AcDbSymbolTableRecord
100
AcDbLinetypeTableRecord
  2
DASHED
 70
64
  3
- - - - - - - - - - - - - - - - - - - -
 72
65
 73
2
 40
0.2
 49
0.1
 74
0
 49
-0.1
 74
0
  0
ENDTAB
  0
TABLE
  2
LAYER
  5
2
100
AcDbSymbolTable
 70
36
  0
LAYER
  5
10
100
AcDbSymbolTableRecord
100
AcDbLayerTableRecord
  2
0
 70
0
 62
7
  6
CONTINUOUS
370
-3
390
F
  0
LAYER
  5
1FA
100
AcDbSymbolTableRecord
100
AcDbLayerTableRecord
  2
DEFAULT_1
 70
0
 62
7
  6
CENTER
370
-3
390
F
  0
LAYER
  5
1FB
100
AcDbSymbolTableRecord
100
AcDbLayerTableRecord
  2
DEFAULT_2
 70
0
 62
8
  6
HIDDEN
370
-3
390
F
  0
LAYER
  5
1FC
100
AcDbSymbolTableRecord
100
AcDbLayerTableRecord
  2
DEFAULT_3
 70
0
 62
7
  6
PHANTOM
370
-3
390
F
  0
LAYER
  5
1FD
100
AcDbSymbolTableRecord
100
AcDbLayerTableRecord
  2
ALL_FEATURES
 70
0
 62
7
  6
CONTINUOUS
370
-3
390
F
  0
LAYER
  5
1FE
100
AcDbSymbolTableRecord
100
AcDbLayerTableRecord
  2
AXES_FEATURES
 70
0
 62
7
  6
CONTINUOUS
370
-3
390
F
  0
LAYER
  5
1FF
100
AcDbSymbolTableRecord
100
AcDbLayerTableRecord
  2
CHAMFER_FEATURES
 70
0
 62
7
  6
CONTINUOUS
370
-3
390
F
  0
LAYER
  5
200
100
AcDbSymbolTableRecord
100
AcDbLayerTableRecord
  2
COORDINATE_SYSTEMS
 70
0
 62
7
  6
CONTINUOUS
370
-3
390
F
  0
LAYER
  5
201
100
AcDbSymbolTableRecord
100
AcDbLayerTableRecord
  2
CUT_FEATURES
 70
0
 62
7
  6
CONTINUOUS
370
-3
390
F
  0
LAYER
  5
202
100
AcDbSymbolTableRecord
100
AcDbLayerTableRecord
  2
DATUM_CURVES
 70
0
 62
7
  6
CONTINUOUS
370
-3
390
F
  0
LAYER
  5
203
100
AcDbSymbolTableRecord
100
AcDbLayerTableRecord
  2
DATUM_PLANES
 70
0
 62
7
  6
CONTINUOUS
370
-3
390
F
  0
LAYER
  5
204
100
AcDbSymbolTableRecord
100
AcDbLayerTableRecord
  2
DEFAULT_COORDINATE_SYSTEM
 70
0
 62
7
  6
CONTINUOUS
370
-3
390
F
  0
LAYER
  5
205
100
AcDbSymbolTableRecord
100
AcDbLayerTableRecord
  2
DEFAULT_DATUM_AXES
 70
0
 62
7
  6
CONTINUOUS
370
-3
390
F
  0
LAYER
  5
206
100
AcDbSymbolTableRecord
100
AcDbLayerTableRecord
  2
DEFAULT_DATUM_PLANES
 70
0
 62
7
  6
CONTINUOUS
370
-3
390
F
  0
LAYER
  5
207
100
AcDbSymbolTableRecord
100
AcDbLayerTableRecord
  2
DIMENSIONS
 70
0
 62
7
  6
CONTINUOUS
370
-3
390
F
  0
LAYER
  5
208
100
AcDbSymbolTableRecord
100
AcDbLayerTableRecord
  2
PROTRUSION_FEATURES
 70
0
 62
7
  6
CONTINUOUS
370
-3
390
F
  0
LAYER
  5
209
100
AcDbSymbolTableRecord
100
AcDbLayerTableRecord
  2
QUILTS
 70
0
 62
7
  6
CONTINUOUS
370
-3
390
F
  0
LAYER
  5
20A
100
AcDbSymbolTableRecord
100
AcDbLayerTableRecord
  2
ROUND_FEATURES
 70
0
 62
7
  6
CONTINUOUS
370
-3
390
F
  0
LAYER
  5
20B
100
AcDbSymbolTableRecord
100
AcDbLayerTableRecord
  2
SHELL_FEATURES
 70
0
 62
7
  6
CONTINUOUS
370
-3
390
F
  0
LAYER
  5
20C
100
AcDbSymbolTableRecord
100
AcDbLayerTableRecord
  2
SURFACE_FEATURES
 70
0
 62
7
  6
CONTINUOUS
370
-3
390
F
  0
ENDTAB
  0
TABLE
  2
STYLE
  5
3
100
AcDbSymbolTable
 70
1
  0
STYLE
  5
11
100
AcDbSymbolTableRecord
100
AcDbTextStyleTableRecord
  2
STANDARD
 70
0
 40
0.0
 41
0.8
 50
0.0
 71
0
 42
0.2
  3
txt
  4

  0
STYLE
  5
20D
100
AcDbSymbolTableRecord
100
AcDbTextStyleTableRecord
  2
TEXTSTYLE_1
 70
0
 40
0.0
 41
0.8
 50
0.0
 71
0
 42
0.2
  3
gdt
  4

  0
ENDTAB
  0
TABLE
  2
VIEW
  5
6
100
AcDbSymbolTable
 70
0
  0
ENDTAB
  0
TABLE
  2
UCS
  5
7
100
AcDbSymbolTable
 70
0
  0
ENDTAB
  0
TABLE
  2
APPID
  5
9
100
AcDbSymbolTable
 70
1
  0
APPID
  5
20E
100
AcDbSymbolTableRecord
100
AcDbRegAppTableRecord
  2
ACAD
 70
0
  0
ENDTAB
  0
TABLE
  2
BLOCK_RECORD
  5
1
100
AcDbSymbolTable
 70
0
  0
BLOCK_RECORD
  5
20F
100
AcDbSymbolTableRecord
100
AcDbBlockTableRecord
  2
*Model_Space
  0
BLOCK_RECORD
  5
210
100
AcDbSymbolTableRecord
100
AcDbBlockTableRecord
  2
*Paper_Space
  0
BLOCK_RECORD
  5
211
100
AcDbSymbolTableRecord
100
AcDbBlockTableRecord
  2
_FILLED
  0
ENDTAB
  0
TABLE
  2
DIMSTYLE
  5
A
100
AcDbSymbolTable
 70
1
100
AcDbDimStyleTable
 71
0
  0
DIMSTYLE
105
212
100
AcDbSymbolTableRecord
100
AcDbDimStyleTableRecord
  2
STANDARD
 70
0
  3

  4

 40
1.0
 41
0.1
 42
0.0625
 43
0.38
 44
0.125
 45
0.0
 46
0.0
 47
0.001
 48
0.001
140
0.08
141
0.09
142
0.0
143
25.4
144
1.0
145
0.0
146
1.0
147
0.09
 71
1.0
 72
0.0
 73
1
 74
1
 75
0
 76
0
 77
0
 78
4
 79
1
170
1
171
2
172
0
173
0
174
0
175
0
176
0
177
0
178
0
270
2
179
3
271
3
272
3
273
2
274
2
275
0
280
0
281
0
282
0
283
1
284
4
285
0
286
0
287
3
288
0
340
11
278
46
341
211
342
211
343
211
344
211
  0
ENDTAB
  0
ENDSEC
  0
SECTION
  2
BLOCKS
  0
BLOCK
  5
20
100
AcDbEntity
  8
0
100
AcDbBlockBegin
  2
*Model_Space
 70
0
 10
0.0
 20
0.0
 30
0.0
  3
*Model_Space
  1

  0
ENDBLK
  5
21
100
AcDbEntity
  8
0
100
AcDbBlockEnd
  0
BLOCK
  5
1C
100
AcDbEntity
  8
0
100
AcDbBlockBegin
  2
*Paper_Space
 70
0
 10
0.0
 20
0.0
 30
0.0
  3
*Paper_Space
  1

  0
ENDBLK
  5
1D
100
AcDbEntity
  8
0
100
AcDbBlockEnd
  0
BLOCK
  5
213
100
AcDbEntity
  8
0
100
AcDbBlockBegin
  2
_FILLED
 70
64
 10
0.0
 20
0.0
  3
_FILLED
  1

  0
SOLID
  5
214
100
AcDbEntity
  8
0
  6
BYBLOCK
 62
0
100
AcDbTrace
 10
0.0
 20
0.0
 11
-1.0
 21
0.2
 12
-1.0
 22
-0.2
 13
-1.0
 23
-0.2
  0
ENDBLK
  5
215
100
AcDbEntity
  8
0
  6
BYBLOCK
 62
0
100
AcDbBlockEnd
  0
ENDSEC
  0
SECTION
  2
ENTITIES
  0
MTEXT
  5
216
100
AcDbEntity
  8
0
100
AcDbMText
 62
2
  6
CONTINUOUS
  7
STANDARD
 71
3
 72
1
 10
6.1140681371
 20
3.5785442547
 30
0.0
 11
1.0
 21
0.0
 31
0.0
 73
2
 44
0.9
  1
SCALE  .500
 40
0.08
 41
0.704
  0
LINE
  5
217
100
AcDbEntity
  8
0
100
AcDbLine
 62
7
  6
CONTINUOUS
 10
0.0
 20
0.0
 11
0.0
 21
8.5
  0
LINE
  5
218
100
AcDbEntity
  8
0
100
AcDbLine
 62
7
  6
CONTINUOUS
 10
0.0
 20
0.0
 11
11.0
 21
0.0
  0
LINE
  5
219
100
AcDbEntity
  8
0
100
AcDbLine
 62
7
  6
CONTINUOUS
 10
0.0
 20
8.5
 11
11.0
 21
8.5
  0
LINE
  5
21A
100
AcDbEntity
  8
0
100
AcDbLine
 62
7
  6
CONTINUOUS
 10
11.0
 20
0.0
 11
11.0
 21
8.5
  0
LINE
  5
21B
100
AcDbEntity
  8
0
100
AcDbLine
 62
7
  6
CONTINUOUS
 10
6.2467253942
 20
4.365314441
 11
5.7467253942
 21
4.409064441
  0
LINE
  5
21C
100
AcDbEntity
  8
0
100
AcDbLine
 62
7
  6
CONTINUOUS
 10
4.2717253942
 20
4.609064441
 11
4.2657105292
 21
4.6099097751
  0
LINE
  5
21D
100
AcDbEntity
  8
ALL_FEATURES
100
AcDbLine
 62
7
  6
CONTINUOUS
 10
4.265710814
 20
4.6099096615
 11
3.7750336759
 21
4.6788699205
  0
LINE
  5
21E
100
AcDbEntity
  8
0
100
AcDbLine
 62
7
  6
CONTINUOUS
 10
3.7750336358
 20
4.6788699153
 11
3.7617373388
 21
4.680738588
  0
LINE
  5
21F
100
AcDbEntity
  8
ALL_FEATURES
100
AcDbLine
 62
7
  6
CONTINUOUS
 10
3.8177524267
 20
4.6728661808
 11
3.8123071899
 21
4.6736331265
  0
LINE
  5
220
100
AcDbEntity
  8
ALL_FEATURES
100
AcDbLine
 62
7
  6
CONTINUOUS
 10
3.8024311085
 20
4.6750194516
 11
3.7938266731
 21
4.6762309859
  0
LINE
  5
221
100
AcDbEntity
  8
ALL_FEATURES
100
AcDbLine
 62
7
  6
CONTINUOUS
 10
3.8431594601
 20
4.6692920751
 11
3.8296607959
 21
4.6711944041
  0
LINE
  5
222
100
AcDbEntity
  8
ALL_FEATURES
100
AcDbLine
 62
7
  6
CONTINUOUS
 10
3.7899927063
 20
4.676767555
 11
3.7833632021
 21
4.6777029228
  0
LINE
  5
223
100
AcDbEntity
  8
ALL_FEATURES
100
AcDbLine
 62
7
  6
CONTINUOUS
 10
3.7763663461
 20
4.6786726029
 11
3.7750336759
 21
4.6788699205
  0
LINE
  5
224
100
AcDbEntity
  8
ALL_FEATURES
100
AcDbLine
 62
7
  6
CONTINUOUS
 10
4.265710814
 20
4.6099096615
 11
4.2650466687
 21
4.6099955528
  0
LINE
  5
225
100
AcDbEntity
  8
ALL_FEATURES
100
AcDbLine
 62
7
  6
CONTINUOUS
 10
3.7805966365
 20
4.6780880865
 11
3.7782400012
 21
4.6784113613
  0
LINE
  5
226
100
AcDbEntity
  8
0
100
AcDbLine
 62
7
  6
CONTINUOUS
 10
5.2467253942
 20
4.4982186116
 11
4.4717253942
 21
4.709064441
  0
LINE
  5
227
100
AcDbEntity
  8
0
100
AcDbLine
 62
7
  6
CONTINUOUS
 10
5.2467253942
 20
4.4982186116
 11
5.2425915645
 21
4.6338982789
  0
LINE
  5
228
100
AcDbEntity
  8
ALL_FEATURES
100
AcDbLine
 62
7
  6
CONTINUOUS
 10
5.8773744081
 20
5.3185108978
 11
6.2467253942
 21
5.3392020428
  0
LINE
  5
229
100
AcDbEntity
  8
0
100
AcDbLine
 62
7
  6
CONTINUOUS
 10
5.7467253942
 20
5.509064441
 11
6.2467253942
 21
5.552814441
  0
LINE
  5
22A
100
AcDbEntity
  8
0
100
AcDbLine
 62
7
  6
CONTINUOUS
 10
5.7467253942
 20
4.409064441
 11
5.7467243166
 21
4.5755869409
  0
LINE
  5
22B
100
AcDbEntity
  8
ALL_FEATURES
100
AcDbLine
 62
7
  6
CONTINUOUS
 10
5.7467276096
 20
4.6294185739
 11
5.7467253491
 21
5.2729255832
  0
LINE
  5
22C
100
AcDbEntity
  8
0
100
AcDbLine
 62
7
  6
CONTINUOUS
 10
5.7467253942
 20
5.509064441
 11
5.7467253942
 21
5.4572242862
  0
LINE
  5
22D
100
AcDbEntity
  8
ALL_FEATURES
100
AcDbLine
 62
7
  6
CONTINUOUS
 10
5.7467253942
 20
5.4572242862
 11
5.7467253942
 21
5.3425615829
  0
LINE
  5
22E
100
AcDbEntity
  8
0
100
AcDbLine
 62
7
  6
CONTINUOUS
 10
6.2467253942
 20
4.365314441
 11
6.2467253942
 21
5.552814441
  0
ARC
  5
22F
100
AcDbEntity
  8
ALL_FEATURES
100
AcDbCircle
 62
7
  6
CONTINUOUS
 10
68.3522834672
 20
119.0538776079
 40
130.9283416351
100
AcDbArc
 50
240.5694143506
 51
240.7451571169
  0
ARC
  5
230
100
AcDbEntity
  8
ALL_FEATURES
100
AcDbCircle
 62
7
  6
CONTINUOUS
 10
78.7242006146
 20
85.7979574474
 40
109.7843902735
100
AcDbArc
 50
227.2930156884
 51
227.5348972551
  0
ARC
  5
231
100
AcDbEntity
  8
0
100
AcDbCircle
 62
7
  6
CONTINUOUS
 10
7.2369633687
 20
-11.5202969499
 40
17.09444349
100
AcDbArc
 50
95.6612889378
 51
98.0346642108
  0
ARC
  5
232
100
AcDbEntity
  8
0
100
AcDbCircle
 62
7
  6
CONTINUOUS
 10
7.2359857377
 20
-11.5137727816
 40
17.0878467194
100
AcDbArc
 50
98.0344759828
 51
99.8620925985
  0
ARC
  5
233
100
AcDbEntity
  8
0
100
AcDbCircle
 62
7
  6
CONTINUOUS
 10
7.2358984369
 20
-11.5099672521
 40
17.0840591231
100
AcDbArc
 50
95.0006705558
 51
95.6611523081
  0
ARC
  5
234
100
AcDbEntity
  8
ALL_FEATURES
100
AcDbCircle
 62
7
  6
CONTINUOUS
 10
6.9508863434
 20
18.1386734751
 40
13.5324336163
100
AcDbArc
 50
259.6278561909
 51
260.0139752335
  0
ARC
  5
235
100
AcDbEntity
  8
ALL_FEATURES
100
AcDbCircle
 62
7
  6
CONTINUOUS
 10
6.2875682415
 20
15.8946439666
 40
11.304795784
100
AcDbArc
 50
260.9150907211
 51
261.3771470246
  0
ARC
  5
236
100
AcDbEntity
  8
0
100
AcDbCircle
 62
7
  6
CONTINUOUS
 10
5.9956082192
 20
7.2515074114
 40
2.8533181913
100
AcDbArc
 50
254.7839005443
 51
264.9959734284
  0
ARC
  5
237
100
AcDbEntity
  8
0
100
AcDbCircle
 62
7
  6
CONTINUOUS
 10
4.4223758448
 20
4.6706140977
 40
0.6607020215
100
AcDbArc
 50
99.8621713448
 51
179.1194742549
  0
ARC
  5
238
100
AcDbEntity
  8
ALL_FEATURES
100
AcDbCircle
 62
7
  6
CONTINUOUS
 10
4.4525075874
 20
4.5261320699
 40
0.2090635419
100
AcDbArc
 50
89.1768468251
 51
105.053060388
  0
ARC
  5
239
100
AcDbEntity
  8
0
100
AcDbCircle
 62
7
  6
CONTINUOUS
 10
4.4276826783
 20
4.5471498727
 40
0.1677958531
100
AcDbArc
 50
74.7830297146
 51
158.3470726395
  0
SPLINE
  5
23A
100
AcDbEntity
  8
ALL_FEATURES
100
AcDbSpline
 62
7
  6
CONTINUOUS
 70
0
 71
3
 72
18
 73
14
 74
0
 42
0.0000001
 43
0.0000001
 44
0.0000000001
 40
0.0
 40
0.0
 40
0.0
 40
0.0
 40
0.1253919004
 40
0.2507846096
 40
0.3760608346
 40
0.5012122278
 40
0.6261866344
 40
0.6886205874
 40
0.75100105
 40
0.8133301057
 40
0.8756175663
 40
0.9378524214
 40
1.0
 40
1.0
 40
1.0
 40
1.0
 10
3.7750336759
 20
4.6788699205
 30
0.0
 10
3.7752447128
 20
4.6982774935
 30
0.0
 10
3.7777368789
 20
4.7371009151
 30
0.0
 10
3.787574211
 20
4.7945762428
 30
0.0
 10
3.8034420465
 20
4.8506588114
 30
0.0
 10
3.8252245322
 20
4.9046482923
 30
0.0
 10
3.8481936994
 20
4.9473507055
 30
0.0
 10
3.869299983
 20
4.9797648549
 30
0.0
 10
3.8864589593
 20
5.0031228322
 30
0.0
 10
3.9049127916
 20
5.0254420792
 30
0.0
 10
3.9246260096
 20
5.0466278289
 30
0.0
 10
3.9455308675
 20
5.066596362
 30
0.0
 10
3.9602202102
 20
5.0790618961
 30
0.0
 10
3.9677358474
 20
5.0850660287
 30
0.0
  0
SPLINE
  5
23B
100
AcDbEntity
  8
ALL_FEATURES
100
AcDbSpline
 62
7
  6
CONTINUOUS
 70
0
 71
3
 72
20
 73
16
 74
0
 42
0.0000001
 43
0.0000001
 44
0.0000000001
 40
0.0
 40
0.0
 40
0.0
 40
0.0
 40
0.1250054983
 40
0.1875567254
 40
0.2500929205
 40
0.312618039
 40
0.3751412003
 40
0.5001407063
 40
0.6251178218
 40
0.6876168664
 40
0.7501076789
 40
0.8125935825
 40
0.8750837558
 40
0.9375651372
 40
1.0
 40
1.0
 40
1.0
 40
1.0
 10
3.8582001644
 20
4.6671816209
 30
0.0
 10
3.8581175928
 20
4.6839006121
 30
0.0
 10
3.8593454707
 20
4.7090184489
 30
0.0
 10
3.8636122155
 20
4.7422047217
 30
0.0
 10
3.868118104
 20
4.7669023403
 30
0.0
 10
3.8739222803
 20
4.7913231057
 30
0.0
 10
3.8833811375
 20
4.8234147476
 30
0.0
 10
3.8984030554
 20
4.8625098958
 30
0.0
 10
3.9175585254
 20
4.8997531103
 30
0.0
 10
3.9352317694
 20
4.9281488762
 30
0.0
 10
3.9496365065
 20
4.9486890083
 30
0.0
 10
3.9651587188
 20
4.9683963502
 30
0.0
 10
3.9817694669
 20
4.9871946246
 30
0.0
 10
3.9994141944
 20
5.0050149744
 30
0.0
 10
4.0118294391
 20
5.0162108441
 30
0.0
 10
4.0181872111
 20
5.0216247046
 30
0.0
  0
SPLINE
  5
23C
100
AcDbEntity
  8
ALL_FEATURES
100
AcDbSpline
 62
7
  6
CONTINUOUS
 70
0
 71
3
 72
11
 73
7
 74
0
 42
0.0000001
 43
0.0000001
 44
0.0000000001
 40
0.0
 40
0.0
 40
0.0
 40
0.0
 40
0.2501863246
 40
0.5001217193
 40
0.7499967813
 40
1.0
 40
1.0
 40
1.0
 40
1.0
 10
3.9677359948
 20
5.0850658639
 30
0.0
 10
3.9852036326
 20
5.0990203154
 30
0.0
 10
4.0221015035
 20
5.1245416166
 30
0.0
 10
4.082248952
 20
5.1545988812
 30
0.0
 10
4.146001414
 20
5.1758963161
 30
0.0
 10
4.1900855493
 20
5.1840862301
 30
0.0
 10
4.2122804037
 20
5.1866361596
 30
0.0
  0
SPLINE
  5
23D
100
AcDbEntity
  8
ALL_FEATURES
100
AcDbSpline
 62
7
  6
CONTINUOUS
 70
0
 71
3
 72
11
 73
7
 74
0
 42
0.0000001
 43
0.0000001
 44
0.0000000001
 40
0.0
 40
0.0
 40
0.0
 40
0.0
 40
0.2501298868
 40
0.5001627895
 40
0.7501152664
 40
1.0
 40
1.0
 40
1.0
 40
1.0
 10
4.018187211
 20
5.0216247046
 30
0.0
 10
4.0326391616
 20
5.0339189569
 30
0.0
 10
4.0631531658
 20
5.0566793168
 30
0.0
 10
4.1130057512
 20
5.0844453741
 30
0.0
 10
4.1660648549
 20
5.1053844883
 30
0.0
 10
4.2029890274
 20
5.1145616602
 30
0.0
 10
4.2216491178
 20
5.1178938059
 30
0.0
  0
SPLINE
  5
23E
100
AcDbEntity
  8
ALL_FEATURES
100
AcDbSpline
 62
7
  6
CONTINUOUS
 70
0
 71
3
 72
15
 73
11
 74
0
 42
0.0000001
 43
0.0000001
 44
0.0000000001
 40
0.0
 40
0.0
 40
0.0
 40
0.0
 40
0.0337254146
 40
0.0723987462
 40
0.1637924545
 40
0.2725033061
 40
0.3965569979
 40
0.533841371
 40
0.6819993648
 40
1.0
 40
1.0
 40
1.0
 40
1.0
 10
3.9677359948
 20
5.0850658639
 30
0.0
 10
3.9682420084
 20
5.0843076794
 30
0.0
 10
3.9693479499
 20
5.0826931944
 30
0.0
 10
3.971910181
 20
5.0790828738
 30
0.0
 10
3.9757502962
 20
5.0738952472
 30
0.0
 10
3.9810820982
 20
5.0669427039
 30
0.0
 10
3.987269539
 20
5.0590842984
 30
0.0
 10
3.9942050064
 20
5.0504586869
 30
0.0
 10
4.0045343891
 20
5.0378364181
 30
0.0
 10
4.0126259559
 20
5.028177995
 30
0.0
 10
4.018187211
 20
5.0216247046
 30
0.0
  0
LINE
  5
23F
100
AcDbEntity
  8
ALL_FEATURES
100
AcDbLine
 62
7
  6
CONTINUOUS
 10
4.212280396
 20
5.1866361922
 11
4.2550772605
 21
5.1906593792
  0
LINE
  5
240
100
AcDbEntity
  8
ALL_FEATURES
100
AcDbLine
 62
7
  6
CONTINUOUS
 10
4.2216491166
 20
5.1178938069
 11
4.2630202107
 21
5.1248828773
  0
SPLINE
  5
241
100
AcDbEntity
  8
ALL_FEATURES
100
AcDbSpline
 62
7
  6
CONTINUOUS
 70
0
 71
3
 72
12
 73
8
 74
0
 42
0.0000001
 43
0.0000001
 44
0.0000000001
 40
0.0
 40
0.0
 40
0.0
 40
0.0
 40
0.0973958299
 40
0.205170948
 40
0.4468828184
 40
0.7154932533
 40
1.0
 40
1.0
 40
1.0
 40
1.0
 10
4.212280396
 20
5.1866361922
 30
0.0
 10
4.2124724666
 20
5.1843915007
 30
0.0
 10
4.2129215487
 20
5.1796666739
 30
0.0
 10
4.214044464
 20
5.1693906206
 30
0.0
 10
4.2158559829
 20
5.155207231
 30
0.0
 10
4.2185111545
 20
5.1370138248
 30
0.0
 10
4.2205527463
 20
5.1243828549
 30
0.0
 10
4.2216491166
 20
5.1178938069
 30
0.0
  0
SPLINE
  5
242
100
AcDbEntity
  8
ALL_FEATURES
100
AcDbSpline
 62
7
  6
CONTINUOUS
 70
0
 71
3
 72
11
 73
7
 74
0
 42
0.0000001
 43
0.0000001
 44
0.0000000001
 40
0.0
 40
0.0
 40
0.0
 40
0.0
 40
0.2494519521
 40
0.499299172
 40
0.7494999904
 40
1.0
 40
1.0
 40
1.0
 40
1.0
 10
4.2550772577
 20
5.1906593921
 30
0.0
 10
4.264269113
 20
5.1915395561
 30
0.0
 10
4.2826676367
 20
5.1932986363
 30
0.0
 10
4.3102834165
 20
5.1959637066
 30
0.0
 10
4.337927967
 20
5.1987330089
 30
0.0
 10
4.3563633119
 20
5.2006462314
 30
0.0
 10
4.3655848476
 20
5.201618933
 30
0.0
  0
SPLINE
  5
243
100
AcDbEntity
  8
ALL_FEATURES
100
AcDbSpline
 62
7
  6
CONTINUOUS
 70
0
 71
3
 72
11
 73
7
 74
0
 42
0.0000001
 43
0.0000001
 44
0.0000000001
 40
0.0
 40
0.0
 40
0.0
 40
0.0
 40
0.2500252512
 40
0.5000324641
 40
0.7500237463
 40
1.0
 40
1.0
 40
1.0
 40
1.0
 10
4.2630202109
 20
5.1248828771
 30
0.0
 10
4.2719591234
 20
5.1262095698
 30
0.0
 10
4.2898544602
 20
5.1287411483
 30
0.0
 10
4.3167341679
 20
5.1322595636
 30
0.0
 10
4.3436457688
 20
5.1355107992
 30
0.0
 10
4.361607331
 20
5.1374967036
 30
0.0
 10
4.370592461
 20
5.1384452301
 30
0.0
  0
SPLINE
  5
244
100
AcDbEntity
  8
ALL_FEATURES
100
AcDbSpline
 62
7
  6
CONTINUOUS
 70
0
 71
3
 72
12
 73
8
 74
0
 42
0.0000001
 43
0.0000001
 44
0.0000000001
 40
0.0
 40
0.0
 40
0.0
 40
0.0
 40
0.1004643601
 40
0.2101717953
 40
0.4528106255
 40
0.7193104915
 40
1.0
 40
1.0
 40
1.0
 40
1.0
 10
4.2550772577
 20
5.1906593921
 30
0.0
 10
4.2552513829
 20
5.1884471204
 30
0.0
 10
4.2556500757
 20
5.1838217208
 30
0.0
 10
4.2566243366
 20
5.1738671867
 30
0.0
 10
4.2581631394
 20
5.1602838204
 30
0.0
 10
4.2603961331
 20
5.1429806231
 30
0.0
 10
4.2621049269
 20
5.1310149741
 30
0.0
 10
4.2630202109
 20
5.1248828771
 30
0.0
  0
SPLINE
  5
245
100
AcDbEntity
  8
ALL_FEATURES
100
AcDbSpline
 62
7
  6
CONTINUOUS
 70
0
 71
3
 72
21
 73
17
 74
0
 42
0.0000001
 43
0.0000001
 44
0.0000000001
 40
0.0
 40
0.0
 40
0.0
 40
0.0
 40
0.0690622879
 40
0.1380716528
 40
0.2067989691
 40
0.2409762706
 40
0.2749964875
 40
0.3425217725
 40
0.4092728047
 40
0.4750912427
 40
0.5397893432
 40
0.6032007014
 40
0.6651973081
 40
0.7844382323
 40
0.8964426211
 40
1.0
 40
1.0
 40
1.0
 40
1.0
 10
5.7467310594
 20
5.2728411518
 30
0.0
 10
5.7467310177
 20
5.2744465893
 30
0.0
 10
5.7468210567
 20
5.2776562404
 30
0.0
 10
5.7471001837
 20
5.2824554098
 30
0.0
 10
5.7473484858
 20
5.2864441244
 30
0.0
 10
5.7474943644
 20
5.2896238989
 30
0.0
 10
5.7475804008
 20
5.292777959
 30
0.0
 10
5.7475801573
 20
5.2966909116
 30
0.0
 10
5.7474681175
 20
5.3013412166
 30
0.0
 10
5.7472992387
 20
5.3059238525
 30
0.0
 10
5.7471357201
 20
5.3104289967
 30
0.0
 10
5.7470146784
 20
5.3148466416
 30
0.0
 10
5.7468943943
 20
5.3205325585
 30
0.0
 10
5.7468043821
 20
5.3273488194
 30
0.0
 10
5.7467447805
 20
5.3351315084
 30
0.0
 10
5.7467292718
 20
5.3401424989
 30
0.0
 10
5.746725877
 20
5.3425498145
 30
0.0
  0
SPLINE
  5
246
100
AcDbEntity
  8
ALL_FEATURES
100
AcDbSpline
 62
7
  6
CONTINUOUS
 70
0
 71
3
 72
12
 73
8
 74
0
 42
0.0000001
 43
0.0000001
 44
0.0000000001
 40
0.0
 40
0.0
 40
0.0
 40
0.0
 40
0.125007637
 40
0.2500115707
 40
0.500012059
 40
0.7500072226
 40
1.0
 40
1.0
 40
1.0
 40
1.0
 10
4.370592461
 20
5.1384452301
 30
0.0
 10
4.4278898744
 20
5.1444939439
 30
0.0
 10
4.5425016688
 20
5.1564148104
 30
0.0
 10
4.77177788
 20
5.179692443
 30
0.0
 10
5.0584489606
 20
5.2079643468
 30
0.0
 10
5.4025433058
 20
5.2409175702
 30
0.0
 10
5.6319925439
 20
5.2623052287
 30
0.0
 10
5.7467310594
 20
5.2728411518
 30
0.0
  0
SPLINE
  5
247
100
AcDbEntity
  8
ALL_FEATURES
100
AcDbSpline
 62
7
  6
CONTINUOUS
 70
0
 71
3
 72
11
 73
7
 74
0
 42
0.0000001
 43
0.0000001
 44
0.0000000001
 40
0.0
 40
0.0
 40
0.0
 40
0.0
 40
0.2156197696
 40
0.45938753
 40
0.7236630679
 40
1.0
 40
1.0
 40
1.0
 40
1.0
 10
4.365584848
 20
5.2016189306
 30
0.0
 10
4.3657700635
 20
5.1970672571
 30
0.0
 10
4.3662922517
 20
5.1873748473
 30
0.0
 10
4.3673900745
 20
5.1721247667
 30
0.0
 10
4.3688292491
 20
5.1556150686
 30
0.0
 10
4.3699719194
 20
5.1442503814
 30
0.0
 10
4.370592461
 20
5.1384452301
 30
0.0
  0
SPLINE
  5
248
100
AcDbEntity
  8
ALL_FEATURES
100
AcDbSpline
 62
7
  6
CONTINUOUS
 70
0
 71
3
 72
11
 73
7
 74
0
 42
0.0000001
 43
0.0000001
 44
0.0000000001
 40
0.0
 40
0.0
 40
0.0
 40
0.0
 40
0.2498678197
 40
0.4998407373
 40
0.7498874984
 40
1.0
 40
1.0
 40
1.0
 40
1.0
 10
4.365584848
 20
5.2016189306
 30
0.0
 10
4.4806471732
 20
5.2130792542
 30
0.0
 10
4.7108081176
 20
5.2361267048
 30
0.0
 10
5.0560566926
 20
5.2712095912
 30
0.0
 10
5.4013760952
 20
5.3067126119
 30
0.0
 10
5.6316009953
 20
5.3305857657
 30
0.0
 10
5.746725877
 20
5.3425498145
 30
0.0
  0
SPLINE
  5
249
100
AcDbEntity
  8
ALL_FEATURES
100
AcDbSpline
 62
7
  6
CONTINUOUS
 70
0
 71
3
 72
19
 73
15
 74
0
 42
0.0000001
 43
0.0000001
 44
0.0000000001
 40
0.0
 40
0.0
 40
0.0
 40
0.0
 40
0.1251105411
 40
0.2502478367
 40
0.3128074416
 40
0.3753530424
 40
0.5003459952
 40
0.6252819913
 40
0.6877617558
 40
0.7502284284
 40
0.8126851547
 40
0.875130812
 40
0.9375711671
 40
1.0
 40
1.0
 40
1.0
 40
1.0
 10
4.1594104877
 20
4.6248492653
 30
0.0
 10
4.1630318172
 20
4.6369160886
 30
0.0
 10
4.1718743482
 20
4.6606014186
 30
0.0
 10
4.1866414887
 20
4.6885267022
 30
0.0
 10
4.2005243687
 20
4.7095755413
 30
0.0
 10
4.2157282156
 20
4.7296722483
 30
0.0
 10
4.2371112865
 20
4.752882558
 30
0.0
 10
4.2612921499
 20
4.7731495116
 30
0.0
 10
4.2820438955
 20
4.7874061555
 30
0.0
 10
4.2982624687
 20
4.7970806829
 30
0.0
 10
4.3150618608
 20
4.8056972526
 30
0.0
 10
4.3323657909
 20
4.8132431891
 30
0.0
 10
4.3501039295
 20
4.8196921981
 30
0.0
 10
4.3621759306
 20
4.8232448234
 30
0.0
 10
4.3682592832
 20
4.824830112
 30
0.0
  0
SPLINE
  5
24A
100
AcDbEntity
  8
ALL_FEATURES
100
AcDbSpline
 62
7
  6
CONTINUOUS
 70
0
 71
3
 72
18
 73
14
 74
0
 42
0.0000001
 43
0.0000001
 44
0.0000000001
 40
0.0
 40
0.0
 40
0.0
 40
0.0
 40
0.1258208424
 40
0.2515323662
 40
0.3143099896
 40
0.3770224007
 40
0.4396736317
 40
0.5022572199
 40
0.6271387537
 40
0.7517082394
 40
0.8139027095
 40
0.8760214103
 40
1.0
 40
1.0
 40
1.0
 40
1.0
 10
4.265710814
 20
4.6099096615
 30
0.0
 10
4.2685173203
 20
4.6171020563
 30
0.0
 10
4.2749964662
 20
4.6311569117
 30
0.0
 10
4.2851030587
 20
4.6476381225
 30
0.0
 10
4.2943026949
 20
4.6600157263
 30
0.0
 10
4.3017371357
 20
4.6688572065
 30
0.0
 10
4.3096765956
 20
4.6772315045
 30
0.0
 10
4.3208744809
 20
4.6877373918
 30
0.0
 10
4.3359635103
 20
4.6996000949
 30
0.0
 10
4.3523194626
 20
4.7095968094
 30
0.0
 10
4.3659964426
 20
4.7164082917
 30
0.0
 10
4.3800007854
 20
4.7224228358
 30
0.0
 10
4.3908673255
 20
4.7260355138
 30
0.0
 10
4.3982109658
 20
4.7280217741
 30
0.0
  0
SPLINE
  5
24B
100
AcDbEntity
  8
ALL_FEATURES
100
AcDbSpline
 62
7
  6
CONTINUOUS
 70
0
 71
3
 72
22
 73
18
 74
0
 42
0.0000001
 43
0.0000001
 44
0.0000000001
 40
0.0
 40
0.0
 40
0.0
 40
0.0
 40
0.1786749793
 40
0.3522657485
 40
0.5148344853
 40
0.5903495504
 40
0.6611780118
 40
0.7267157107
 40
0.78644488
 40
0.8398721517
 40
0.8865632285
 40
0.9261760076
 40
0.9583961301
 40
0.9716669122
 40
0.9830250013
 40
0.9924654504
 40
1.0
 40
1.0
 40
1.0
 40
1.0
 10
4.3682592757
 20
4.8248301126
 30
0.0
 10
4.3697357142
 20
4.8189674406
 30
0.0
 10
4.3727101546
 20
4.8074248128
 30
0.0
 10
4.3772460625
 20
4.790605185
 30
0.0
 10
4.3810378515
 20
4.7772011018
 30
0.0
 10
4.383995465
 20
4.7671756807
 30
0.0
 10
4.386080623
 20
4.7603162029
 30
0.0
 10
4.3880708081
 20
4.7539864219
 30
0.0
 10
4.3899486889
 20
4.7482388937
 30
0.0
 10
4.3916984866
 20
4.7431208868
 30
0.0
 10
4.3933054742
 20
4.7386739794
 30
0.0
 10
4.3947554503
 20
4.7349344909
 30
0.0
 10
4.3958834204
 20
4.7322838353
 30
0.0
 10
4.3967101535
 20
4.7305467012
 30
0.0
 10
4.3972426244
 20
4.7295238076
 30
0.0
 10
4.3977269349
 20
4.7286960614
 30
0.0
 10
4.3980526787
 20
4.7282215949
 30
0.0
 10
4.3982109722
 20
4.728021748
 30
0.0
  0
SPLINE
  5
24C
100
AcDbEntity
  8
ALL_FEATURES
100
AcDbSpline
 62
7
  6
CONTINUOUS
 70
0
 71
3
 72
9
 73
5
 74
0
 42
0.0000001
 43
0.0000001
 44
0.0000000001
 40
0.0
 40
0.0
 40
0.0
 40
0.0
 40
0.500036459
 40
1.0
 40
1.0
 40
1.0
 40
1.0
 10
4.3682592757
 20
4.8248301126
 30
0.0
 10
4.3822805106
 20
4.8284440198
 30
0.0
 10
4.4109150344
 20
4.8335176972
 30
0.0
 10
4.4399780111
 20
4.8343177242
 30
0.0
 10
4.4544398419
 20
4.833647156
 30
0.0
  0
SPLINE
  5
24D
100
AcDbEntity
  8
ALL_FEATURES
100
AcDbSpline
 62
7
  6
CONTINUOUS
 70
0
 71
3
 72
11
 73
7
 74
0
 42
0.0000001
 43
0.0000001
 44
0.0000000001
 40
0.0
 40
0.0
 40
0.0
 40
0.0
 40
0.2500011045
 40
0.4999982323
 40
0.7499957622
 40
1.0
 40
1.0
 40
1.0
 40
1.0
 10
4.4544398489
 20
4.8336471555
 30
0.0
 10
4.4594703617
 20
4.833413939
 30
0.0
 10
4.4695297506
 20
4.8329024109
 30
0.0
 10
4.4845927334
 20
4.8317012001
 30
0.0
 10
4.4995970357
 20
4.8299003413
 30
0.0
 10
4.5095407903
 20
4.8282787057
 30
0.0
 10
4.5144944244
 20
4.8273717358
 30
0.0
  0
SPLINE
  5
24E
100
AcDbEntity
  8
ALL_FEATURES
100
AcDbSpline
 62
7
  6
CONTINUOUS
 70
0
 71
3
 72
11
 73
7
 74
0
 42
0.0000001
 43
0.0000001
 44
0.0000000001
 40
0.0
 40
0.0
 40
0.0
 40
0.0
 40
0.2476671435
 40
0.4972860594
 40
0.7482168726
 40
1.0
 40
1.0
 40
1.0
 40
1.0
 10
4.4555110457
 20
4.7351740646
 30
0.0
 10
4.4594104935
 20
4.7351450148
 30
0.0
 10
4.4672402636
 20
4.7350420021
 30
0.0
 10
4.4790123221
 20
4.7345115097
 30
0.0
 10
4.4908130603
 20
4.7334281359
 30
0.0
 10
4.498652629
 20
4.7323100536
 30
0.0
 10
4.5025636632
 20
4.7316619927
 30
0.0
  0
SPLINE
  5
24F
100
AcDbEntity
  8
ALL_FEATURES
100
AcDbSpline
 62
7
  6
CONTINUOUS
 70
0
 71
3
 72
19
 73
15
 74
0
 42
0.0000001
 43
0.0000001
 44
0.0000000001
 40
0.0
 40
0.0
 40
0.0
 40
0.0
 40
0.1739164176
 40
0.3428693287
 40
0.501681425
 40
0.6457994248
 40
0.7709462134
 40
0.8252421392
 40
0.8734762635
 40
0.9153287801
 40
0.9505001235
 40
0.9787690233
 40
0.9902700501
 40
1.0
 40
1.0
 40
1.0
 40
1.0
 10
4.4544398489
 20
4.8336471555
 30
0.0
 10
4.4541991311
 20
4.8279351506
 30
0.0
 10
4.4537864862
 20
4.8166714443
 30
0.0
 10
4.4533683808
 20
4.8001848502
 30
0.0
 10
4.4531662075
 20
4.7846736954
 30
0.0
 10
4.4531843222
 20
4.7706012346
 30
0.0
 10
4.453387276
 20
4.7599659646
 30
0.0
 10
4.4536767298
 20
4.752486996
 30
0.0
 10
4.4539357119
 20
4.7477476245
 30
0.0
 10
4.4542432576
 20
4.7436411283
 30
0.0
 10
4.454597553
 20
4.7401976824
 30
0.0
 10
4.4549454451
 20
4.7377574418
 30
0.0
 10
4.455258702
 20
4.7361603669
 30
0.0
 10
4.455424181
 20
4.7354818915
 30
0.0
 10
4.4555110457
 20
4.7351740646
 30
0.0
  0
SPLINE
  5
250
100
AcDbEntity
  8
ALL_FEATURES
100
AcDbSpline
 62
7
  6
CONTINUOUS
 70
0
 71
3
 72
18
 73
14
 74
0
 42
0.0000001
 43
0.0000001
 44
0.0000000001
 40
0.0
 40
0.0
 40
0.0
 40
0.0
 40
0.1707666334
 40
0.3368295686
 40
0.4932673069
 40
0.6359610801
 40
0.7610632677
 40
0.8159066416
 40
0.8651358731
 40
0.9084212164
 40
0.9454679491
 40
0.9760564788
 40
1.0
 40
1.0
 40
1.0
 40
1.0
 10
4.5144944242
 20
4.8273717358
 30
0.0
 10
4.5135427606
 20
4.8219583602
 30
0.0
 10
4.5117215251
 20
4.811270803
 30
0.0
 10
4.5092217515
 20
4.7955919506
 30
0.0
 10
4.5070374064
 20
4.780778712
 30
0.0
 10
4.5052285946
 20
4.7672439999
 30
0.0
 10
4.5040225768
 20
4.7569288299
 30
0.0
 10
4.5032969979
 20
4.7495880703
 30
0.0
 10
4.5028970605
 20
4.7448618081
 30
0.0
 10
4.5026192067
 20
4.7407007076
 30
0.0
 10
4.502464808
 20
4.7371333283
 30
0.0
 10
4.5024331575
 20
4.7341855387
 30
0.0
 10
4.5024978245
 20
4.7324298422
 30
0.0
 10
4.5025636647
 20
4.7316620004
 30
0.0
  0
SPLINE
  5
251
100
AcDbEntity
  8
ALL_FEATURES
100
AcDbSpline
 62
7
  6
CONTINUOUS
 70
0
 71
3
 72
9
 73
5
 74
0
 42
0.0000001
 43
0.0000001
 44
0.0000000001
 40
0.0
 40
0.0
 40
0.0
 40
0.0
 40
0.5000063523
 40
1.0
 40
1.0
 40
1.0
 40
1.0
 10
4.6042545785
 20
4.8112551603
 30
0.0
 10
4.7118050921
 20
4.7923474718
 30
0.0
 10
4.9272616268
 20
4.7565566205
 30
0.0
 10
5.1432012146
 20
4.7238518874
 30
0.0
 10
5.2512482515
 20
4.7080453853
 30
0.0
  0
SPLINE
  5
252
100
AcDbEntity
  8
ALL_FEATURES
100
AcDbSpline
 62
7
  6
CONTINUOUS
 70
0
 71
3
 72
12
 73
8
 74
0
 42
0.0000001
 43
0.0000001
 44
0.0000000001
 40
0.0
 40
0.0
 40
0.0
 40
0.0
 40
0.2497214053
 40
0.374644172
 40
0.4996137523
 40
0.749705131
 40
1.0
 40
1.0
 40
1.0
 40
1.0
 10
4.5926435273
 20
4.7176301498
 30
0.0
 10
4.6465789748
 20
4.70944977
 30
0.0
 10
4.7275839413
 20
4.6977527627
 30
0.0
 10
4.8357445412
 20
4.6831476507
 30
0.0
 10
4.9440643809
 20
4.6691286921
 30
0.0
 10
5.0796687952
 20
4.6525650577
 30
0.0
 10
5.1882609233
 20
4.640047771
 30
0.0
 10
5.2425915647
 20
4.6338982798
 30
0.0
  0
SPLINE
  5
253
100
AcDbEntity
  8
ALL_FEATURES
100
AcDbSpline
 62
7
  6
CONTINUOUS
 70
0
 71
3
 72
18
 73
14
 74
0
 42
0.0000001
 43
0.0000001
 44
0.0000000001
 40
0.0
 40
0.0
 40
0.0
 40
0.0
 40
0.1657825342
 40
0.3273252242
 40
0.480313218
 40
0.6211167884
 40
0.7463078552
 40
0.8020492062
 40
0.8527840484
 40
0.898206098
 40
0.938033325
 40
0.9720354348
 40
1.0
 40
1.0
 40
1.0
 40
1.0
 10
4.6042545785
 20
4.8112551603
 30
0.0
 10
4.6033727669
 20
4.806112341
 30
0.0
 10
4.6016818051
 20
4.7959495593
 30
0.0
 10
4.599350812
 20
4.7810126199
 30
0.0
 10
4.5972962706
 20
4.7668290318
 30
0.0
 10
4.5955691693
 20
4.7537551222
 30
0.0
 10
4.5943930681
 20
4.7436966707
 30
0.0
 10
4.5936589531
 20
4.7364420424
 30
0.0
 10
4.5932347677
 20
4.7316798795
 30
0.0
 10
4.5929175712
 20
4.7274114824
 30
0.0
 10
4.5927092195
 20
4.7236636076
 30
0.0
 10
4.5926097189
 20
4.7204609758
 30
0.0
 10
4.5926150837
 20
4.7185098522
 30
0.0
 10
4.5926435273
 20
4.7176301498
 30
0.0
  0
LINE
  5
254
100
AcDbEntity
  8
ALL_FEATURES
100
AcDbLine
 62
7
  6
CONTINUOUS
 10
5.746728056
 20
4.5755056395
 11
5.7467276096
 21
4.6294185739
  0
SPLINE
  5
255
100
AcDbEntity
  8
ALL_FEATURES
100
AcDbSpline
 62
7
  6
CONTINUOUS
 70
0
 71
3
 72
13
 73
9
 74
0
 42
0.0000001
 43
0.0000001
 44
0.0000000001
 40
0.0
 40
0.0
 40
0.0
 40
0.0
 40
0.1247648753
 40
0.2496270962
 40
0.374564182
 40
0.4995609344
 40
0.7497010342
 40
1.0
 40
1.0
 40
1.0
 40
1.0
 10
5.2425912974
 20
4.6338969652
 30
0.0
 10
5.2635643258
 20
4.6315277836
 30
0.0
 10
5.3055280984
 20
4.6267995515
 30
0.0
 10
5.3684939513
 20
4.6196997716
 30
0.0
 10
5.4314930061
 20
4.6125444415
 30
0.0
 10
5.5155385544
 20
4.6028981947
 30
0.0
 10
5.6206304303
 20
4.5906360561
 30
0.0
 10
5.7046914073
 20
4.5805896329
 30
0.0
 10
5.746728056
 20
4.5755056395
 30
0.0
  0
SPLINE
  5
256
100
AcDbEntity
  8
ALL_FEATURES
100
AcDbSpline
 62
7
  6
CONTINUOUS
 70
0
 71
3
 72
12
 73
8
 74
0
 42
0.0000001
 43
0.0000001
 44
0.0000000001
 40
0.0
 40
0.0
 40
0.0
 40
0.0
 40
0.2819641106
 40
0.5505790313
 40
0.7935454311
 40
0.9020384448
 40
1.0
 40
1.0
 40
1.0
 40
1.0
 10
5.2512482596
 20
4.708045386
 30
0.0
 10
5.2502322841
 20
4.7011016053
 30
0.0
 10
5.2483387826
 20
4.6875293528
 30
0.0
 10
5.2458823536
 20
4.6679318023
 30
0.0
 10
5.2442086735
 20
4.652588959
 30
0.0
 10
5.2431758704
 20
4.6414510483
 30
0.0
 10
5.2427655382
 20
4.6363288645
 30
0.0
 10
5.2425912974
 20
4.6338969652
 30
0.0
  0
SPLINE
  5
257
100
AcDbEntity
  8
ALL_FEATURES
100
AcDbSpline
 62
7
  6
CONTINUOUS
 70
0
 71
3
 72
12
 73
8
 74
0
 42
0.0000001
 43
0.0000001
 44
0.0000000001
 40
0.0
 40
0.0
 40
0.0
 40
0.0
 40
0.2500029037
 40
0.3750054629
 40
0.5000074576
 40
0.7500059514
 40
1.0
 40
1.0
 40
1.0
 40
1.0
 10
5.2512482596
 20
4.708045386
 30
0.0
 10
5.2924300529
 20
4.7020165875
 30
0.0
 10
5.3542627363
 20
4.6933782297
 30
0.0
 10
5.4367906106
 20
4.6824987486
 30
0.0
 10
5.5193652194
 20
4.6719847189
 30
0.0
 10
5.6226566225
 20
4.6594370863
 30
0.0
 10
5.7053597794
 20
4.6499980542
 30
0.0
 10
5.7467262245
 20
4.6454175501
 30
0.0
  0
SPLINE
  5
258
100
AcDbEntity
  8
ALL_FEATURES
100
AcDbSpline
 62
7
  6
CONTINUOUS
 70
0
 71
3
 72
11
 73
7
 74
0
 42
0.0000001
 43
0.0000001
 44
0.0000000001
 40
0.0
 40
0.0
 40
0.0
 40
0.0
 40
0.2586839204
 40
0.5126297322
 40
0.7599291405
 40
1.0
 40
1.0
 40
1.0
 40
1.0
 10
5.7467258817
 20
5.3425616174
 30
0.0
 10
5.7582761703
 20
5.3431508774
 30
0.0
 10
5.781250525
 20
5.3430751455
 30
0.0
 10
5.8150669542
 20
5.339071764
 30
0.0
 10
5.8473378559
 20
5.3311473397
 30
0.0
 10
5.8676935862
 20
5.3231456716
 30
0.0
 10
5.8773744209
 20
5.3185108039
 30
0.0
  0
SPLINE
  5
259
100
AcDbEntity
  8
ALL_FEATURES
100
AcDbSpline
 62
7
  6
CONTINUOUS
 70
0
 71
3
 72
11
 73
7
 74
0
 42
0.0000001
 43
0.0000001
 44
0.0000000001
 40
0.0
 40
0.0
 40
0.0
 40
0.0
 40
0.2562089947
 40
0.5090390476
 40
0.7571013615
 40
1.0
 40
1.0
 40
1.0
 40
1.0
 10
5.7467253491
 20
5.2729255832
 30
0.0
 10
5.755452979
 20
5.2736070027
 30
0.0
 10
5.7728938656
 20
5.2739304603
 30
0.0
 10
5.7986839742
 20
5.2711328717
 30
0.0
 10
5.8234205732
 20
5.264955085
 30
0.0
 10
5.838987962
 20
5.2585009407
 30
0.0
 10
5.8463819263
 20
5.2547314131
 30
0.0
  0
SPLINE
  5
25A
100
AcDbEntity
  8
ALL_FEATURES
100
AcDbSpline
 62
7
  6
CONTINUOUS
 70
0
 71
3
 72
50
 73
46
 74
0
 42
0.0000001
 43
0.0000001
 44
0.0000000001
 40
0.0
 40
0.0
 40
0.0
 40
0.0
 40
0.0299497247
 40
0.0447392716
 40
0.0594319295
 40
0.0886724046
 40
0.1179844386
 40
0.1476079494
 40
0.1777052938
 40
0.2083717096
 40
0.239629991
 40
0.255476841
 40
0.2714576294
 40
0.30378294
 40
0.3365282795
 40
0.36959271
 40
0.4028677407
 40
0.4362371759
 40
0.4695846524
 40
0.4862153643
 40
0.5027977551
 40
0.5357577565
 40
0.5521106419
 40
0.5683618496
 40
0.6005102254
 40
0.6163915483
 40
0.6321340579
 40
0.6631754721
 40
0.6936260618
 40
0.7235320126
 40
0.7383209165
 40
0.7530259968
 40
0.7676727331
 40
0.7822927675
 40
0.796921394
 40
0.8115930537
 40
0.8263454683
 40
0.8412164633
 40
0.8562363682
 40
0.8714340895
 40
0.8868315036
 40
0.9024372715
 40
0.9342692308
 40
0.966875586
 40
1.0
 40
1.0
 40
1.0
 40
1.0
 10
5.8773744462
 20
5.3185106188
 30
0.0
 10
5.886026861
 20
5.3143733963
 30
0.0
 10
5.8985772164
 20
5.3073538899
 30
0.0
 10
5.9141979211
 20
5.2964644172
 30
0.0
 10
5.9288912673
 20
5.284709434
 30
0.0
 10
5.9457483115
 20
5.2683022824
 30
0.0
 10
5.9634520419
 20
5.2462239422
 30
0.0
 10
5.9787232922
 20
5.222084719
 30
0.0
 10
5.9917055646
 20
5.1961687788
 30
0.0
 10
6.0026038136
 20
5.1687573991
 30
0.0
 10
6.0100768685
 20
5.1449788401
 30
0.0
 10
6.0152075309
 20
5.1254370241
 30
0.0
 10
6.0198341818
 20
5.1054186393
 30
0.0
 10
6.0246212022
 20
5.0798958513
 30
0.0
 10
6.0288891558
 20
5.0487507887
 30
0.0
 10
6.0318113022
 20
5.0171464978
 30
0.0
 10
6.0334385413
 20
4.9852502107
 30
0.0
 10
6.0338322771
 20
4.9532249848
 30
0.0
 10
6.0331269359
 20
4.9265368861
 30
0.0
 10
6.0319338969
 20
4.9052546264
 30
0.0
 10
6.0303230366
 20
4.8841245646
 30
0.0
 10
6.0280571938
 20
4.8631370725
 30
0.0
 10
6.0250817837
 20
4.8423518821
 30
0.0
 10
6.0216477113
 20
4.8219013698
 30
0.0
 10
6.0174592866
 20
4.8017350295
 30
0.0
 10
6.0124296483
 20
4.781939671
 30
0.0
 10
6.00688383
 20
4.7626515307
 30
0.0
 10
5.9988597622
 20
4.7392322842
 30
0.0
 10
5.9872279082
 20
4.7123396469
 30
0.0
 10
5.9756951045
 20
4.6911712632
 30
0.0
 10
5.9653085087
 20
4.6752263567
 30
0.0
 10
5.9569465389
 20
4.6638204482
 30
0.0
 10
5.9479719983
 20
4.6529594783
 30
0.0
 10
5.9383714605
 20
4.6426800688
 30
0.0
 10
5.9281368459
 20
4.6330194417
 30
0.0
 10
5.9172703439
 20
4.6240083527
 30
0.0
 10
5.9057746797
 20
4.6156813254
 30
0.0
 10
5.8936595497
 20
4.608072613
 30
0.0
 10
5.8809479627
 20
4.6012037365
 30
0.0
 10
5.8676653408
 20
4.5951019563
 30
0.0
 10
5.8538465276
 20
4.5897897065
 30
0.0
 10
5.8346466489
 20
4.5837348043
 30
0.0
 10
5.8095417723
 20
4.5782535018
 30
0.0
 10
5.7784107802
 20
4.5750260572
 30
0.0
 10
5.7573186658
 20
4.5750470356
 30
0.0
 10
5.7467251287
 20
4.5755868849
 30
0.0
  0
SPLINE
  5
25B
100
AcDbEntity
  8
ALL_FEATURES
100
AcDbSpline
 62
7
  6
CONTINUOUS
 70
0
 71
3
 72
45
 73
41
 74
0
 42
0.0000001
 43
0.0000001
 44
0.0000000001
 40
0.0
 40
0.0
 40
0.0
 40
0.0
 40
0.0301873057
 40
0.0451708905
 40
0.0600998736
 40
0.0899167774
 40
0.1198808413
 40
0.1501441396
 40
0.1807792337
 40
0.1962497178
 40
0.2118159397
 40
0.2432258227
 40
0.2590635211
 40
0.2749775836
 40
0.307009675
 40
0.3392734898
 40
0.3717071163
 40
0.4042539841
 40
0.4368531027
 40
0.4694447955
 40
0.501972608
 40
0.5665815791
 40
0.6302150801
 40
0.6615482367
 40
0.6924930544
 40
0.7230443282
 40
0.7532306403
 40
0.7831472624
 40
0.7980608869
 40
0.8129755935
 40
0.827917851
 40
0.8429214768
 40
0.8580165474
 40
0.8732276873
 40
0.904061958
 40
0.9197201125
 40
0.9355324787
 40
0.9514912134
 40
0.9675812619
 40
1.0
 40
1.0
 40
1.0
 40
1.0
 10
5.8463819263
 20
5.2547314131
 30
0.0
 10
5.8532843771
 20
5.2512101484
 30
0.0
 10
5.8632447158
 20
5.2451673913
 30
0.0
 10
5.8754831311
 20
5.2357594251
 30
0.0
 10
5.8869397739
 20
5.2255521479
 30
0.0
 10
5.8998971437
 20
5.2113307457
 30
0.0
 10
5.9132234088
 20
5.1923827223
 30
0.0
 10
5.9245070268
 20
5.1719255982
 30
0.0
 10
5.9323464221
 20
5.1539307609
 30
0.0
 10
5.9378071086
 20
5.139069009
 30
0.0
 10
5.9427928663
 20
5.1238316274
 30
0.0
 10
5.9470395505
 20
5.1082648809
 30
0.0
 10
5.9506469301
 20
5.0924571756
 30
0.0
 10
5.9538796469
 20
5.0764051833
 30
0.0
 10
5.9572123
 20
5.0560797758
 30
0.0
 10
5.9601829898
 20
5.0314223392
 30
0.0
 10
5.9622285929
 20
5.0065391003
 30
0.0
 10
5.9633898378
 20
4.9815135097
 30
0.0
 10
5.9637208429
 20
4.9564230426
 30
0.0
 10
5.9632169144
 20
4.9313398391
 30
0.0
 10
5.9614232357
 20
4.8980831113
 30
0.0
 10
5.9570127312
 20
4.8570116771
 30
0.0
 10
5.9491408838
 20
4.8167365682
 30
0.0
 10
5.9402313278
 20
4.7856481722
 30
0.0
 10
5.932102459
 20
4.7632258249
 30
0.0
 10
5.9223005316
 20
4.7417962261
 30
0.0
 10
5.9106053506
 20
4.7216319415
 30
0.0
 10
5.8991023184
 20
4.7061243641
 30
0.0
 10
5.8888116327
 20
4.6947404101
 30
0.0
 10
5.8805393286
 20
4.6867496196
 30
0.0
 10
5.8717091533
 20
4.6793432232
 30
0.0
 10
5.8623246542
 20
4.6725727648
 30
0.0
 10
5.8524072809
 20
4.666475836
 30
0.0
 10
5.8384601608
 20
4.6592551706
 30
0.0
 10
5.8236143741
 20
4.6535521142
 30
0.0
 10
5.8081636239
 20
4.6493896218
 30
0.0
 10
5.7962125707
 20
4.6470184006
 30
0.0
 10
5.7840243789
 20
4.6454084989
 30
0.0
 10
5.7675080532
 20
4.6442693715
 30
0.0
 10
5.7550216629
 20
4.6445342057
 30
0.0
 10
5.7467253609
 20
4.6451817476
 30
0.0
  0
SPLINE
  5
25C
100
AcDbEntity
  8
ALL_FEATURES
100
AcDbSpline
 62
7
  6
CONTINUOUS
 70
0
 71
3
 72
13
 73
9
 74
0
 42
0.0000001
 43
0.0000001
 44
0.0000000001
 40
0.0
 40
0.0
 40
0.0
 40
0.0
 40
0.1136889838
 40
0.2325019816
 40
0.4815124269
 40
0.7399078293
 40
0.8703221104
 40
1.0
 40
1.0
 40
1.0
 40
1.0
 10
5.8773744462
 20
5.3185106188
 30
0.0
 10
5.8758159432
 20
5.3163098768
 30
0.0
 10
5.872739122
 20
5.3117301908
 30
0.0
 10
5.8667830929
 20
5.3019814583
 30
0.0
 10
5.8598168194
 20
5.2888446474
 30
0.0
 10
5.8537020497
 20
5.2749922016
 30
0.0
 10
5.8493220027
 20
5.2634980637
 30
0.0
 10
5.8473249822
 20
5.2576591864
 30
0.0
 10
5.8463817647
 20
5.2547314131
 30
0.0
  0
SPLINE
  5
25D
100
AcDbEntity
  8
0
100
AcDbSpline
 62
7
  6
CONTINUOUS
 70
0
 71
3
 72
14
 73
10
 74
0
 42
0.0000001
 43
0.0000001
 44
0.0000000001
 40
0.0
 40
0.0
 40
0.0
 40
0.0
 40
0.0160483798
 40
0.0639875999
 40
0.143509123
 40
0.2543048672
 40
0.3960516774
 40
0.5681467325
 40
1.0
 40
1.0
 40
1.0
 40
1.0
 10
4.3092253942
 20
5.321564441
 30
0.0
 10
4.3095187006
 20
5.3209190006
 30
0.0
 10
4.3106898406
 20
5.3183462851
 30
0.0
 10
4.313329053
 20
5.3125820446
 30
0.0
 10
4.317728948
 20
5.3030205182
 30
0.0
 10
4.3238907169
 20
5.289708001
 30
0.0
 10
4.3318051579
 20
5.2727003714
 30
0.0
 10
4.3457941906
 20
5.2428760818
 30
0.0
 10
4.3572866881
 20
5.2187973585
 30
0.0
 10
4.3655848481
 20
5.2016189303
 30
0.0
  0
SPLINE
  5
25E
100
AcDbEntity
  8
0
100
AcDbSpline
 62
7
  6
CONTINUOUS
 70
0
 71
3
 72
18
 73
14
 74
0
 42
0.0000001
 43
0.0000001
 44
0.0000000001
 40
0.0
 40
0.0
 40
0.0
 40
0.0
 40
0.0540934222
 40
0.0872492334
 40
0.1251586255
 40
0.1681391541
 40
0.2163927023
 40
0.2700476667
 40
0.3291846533
 40
0.4640634429
 40
0.6211604233
 40
0.8000397925
 40
1.0
 40
1.0
 40
1.0
 40
1.0
 10
4.5219168268
 20
4.6954094033
 30
0.0
 10
4.5211888217
 20
4.6956074637
 30
0.0
 10
4.5201036749
 20
4.6962388409
 30
0.0
 10
4.5187980614
 20
4.6973937839
 30
0.0
 10
4.5177224706
 20
4.6985710956
 30
0.0
 10
4.5166202149
 20
4.6999969269
 30
0.0
 10
4.5154879879
 20
4.7016722995
 30
0.0
 10
4.5143261942
 20
4.7035955295
 30
0.0
 10
4.5126635133
 20
4.7066243454
 30
0.0
 10
4.5105334778
 20
4.7110374047
 30
0.0
 10
4.5079579573
 20
4.7170801004
 30
0.0
 10
4.5052615649
 20
4.724052961
 30
0.0
 10
4.5034800274
 20
4.7290279055
 30
0.0
 10
4.5025636648
 20
4.7316620009
 30
0.0
  0
SPLINE
  5
25F
100
AcDbEntity
  8
0
100
AcDbSpline
 62
7
  6
CONTINUOUS
 70
0
 71
3
 72
27
 73
23
 74
0
 42
0.0000001
 43
0.0000001
 44
0.0000000001
 40
0.0
 40
0.0
 40
0.0
 40
0.0
 40
0.007486375
 40
0.0152912423
 40
0.0238559325
 40
0.0335153784
 40
0.0445023802
 40
0.0569734402
 40
0.0710336646
 40
0.0867545963
 40
0.1041857926
 40
0.1233621507
 40
0.1670381862
 40
0.2179157772
 40
0.2760587383
 40
0.3414966654
 40
0.4142321765
 40
0.4942148429
 40
0.5813694213
 40
0.6756138045
 40
0.7768611327
 40
1.0
 40
1.0
 40
1.0
 40
1.0
 10
4.1545978682
 20
5.2746259569
 30
0.0
 10
4.1548428513
 20
5.2747345699
 30
0.0
 10
4.155375169
 20
5.2748910384
 30
0.0
 10
4.1562368072
 20
5.2749134768
 30
0.0
 10
4.1571568496
 20
5.2747316332
 30
0.0
 10
4.1581354883
 20
5.2743521702
 30
0.0
 10
4.1591758357
 20
5.2737782335
 30
0.0
 10
4.1602801124
 20
5.2730107078
 30
0.0
 10
4.1614496998
 20
5.2720497698
 30
0.0
 10
4.1626852989
 20
5.2708954551
 30
0.0
 10
4.1639873399
 20
5.2695479304
 30
0.0
 10
4.1658961377
 20
5.2673987157
 30
0.0
 10
4.1684343569
 20
5.2642123453
 30
0.0
 10
4.1716298297
 20
5.2597761945
 30
0.0
 10
4.175093129
 20
5.2545783147
 30
0.0
 10
4.1788239861
 20
5.2486223672
 30
0.0
 10
4.1828209465
 20
5.2419131375
 30
0.0
 10
4.187084707
 20
5.2344597502
 30
0.0
 10
4.1916152119
 20
5.2262731478
 30
0.0
 10
4.1964121955
 20
5.2173648863
 30
0.0
 10
4.2033922104
 20
5.2041044143
 30
0.0
 10
4.2086785988
 20
5.1937654192
 30
0.0
 10
4.2122803969
 20
5.1866361886
 30
0.0
  0
LINE
  5
260
100
AcDbEntity
  8
0
100
AcDbLine
 62
7
  6
CONTINUOUS
 10
4.4717253942
 20
4.709064441
 11
4.4555110463
 21
4.7351740742
  0
ENDSEC
  0
SECTION
  2
OBJECTS
  0
DICTIONARY
  5
C
100
AcDbDictionary
280
0
281
1
  3
ACAD_GROUP
350
D
  3
ACAD_MLINESTYLE
350
17
  3
ACAD_LAYOUT
350
1A
  3
ACAD_PLOTSETTINGS
350
19
  3
ACAD_PLOTSTYLENAME
350
E
  0
DICTIONARY
  5
D
102
{ACAD_REACTORS
330
C
102
}
100
AcDbDictionary
280
0
281
1
  0
ACDBDICTIONARYWDFLT
  5
E
102
{ACAD_REACTORS
330
C
102
}
100
AcDbDictionary
281
1
  3
Normal
350
F
100
AcDbDictionaryWithDefault
340
F
  0
DICTIONARY
  5
17
102
{ACAD_REACTORS
330
C
102
}
100
AcDbDictionary
280
0
281
1
  3
Standard
350
18
  0
DICTIONARY
  5
19
102
{ACAD_REACTORS
330
C
102
}
100
AcDbDictionary
281
1
  0
DICTIONARY
  5
1A
102
{ACAD_REACTORS
330
C
102
}
100
AcDbDictionary
281
1
  3
Model
350
261
  3
Layout1
350
262
  0
ACDBPLACEHOLDER
  5
F
102
{ACAD_REACTORS
330
E
102
}
  0
MLINESTYLE
  5
18
102
{ACAD_REACTORS
330
17
102
}
100
AcDbMlineStyle
  2
STANDARD
 70
0
  3

 62
256
 51
90.0
 52
90.0
 71
2
 49
0.5
 62
256
  6
BYLAYER
 49
-0.5
 62
256
  6
BYLAYER
  0
LAYOUT
  5
261
102
{ACAD_REACTORS
330
1A
102
}
100
AcDbPlotSettings
  1

  2
none_device
  4
ANSI_A_(11.00_x_8.50_Inches)
  6

 40
0.0
 41
0.0
 42
0.0
 43
0.0
 44
279.4
 45
215.9
 46
0.0
 47
0.0
 48
0.0
 49
0.0
140
0.0
141
0.0
142
1.0
143
1.0
 70
1024
 72
0
 73
0
 74
0
  7

 75
0
147
1.0
148
0.0
149
0.0
100
AcDbLayout
  1
Model
 70
0
 71
0
 10
0.0
 20
0.0
 11
11.0
 21
8.5
 12
0.0
 22
0.0
 32
0.0
 14
0.0
 24
0.0
 34
0.0
 15
0.0
 25
0.0
 35
0.0
146
0.0
 13
0.0
 23
0.0
 33
0.0
 16
1.0
 26
0.0
 36
0.0
 17
0.0
 27
1.0
 37
0.0
 76
0
330
20F
345
0
346
0
  0
LAYOUT
  5
262
102
{ACAD_REACTORS
330
1A
102
}
100
AcDbPlotSettings
  1

  2
none_device
  4
ANSI_A_(11.00_x_8.50_Inches)
  6

 40
0.0
 41
0.0
 42
0.0
 43
0.0
 44
279.4
 45
215.9
 46
0.0
 47
0.0
 48
0.0
 49
0.0
140
0.0
141
0.0
142
1.0
143
1.0
 70
0
 72
0
 73
0
 74
0
  7

 75
0
147
1.0
148
0.0
149
0.0
100
AcDbLayout
  1
Layout1
 70
0
 71
1
 10
0.0
 20
0.0
 11
11.0
 21
8.5
 12
0.0
 22
0.0
 32
0.0
 14
0.0
 24
0.0
 34
0.0
 15
0.0
 25
0.0
 35
0.0
146
0.0
 13
0.0
 23
0.0
 33
0.0
 16
1.0
 26
0.0
 36
0.0
 17
0.0
 27
1.0
 37
0.0
 76
0
330
210
345
0
346
0
  0
ENDSEC
  0
EOF
