999
DXF file: 220_top.dxf
999
Pro/ENGINEER 2018400 by Parametric Technology Corporation
  0
SECTION
  2
HEADER
  9
$ACADVER
  1
AC1027
  9
$DWGCODEPAGE
  3
ANSI_1252
  9
$EXTMAX
 10
11.0
 20
8.5
 30
0.0
  9
$EXTMIN
 10
0.0
 20
0.0
 30
0.0
  9
$LIMMIN
 10
0.0
 20
0.0
  9
$LIMMAX
 10
11.0
 20
8.5
  9
$VIEWCTR
 10
5.5
 20
4.25
  9
$VIEWSIZE
 40
8.5
  9
$CLAYER
  8
0
  9
$LTSCALE
 40
0.605
  9
$CELTYPE
  6
BYLAYER
  9
$DIMSCALE
 40
1.0
  9
$DIMASZ
 40
0.1
  9
$DIMEXO
 40
0.0625
  9
$DIMDLI
 40
0.418
  9
$DIMEXE
 40
0.125
  9
$DIMCEN
 40
0.099
  9
$DIMLFAC
 40
1.0
  9
$DIMBLK
  1
_FILLED
  9
$DIMALT
 70
1
  9
$DIMALTD
 70
2
  9
$DIMALTTD
 70
2
  9
$DIMALTF
 40
25.4
  9
$DIMTXT
 40
0.08
  9
$DIMTOL
 70
1
  9
$DIMLIM
 70
0
  9
$DIMTFAC
 40
1.0
  9
$DIMTP
 40
0.001
  9
$DIMTM
 40
0.001
  9
$DIMGAP
 40
0.09
  9
$DIMDSEP
 70
46
  9
$AUNITS
 70
0
  9
$PDMODE
 70
3
  9
$PDSIZE
 40
0.3125
  9
$HANDSEED
  5
288
  9
$TILEMODE
 70
1
  9
$MEASUREMENT
 70
0
  9
$INSUNITS
 70
1
  0
ENDSEC
  0
SECTION
  2
CLASSES
  0
CLASS
  1
ACDBDICTIONARYWDFLT
  2
AcDbDictionaryWithDefault
  3
AutoCAD 2000
 90
0
 91
1
280
0
281
0
  0
CLASS
  1
ACDBPLACEHOLDER
  2
AcDbPlaceHolder
  3
AutoCAD 2000
 90
0
 91
1
280
0
281
0
  0
CLASS
  1
LAYOUT
  2
AcDbLayout
  3
AutoCAD 2000
 90
0
 91
0
280
0
281
0
  0
ENDSEC
  0
SECTION
  2
TABLES
  0
TABLE
  2
VPORT
  5
8
100
AcDbSymbolTable
 70
2
  0
VPORT
  5
1F4
100
AcDbSymbolTableRecord
100
AcDbViewportTableRecord
  2
*ACTIVE
 70
0
 10
0.0
 20
0.0
 11
1.0
 21
1.0
 12
5.5
 22
4.25
 13
0.0
 23
0.0
 14
1.0
 24
1.0
 15
0.0
 25
0.0
 16
0.0
 26
0.0
 36
1.0
 17
0.0
 27
0.0
 37
0.0
 40
8.5
 41
1.2941176471
 42
50.0
 43
0.0
 44
0.0
 50
0.0
 51
0.0
 71
0
 72
100
 73
1
 74
1
 75
0
 76
0
 77
0
 78
0
  0
ENDTAB
  0
TABLE
  2
LTYPE
  5
5
100
AcDbSymbolTable
 70
6
  0
LTYPE
  5
14
100
AcDbSymbolTableRecord
100
AcDbLinetypeTableRecord
  2
BYBLOCK
 70
0
  3

 72
65
 73
0
 40
0.0
  0
LTYPE
  5
15
100
AcDbSymbolTableRecord
100
AcDbLinetypeTableRecord
  2
BYLAYER
 70
0
  3

 72
65
 73
0
 40
0.0
  0
LTYPE
  5
16
100
AcDbSymbolTableRecord
100
AcDbLinetypeTableRecord
  2
CONTINUOUS
 70
64
  3
Solid line
 72
65
 73
0
 40
0.0
  0
LTYPE
  5
1F5
100
AcDbSymbolTableRecord
100
AcDbLinetypeTableRecord
  2
CENTER
 70
64
  3
____ _ ____ _ ____ _ ____ _ ____ _ ____ _ ____
 72
65
 73
4
 40
0.6
 49
0.375
 74
0
 49
-0.075
 74
0
 49
0.075
 74
0
 49
-0.075
 74
0
  0
LTYPE
  5
1F6
100
AcDbSymbolTableRecord
100
AcDbLinetypeTableRecord
  2
HIDDEN
 70
64
  3
- - - - - - - - - - - - - - - - - - - -
 72
65
 73
2
 40
0.2
 49
0.1
 74
0
 49
-0.1
 74
0
  0
LTYPE
  5
1F7
100
AcDbSymbolTableRecord
100
AcDbLinetypeTableRecord
  2
PHANTOM
 70
64
  3
_____ _ _ _____ _ _ _____ _ _ _____
 72
65
 73
6
 40
0.8
 49
0.45
 74
0
 49
-0.05
 74
0
 49
0.1
 74
0
 49
-0.05
 74
0
 49
0.1
 74
0
 49
-0.05
 74
0
  0
LTYPE
  5
1F8
100
AcDbSymbolTableRecord
100
AcDbLinetypeTableRecord
  2
DOT
 70
64
  3
. . . . . . . . . . . . . . . . . . . .
 72
65
 73
2
 40
0.2
 49
0.1
 74
0
 49
-0.1
 74
0
  0
LTYPE
  5
1F9
100
AcDbSymbolTableRecord
100
AcDbLinetypeTableRecord
  2
DASHED
 70
64
  3
- - - - - - - - - - - - - - - - - - - -
 72
65
 73
2
 40
0.2
 49
0.1
 74
0
 49
-0.1
 74
0
  0
ENDTAB
  0
TABLE
  2
LAYER
  5
2
100
AcDbSymbolTable
 70
36
  0
LAYER
  5
10
100
AcDbSymbolTableRecord
100
AcDbLayerTableRecord
  2
0
 70
0
 62
7
  6
CONTINUOUS
370
-3
390
F
  0
LAYER
  5
1FA
100
AcDbSymbolTableRecord
100
AcDbLayerTableRecord
  2
DEFAULT_1
 70
0
 62
7
  6
CENTER
370
-3
390
F
  0
LAYER
  5
1FB
100
AcDbSymbolTableRecord
100
AcDbLayerTableRecord
  2
DEFAULT_2
 70
0
 62
8
  6
HIDDEN
370
-3
390
F
  0
LAYER
  5
1FC
100
AcDbSymbolTableRecord
100
AcDbLayerTableRecord
  2
DEFAULT_3
 70
0
 62
7
  6
PHANTOM
370
-3
390
F
  0
LAYER
  5
1FD
100
AcDbSymbolTableRecord
100
AcDbLayerTableRecord
  2
ALL_FEATURES
 70
0
 62
7
  6
CONTINUOUS
370
-3
390
F
  0
LAYER
  5
1FE
100
AcDbSymbolTableRecord
100
AcDbLayerTableRecord
  2
AXES_FEATURES
 70
0
 62
7
  6
CONTINUOUS
370
-3
390
F
  0
LAYER
  5
1FF
100
AcDbSymbolTableRecord
100
AcDbLayerTableRecord
  2
CHAMFER_FEATURES
 70
0
 62
7
  6
CONTINUOUS
370
-3
390
F
  0
LAYER
  5
200
100
AcDbSymbolTableRecord
100
AcDbLayerTableRecord
  2
COORDINATE_SYSTEMS
 70
0
 62
7
  6
CONTINUOUS
370
-3
390
F
  0
LAYER
  5
201
100
AcDbSymbolTableRecord
100
AcDbLayerTableRecord
  2
CUT_FEATURES
 70
0
 62
7
  6
CONTINUOUS
370
-3
390
F
  0
LAYER
  5
202
100
AcDbSymbolTableRecord
100
AcDbLayerTableRecord
  2
DATUM_CURVES
 70
0
 62
7
  6
CONTINUOUS
370
-3
390
F
  0
LAYER
  5
203
100
AcDbSymbolTableRecord
100
AcDbLayerTableRecord
  2
DATUM_PLANES
 70
0
 62
7
  6
CONTINUOUS
370
-3
390
F
  0
LAYER
  5
204
100
AcDbSymbolTableRecord
100
AcDbLayerTableRecord
  2
DEFAULT_COORDINATE_SYSTEM
 70
0
 62
7
  6
CONTINUOUS
370
-3
390
F
  0
LAYER
  5
205
100
AcDbSymbolTableRecord
100
AcDbLayerTableRecord
  2
DEFAULT_DATUM_AXES
 70
0
 62
7
  6
CONTINUOUS
370
-3
390
F
  0
LAYER
  5
206
100
AcDbSymbolTableRecord
100
AcDbLayerTableRecord
  2
DEFAULT_DATUM_PLANES
 70
0
 62
7
  6
CONTINUOUS
370
-3
390
F
  0
LAYER
  5
207
100
AcDbSymbolTableRecord
100
AcDbLayerTableRecord
  2
DIMENSIONS
 70
0
 62
7
  6
CONTINUOUS
370
-3
390
F
  0
LAYER
  5
208
100
AcDbSymbolTableRecord
100
AcDbLayerTableRecord
  2
PROTRUSION_FEATURES
 70
0
 62
7
  6
CONTINUOUS
370
-3
390
F
  0
LAYER
  5
209
100
AcDbSymbolTableRecord
100
AcDbLayerTableRecord
  2
QUILTS
 70
0
 62
7
  6
CONTINUOUS
370
-3
390
F
  0
LAYER
  5
20A
100
AcDbSymbolTableRecord
100
AcDbLayerTableRecord
  2
ROUND_FEATURES
 70
0
 62
7
  6
CONTINUOUS
370
-3
390
F
  0
LAYER
  5
20B
100
AcDbSymbolTableRecord
100
AcDbLayerTableRecord
  2
SHELL_FEATURES
 70
0
 62
7
  6
CONTINUOUS
370
-3
390
F
  0
LAYER
  5
20C
100
AcDbSymbolTableRecord
100
AcDbLayerTableRecord
  2
SURFACE_FEATURES
 70
0
 62
7
  6
CONTINUOUS
370
-3
390
F
  0
ENDTAB
  0
TABLE
  2
STYLE
  5
3
100
AcDbSymbolTable
 70
1
  0
STYLE
  5
11
100
AcDbSymbolTableRecord
100
AcDbTextStyleTableRecord
  2
STANDARD
 70
0
 40
0.0
 41
0.8
 50
0.0
 71
0
 42
0.2
  3
txt
  4

  0
STYLE
  5
20D
100
AcDbSymbolTableRecord
100
AcDbTextStyleTableRecord
  2
TEXTSTYLE_1
 70
0
 40
0.0
 41
0.8
 50
0.0
 71
0
 42
0.2
  3
gdt
  4

  0
ENDTAB
  0
TABLE
  2
VIEW
  5
6
100
AcDbSymbolTable
 70
0
  0
ENDTAB
  0
TABLE
  2
UCS
  5
7
100
AcDbSymbolTable
 70
0
  0
ENDTAB
  0
TABLE
  2
APPID
  5
9
100
AcDbSymbolTable
 70
1
  0
APPID
  5
20E
100
AcDbSymbolTableRecord
100
AcDbRegAppTableRecord
  2
ACAD
 70
0
  0
ENDTAB
  0
TABLE
  2
BLOCK_RECORD
  5
1
100
AcDbSymbolTable
 70
0
  0
BLOCK_RECORD
  5
20F
100
AcDbSymbolTableRecord
100
AcDbBlockTableRecord
  2
*Model_Space
  0
BLOCK_RECORD
  5
210
100
AcDbSymbolTableRecord
100
AcDbBlockTableRecord
  2
*Paper_Space
  0
BLOCK_RECORD
  5
211
100
AcDbSymbolTableRecord
100
AcDbBlockTableRecord
  2
_FILLED
  0
ENDTAB
  0
TABLE
  2
DIMSTYLE
  5
A
100
AcDbSymbolTable
 70
1
100
AcDbDimStyleTable
 71
0
  0
DIMSTYLE
105
212
100
AcDbSymbolTableRecord
100
AcDbDimStyleTableRecord
  2
STANDARD
 70
0
  3

  4

 40
1.0
 41
0.1
 42
0.0625
 43
0.38
 44
0.125
 45
0.0
 46
0.0
 47
0.001
 48
0.001
140
0.08
141
0.09
142
0.0
143
25.4
144
1.0
145
0.0
146
1.0
147
0.09
 71
1.0
 72
0.0
 73
1
 74
1
 75
0
 76
0
 77
0
 78
4
 79
1
170
1
171
2
172
0
173
0
174
0
175
0
176
0
177
0
178
0
270
2
179
3
271
3
272
3
273
2
274
2
275
0
280
0
281
0
282
0
283
1
284
4
285
0
286
0
287
3
288
0
340
11
278
46
341
211
342
211
343
211
344
211
  0
ENDTAB
  0
ENDSEC
  0
SECTION
  2
BLOCKS
  0
BLOCK
  5
20
100
AcDbEntity
  8
0
100
AcDbBlockBegin
  2
*Model_Space
 70
0
 10
0.0
 20
0.0
 30
0.0
  3
*Model_Space
  1

  0
ENDBLK
  5
21
100
AcDbEntity
  8
0
100
AcDbBlockEnd
  0
BLOCK
  5
1C
100
AcDbEntity
  8
0
100
AcDbBlockBegin
  2
*Paper_Space
 70
0
 10
0.0
 20
0.0
 30
0.0
  3
*Paper_Space
  1

  0
ENDBLK
  5
1D
100
AcDbEntity
  8
0
100
AcDbBlockEnd
  0
BLOCK
  5
213
100
AcDbEntity
  8
0
100
AcDbBlockBegin
  2
_FILLED
 70
64
 10
0.0
 20
0.0
  3
_FILLED
  1

  0
SOLID
  5
214
100
AcDbEntity
  8
0
  6
BYBLOCK
 62
0
100
AcDbTrace
 10
0.0
 20
0.0
 11
-1.0
 21
0.2
 12
-1.0
 22
-0.2
 13
-1.0
 23
-0.2
  0
ENDBLK
  5
215
100
AcDbEntity
  8
0
  6
BYBLOCK
 62
0
100
AcDbBlockEnd
  0
ENDSEC
  0
SECTION
  2
ENTITIES
  0
MTEXT
  5
216
100
AcDbEntity
  8
0
100
AcDbMText
 62
2
  6
CONTINUOUS
  7
STANDARD
 71
3
 72
1
 10
5.5345885093
 20
2.929800227
 30
0.0
 11
1.0
 21
0.0
 31
0.0
 73
2
 44
0.9
  1
SCALE  .500
 40
0.08
 41
0.704
  0
LINE
  5
217
100
AcDbEntity
  8
0
100
AcDbLine
 62
7
  6
CONTINUOUS
 10
0.0
 20
0.0
 11
0.0
 21
8.5
  0
LINE
  5
218
100
AcDbEntity
  8
0
100
AcDbLine
 62
7
  6
CONTINUOUS
 10
0.0
 20
0.0
 11
11.0
 21
0.0
  0
LINE
  5
219
100
AcDbEntity
  8
0
100
AcDbLine
 62
7
  6
CONTINUOUS
 10
0.0
 20
8.5
 11
11.0
 21
8.5
  0
LINE
  5
21A
100
AcDbEntity
  8
0
100
AcDbLine
 62
7
  6
CONTINUOUS
 10
11.0
 20
0.0
 11
11.0
 21
8.5
  0
LWPOLYLINE
  5
21B
100
AcDbEntity
  8
ALL_FEATURES
100
AcDbPolyline
 62
7
  6
CONTINUOUS
 90
13
 70
0
 10
4.4291308278
 20
5.9884845592
 10
4.4293997445
 20
5.985821971
 10
4.430474587
 20
5.9787104447
 10
4.4320577334
 20
5.9716947357
 10
4.4341409527
 20
5.9648111182
 10
4.4367134274
 20
5.9580951844
 10
4.4397618075
 20
5.9515816594
 10
4.4432702751
 20
5.945304226
 10
4.447220656
 20
5.9392953017
 10
4.4515925199
 20
5.9335858885
 10
4.4563632475
 20
5.9282054729
 10
4.4615081378
 20
5.9231818648
 10
4.467000569
 20
5.9185410108
  0
LINE
  5
21C
100
AcDbEntity
  8
ALL_FEATURES
100
AcDbLine
 62
7
  6
CONTINUOUS
 10
4.4104912914
 20
6.2015584687
 11
4.4291349164
 21
5.9884849071
  0
LINE
  5
21D
100
AcDbEntity
  8
ALL_FEATURES
100
AcDbLine
 62
7
  6
CONTINUOUS
 10
4.667599199
 20
4.4070579176
 11
4.6673617555
 21
4.409470817
  0
LINE
  5
21E
100
AcDbEntity
  8
ALL_FEATURES
100
AcDbLine
 62
7
  6
CONTINUOUS
 10
4.6705466064
 20
4.3230923503
 11
4.6705363293
 21
4.3232301444
  0
LINE
  5
21F
100
AcDbEntity
  8
ALL_FEATURES
100
AcDbLine
 62
7
  6
CONTINUOUS
 10
4.657916839
 20
4.5210475871
 11
4.6576123565
 21
4.5253546068
  0
LINE
  5
220
100
AcDbEntity
  8
ALL_FEATURES
100
AcDbLine
 62
7
  6
CONTINUOUS
 10
4.5729496742
 20
5.8322074826
 11
4.5481234119
 21
6.2015584687
  0
LINE
  5
221
100
AcDbEntity
  8
ALL_FEATURES
100
AcDbLine
 62
7
  6
CONTINUOUS
 10
4.5817313665
 20
5.7015584687
 11
4.6592801723
 21
4.4983989011
  0
LINE
  5
222
100
AcDbEntity
  8
ALL_FEATURES
100
AcDbLine
 62
7
  6
CONTINUOUS
 10
4.6611556639
 20
4.4693274989
 11
4.6712682506
 21
4.3116197645
  0
LINE
  5
223
100
AcDbEntity
  8
ALL_FEATURES
100
AcDbLine
 62
7
  6
CONTINUOUS
 10
4.6712682506
 20
4.3116197645
 11
4.6785254978
 21
4.1958643225
  0
LINE
  5
224
100
AcDbEntity
  8
ALL_FEATURES
100
AcDbLine
 62
7
  6
CONTINUOUS
 10
4.6611556618
 20
4.4693274988
 11
4.6611575265
 21
4.4692961259
  0
LINE
  5
225
100
AcDbEntity
  8
ALL_FEATURES
100
AcDbLine
 62
7
  6
CONTINUOUS
 10
4.6818355779
 20
4.1414354072
 11
4.6828734125
 21
4.1235769915
  0
LINE
  5
226
100
AcDbEntity
  8
ALL_FEATURES
100
AcDbLine
 62
7
  6
CONTINUOUS
 10
4.6828734125
 20
4.1235769915
 11
4.6833789355
 21
4.1142435622
  0
LWPOLYLINE
  5
227
100
AcDbEntity
  8
ALL_FEATURES
100
AcDbPolyline
 62
7
  6
CONTINUOUS
 90
13
 70
0
 10
5.5414621738
 20
5.9185410186
 10
5.5469797472
 20
5.9232047244
 10
5.5521463493
 20
5.9282546785
 10
5.5569349949
 20
5.9336645494
 10
5.561320658
 20
5.9394061088
 10
5.5652804354
 20
5.9454494217
 10
5.5687936563
 20
5.9517630111
 10
5.5718419524
 20
5.9583139626
 10
5.5744093595
 20
5.9650680792
 10
5.576482431
 20
5.9719901076
 10
5.5780503027
 20
5.9790439183
 10
5.5791047487
 20
5.9861926951
 10
5.5793319051
 20
5.9884845592
  0
LINE
  5
228
100
AcDbEntity
  8
ALL_FEATURES
100
AcDbLine
 62
7
  6
CONTINUOUS
 10
4.6650409704
 20
4.4092729234
 11
4.6650410953
 21
4.4092525591
  0
LINE
  5
229
100
AcDbEntity
  8
0
100
AcDbLine
 62
7
  6
CONTINUOUS
 10
5.0042313665
 20
3.7165704133
 11
5.0042313665
 21
6.2015584687
  0
LINE
  5
22A
100
AcDbEntity
  8
ALL_FEATURES
100
AcDbLine
 62
7
  6
CONTINUOUS
 10
5.3434217625
 20
4.4092729234
 11
5.3434216376
 21
4.4092525591
  0
LINE
  5
22B
100
AcDbEntity
  8
ALL_FEATURES
100
AcDbLine
 62
7
  6
CONTINUOUS
 10
5.3250837974
 20
4.1142435622
 11
5.3259718565
 21
4.1302964475
  0
LINE
  5
22C
100
AcDbEntity
  8
ALL_FEATURES
100
AcDbLine
 62
7
  6
CONTINUOUS
 10
5.3259718565
 20
4.1302964475
 11
5.326627155
 21
4.1414354071
  0
LINE
  5
22D
100
AcDbEntity
  8
ALL_FEATURES
100
AcDbLine
 62
7
  6
CONTINUOUS
 10
5.3473070711
 20
4.4693274988
 11
5.3473052064
 21
4.4692961259
  0
LINE
  5
22E
100
AcDbEntity
  8
ALL_FEATURES
100
AcDbLine
 62
7
  6
CONTINUOUS
 10
5.3491825588
 20
4.4983988665
 11
5.4267313665
 21
5.7015584687
  0
LINE
  5
22F
100
AcDbEntity
  8
ALL_FEATURES
100
AcDbLine
 62
7
  6
CONTINUOUS
 10
5.3299333869
 20
4.1958460461
 11
5.3434217457
 21
4.4092525521
  0
LINE
  5
230
100
AcDbEntity
  8
ALL_FEATURES
100
AcDbLine
 62
7
  6
CONTINUOUS
 10
5.3434216278
 20
4.4092524079
 11
5.3473052044
 21
4.469296126
  0
LINE
  5
231
100
AcDbEntity
  8
ALL_FEATURES
100
AcDbLine
 62
7
  6
CONTINUOUS
 10
5.4355130587
 20
5.8322074826
 11
5.460339321
 21
6.2015584687
  0
LINE
  5
232
100
AcDbEntity
  8
ALL_FEATURES
100
AcDbLine
 62
7
  6
CONTINUOUS
 10
5.3488731528
 20
4.4984225496
 11
5.3499277472
 21
4.5124908726
  0
LINE
  5
233
100
AcDbEntity
  8
ALL_FEATURES
100
AcDbLine
 62
7
  6
CONTINUOUS
 10
5.3379161265
 20
4.3230923503
 11
5.3379264036
 21
4.3232301444
  0
LINE
  5
234
100
AcDbEntity
  8
ALL_FEATURES
100
AcDbLine
 62
7
  6
CONTINUOUS
 10
5.3408635319
 20
4.4070578975
 11
5.3410906964
 21
4.4094717672
  0
LINE
  5
235
100
AcDbEntity
  8
ALL_FEATURES
100
AcDbLine
 62
7
  6
CONTINUOUS
 10
5.5793278165
 20
5.9884849071
 11
5.5979714415
 21
6.2015584687
  0
LINE
  5
236
100
AcDbEntity
  8
ALL_FEATURES
100
AcDbLine
 62
7
  6
CONTINUOUS
 10
4.7711288824
 20
5.7015584687
 11
4.6100106029
 21
5.7015584687
  0
LINE
  5
237
100
AcDbEntity
  8
0
100
AcDbLine
 62
7
  6
CONTINUOUS
 10
4.7711288824
 20
5.7015584687
 11
5.2373338505
 21
5.7015584687
  0
LINE
  5
238
100
AcDbEntity
  8
ALL_FEATURES
100
AcDbLine
 62
7
  6
CONTINUOUS
 10
5.2373338505
 20
5.7015584687
 11
5.39845213
 21
5.7015584687
  0
LINE
  5
239
100
AcDbEntity
  8
0
100
AcDbLine
 62
7
  6
CONTINUOUS
 10
4.4104881738
 20
6.2015584687
 11
5.5979745591
 21
6.2015584687
  0
ARC
  5
23A
100
AcDbEntity
  8
ALL_FEATURES
100
AcDbCircle
 62
7
  6
CONTINUOUS
 10
-27.6705086699
 20
1.9756205174
 40
32.4387241655
100
AcDbArc
 50
3.9635651713
 51
4.1540454112
  0
ARC
  5
23B
100
AcDbEntity
  8
ALL_FEATURES
100
AcDbCircle
 62
7
  6
CONTINUOUS
 10
37.6789714028
 20
1.9756205174
 40
32.4387241655
100
AcDbArc
 50
175.8459545888
 51
176.0364348287
  0
ARC
  5
23C
100
AcDbEntity
  8
ALL_FEATURES
100
AcDbCircle
 62
7
  6
CONTINUOUS
 10
-27.2637998993
 20
1.8370352988
 40
32.0428729236
100
AcDbArc
 50
3.8221841117
 51
4.1868846443
  0
ARC
  5
23D
100
AcDbEntity
  8
ALL_FEATURES
100
AcDbCircle
 62
7
  6
CONTINUOUS
 10
37.2722626322
 20
1.8370352994
 40
32.0428729236
100
AcDbArc
 50
175.8131153567
 51
176.1778158893
  0
ARC
  5
23E
100
AcDbEntity
  8
ALL_FEATURES
100
AcDbCircle
 62
7
  6
CONTINUOUS
 10
19.5078475335
 20
3.303910351
 40
14.2059394427
100
AcDbArc
 50
176.4002538164
 51
176.6205518838
  0
ARC
  5
23F
100
AcDbEntity
  8
ALL_FEATURES
100
AcDbCircle
 62
7
  6
CONTINUOUS
 10
-9.4993847854
 20
3.3039103509
 40
14.2059394276
100
AcDbArc
 50
3.3794481206
 51
3.599746188
  0
ARC
  5
240
100
AcDbEntity
  8
ALL_FEATURES
100
AcDbCircle
 62
7
  6
CONTINUOUS
 10
-3.4342715082
 20
4.8161270074
 40
8.7725299277
100
AcDbArc
 50
355.8185950016
 51
356.0894762224
  0
ARC
  5
241
100
AcDbEntity
  8
ALL_FEATURES
100
AcDbCircle
 62
7
  6
CONTINUOUS
 10
13.4427342409
 20
4.8161270074
 40
8.7725299275
100
AcDbArc
 50
183.9105237776
 51
184.1814049984
  0
ARC
  5
242
100
AcDbEntity
  8
ALL_FEATURES
100
AcDbCircle
 62
7
  6
CONTINUOUS
 10
9.2149201383
 20
4.6296158841
 40
4.5546994788
100
AcDbArc
 50
183.8588251268
 51
185.4616516887
  0
ARC
  5
243
100
AcDbEntity
  8
ALL_FEATURES
100
AcDbCircle
 62
7
  6
CONTINUOUS
 10
0.7935425946
 20
4.6296158841
 40
4.5546994788
100
AcDbArc
 50
354.5383483113
 51
356.1411748732
  0
ARC
  5
244
100
AcDbEntity
  8
ALL_FEATURES
100
AcDbCircle
 62
7
  6
CONTINUOUS
 10
9.2109517973
 20
4.6291562828
 40
4.5507054096
100
AcDbArc
 50
185.4606468384
 51
188.2899922598
  0
ARC
  5
245
100
AcDbEntity
  8
ALL_FEATURES
100
AcDbCircle
 62
7
  6
CONTINUOUS
 10
0.7975109356
 20
4.6291562828
 40
4.5507054096
100
AcDbArc
 50
351.7100077402
 51
354.5393531616
  0
ARC
  5
246
100
AcDbEntity
  8
ALL_FEATURES
100
AcDbCircle
 62
7
  6
CONTINUOUS
 10
8.8406735895
 20
4.8189314972
 40
4.1933506547
100
AcDbArc
 50
184.7818996238
 51
185.6035882743
  0
ARC
  5
247
100
AcDbEntity
  8
ALL_FEATURES
100
AcDbCircle
 62
7
  6
CONTINUOUS
 10
1.1677893337
 20
4.8189314794
 40
4.1933504636
100
AcDbArc
 50
354.3964117147
 51
355.2185296845
  0
ARC
  5
248
100
AcDbEntity
  8
ALL_FEATURES
100
AcDbCircle
 62
7
  6
CONTINUOUS
 10
8.839656355
 20
4.8188459364
 40
4.1923298283
100
AcDbArc
 50
184.3834407342
 51
184.7818932929
  0
ARC
  5
249
100
AcDbEntity
  8
ALL_FEATURES
100
AcDbCircle
 62
7
  6
CONTINUOUS
 10
1.168806949
 20
4.8188458913
 40
4.1923292554
100
AcDbArc
 50
355.2185360576
 51
355.6165592843
  0
ARC
  5
24A
100
AcDbEntity
  8
ALL_FEATURES
100
AcDbCircle
 62
7
  6
CONTINUOUS
 10
8.8392746968
 20
4.8187858578
 40
4.1919442214
100
AcDbArc
 50
185.6366131421
 51
186.7789438629
  0
ARC
  5
24B
100
AcDbEntity
  8
ALL_FEATURES
100
AcDbCircle
 62
7
  6
CONTINUOUS
 10
1.1691880364
 20
4.8187858578
 40
4.1919442212
100
AcDbArc
 50
353.221056137
 51
354.363386582
  0
ARC
  5
24C
100
AcDbEntity
  8
ALL_FEATURES
100
AcDbCircle
 62
7
  6
CONTINUOUS
 10
8.8384696377
 20
4.8187548202
 40
4.1911396181
100
AcDbArc
 50
184.0732942298
 51
184.3834387133
  0
ARC
  5
24D
100
AcDbEntity
  8
ALL_FEATURES
100
AcDbCircle
 62
7
  6
CONTINUOUS
 10
1.1712897186
 20
4.8186617854
 40
4.189839663
100
AcDbArc
 50
355.8093978508
 51
356.3120428601
  0
ARC
  5
24E
100
AcDbEntity
  8
ALL_FEATURES
100
AcDbCircle
 62
7
  6
CONTINUOUS
 10
8.8367330966
 20
4.8186323569
 40
4.1893987634
100
AcDbArc
 50
183.6879424948
 51
184.0142591793
  0
ARC
  5
24F
100
AcDbEntity
  8
ALL_FEATURES
100
AcDbCircle
 62
7
  6
CONTINUOUS
 10
8.832113382
 20
4.8179053904
 40
4.1847290423
100
AcDbArc
 50
186.7785468429
 51
188.24411143
  0
ARC
  5
250
100
AcDbEntity
  8
ALL_FEATURES
100
AcDbCircle
 62
7
  6
CONTINUOUS
 10
1.1763493509
 20
4.8179053904
 40
4.1847290423
100
AcDbArc
 50
351.75588857
 51
353.2214531569
  0
ARC
  5
251
100
AcDbEntity
  8
ALL_FEATURES
100
AcDbCircle
 62
7
  6
CONTINUOUS
 10
2.3846881285
 20
4.2864839008
 40
2.9454350278
100
AcDbArc
 50
350.7501208566
 51
356.6474236689
  0
ARC
  5
252
100
AcDbEntity
  8
ALL_FEATURES
100
AcDbCircle
 62
7
  6
CONTINUOUS
 10
7.6237745824
 20
4.2864838979
 40
2.9454350056
100
AcDbArc
 50
183.3524877626
 51
189.2498791552
  0
ARC
  5
253
100
AcDbEntity
  8
ALL_FEATURES
100
AcDbCircle
 62
7
  6
CONTINUOUS
 10
3.2342926612
 20
4.4814681788
 40
2.0686937787
100
AcDbArc
 50
352.457001092
 51
355.5349409841
  0
ARC
  5
254
100
AcDbEntity
  8
ALL_FEATURES
100
AcDbCircle
 62
7
  6
CONTINUOUS
 10
6.7741700717
 20
4.4814681788
 40
2.0686937787
100
AcDbArc
 50
184.4650590159
 51
187.542998908
  0
ARC
  5
255
100
AcDbEntity
  8
0
100
AcDbCircle
 62
7
  6
CONTINUOUS
 10
5.0043165886
 20
5.2573913387
 40
1.5408241552
100
AcDbArc
 50
262.466765201
 51
269.9968310029
  0
ARC
  5
256
100
AcDbEntity
  8
0
100
AcDbCircle
 62
7
  6
CONTINUOUS
 10
5.0041461443
 20
5.2573913387
 40
1.5408241552
100
AcDbArc
 50
270.0031689971
 51
277.533234799
  0
ARC
  5
257
100
AcDbEntity
  8
ALL_FEATURES
100
AcDbCircle
 62
7
  6
CONTINUOUS
 10
4.098318055
 20
4.3673088268
 40
1.1971592969
100
AcDbArc
 50
350.3734672245
 51
352.4450695019
  0
ARC
  5
258
100
AcDbEntity
  8
ALL_FEATURES
100
AcDbCircle
 62
7
  6
CONTINUOUS
 10
5.9101446779
 20
4.3673088268
 40
1.1971592969
100
AcDbArc
 50
187.5549304981
 51
189.6265327755
  0
ARC
  5
259
100
AcDbEntity
  8
ALL_FEATURES
100
AcDbCircle
 62
7
  6
CONTINUOUS
 10
5.7260988325
 20
5.6820874702
 40
0.3
100
AcDbArc
 50
128.0249571067
 51
176.2787060919
  0
ARC
  5
25A
100
AcDbEntity
  8
ALL_FEATURES
100
AcDbCircle
 62
7
  6
CONTINUOUS
 10
4.2823639004
 20
5.6820874702
 40
0.3
100
AcDbArc
 50
3.7212939081
 51
51.9750428913
  0
ARC
  5
25B
100
AcDbEntity
  8
ALL_FEATURES
100
AcDbCircle
 62
7
  6
CONTINUOUS
 10
5.1930436527
 20
3.8290775166
 40
0.1000717598
100
AcDbArc
 50
277.5254688129
 51
350.7742641628
  0
ARC
  5
25C
100
AcDbEntity
  8
ALL_FEATURES
100
AcDbCircle
 62
7
  6
CONTINUOUS
 10
4.8154190801
 20
3.8290775165
 40
0.1000717598
100
AcDbArc
 50
189.2257357838
 51
262.474531221
  0
LINE
  5
25D
100
AcDbEntity
  8
ALL_FEATURES
100
AcDbLine
 62
7
  6
CONTINUOUS
 10
5.3250837974
 20
4.1142435622
 11
5.3266132415
 21
4.1413262839
  0
LINE
  5
25E
100
AcDbEntity
  8
ALL_FEATURES
100
AcDbLine
 62
7
  6
CONTINUOUS
 10
5.3473070711
 20
4.4693274988
 11
5.3491825588
 21
4.4983988665
  0
LINE
  5
25F
100
AcDbEntity
  8
ALL_FEATURES
100
AcDbLine
 62
7
  6
CONTINUOUS
 10
4.6833789355
 20
4.1142435622
 11
4.6818494914
 21
4.1413262839
  0
LINE
  5
260
100
AcDbEntity
  8
ALL_FEATURES
100
AcDbLine
 62
7
  6
CONTINUOUS
 10
4.6611556618
 20
4.4693274988
 11
4.6592801741
 21
4.4983988665
  0
LINE
  5
261
100
AcDbEntity
  8
ALL_FEATURES
100
AcDbLine
 62
7
  6
CONTINUOUS
 10
4.678529346
 20
4.1958460461
 11
4.6705467232
 21
4.3230923578
  0
SPLINE
  5
262
100
AcDbEntity
  8
0
100
AcDbSpline
 62
7
  6
CONTINUOUS
 70
0
 71
3
 72
15
 73
11
 74
0
 42
0.0000001
 43
0.0000001
 44
0.0000000001
 40
0.0
 40
0.0
 40
0.0
 40
0.0
 40
0.1323171146
 40
0.263270894
 40
0.3924469684
 40
0.5194512263
 40
0.6439222911
 40
0.7655998601
 40
0.884325055
 40
1.0
 40
1.0
 40
1.0
 40
1.0
 10
5.0042313665
 20
4.2640584687
 30
0.0
 10
5.0174626363
 20
4.2640584687
 30
0.0
 10
5.0437927543
 20
4.2646374801
 30
0.0
 10
5.082961069
 20
4.2672657138
 30
0.0
 10
5.121438866
 20
4.2716498693
 30
0.0
 10
5.1590202028
 20
4.2777896009
 30
0.0
 10
5.1955064973
 20
4.2856874617
 30
0.0
 10
5.2307117341
 20
4.2953451203
 30
0.0
 10
5.2644605049
 20
4.306760116
 30
0.0
 10
5.2861656441
 20
4.3156612024
 30
0.0
 10
5.2967094389
 20
4.3204179226
 30
0.0
  0
SPLINE
  5
263
100
AcDbEntity
  8
ALL_FEATURES
100
AcDbSpline
 62
7
  6
CONTINUOUS
 70
0
 71
3
 72
33
 73
29
 74
0
 42
0.0000001
 43
0.0000001
 44
0.0000000001
 40
0.0
 40
0.0
 40
0.0
 40
0.0
 40
0.0002828414
 40
0.0006785375
 40
0.0018288876
 40
0.003470321
 40
0.0056074381
 40
0.0082416827
 40
0.0113733395
 40
0.0150021701
 40
0.0191276657
 40
0.0288658612
 40
0.0405817881
 40
0.0542691143
 40
0.0699217028
 40
0.0875332534
 40
0.1070973579
 40
0.1286075392
 40
0.1520558931
 40
0.2047175762
 40
0.2649791305
 40
0.3327267595
 40
0.4077865853
 40
0.4899611611
 40
0.5790544085
 40
0.674873688
 40
0.7772183829
 40
1.0
 40
1.0
 40
1.0
 40
1.0
 10
5.2061498655
 20
3.7298667504
 30
0.0
 10
5.206140891
 20
3.729882855
 30
0.0
 10
5.2061266861
 20
3.7299252974
 30
0.0
 10
5.2061054872
 20
3.7300426103
 30
0.0
 10
5.2060954473
 20
3.7302508621
 30
0.0
 10
5.2060998784
 20
3.7305719795
 30
0.0
 10
5.2061224489
 20
3.7309895415
 30
0.0
 10
5.2061628075
 20
3.7315030922
 30
0.0
 10
5.2062214122
 20
3.7321126908
 30
0.0
 10
5.2062982225
 20
3.7328181076
 30
0.0
 10
5.2064326691
 20
3.7339503774
 30
0.0
 10
5.2066487677
 20
3.7356037103
 30
0.0
 10
5.2069677517
 20
3.7378720236
 30
0.0
 10
5.2073592942
 20
3.7405193716
 30
0.0
 10
5.2078233295
 20
3.743544418
 30
0.0
 10
5.2083598348
 20
3.7469458587
 30
0.0
 10
5.208968724
 20
3.7507223909
 30
0.0
 10
5.2096498814
 20
3.7548726245
 30
0.0
 10
5.2106953931
 20
3.7611492911
 30
0.0
 10
5.2121830096
 20
3.7699130069
 30
0.0
 10
5.214187752
 20
3.7815177309
 30
0.0
 10
5.2164710544
 20
3.7945558889
 30
0.0
 10
5.2190220127
 20
3.8089972373
 30
0.0
 10
5.2218281507
 20
3.8248064066
 30
0.0
 10
5.2248773425
 20
3.8419467382
 30
0.0
 10
5.2281583565
 20
3.8603812136
 30
0.0
 10
5.2329643792
 20
3.8873953635
 30
0.0
 10
5.236654354
 20
3.9082642711
 30
0.0
 10
5.2391544845
 20
3.9225689219
 30
0.0
  0
SPLINE
  5
264
100
AcDbEntity
  8
ALL_FEATURES
100
AcDbSpline
 62
7
  6
CONTINUOUS
 70
0
 71
3
 72
36
 73
32
 74
0
 42
0.0000001
 43
0.0000001
 44
0.0000000001
 40
0.0
 40
0.0
 40
0.0
 40
0.0
 40
0.0001521636
 40
0.0003240783
 40
0.0005896899
 40
0.000971771
 40
0.0014774506
 40
0.00210957
 40
0.0028694542
 40
0.0037577711
 40
0.0059208134
 40
0.0085997647
 40
0.0117943369
 40
0.0155037141
 40
0.0197268116
 40
0.0244623935
 40
0.0354657947
 40
0.04850655
 40
0.0635800427
 40
0.0806815448
 40
0.0998061975
 40
0.1441030509
 40
0.1963875204
 40
0.2565382621
 40
0.3244254323
 40
0.3998733625
 40
0.4826876427
 40
0.5726768325
 40
0.6696568322
 40
0.7734370156
 40
1.0
 40
1.0
 40
1.0
 40
1.0
 10
5.2918228644
 20
3.813033239
 30
0.0
 10
5.2918159779
 20
3.8130289157
 30
0.0
 10
5.291796593
 20
3.8130240884
 30
0.0
 10
5.2917712428
 20
3.8130476284
 30
0.0
 10
5.291752364
 20
3.813086711
 30
0.0
 10
5.2917336459
 20
3.8131458628
 30
0.0
 10
5.29171665
 20
3.81322524
 30
0.0
 10
5.2917007761
 20
3.8133254658
 30
0.0
 10
5.2916863625
 20
3.8134464713
 30
0.0
 10
5.2916677981
 20
3.8136493066
 30
0.0
 10
5.2916496209
 20
3.8139550353
 30
0.0
 10
5.2916345037
 20
3.8143842359
 30
0.0
 10
5.2916251934
 20
3.8148962484
 30
0.0
 10
5.2916216928
 20
3.815490839
 30
0.0
 10
5.291624047
 20
3.81616778
 30
0.0
 10
5.2916356257
 20
3.817234429
 30
0.0
 10
5.2916663534
 20
3.8187720405
 30
0.0
 10
5.2917246322
 20
3.8208615527
 30
0.0
 10
5.2918063166
 20
3.8232763565
 30
0.0
 10
5.2919114717
 20
3.8260156217
 30
0.0
 10
5.2920922432
 20
3.8303147014
 30
0.0
 10
5.2923804331
 20
3.8364909384
 30
0.0
 10
5.2928048598
 20
3.8448554109
 30
0.0
 10
5.2933228356
 20
3.8544772959
 30
0.0
 10
5.2939335787
 20
3.865333718
 30
0.0
 10
5.2946357801
 20
3.8773979463
 30
0.0
 10
5.2954278117
 20
3.8906399819
 30
0.0
 10
5.2963081989
 20
3.9050293741
 30
0.0
 10
5.2972761146
 20
3.9205358394
 30
0.0
 10
5.2987247561
 20
3.9433245177
 30
0.0
 10
5.2998714388
 20
3.9609396428
 30
0.0
 10
5.3006659678
 20
3.9730202856
 30
0.0
  0
SPLINE
  5
265
100
AcDbEntity
  8
ALL_FEATURES
100
AcDbSpline
 62
7
  6
CONTINUOUS
 70
0
 71
3
 72
11
 73
7
 74
0
 42
0.0000001
 43
0.0000001
 44
0.0000000001
 40
0.0
 40
0.0
 40
0.0
 40
0.0
 40
0.2558826184
 40
0.5100435862
 40
0.7591959153
 40
1.0
 40
1.0
 40
1.0
 40
1.0
 10
5.3984521769
 20
5.7015589562
 30
0.0
 10
5.3992946141
 20
5.713185331
 30
0.0
 10
5.4022131402
 20
5.7362887416
 30
0.0
 10
5.4101417278
 20
5.7700145019
 30
0.0
 10
5.4212182523
 20
5.8021097841
 30
0.0
 10
5.4305061505
 20
5.8224467722
 30
0.0
 10
5.435512946
 20
5.8322074954
 30
0.0
  0
SPLINE
  5
266
100
AcDbEntity
  8
ALL_FEATURES
100
AcDbSpline
 62
7
  6
CONTINUOUS
 70
0
 71
3
 72
44
 73
40
 74
0
 42
0.0000001
 43
0.0000001
 44
0.0000000001
 40
0.0
 40
0.0
 40
0.0
 40
0.0
 40
0.1162152088
 40
0.2271312707
 40
0.3318486642
 40
0.4298217094
 40
0.5205964912
 40
0.6038170706
 40
0.6792332505
 40
0.7467365057
 40
0.806242361
 40
0.8330028759
 40
0.8577698477
 40
0.8805426753
 40
0.901323158
 40
0.9201137124
 40
0.9369158234
 40
0.9517300822
 40
0.9645567883
 40
0.9702257707
 40
0.9753992796
 40
0.9800778843
 40
0.9842621426
 40
0.9879526004
 40
0.9911497921
 40
0.9938542411
 40
0.9950218479
 40
0.9960664608
 40
0.9969881425
 40
0.9977869545
 40
0.9984629253
 40
0.9990160511
 40
0.9994463264
 40
0.9996153935
 40
0.9997537461
 40
0.9998613834
 40
0.9999383049
 40
0.9999845101
 40
1.0
 40
1.0
 40
1.0
 40
1.0
 10
5.435512724
 20
5.8322075207
 30
0.0
 10
5.4393061931
 20
5.8396113927
 30
0.0
 10
5.4472188386
 20
5.8538317171
 30
0.0
 10
5.4600902089
 20
5.8738145872
 30
0.0
 10
5.4733669424
 20
5.8919324559
 30
0.0
 10
5.4866962105
 20
5.9081816253
 30
0.0
 10
5.4997818618
 20
5.9226063529
 30
0.0
 10
5.5123630403
 20
5.93528171
 30
0.0
 10
5.5242230952
 20
5.9463051001
 30
0.0
 10
5.5351807236
 20
5.955790491
 30
0.0
 10
5.5437152424
 20
5.9627445846
 30
0.0
 10
5.5499805704
 20
5.9676356154
 30
0.0
 10
5.5542128765
 20
5.9708570097
 30
0.0
 10
5.5581360356
 20
5.9737772525
 30
0.0
 10
5.5617425737
 20
5.976405972
 30
0.0
 10
5.5650260804
 20
5.9787519226
 30
0.0
 10
5.5679800192
 20
5.9808242353
 30
0.0
 10
5.5705981154
 20
5.9826317267
 30
0.0
 10
5.5725679122
 20
5.9839754372
 30
0.0
 10
5.5739713503
 20
5.9849247102
 30
0.0
 10
5.5748932357
 20
5.9855448551
 30
0.0
 10
5.5757283123
 20
5.9861036249
 30
0.0
 10
5.576476342
 20
5.9866015801
 30
0.0
 10
5.5771370842
 20
5.9870392848
 30
0.0
 10
5.5777102993
 20
5.9874173022
 30
0.0
 10
5.578133252
 20
5.9876951345
 30
0.0
 10
5.578427619
 20
5.9878880578
 30
0.0
 10
5.5786153072
 20
5.9880109392
 30
0.0
 10
5.5787809365
 20
5.988119319
 30
0.0
 10
5.5789244626
 20
5.9882132766
 30
0.0
 10
5.5790458946
 20
5.9882928345
 30
0.0
 10
5.5791451826
 20
5.9883579995
 30
0.0
 10
5.579214217
 20
5.9884032567
 30
0.0
 10
5.5792582158
 20
5.9884323231
 30
0.0
 10
5.5792832832
 20
5.9884485621
 30
0.0
 10
5.5793019267
 20
5.9884615496
 30
0.0
 10
5.5793171841
 20
5.9884700694
 30
0.0
 10
5.5793228539
 20
5.9884765966
 30
0.0
 10
5.5793292162
 20
5.9884779814
 30
0.0
 10
5.5793290075
 20
5.9884790704
 30
0.0
  0
SPLINE
  5
267
100
AcDbEntity
  8
ALL_FEATURES
100
AcDbSpline
 62
7
  6
CONTINUOUS
 70
0
 71
3
 72
11
 73
7
 74
0
 42
0.0000001
 43
0.0000001
 44
0.0000000001
 40
0.0
 40
0.0
 40
0.0
 40
0.0
 40
0.2260766538
 40
0.4713534494
 40
0.7310263954
 40
1.0
 40
1.0
 40
1.0
 40
1.0
 10
5.2391543945
 20
3.9225690693
 30
0.0
 10
5.2423679853
 20
3.9409580626
 30
0.0
 10
5.2490016604
 20
3.9793095024
 30
0.0
 10
5.2589260516
 20
4.0388510905
 30
0.0
 10
5.268968488
 20
4.1019624808
 30
0.0
 10
5.2754293046
 20
4.1451340494
 30
0.0
 10
5.2786197695
 20
4.1671134782
 30
0.0
  0
SPLINE
  5
268
100
AcDbEntity
  8
ALL_FEATURES
100
AcDbSpline
 62
7
  6
CONTINUOUS
 70
0
 71
3
 72
16
 73
12
 74
0
 42
0.0000001
 43
0.0000001
 44
0.0000000001
 40
0.0
 40
0.0
 40
0.0
 40
0.0
 40
0.1753825874
 40
0.3357630517
 40
0.4804188225
 40
0.6092766741
 40
0.7232368636
 40
0.8240801964
 40
0.9148146922
 40
0.9577998162
 40
1.0
 40
1.0
 40
1.0
 40
1.0
 10
5.435512724
 20
5.8322075207
 30
0.0
 10
5.4370636125
 20
5.8307485718
 30
0.0
 10
5.4399541126
 20
5.8278695962
 30
0.0
 10
5.4437947013
 20
5.8234727619
 30
0.0
 10
5.4469187492
 20
5.819221655
 30
0.0
 10
5.4492949763
 20
5.8151493229
 30
0.0
 10
5.4509060602
 20
5.8112832392
 30
0.0
 10
5.4517292897
 20
5.8076434285
 30
0.0
 10
5.4517351154
 20
5.8047643033
 30
0.0
 10
5.4513123939
 20
5.8026649233
 30
0.0
 10
5.4509689688
 20
5.8016850587
 30
0.0
 10
5.450765533
 20
5.8012148392
 30
0.0
  0
SPLINE
  5
269
100
AcDbEntity
  8
ALL_FEATURES
100
AcDbSpline
 62
7
  6
CONTINUOUS
 70
0
 71
3
 72
15
 73
11
 74
0
 42
0.0000001
 43
0.0000001
 44
0.0000000001
 40
0.0
 40
0.0
 40
0.0
 40
0.0
 40
0.1478356286
 40
0.2899438855
 40
0.4250778076
 40
0.5528197285
 40
0.6732630587
 40
0.7870736763
 40
0.8954572794
 40
1.0
 40
1.0
 40
1.0
 40
1.0
 10
5.2391543945
 20
3.9225690693
 30
0.0
 10
5.243190614
 20
3.9234899595
 30
0.0
 10
5.2510267233
 20
3.9256750622
 30
0.0
 10
5.2621264888
 20
3.9300367002
 30
0.0
 10
5.2721658871
 20
3.9353701455
 30
0.0
 10
5.2809660272
 20
3.9415723671
 30
0.0
 10
5.2883707829
 20
3.9485507903
 30
0.0
 10
5.2942513335
 20
3.9561918244
 30
0.0
 10
5.2984707045
 20
3.9643676133
 30
0.0
 10
5.3001462497
 20
3.9701392063
 30
0.0
 10
5.3006659683
 20
3.9730202856
 30
0.0
  0
SPLINE
  5
26A
100
AcDbEntity
  8
0
100
AcDbSpline
 62
7
  6
CONTINUOUS
 70
0
 71
3
 72
15
 73
11
 74
0
 42
0.0000001
 43
0.0000001
 44
0.0000000001
 40
0.0
 40
0.0
 40
0.0
 40
0.0
 40
0.1305002112
 40
0.2602544028
 40
0.3888209937
 40
0.5157690847
 40
0.640683463
 40
0.763209745
 40
0.88306605
 40
1.0
 40
1.0
 40
1.0
 40
1.0
 10
5.0042313665
 20
4.1094309428
 30
0.0
 10
4.9920358253
 20
4.1104128105
 30
0.0
 10
4.9677414583
 20
4.1127259737
 30
0.0
 10
4.9315658243
 20
4.1172635374
 30
0.0
 10
4.8958755933
 20
4.122862734
 30
0.0
 10
4.8608293722
 20
4.1295229827
 30
0.0
 10
4.8265814163
 20
4.1372454553
 30
0.0
 10
4.7932767214
 20
4.1460308078
 30
0.0
 10
4.7610510804
 20
4.1558760369
 30
0.0
 10
4.7400996775
 20
4.163241917
 30
0.0
 10
4.7298429392
 20
4.1671134714
 30
0.0
  0
SPLINE
  5
26B
100
AcDbEntity
  8
0
100
AcDbSpline
 62
7
  6
CONTINUOUS
 70
0
 71
3
 72
15
 73
11
 74
0
 42
0.0000001
 43
0.0000001
 44
0.0000000001
 40
0.0
 40
0.0
 40
0.0
 40
0.0
 40
0.1323171146
 40
0.263270894
 40
0.3924469684
 40
0.5194512263
 40
0.6439222911
 40
0.7655998601
 40
0.884325055
 40
1.0
 40
1.0
 40
1.0
 40
1.0
 10
5.0042313665
 20
4.2640584687
 30
0.0
 10
4.9910000966
 20
4.2640584687
 30
0.0
 10
4.9646699787
 20
4.2646374801
 30
0.0
 10
4.9255016639
 20
4.2672657138
 30
0.0
 10
4.8870238669
 20
4.2716498693
 30
0.0
 10
4.8494425301
 20
4.2777896009
 30
0.0
 10
4.8129562356
 20
4.2856874617
 30
0.0
 10
4.7777509988
 20
4.2953451203
 30
0.0
 10
4.744002228
 20
4.306760116
 30
0.0
 10
4.7222970888
 20
4.3156612024
 30
0.0
 10
4.711753294
 20
4.3204179226
 30
0.0
  0
SPLINE
  5
26C
100
AcDbEntity
  8
ALL_FEATURES
100
AcDbSpline
 62
7
  6
CONTINUOUS
 70
0
 71
3
 72
18
 73
14
 74
0
 42
0.0000001
 43
0.0000001
 44
0.0000000001
 40
0.0
 40
0.0
 40
0.0
 40
0.0
 40
0.1945781824
 40
0.3715363002
 40
0.5289369464
 40
0.6653463109
 40
0.725478658
 40
0.780160015
 40
0.8293840897
 40
0.8732148741
 40
0.9118198787
 40
0.945489037
 40
1.0
 40
1.0
 40
1.0
 40
1.0
 10
5.2786197967
 20
4.1671134705
 30
0.0
 10
5.2810967465
 20
4.1672872115
 30
0.0
 10
5.2858221605
 20
4.1676844328
 30
0.0
 10
5.2925269709
 20
4.1684763067
 30
0.0
 10
5.2984604413
 20
4.1694288742
 30
0.0
 10
5.3028786323
 20
4.1703839545
 30
0.0
 10
5.3059688569
 20
4.1712405825
 30
0.0
 10
5.3079597445
 20
4.171889902
 30
0.0
 10
5.3097186786
 20
4.1725721566
 30
0.0
 10
5.3112410459
 20
4.1732853885
 30
0.0
 10
5.3125269655
 20
4.1740296953
 30
0.0
 10
5.3138265763
 20
4.1749886752
 30
0.0
 10
5.3146034503
 20
4.1758566077
 30
0.0
 10
5.3149076442
 20
4.1764821911
 30
0.0
  0
LINE
  5
26D
100
AcDbEntity
  8
ALL_FEATURES
100
AcDbLine
 62
7
  6
CONTINUOUS
 10
5.330241225
 20
4.2008361547
 11
5.3310915282
 21
4.214579274
  0
LINE
  5
26E
100
AcDbEntity
  8
ALL_FEATURES
100
AcDbLine
 62
7
  6
CONTINUOUS
 10
5.3310915282
 20
4.214579274
 11
5.3312601241
 21
4.2172905238
  0
LINE
  5
26F
100
AcDbEntity
  8
ALL_FEATURES
100
AcDbLine
 62
7
  6
CONTINUOUS
 10
5.3312601241
 20
4.2172905238
 11
5.3320966098
 21
4.2306626442
  0
LINE
  5
270
100
AcDbEntity
  8
ALL_FEATURES
100
AcDbLine
 62
7
  6
CONTINUOUS
 10
5.3320966098
 20
4.2306626442
 11
5.3324928579
 21
4.2369673493
  0
SPLINE
  5
271
100
AcDbEntity
  8
ALL_FEATURES
100
AcDbSpline
 62
7
  6
CONTINUOUS
 70
0
 71
3
 72
33
 73
29
 74
0
 42
0.0000001
 43
0.0000001
 44
0.0000000001
 40
0.0
 40
0.0
 40
0.0
 40
0.0
 40
0.0002828414
 40
0.0006785375
 40
0.0018288876
 40
0.003470321
 40
0.0056074381
 40
0.0082416827
 40
0.0113733395
 40
0.0150021701
 40
0.0191276657
 40
0.0288658612
 40
0.0405817881
 40
0.0542691143
 40
0.0699217028
 40
0.0875332534
 40
0.1070973579
 40
0.1286075392
 40
0.1520558931
 40
0.2047175762
 40
0.2649791305
 40
0.3327267595
 40
0.4077865853
 40
0.4899611611
 40
0.5790544085
 40
0.674873688
 40
0.7772183829
 40
1.0
 40
1.0
 40
1.0
 40
1.0
 10
4.8023128674
 20
3.7298667504
 30
0.0
 10
4.802321842
 20
3.729882855
 30
0.0
 10
4.8023360468
 20
3.7299252974
 30
0.0
 10
4.8023572457
 20
3.7300426103
 30
0.0
 10
4.8023672857
 20
3.7302508621
 30
0.0
 10
4.8023628545
 20
3.7305719795
 30
0.0
 10
4.8023402841
 20
3.7309895415
 30
0.0
 10
4.8022999254
 20
3.7315030922
 30
0.0
 10
4.8022413208
 20
3.7321126908
 30
0.0
 10
4.8021645104
 20
3.7328181076
 30
0.0
 10
4.8020300638
 20
3.7339503774
 30
0.0
 10
4.8018139653
 20
3.7356037103
 30
0.0
 10
4.8014949812
 20
3.7378720236
 30
0.0
 10
4.8011034387
 20
3.7405193716
 30
0.0
 10
4.8006394034
 20
3.743544418
 30
0.0
 10
4.8001028981
 20
3.7469458587
 30
0.0
 10
4.7994940089
 20
3.7507223909
 30
0.0
 10
4.7988128515
 20
3.7548726245
 30
0.0
 10
4.7977673398
 20
3.7611492911
 30
0.0
 10
4.7962797233
 20
3.7699130069
 30
0.0
 10
4.7942749809
 20
3.7815177309
 30
0.0
 10
4.7919916786
 20
3.7945558889
 30
0.0
 10
4.7894407202
 20
3.8089972373
 30
0.0
 10
4.7866345822
 20
3.8248064066
 30
0.0
 10
4.7835853904
 20
3.8419467382
 30
0.0
 10
4.7803043764
 20
3.8603812136
 30
0.0
 10
4.7754983537
 20
3.8873953635
 30
0.0
 10
4.7718083789
 20
3.9082642711
 30
0.0
 10
4.7693082484
 20
3.9225689219
 30
0.0
  0
SPLINE
  5
272
100
AcDbEntity
  8
ALL_FEATURES
100
AcDbSpline
 62
7
  6
CONTINUOUS
 70
0
 71
3
 72
36
 73
32
 74
0
 42
0.0000001
 43
0.0000001
 44
0.0000000001
 40
0.0
 40
0.0
 40
0.0
 40
0.0
 40
0.0001521636
 40
0.0003240783
 40
0.0005896899
 40
0.000971771
 40
0.0014774506
 40
0.00210957
 40
0.0028694542
 40
0.0037577711
 40
0.0059208134
 40
0.0085997647
 40
0.0117943369
 40
0.0155037141
 40
0.0197268116
 40
0.0244623935
 40
0.0354657947
 40
0.04850655
 40
0.0635800427
 40
0.0806815448
 40
0.0998061975
 40
0.1441030509
 40
0.1963875204
 40
0.2565382621
 40
0.3244254323
 40
0.3998733625
 40
0.4826876427
 40
0.5726768325
 40
0.6696568322
 40
0.7734370156
 40
1.0
 40
1.0
 40
1.0
 40
1.0
 10
4.7166398685
 20
3.813033239
 30
0.0
 10
4.716646755
 20
3.8130289157
 30
0.0
 10
4.7166661399
 20
3.8130240884
 30
0.0
 10
4.7166914901
 20
3.8130476284
 30
0.0
 10
4.716710369
 20
3.813086711
 30
0.0
 10
4.716729087
 20
3.8131458628
 30
0.0
 10
4.7167460829
 20
3.81322524
 30
0.0
 10
4.7167619569
 20
3.8133254658
 30
0.0
 10
4.7167763704
 20
3.8134464713
 30
0.0
 10
4.7167949348
 20
3.8136493066
 30
0.0
 10
4.716813112
 20
3.8139550353
 30
0.0
 10
4.7168282292
 20
3.8143842359
 30
0.0
 10
4.7168375395
 20
3.8148962484
 30
0.0
 10
4.7168410401
 20
3.815490839
 30
0.0
 10
4.716838686
 20
3.81616778
 30
0.0
 10
4.7168271072
 20
3.817234429
 30
0.0
 10
4.7167963796
 20
3.8187720405
 30
0.0
 10
4.7167381007
 20
3.8208615527
 30
0.0
 10
4.7166564163
 20
3.8232763565
 30
0.0
 10
4.7165512612
 20
3.8260156217
 30
0.0
 10
4.7163704897
 20
3.8303147014
 30
0.0
 10
4.7160822998
 20
3.8364909384
 30
0.0
 10
4.7156578731
 20
3.8448554109
 30
0.0
 10
4.7151398973
 20
3.8544772959
 30
0.0
 10
4.7145291542
 20
3.865333718
 30
0.0
 10
4.7138269528
 20
3.8773979463
 30
0.0
 10
4.7130349212
 20
3.8906399819
 30
0.0
 10
4.7121545341
 20
3.9050293741
 30
0.0
 10
4.7111866183
 20
3.9205358394
 30
0.0
 10
4.7097379769
 20
3.9433245177
 30
0.0
 10
4.7085912941
 20
3.9609396428
 30
0.0
 10
4.7077967651
 20
3.9730202856
 30
0.0
  0
SPLINE
  5
273
100
AcDbEntity
  8
ALL_FEATURES
100
AcDbSpline
 62
7
  6
CONTINUOUS
 70
0
 71
3
 72
11
 73
7
 74
0
 42
0.0000001
 43
0.0000001
 44
0.0000000001
 40
0.0
 40
0.0
 40
0.0
 40
0.0
 40
0.2260766538
 40
0.4713534494
 40
0.7310263954
 40
1.0
 40
1.0
 40
1.0
 40
1.0
 10
4.7693083384
 20
3.9225690693
 30
0.0
 10
4.7660947476
 20
3.9409580626
 30
0.0
 10
4.7594610725
 20
3.9793095024
 30
0.0
 10
4.7495366814
 20
4.0388510905
 30
0.0
 10
4.7394942449
 20
4.1019624808
 30
0.0
 10
4.7330334283
 20
4.1451340494
 30
0.0
 10
4.7298429634
 20
4.1671134782
 30
0.0
  0
SPLINE
  5
274
100
AcDbEntity
  8
ALL_FEATURES
100
AcDbSpline
 62
7
  6
CONTINUOUS
 70
0
 71
3
 72
15
 73
11
 74
0
 42
0.0000001
 43
0.0000001
 44
0.0000000001
 40
0.0
 40
0.0
 40
0.0
 40
0.0
 40
0.1478356286
 40
0.2899438855
 40
0.4250778076
 40
0.5528197285
 40
0.6732630587
 40
0.7870736763
 40
0.8954572794
 40
1.0
 40
1.0
 40
1.0
 40
1.0
 10
4.7693083384
 20
3.9225690693
 30
0.0
 10
4.7652721189
 20
3.9234899595
 30
0.0
 10
4.7574360096
 20
3.9256750622
 30
0.0
 10
4.7463362441
 20
3.9300367002
 30
0.0
 10
4.7362968458
 20
3.9353701455
 30
0.0
 10
4.7274967058
 20
3.9415723671
 30
0.0
 10
4.72009195
 20
3.9485507903
 30
0.0
 10
4.7142113994
 20
3.9561918244
 30
0.0
 10
4.7099920284
 20
3.9643676133
 30
0.0
 10
4.7083164832
 20
3.9701392063
 30
0.0
 10
4.7077967647
 20
3.9730202856
 30
0.0
  0
SPLINE
  5
275
100
AcDbEntity
  8
ALL_FEATURES
100
AcDbSpline
 62
7
  6
CONTINUOUS
 70
0
 71
3
 72
18
 73
14
 74
0
 42
0.0000001
 43
0.0000001
 44
0.0000000001
 40
0.0
 40
0.0
 40
0.0
 40
0.0
 40
0.1945781824
 40
0.3715363002
 40
0.5289369464
 40
0.6653463109
 40
0.725478658
 40
0.780160015
 40
0.8293840897
 40
0.8732148741
 40
0.9118198787
 40
0.945489037
 40
1.0
 40
1.0
 40
1.0
 40
1.0
 10
4.7298429362
 20
4.1671134705
 30
0.0
 10
4.7273659864
 20
4.1672872115
 30
0.0
 10
4.7226405724
 20
4.1676844328
 30
0.0
 10
4.715935762
 20
4.1684763067
 30
0.0
 10
4.7100022916
 20
4.1694288742
 30
0.0
 10
4.7055841007
 20
4.1703839545
 30
0.0
 10
4.702493876
 20
4.1712405825
 30
0.0
 10
4.7005029884
 20
4.171889902
 30
0.0
 10
4.6987440544
 20
4.1725721566
 30
0.0
 10
4.697221687
 20
4.1732853885
 30
0.0
 10
4.6959357674
 20
4.1740296953
 30
0.0
 10
4.6946361566
 20
4.1749886752
 30
0.0
 10
4.6938592826
 20
4.1758566077
 30
0.0
 10
4.6935550887
 20
4.1764821911
 30
0.0
  0
SPLINE
  5
276
100
AcDbEntity
  8
ALL_FEATURES
100
AcDbSpline
 62
7
  6
CONTINUOUS
 70
0
 71
3
 72
19
 73
15
 74
0
 42
0.0000001
 43
0.0000001
 44
0.0000000001
 40
0.0
 40
0.0
 40
0.0
 40
0.0
 40
0.1959932755
 40
0.3737425457
 40
0.5315091242
 40
0.6680007346
 40
0.7280839905
 40
0.7826599596
 40
0.8317187293
 40
0.8753117251
 40
0.9135819817
 40
0.946782187
 40
0.9753446626
 40
1.0
 40
1.0
 40
1.0
 40
1.0
 10
4.7233775882
 20
4.2099103322
 30
0.0
 10
4.721140514
 20
4.2100688925
 30
0.0
 10
4.716878076
 20
4.2104245513
 30
0.0
 10
4.7108344425
 20
4.2111161505
 30
0.0
 10
4.7054942844
 20
4.2119342733
 30
0.0
 10
4.7015188876
 20
4.2127454422
 30
0.0
 10
4.6987368425
 20
4.2134685491
 30
0.0
 10
4.6969441647
 20
4.2140146778
 30
0.0
 10
4.6953586637
 20
4.2145867741
 30
0.0
 10
4.6939833424
 20
4.2151839028
 30
0.0
 10
4.6928200482
 20
4.2158043028
 30
0.0
 10
4.6918697725
 20
4.2164476115
 30
0.0
 10
4.6911337422
 20
4.2171136767
 30
0.0
 10
4.690765391
 20
4.2176064384
 30
0.0
 10
4.69062879
 20
4.2178532855
 30
0.0
  0
SPLINE
  5
277
100
AcDbEntity
  8
ALL_FEATURES
100
AcDbSpline
 62
7
  6
CONTINUOUS
 70
0
 71
3
 72
36
 73
32
 74
0
 42
0.0000001
 43
0.0000001
 44
0.0000000001
 40
0.0
 40
0.0
 40
0.0
 40
0.0
 40
0.0000918592
 40
0.0003640495
 40
0.0008103702
 40
0.001424775
 40
0.0022013846
 40
0.0031344976
 40
0.0054482853
 40
0.0083246543
 40
0.0117257798
 40
0.0156180731
 40
0.0199727278
 40
0.029977349
 40
0.0416290112
 40
0.0549265292
 40
0.0699943743
 40
0.0870329359
 40
0.1061513905
 40
0.1273732939
 40
0.1506751222
 40
0.203318287
 40
0.2325435333
 40
0.2636337805
 40
0.3313281757
 40
0.4062975936
 40
0.4884272165
 40
0.5775876013
 40
0.6736021938
 40
0.7761997709
 40
1.0
 40
1.0
 40
1.0
 40
1.0
 10
4.5817309482
 20
5.7015641339
 30
0.0
 10
4.5817310048
 20
5.7015632623
 30
0.0
 10
4.5817343154
 20
5.7015697477
 30
0.0
 10
4.5817380561
 20
5.7015721382
 30
0.0
 10
4.5817468104
 20
5.7015838711
 30
0.0
 10
4.5817579733
 20
5.701596213
 30
0.0
 10
4.581772826
 20
5.7016129982
 30
0.0
 10
4.5817988327
 20
5.7016408629
 30
0.0
 10
4.5818397967
 20
5.7016823851
 30
0.0
 10
4.5818995173
 20
5.7017381012
 30
0.0
 10
4.5819730371
 20
5.7018009813
 30
0.0
 10
4.5820605037
 20
5.7018689886
 30
0.0
 10
4.5822026796
 20
5.7019686118
 30
0.0
 10
4.5824167547
 20
5.7020935904
 30
0.0
 10
4.5827222329
 20
5.7022265434
 30
0.0
 10
4.583088777
 20
5.7023330504
 30
0.0
 10
4.5835172561
 20
5.702394733
 30
0.0
 10
4.5840045099
 20
5.7024131727
 30
0.0
 10
4.5845501037
 20
5.7023973732
 30
0.0
 10
4.585153779
 20
5.7023539559
 30
0.0
 10
4.5860734052
 20
5.7022648915
 30
0.0
 10
4.5870671049
 20
5.7021527487
 30
0.0
 10
4.5881358247
 20
5.7020456623
 30
0.0
 10
4.589348692
 20
5.7019429783
 30
0.0
 10
4.5909978525
 20
5.7018411715
 30
0.0
 10
4.5931334689
 20
5.7017519298
 30
0.0
 10
4.5954741261
 20
5.7016869194
 30
0.0
 10
4.5980153129
 20
5.7016395783
 30
0.0
 10
4.6007513237
 20
5.7016045048
 30
0.0
 10
4.6047676157
 20
5.7015714445
 30
0.0
 10
4.6078711044
 20
5.7015620316
 30
0.0
 10
4.6099990588
 20
5.7015589516
 30
0.0
  0
SPLINE
  5
278
100
AcDbEntity
  8
ALL_FEATURES
100
AcDbSpline
 62
7
  6
CONTINUOUS
 70
0
 71
3
 72
12
 73
8
 74
0
 42
0.0000001
 43
0.0000001
 44
0.0000000001
 40
0.0
 40
0.0
 40
0.0
 40
0.0
 40
0.1250277429
 40
0.2500473998
 40
0.5000595688
 40
0.7500411062
 40
1.0
 40
1.0
 40
1.0
 40
1.0
 10
4.7117532936
 20
4.3204179226
 30
0.0
 10
4.7068994235
 20
4.3779305031
 30
0.0
 10
4.6974308312
 20
4.4929721824
 30
0.0
 10
4.679255522
 20
4.7231002692
 30
0.0
 10
4.657647833
 20
5.0108184804
 30
0.0
 10
4.6330602967
 20
5.3561484384
 30
0.0
 10
4.6175213984
 20
5.5864149119
 30
0.0
 10
4.6099990588
 20
5.7015589516
 30
0.0
  0
SPLINE
  5
279
100
AcDbEntity
  8
ALL_FEATURES
100
AcDbSpline
 62
7
  6
CONTINUOUS
 70
0
 71
3
 72
18
 73
14
 74
0
 42
0.0000001
 43
0.0000001
 44
0.0000000001
 40
0.0
 40
0.0
 40
0.0
 40
0.0
 40
0.2016043954
 40
0.3833662922
 40
0.5436531137
 40
0.6812184114
 40
0.7954297477
 40
0.8436672402
 40
0.885992263
 40
0.9224988565
 40
0.953375133
 40
0.9789796804
 40
1.0
 40
1.0
 40
1.0
 40
1.0
 10
4.7117532936
 20
4.3204179226
 30
0.0
 10
4.7097675692
 20
4.3204995316
 30
0.0
 10
4.7059928508
 20
4.3206904986
 30
0.0
 10
4.7006477704
 20
4.3210880373
 30
0.0
 10
4.6959442388
 20
4.3215781861
 30
0.0
 10
4.6919226017
 20
4.3221574427
 30
0.0
 10
4.6890192105
 20
4.3227345827
 30
0.0
 10
4.6870682347
 20
4.3232556726
 30
0.0
 10
4.6858763988
 20
4.3236437401
 30
0.0
 10
4.6848728653
 20
4.324049806
 30
0.0
 10
4.684057794
 20
4.3244737796
 30
0.0
 10
4.6834310259
 20
4.3249151423
 30
0.0
 10
4.6831115476
 20
4.3252537603
 30
0.0
 10
4.6829956509
 20
4.3254255355
 30
0.0
  0
SPLINE
  5
27A
100
AcDbEntity
  8
ALL_FEATURES
100
AcDbSpline
 62
7
  6
CONTINUOUS
 70
0
 71
3
 72
11
 73
7
 74
0
 42
0.0000001
 43
0.0000001
 44
0.0000000001
 40
0.0
 40
0.0
 40
0.0
 40
0.0
 40
0.2498729947
 40
0.4998472384
 40
0.7498928465
 40
1.0
 40
1.0
 40
1.0
 40
1.0
 10
4.6829956509
 20
4.3254255355
 30
0.0
 10
4.674681313
 20
4.4400542755
 30
0.0
 10
4.6579228099
 20
4.6693490268
 30
0.0
 10
4.6326024337
 20
5.0133339736
 30
0.0
 10
4.6071868621
 20
5.3574198967
 30
0.0
 10
4.5902170552
 20
5.5868399856
 30
0.0
 10
4.5817309482
 20
5.7015641339
 30
0.0
  0
SPLINE
  5
27B
100
AcDbEntity
  8
ALL_FEATURES
100
AcDbSpline
 62
7
  6
CONTINUOUS
 70
0
 71
3
 72
19
 73
15
 74
0
 42
0.0000001
 43
0.0000001
 44
0.0000000001
 40
0.0
 40
0.0
 40
0.0
 40
0.0
 40
0.1959932755
 40
0.3737425457
 40
0.5315091242
 40
0.6680007346
 40
0.7280839905
 40
0.7826599596
 40
0.8317187293
 40
0.8753117251
 40
0.9135819817
 40
0.946782187
 40
0.9753446626
 40
1.0
 40
1.0
 40
1.0
 40
1.0
 10
5.2850851447
 20
4.2099103322
 30
0.0
 10
5.2873222189
 20
4.2100688925
 30
0.0
 10
5.2915846569
 20
4.2104245513
 30
0.0
 10
5.2976282904
 20
4.2111161505
 30
0.0
 10
5.3029684485
 20
4.2119342733
 30
0.0
 10
5.3069438453
 20
4.2127454422
 30
0.0
 10
5.3097258904
 20
4.2134685491
 30
0.0
 10
5.3115185682
 20
4.2140146778
 30
0.0
 10
5.3131040693
 20
4.2145867741
 30
0.0
 10
5.3144793906
 20
4.2151839028
 30
0.0
 10
5.3156426847
 20
4.2158043028
 30
0.0
 10
5.3165929604
 20
4.2164476115
 30
0.0
 10
5.3173289907
 20
4.2171136767
 30
0.0
 10
5.3176973419
 20
4.2176064384
 30
0.0
 10
5.3178339429
 20
4.2178532855
 30
0.0
  0
SPLINE
  5
27C
100
AcDbEntity
  8
ALL_FEATURES
100
AcDbSpline
 62
7
  6
CONTINUOUS
 70
0
 71
3
 72
36
 73
32
 74
0
 42
0.0000001
 43
0.0000001
 44
0.0000000001
 40
0.0
 40
0.0
 40
0.0
 40
0.0
 40
0.0000918592
 40
0.0003640495
 40
0.0008103702
 40
0.001424775
 40
0.0022013846
 40
0.0031344976
 40
0.0054482853
 40
0.0083246543
 40
0.0117257798
 40
0.0156180731
 40
0.0199727278
 40
0.029977349
 40
0.0416290112
 40
0.0549265292
 40
0.0699943743
 40
0.0870329359
 40
0.1061513905
 40
0.1273732939
 40
0.1506751222
 40
0.203318287
 40
0.2325435333
 40
0.2636337805
 40
0.3313281757
 40
0.4062975936
 40
0.4884272165
 40
0.5775876013
 40
0.6736021938
 40
0.7761997709
 40
1.0
 40
1.0
 40
1.0
 40
1.0
 10
5.4267317847
 20
5.7015641339
 30
0.0
 10
5.4267317281
 20
5.7015632623
 30
0.0
 10
5.4267284176
 20
5.7015697477
 30
0.0
 10
5.4267246768
 20
5.7015721382
 30
0.0
 10
5.4267159225
 20
5.7015838711
 30
0.0
 10
5.4267047596
 20
5.701596213
 30
0.0
 10
5.4266899069
 20
5.7016129982
 30
0.0
 10
5.4266639002
 20
5.7016408629
 30
0.0
 10
5.4266229362
 20
5.7016823851
 30
0.0
 10
5.4265632156
 20
5.7017381012
 30
0.0
 10
5.4264896958
 20
5.7018009813
 30
0.0
 10
5.4264022293
 20
5.7018689886
 30
0.0
 10
5.4262600533
 20
5.7019686118
 30
0.0
 10
5.4260459783
 20
5.7020935904
 30
0.0
 10
5.4257405
 20
5.7022265434
 30
0.0
 10
5.425373956
 20
5.7023330504
 30
0.0
 10
5.4249454768
 20
5.702394733
 30
0.0
 10
5.424458223
 20
5.7024131727
 30
0.0
 10
5.4239126292
 20
5.7023973732
 30
0.0
 10
5.4233089539
 20
5.7023539559
 30
0.0
 10
5.4223893277
 20
5.7022648915
 30
0.0
 10
5.421395628
 20
5.7021527487
 30
0.0
 10
5.4203269082
 20
5.7020456623
 30
0.0
 10
5.4191140409
 20
5.7019429783
 30
0.0
 10
5.4174648805
 20
5.7018411715
 30
0.0
 10
5.415329264
 20
5.7017519298
 30
0.0
 10
5.4129886068
 20
5.7016869194
 30
0.0
 10
5.41044742
 20
5.7016395783
 30
0.0
 10
5.4077114092
 20
5.7016045048
 30
0.0
 10
5.4036951173
 20
5.7015714445
 30
0.0
 10
5.4005916285
 20
5.7015620316
 30
0.0
 10
5.3984636741
 20
5.7015589516
 30
0.0
  0
SPLINE
  5
27D
100
AcDbEntity
  8
ALL_FEATURES
100
AcDbSpline
 62
7
  6
CONTINUOUS
 70
0
 71
3
 72
11
 73
7
 74
0
 42
0.0000001
 43
0.0000001
 44
0.0000000001
 40
0.0
 40
0.0
 40
0.0
 40
0.0
 40
0.2498729947
 40
0.4998472384
 40
0.7498928465
 40
1.0
 40
1.0
 40
1.0
 40
1.0
 10
5.325467082
 20
4.3254255355
 30
0.0
 10
5.3337814199
 20
4.4400542755
 30
0.0
 10
5.3505399231
 20
4.6693490268
 30
0.0
 10
5.3758602992
 20
5.0133339736
 30
0.0
 10
5.4012758708
 20
5.3574198967
 30
0.0
 10
5.4182456778
 20
5.5868399856
 30
0.0
 10
5.4267317847
 20
5.7015641339
 30
0.0
  0
SPLINE
  5
27E
100
AcDbEntity
  8
ALL_FEATURES
100
AcDbSpline
 62
7
  6
CONTINUOUS
 70
0
 71
3
 72
18
 73
14
 74
0
 42
0.0000001
 43
0.0000001
 44
0.0000000001
 40
0.0
 40
0.0
 40
0.0
 40
0.0
 40
0.2016043954
 40
0.3833662922
 40
0.5436531137
 40
0.6812184114
 40
0.7954297477
 40
0.8436672402
 40
0.885992263
 40
0.9224988565
 40
0.953375133
 40
0.9789796804
 40
1.0
 40
1.0
 40
1.0
 40
1.0
 10
5.2967094393
 20
4.3204179226
 30
0.0
 10
5.2986951637
 20
4.3204995316
 30
0.0
 10
5.3024698822
 20
4.3206904986
 30
0.0
 10
5.3078149625
 20
4.3210880373
 30
0.0
 10
5.3125184941
 20
4.3215781861
 30
0.0
 10
5.3165401313
 20
4.3221574427
 30
0.0
 10
5.3194435224
 20
4.3227345827
 30
0.0
 10
5.3213944982
 20
4.3232556726
 30
0.0
 10
5.3225863342
 20
4.3236437401
 30
0.0
 10
5.3235898676
 20
4.324049806
 30
0.0
 10
5.324404939
 20
4.3244737796
 30
0.0
 10
5.325031707
 20
4.3249151423
 30
0.0
 10
5.3253511853
 20
4.3252537603
 30
0.0
 10
5.325467082
 20
4.3254255355
 30
0.0
  0
LINE
  5
27F
100
AcDbEntity
  8
ALL_FEATURES
100
AcDbLine
 62
7
  6
CONTINUOUS
 10
4.6705466064
 20
4.3230923503
 11
4.6650408621
 21
4.4092729165
  0
SPLINE
  5
280
100
AcDbEntity
  8
ALL_FEATURES
100
AcDbSpline
 62
7
  6
CONTINUOUS
 70
0
 71
3
 72
12
 73
8
 74
0
 42
0.0000001
 43
0.0000001
 44
0.0000000001
 40
0.0
 40
0.0
 40
0.0
 40
0.0
 40
0.1250277429
 40
0.2500473998
 40
0.5000595688
 40
0.7500411062
 40
1.0
 40
1.0
 40
1.0
 40
1.0
 10
5.2967094393
 20
4.3204179226
 30
0.0
 10
5.3015633095
 20
4.3779305031
 30
0.0
 10
5.3110319017
 20
4.4929721824
 30
0.0
 10
5.3292072109
 20
4.7231002692
 30
0.0
 10
5.3508149
 20
5.0108184804
 30
0.0
 10
5.3754024363
 20
5.3561484384
 30
0.0
 10
5.3909413346
 20
5.5864149119
 30
0.0
 10
5.3984636741
 20
5.7015589516
 30
0.0
  0
LINE
  5
281
100
AcDbEntity
  8
ALL_FEATURES
100
AcDbLine
 62
7
  6
CONTINUOUS
 10
5.3379161265
 20
4.3230923503
 11
5.3434218708
 21
4.4092729165
  0
SPLINE
  5
282
100
AcDbEntity
  8
ALL_FEATURES
100
AcDbSpline
 62
7
  6
CONTINUOUS
 70
0
 71
3
 72
11
 73
7
 74
0
 42
0.0000001
 43
0.0000001
 44
0.0000000001
 40
0.0
 40
0.0
 40
0.0
 40
0.0
 40
0.2558826184
 40
0.5100435862
 40
0.7591959153
 40
1.0
 40
1.0
 40
1.0
 40
1.0
 10
4.610010556
 20
5.7015589562
 30
0.0
 10
4.6091681188
 20
5.713185331
 30
0.0
 10
4.6062495927
 20
5.7362887416
 30
0.0
 10
4.5983210051
 20
5.7700145019
 30
0.0
 10
4.5872444807
 20
5.8021097841
 30
0.0
 10
4.5779565824
 20
5.8224467722
 30
0.0
 10
4.5729497869
 20
5.8322074954
 30
0.0
  0
SPLINE
  5
283
100
AcDbEntity
  8
ALL_FEATURES
100
AcDbSpline
 62
7
  6
CONTINUOUS
 70
0
 71
3
 72
44
 73
40
 74
0
 42
0.0000001
 43
0.0000001
 44
0.0000000001
 40
0.0
 40
0.0
 40
0.0
 40
0.0
 40
0.1162152088
 40
0.2271312707
 40
0.3318486642
 40
0.4298217094
 40
0.5205964912
 40
0.6038170706
 40
0.6792332505
 40
0.7467365057
 40
0.806242361
 40
0.8330028759
 40
0.8577698477
 40
0.8805426753
 40
0.901323158
 40
0.9201137124
 40
0.9369158234
 40
0.9517300822
 40
0.9645567883
 40
0.9702257707
 40
0.9753992796
 40
0.9800778843
 40
0.9842621426
 40
0.9879526004
 40
0.9911497921
 40
0.9938542411
 40
0.9950218479
 40
0.9960664608
 40
0.9969881425
 40
0.9977869545
 40
0.9984629253
 40
0.9990160511
 40
0.9994463264
 40
0.9996153935
 40
0.9997537461
 40
0.9998613834
 40
0.9999383049
 40
0.9999845101
 40
1.0
 40
1.0
 40
1.0
 40
1.0
 10
4.572950009
 20
5.8322075207
 30
0.0
 10
4.5691565398
 20
5.8396113927
 30
0.0
 10
4.5612438943
 20
5.8538317171
 30
0.0
 10
4.548372524
 20
5.8738145872
 30
0.0
 10
4.5350957905
 20
5.8919324559
 30
0.0
 10
4.5217665224
 20
5.9081816253
 30
0.0
 10
4.5086808711
 20
5.9226063529
 30
0.0
 10
4.4960996926
 20
5.93528171
 30
0.0
 10
4.4842396378
 20
5.9463051001
 30
0.0
 10
4.4732820093
 20
5.955790491
 30
0.0
 10
4.4647474905
 20
5.9627445846
 30
0.0
 10
4.4584821625
 20
5.9676356154
 30
0.0
 10
4.4542498564
 20
5.9708570097
 30
0.0
 10
4.4503266973
 20
5.9737772525
 30
0.0
 10
4.4467201592
 20
5.976405972
 30
0.0
 10
4.4434366525
 20
5.9787519226
 30
0.0
 10
4.4404827137
 20
5.9808242353
 30
0.0
 10
4.4378646175
 20
5.9826317267
 30
0.0
 10
4.4358948207
 20
5.9839754372
 30
0.0
 10
4.4344913826
 20
5.9849247102
 30
0.0
 10
4.4335694972
 20
5.9855448551
 30
0.0
 10
4.4327344206
 20
5.9861036249
 30
0.0
 10
4.4319863909
 20
5.9866015801
 30
0.0
 10
4.4313256487
 20
5.9870392848
 30
0.0
 10
4.4307524336
 20
5.9874173022
 30
0.0
 10
4.430329481
 20
5.9876951345
 30
0.0
 10
4.4300351139
 20
5.9878880578
 30
0.0
 10
4.4298474258
 20
5.9880109392
 30
0.0
 10
4.4296817964
 20
5.988119319
 30
0.0
 10
4.4295382704
 20
5.9882132766
 30
0.0
 10
4.4294168383
 20
5.9882928345
 30
0.0
 10
4.4293175503
 20
5.9883579995
 30
0.0
 10
4.4292485159
 20
5.9884032567
 30
0.0
 10
4.4292045171
 20
5.9884323231
 30
0.0
 10
4.4291794497
 20
5.9884485621
 30
0.0
 10
4.4291608062
 20
5.9884615496
 30
0.0
 10
4.4291455489
 20
5.9884700694
 30
0.0
 10
4.4291398791
 20
5.9884765966
 30
0.0
 10
4.4291335168
 20
5.9884779814
 30
0.0
 10
4.4291337254
 20
5.9884790704
 30
0.0
  0
SPLINE
  5
284
100
AcDbEntity
  8
ALL_FEATURES
100
AcDbSpline
 62
7
  6
CONTINUOUS
 70
0
 71
3
 72
16
 73
12
 74
0
 42
0.0000001
 43
0.0000001
 44
0.0000000001
 40
0.0
 40
0.0
 40
0.0
 40
0.0
 40
0.1753825874
 40
0.3357630517
 40
0.4804188225
 40
0.6092766741
 40
0.7232368636
 40
0.8240801964
 40
0.9148146922
 40
0.9577998162
 40
1.0
 40
1.0
 40
1.0
 40
1.0
 10
4.572950009
 20
5.8322075207
 30
0.0
 10
4.5713991204
 20
5.8307485718
 30
0.0
 10
4.5685086203
 20
5.8278695962
 30
0.0
 10
4.5646680316
 20
5.8234727619
 30
0.0
 10
4.5615439837
 20
5.819221655
 30
0.0
 10
4.5591677566
 20
5.8151493229
 30
0.0
 10
4.5575566728
 20
5.8112832392
 30
0.0
 10
4.5567334432
 20
5.8076434285
 30
0.0
 10
4.5567276176
 20
5.8047643033
 30
0.0
 10
4.557150339
 20
5.8026649233
 30
0.0
 10
4.5574937641
 20
5.8016850587
 30
0.0
 10
4.5576972
 20
5.8012148392
 30
0.0
  0
SPLINE
  5
285
100
AcDbEntity
  8
0
100
AcDbSpline
 62
7
  6
CONTINUOUS
 70
0
 71
3
 72
15
 73
11
 74
0
 42
0.0000001
 43
0.0000001
 44
0.0000000001
 40
0.0
 40
0.0
 40
0.0
 40
0.0
 40
0.1305002112
 40
0.2602544028
 40
0.3888209937
 40
0.5157690847
 40
0.640683463
 40
0.763209745
 40
0.88306605
 40
1.0
 40
1.0
 40
1.0
 40
1.0
 10
5.0042313665
 20
4.1094309428
 30
0.0
 10
5.0164269076
 20
4.1104128105
 30
0.0
 10
5.0407212747
 20
4.1127259737
 30
0.0
 10
5.0768969086
 20
4.1172635374
 30
0.0
 10
5.1125871397
 20
4.122862734
 30
0.0
 10
5.1476333607
 20
4.1295229827
 30
0.0
 10
5.1818813166
 20
4.1372454553
 30
0.0
 10
5.2151860115
 20
4.1460308078
 30
0.0
 10
5.2474116525
 20
4.1558760369
 30
0.0
 10
5.2683630554
 20
4.163241917
 30
0.0
 10
5.2786197937
 20
4.1671134714
 30
0.0
  0
ENDSEC
  0
SECTION
  2
OBJECTS
  0
DICTIONARY
  5
C
100
AcDbDictionary
280
0
281
1
  3
ACAD_GROUP
350
D
  3
ACAD_MLINESTYLE
350
17
  3
ACAD_LAYOUT
350
1A
  3
ACAD_PLOTSETTINGS
350
19
  3
ACAD_PLOTSTYLENAME
350
E
  0
DICTIONARY
  5
D
102
{ACAD_REACTORS
330
C
102
}
100
AcDbDictionary
280
0
281
1
  0
ACDBDICTIONARYWDFLT
  5
E
102
{ACAD_REACTORS
330
C
102
}
100
AcDbDictionary
281
1
  3
Normal
350
F
100
AcDbDictionaryWithDefault
340
F
  0
DICTIONARY
  5
17
102
{ACAD_REACTORS
330
C
102
}
100
AcDbDictionary
280
0
281
1
  3
Standard
350
18
  0
DICTIONARY
  5
19
102
{ACAD_REACTORS
330
C
102
}
100
AcDbDictionary
281
1
  0
DICTIONARY
  5
1A
102
{ACAD_REACTORS
330
C
102
}
100
AcDbDictionary
281
1
  3
Model
350
286
  3
Layout1
350
287
  0
ACDBPLACEHOLDER
  5
F
102
{ACAD_REACTORS
330
E
102
}
  0
MLINESTYLE
  5
18
102
{ACAD_REACTORS
330
17
102
}
100
AcDbMlineStyle
  2
STANDARD
 70
0
  3

 62
256
 51
90.0
 52
90.0
 71
2
 49
0.5
 62
256
  6
BYLAYER
 49
-0.5
 62
256
  6
BYLAYER
  0
LAYOUT
  5
286
102
{ACAD_REACTORS
330
1A
102
}
100
AcDbPlotSettings
  1

  2
none_device
  4
ANSI_A_(11.00_x_8.50_Inches)
  6

 40
0.0
 41
0.0
 42
0.0
 43
0.0
 44
279.4
 45
215.9
 46
0.0
 47
0.0
 48
0.0
 49
0.0
140
0.0
141
0.0
142
1.0
143
1.0
 70
1024
 72
0
 73
0
 74
0
  7

 75
0
147
1.0
148
0.0
149
0.0
100
AcDbLayout
  1
Model
 70
0
 71
0
 10
0.0
 20
0.0
 11
11.0
 21
8.5
 12
0.0
 22
0.0
 32
0.0
 14
0.0
 24
0.0
 34
0.0
 15
0.0
 25
0.0
 35
0.0
146
0.0
 13
0.0
 23
0.0
 33
0.0
 16
1.0
 26
0.0
 36
0.0
 17
0.0
 27
1.0
 37
0.0
 76
0
330
20F
345
0
346
0
  0
LAYOUT
  5
287
102
{ACAD_REACTORS
330
1A
102
}
100
AcDbPlotSettings
  1

  2
none_device
  4
ANSI_A_(11.00_x_8.50_Inches)
  6

 40
0.0
 41
0.0
 42
0.0
 43
0.0
 44
279.4
 45
215.9
 46
0.0
 47
0.0
 48
0.0
 49
0.0
140
0.0
141
0.0
142
1.0
143
1.0
 70
0
 72
0
 73
0
 74
0
  7

 75
0
147
1.0
148
0.0
149
0.0
100
AcDbLayout
  1
Layout1
 70
0
 71
1
 10
0.0
 20
0.0
 11
11.0
 21
8.5
 12
0.0
 22
0.0
 32
0.0
 14
0.0
 24
0.0
 34
0.0
 15
0.0
 25
0.0
 35
0.0
146
0.0
 13
0.0
 23
0.0
 33
0.0
 16
1.0
 26
0.0
 36
0.0
 17
0.0
 27
1.0
 37
0.0
 76
0
330
210
345
0
346
0
  0
ENDSEC
  0
EOF
