999
DXF file: 230_FRONT.dxf
999
Pro/ENGINEER 2018400 by Parametric Technology Corporation
  0
SECTION
  2
HEADER
  9
$ACADVER
  1
AC1027
  9
$DWGCODEPAGE
  3
ANSI_1252
  9
$EXTMAX
 10
11.0
 20
8.5
 30
0.0
  9
$EXTMIN
 10
0.0
 20
0.0
 30
0.0
  9
$LIMMIN
 10
0.0
 20
0.0
  9
$LIMMAX
 10
11.0
 20
8.5
  9
$VIEWCTR
 10
5.5
 20
4.25
  9
$VIEWSIZE
 40
8.5
  9
$CLAYER
  8
0
  9
$LTSCALE
 40
0.605
  9
$CELTYPE
  6
BYLAYER
  9
$DIMSCALE
 40
1.0
  9
$DIMASZ
 40
0.1
  9
$DIMEXO
 40
0.0625
  9
$DIMDLI
 40
0.418
  9
$DIMEXE
 40
0.125
  9
$DIMCEN
 40
0.099
  9
$DIMLFAC
 40
1.0
  9
$DIMBLK
  1
_FILLED
  9
$DIMALT
 70
1
  9
$DIMALTD
 70
1
  9
$DIMALTTD
 70
2
  9
$DIMALTF
 40
25.4
  9
$DIMTXT
 40
0.08
  9
$DIMTOL
 70
1
  9
$DIMLIM
 70
0
  9
$DIMTFAC
 40
1.0
  9
$DIMTP
 40
0.01
  9
$DIMTM
 40
0.01
  9
$DIMGAP
 40
0.09
  9
$DIMDSEP
 70
46
  9
$AUNITS
 70
0
  9
$PDMODE
 70
3
  9
$PDSIZE
 40
0.3125
  9
$HANDSEED
  5
253
  9
$TILEMODE
 70
1
  9
$MEASUREMENT
 70
0
  9
$INSUNITS
 70
1
  0
ENDSEC
  0
SECTION
  2
CLASSES
  0
CLASS
  1
ACDBDICTIONARYWDFLT
  2
AcDbDictionaryWithDefault
  3
AutoCAD 2000
 90
0
 91
1
280
0
281
0
  0
CLASS
  1
ACDBPLACEHOLDER
  2
AcDbPlaceHolder
  3
AutoCAD 2000
 90
0
 91
1
280
0
281
0
  0
CLASS
  1
LAYOUT
  2
AcDbLayout
  3
AutoCAD 2000
 90
0
 91
0
280
0
281
0
  0
ENDSEC
  0
SECTION
  2
TABLES
  0
TABLE
  2
VPORT
  5
8
100
AcDbSymbolTable
 70
2
  0
VPORT
  5
1F4
100
AcDbSymbolTableRecord
100
AcDbViewportTableRecord
  2
*ACTIVE
 70
0
 10
0.0
 20
0.0
 11
1.0
 21
1.0
 12
5.5
 22
4.25
 13
0.0
 23
0.0
 14
1.0
 24
1.0
 15
0.0
 25
0.0
 16
0.0
 26
0.0
 36
1.0
 17
0.0
 27
0.0
 37
0.0
 40
8.5
 41
1.2941176471
 42
50.0
 43
0.0
 44
0.0
 50
0.0
 51
0.0
 71
0
 72
100
 73
1
 74
1
 75
0
 76
0
 77
0
 78
0
  0
ENDTAB
  0
TABLE
  2
LTYPE
  5
5
100
AcDbSymbolTable
 70
6
  0
LTYPE
  5
14
100
AcDbSymbolTableRecord
100
AcDbLinetypeTableRecord
  2
BYBLOCK
 70
0
  3

 72
65
 73
0
 40
0.0
  0
LTYPE
  5
15
100
AcDbSymbolTableRecord
100
AcDbLinetypeTableRecord
  2
BYLAYER
 70
0
  3

 72
65
 73
0
 40
0.0
  0
LTYPE
  5
16
100
AcDbSymbolTableRecord
100
AcDbLinetypeTableRecord
  2
CONTINUOUS
 70
64
  3
Solid line
 72
65
 73
0
 40
0.0
  0
LTYPE
  5
1F5
100
AcDbSymbolTableRecord
100
AcDbLinetypeTableRecord
  2
CENTER
 70
64
  3
____ _ ____ _ ____ _ ____ _ ____ _ ____ _ ____
 72
65
 73
4
 40
0.6
 49
0.375
 74
0
 49
-0.075
 74
0
 49
0.075
 74
0
 49
-0.075
 74
0
  0
LTYPE
  5
1F6
100
AcDbSymbolTableRecord
100
AcDbLinetypeTableRecord
  2
HIDDEN
 70
64
  3
- - - - - - - - - - - - - - - - - - - -
 72
65
 73
2
 40
0.2
 49
0.1
 74
0
 49
-0.1
 74
0
  0
LTYPE
  5
1F7
100
AcDbSymbolTableRecord
100
AcDbLinetypeTableRecord
  2
PHANTOM
 70
64
  3
_____ _ _ _____ _ _ _____ _ _ _____
 72
65
 73
6
 40
0.8
 49
0.45
 74
0
 49
-0.05
 74
0
 49
0.1
 74
0
 49
-0.05
 74
0
 49
0.1
 74
0
 49
-0.05
 74
0
  0
LTYPE
  5
1F8
100
AcDbSymbolTableRecord
100
AcDbLinetypeTableRecord
  2
DOT
 70
64
  3
. . . . . . . . . . . . . . . . . . . .
 72
65
 73
2
 40
0.2
 49
0.1
 74
0
 49
-0.1
 74
0
  0
LTYPE
  5
1F9
100
AcDbSymbolTableRecord
100
AcDbLinetypeTableRecord
  2
DASHED
 70
64
  3
- - - - - - - - - - - - - - - - - - - -
 72
65
 73
2
 40
0.2
 49
0.1
 74
0
 49
-0.1
 74
0
  0
ENDTAB
  0
TABLE
  2
LAYER
  5
2
100
AcDbSymbolTable
 70
36
  0
LAYER
  5
10
100
AcDbSymbolTableRecord
100
AcDbLayerTableRecord
  2
0
 70
0
 62
7
  6
CONTINUOUS
370
-3
390
F
  0
LAYER
  5
1FA
100
AcDbSymbolTableRecord
100
AcDbLayerTableRecord
  2
DEFAULT_1
 70
0
 62
7
  6
CENTER
370
-3
390
F
  0
LAYER
  5
1FB
100
AcDbSymbolTableRecord
100
AcDbLayerTableRecord
  2
DEFAULT_2
 70
0
 62
8
  6
HIDDEN
370
-3
390
F
  0
LAYER
  5
1FC
100
AcDbSymbolTableRecord
100
AcDbLayerTableRecord
  2
DEFAULT_3
 70
0
 62
7
  6
PHANTOM
370
-3
390
F
  0
LAYER
  5
1FD
100
AcDbSymbolTableRecord
100
AcDbLayerTableRecord
  2
ALL_FEATURES
 70
0
 62
7
  6
CONTINUOUS
370
-3
390
F
  0
LAYER
  5
1FE
100
AcDbSymbolTableRecord
100
AcDbLayerTableRecord
  2
AXES_FEATURES
 70
0
 62
7
  6
CONTINUOUS
370
-3
390
F
  0
LAYER
  5
1FF
100
AcDbSymbolTableRecord
100
AcDbLayerTableRecord
  2
DEFAULT_COORDINATE_SYSTEM
 70
0
 62
7
  6
CONTINUOUS
370
-3
390
F
  0
LAYER
  5
200
100
AcDbSymbolTableRecord
100
AcDbLayerTableRecord
  2
DEFAULT_DATUM_AXES
 70
0
 62
7
  6
CONTINUOUS
370
-3
390
F
  0
LAYER
  5
201
100
AcDbSymbolTableRecord
100
AcDbLayerTableRecord
  2
DEFAULT_DATUM_PLANES
 70
0
 62
7
  6
CONTINUOUS
370
-3
390
F
  0
LAYER
  5
202
100
AcDbSymbolTableRecord
100
AcDbLayerTableRecord
  2
DEFAULT_SURFACES
 70
0
 62
7
  6
CONTINUOUS
370
-3
390
F
  0
LAYER
  5
203
100
AcDbSymbolTableRecord
100
AcDbLayerTableRecord
  2
DIMENSIONS
 70
0
 62
7
  6
CONTINUOUS
370
-3
390
F
  0
LAYER
  5
204
100
AcDbSymbolTableRecord
100
AcDbLayerTableRecord
  2
PLATED_SURFACE_AREA
 70
0
 62
7
  6
CONTINUOUS
370
-3
390
F
  0
LAYER
  5
205
100
AcDbSymbolTableRecord
100
AcDbLayerTableRecord
  2
QUILT
 70
0
 62
7
  6
CONTINUOUS
370
-3
390
F
  0
ENDTAB
  0
TABLE
  2
STYLE
  5
3
100
AcDbSymbolTable
 70
1
  0
STYLE
  5
11
100
AcDbSymbolTableRecord
100
AcDbTextStyleTableRecord
  2
STANDARD
 70
0
 40
0.0
 41
0.8
 50
0.0
 71
0
 42
0.2
  3
txt
  4

  0
STYLE
  5
206
100
AcDbSymbolTableRecord
100
AcDbTextStyleTableRecord
  2
TEXTSTYLE_1
 70
0
 40
0.0
 41
0.8
 50
0.0
 71
0
 42
0.2
  3
gdt
  4

  0
ENDTAB
  0
TABLE
  2
VIEW
  5
6
100
AcDbSymbolTable
 70
0
  0
ENDTAB
  0
TABLE
  2
UCS
  5
7
100
AcDbSymbolTable
 70
0
  0
ENDTAB
  0
TABLE
  2
APPID
  5
9
100
AcDbSymbolTable
 70
1
  0
APPID
  5
207
100
AcDbSymbolTableRecord
100
AcDbRegAppTableRecord
  2
ACAD
 70
0
  0
ENDTAB
  0
TABLE
  2
BLOCK_RECORD
  5
1
100
AcDbSymbolTable
 70
0
  0
BLOCK_RECORD
  5
208
100
AcDbSymbolTableRecord
100
AcDbBlockTableRecord
  2
*Model_Space
  0
BLOCK_RECORD
  5
209
100
AcDbSymbolTableRecord
100
AcDbBlockTableRecord
  2
*Paper_Space
  0
BLOCK_RECORD
  5
20A
100
AcDbSymbolTableRecord
100
AcDbBlockTableRecord
  2
_FILLED
  0
ENDTAB
  0
TABLE
  2
DIMSTYLE
  5
A
100
AcDbSymbolTable
 70
1
100
AcDbDimStyleTable
 71
0
  0
DIMSTYLE
105
20B
100
AcDbSymbolTableRecord
100
AcDbDimStyleTableRecord
  2
STANDARD
 70
0
  3

  4

 40
1.0
 41
0.1
 42
0.0625
 43
0.38
 44
0.125
 45
0.0
 46
0.0
 47
0.01
 48
0.01
140
0.08
141
0.09
142
0.0
143
25.4
144
1.0
145
0.0
146
1.0
147
0.09
 71
1.0
 72
0.0
 73
1
 74
1
 75
0
 76
0
 77
0
 78
4
 79
1
170
1
171
1
172
0
173
0
174
0
175
0
176
0
177
0
178
0
270
2
179
2
271
2
272
2
273
2
274
2
275
0
280
0
281
0
282
0
283
1
284
4
285
0
286
0
287
3
288
0
340
11
278
46
341
20A
342
20A
343
20A
344
20A
  0
ENDTAB
  0
ENDSEC
  0
SECTION
  2
BLOCKS
  0
BLOCK
  5
20
100
AcDbEntity
  8
0
100
AcDbBlockBegin
  2
*Model_Space
 70
0
 10
0.0
 20
0.0
 30
0.0
  3
*Model_Space
  1

  0
ENDBLK
  5
21
100
AcDbEntity
  8
0
100
AcDbBlockEnd
  0
BLOCK
  5
1C
100
AcDbEntity
  8
0
100
AcDbBlockBegin
  2
*Paper_Space
 70
0
 10
0.0
 20
0.0
 30
0.0
  3
*Paper_Space
  1

  0
ENDBLK
  5
1D
100
AcDbEntity
  8
0
100
AcDbBlockEnd
  0
BLOCK
  5
20C
100
AcDbEntity
  8
0
100
AcDbBlockBegin
  2
_FILLED
 70
64
 10
0.0
 20
0.0
  3
_FILLED
  1

  0
SOLID
  5
20D
100
AcDbEntity
  8
0
  6
BYBLOCK
 62
0
100
AcDbTrace
 10
0.0
 20
0.0
 11
-1.0
 21
0.2
 12
-1.0
 22
-0.2
 13
-1.0
 23
-0.2
  0
ENDBLK
  5
20E
100
AcDbEntity
  8
0
  6
BYBLOCK
 62
0
100
AcDbBlockEnd
  0
ENDSEC
  0
SECTION
  2
ENTITIES
  0
MTEXT
  5
20F
100
AcDbEntity
  8
0
100
AcDbMText
 62
2
  6
CONTINUOUS
  7
STANDARD
 71
3
 72
1
 10
5.0849378882
 20
2.5125473602
 30
0.0
 11
1.0
 21
0.0
 31
0.0
 73
2
 44
0.9
  1
SCALE  1.000
 40
0.08
 41
0.768
  0
LINE
  5
210
100
AcDbEntity
  8
0
100
AcDbLine
 62
7
  6
CONTINUOUS
 10
0.0
 20
0.0
 11
0.0
 21
8.5
  0
LINE
  5
211
100
AcDbEntity
  8
0
100
AcDbLine
 62
7
  6
CONTINUOUS
 10
0.0
 20
0.0
 11
11.0
 21
0.0
  0
LINE
  5
212
100
AcDbEntity
  8
0
100
AcDbLine
 62
7
  6
CONTINUOUS
 10
0.0
 20
8.5
 11
11.0
 21
8.5
  0
LINE
  5
213
100
AcDbEntity
  8
0
100
AcDbLine
 62
7
  6
CONTINUOUS
 10
11.0
 20
0.0
 11
11.0
 21
8.5
  0
LINE
  5
214
100
AcDbEntity
  8
0
100
AcDbLine
 62
7
  6
CONTINUOUS
 10
2.8368167702
 20
3.7556125776
 11
2.8368167702
 21
3.5056125776
  0
LINE
  5
215
100
AcDbEntity
  8
0
100
AcDbLine
 62
7
  6
CONTINUOUS
 10
4.708905234
 20
3.4146125776
 11
4.583818312
 21
3.4146125776
  0
LINE
  5
216
100
AcDbEntity
  8
0
100
AcDbLine
 62
7
  6
CONTINUOUS
 10
4.6638051227
 20
3.4296126114
 11
4.7248167702
 21
3.4296125776
  0
LINE
  5
217
100
AcDbEntity
  8
0
100
AcDbLine
 62
7
  6
CONTINUOUS
 10
4.569288157
 20
3.4435970265
 11
4.5857267702
 21
3.4340332467
  0
LINE
  5
218
100
AcDbEntity
  8
0
100
AcDbLine
 62
7
  6
CONTINUOUS
 10
4.569288157
 20
3.4748470265
 11
4.5857267702
 21
3.4652832467
  0
LINE
  5
219
100
AcDbEntity
  8
0
100
AcDbLine
 62
7
  6
CONTINUOUS
 10
4.708904197
 20
3.4146125776
 11
4.7079067702
 21
3.4151939703
  0
LINE
  5
21A
100
AcDbEntity
  8
0
100
AcDbLine
 62
7
  6
CONTINUOUS
 10
4.5701220738
 20
3.5056125776
 11
4.5857267702
 21
3.4965332467
  0
LINE
  5
21B
100
AcDbEntity
  8
0
100
AcDbLine
 62
7
  6
CONTINUOUS
 10
4.724345384
 20
3.4368801866
 11
4.7079067702
 21
3.4464439703
  0
LINE
  5
21C
100
AcDbEntity
  8
0
100
AcDbLine
 62
7
  6
CONTINUOUS
 10
4.5838167974
 20
3.4146125776
 11
4.574461994
 21
3.4239673852
  0
LINE
  5
21D
100
AcDbEntity
  8
0
100
AcDbLine
 62
7
  6
CONTINUOUS
 10
4.5688167702
 20
3.4441440998
 11
4.5688167702
 21
3.4519581137
  0
LINE
  5
21E
100
AcDbEntity
  8
0
100
AcDbLine
 62
7
  6
CONTINUOUS
 10
4.5688167702
 20
3.4753940998
 11
4.5688167702
 21
3.4832081137
  0
LINE
  5
21F
100
AcDbEntity
  8
0
100
AcDbLine
 62
7
  6
CONTINUOUS
 10
4.5857267702
 20
3.4968811067
 11
4.5857267702
 21
3.4933189703
  0
LINE
  5
220
100
AcDbEntity
  8
0
100
AcDbLine
 62
7
  6
CONTINUOUS
 10
4.5857267702
 20
3.4656311067
 11
4.5857267702
 21
3.4620689703
  0
LINE
  5
221
100
AcDbEntity
  8
0
100
AcDbLine
 62
7
  6
CONTINUOUS
 10
4.5857267702
 20
3.4343811067
 11
4.5857267702
 21
3.4308189703
  0
LINE
  5
222
100
AcDbEntity
  8
0
100
AcDbLine
 62
7
  6
CONTINUOUS
 10
2.8368167702
 20
3.5056125776
 11
6.4568167702
 21
3.5056125776
  0
LINE
  5
223
100
AcDbEntity
  8
0
100
AcDbLine
 62
7
  6
CONTINUOUS
 10
4.724345384
 20
3.4993801866
 11
4.7136261146
 21
3.5056125776
  0
LINE
  5
224
100
AcDbEntity
  8
0
100
AcDbLine
 62
7
  6
CONTINUOUS
 10
4.724345384
 20
3.4681301866
 11
4.7079067702
 21
3.4776939703
  0
LINE
  5
225
100
AcDbEntity
  8
0
100
AcDbLine
 62
7
  6
CONTINUOUS
 10
4.7079067702
 20
3.4148461067
 11
4.7079067702
 21
3.4184082467
  0
LINE
  5
226
100
AcDbEntity
  8
0
100
AcDbLine
 62
7
  6
CONTINUOUS
 10
4.7079067702
 20
3.4460961067
 11
4.7079067702
 21
3.4496582467
  0
LINE
  5
227
100
AcDbEntity
  8
0
100
AcDbLine
 62
7
  6
CONTINUOUS
 10
4.7079067702
 20
3.4773461067
 11
4.7079067702
 21
3.4809082467
  0
LINE
  5
228
100
AcDbEntity
  8
0
100
AcDbLine
 62
7
  6
CONTINUOUS
 10
4.7248167702
 20
3.4296126114
 11
4.7248167702
 21
3.4363331137
  0
LINE
  5
229
100
AcDbEntity
  8
0
100
AcDbLine
 62
7
  6
CONTINUOUS
 10
4.7248167702
 20
3.4597690998
 11
4.7248167702
 21
3.4675831137
  0
LINE
  5
22A
100
AcDbEntity
  8
0
100
AcDbLine
 62
7
  6
CONTINUOUS
 10
4.7248167702
 20
3.4910190998
 11
4.7248167702
 21
3.4988331137
  0
LINE
  5
22B
100
AcDbEntity
  8
0
100
AcDbLine
 62
7
  6
CONTINUOUS
 10
4.7078394412
 20
3.4146125776
 11
4.7079067702
 21
3.4148461067
  0
LINE
  5
22C
100
AcDbEntity
  8
0
100
AcDbLine
 62
7
  6
CONTINUOUS
 10
4.5863252339
 20
3.4311678523
 11
4.5745951241
 21
3.4243391423
  0
LINE
  5
22D
100
AcDbEntity
  8
0
100
AcDbLine
 62
7
  6
CONTINUOUS
 10
4.5863252339
 20
3.4936678523
 11
4.5692881564
 21
3.4837551866
  0
LINE
  5
22E
100
AcDbEntity
  8
0
100
AcDbLine
 62
7
  6
CONTINUOUS
 10
4.5863252339
 20
3.4624178523
 11
4.5692881564
 21
3.4525051866
  0
LINE
  5
22F
100
AcDbEntity
  8
0
100
AcDbLine
 62
7
  6
CONTINUOUS
 10
4.7248167533
 20
3.4296125945
 11
4.7222294966
 21
3.4270253367
  0
LINE
  5
230
100
AcDbEntity
  8
0
100
AcDbLine
 62
7
  6
CONTINUOUS
 10
4.7073083069
 20
3.4180593615
 11
4.7203706278
 21
3.4256625051
  0
LINE
  5
231
100
AcDbEntity
  8
0
100
AcDbLine
 62
7
  6
CONTINUOUS
 10
4.7073083069
 20
3.4805593615
 11
4.7243453834
 21
3.4904720265
  0
LINE
  5
232
100
AcDbEntity
  8
0
100
AcDbLine
 62
7
  6
CONTINUOUS
 10
4.7073083069
 20
3.4493093615
 11
4.7243453834
 21
3.4592220265
  0
LINE
  5
233
100
AcDbEntity
  8
0
100
AcDbLine
 62
7
  6
CONTINUOUS
 10
2.8368167702
 20
3.7556125776
 11
6.4568167702
 21
3.7556125776
  0
LINE
  5
234
100
AcDbEntity
  8
0
100
AcDbLine
 62
7
  6
CONTINUOUS
 10
2.8868167702
 20
3.8056125776
 11
6.4068167702
 21
3.8056125776
  0
LINE
  5
235
100
AcDbEntity
  8
0
100
AcDbLine
 62
7
  6
CONTINUOUS
 10
6.4568167702
 20
3.7556125776
 11
6.4568167702
 21
3.5056125776
  0
ARC
  5
236
100
AcDbEntity
  8
0
100
AcDbCircle
 62
7
  6
CONTINUOUS
 10
6.4068167702
 20
3.7556125776
 40
0.05
100
AcDbArc
 50
0.0
 51
90.0
  0
ARC
  5
237
100
AcDbEntity
  8
0
100
AcDbCircle
 62
7
  6
CONTINUOUS
 10
2.8868167702
 20
3.7556125776
 40
0.05
100
AcDbArc
 50
90.0
 51
180.0
  0
LINE
  5
238
100
AcDbEntity
  8
0
100
AcDbLine
 62
7
  6
CONTINUOUS
 10
4.7248167069
 20
3.4363331131
 11
4.7243452052
 21
3.4368801868
  0
SPLINE
  5
239
100
AcDbEntity
  8
0
100
AcDbSpline
 62
7
  6
CONTINUOUS
 70
0
 71
3
 72
15
 73
11
 74
0
 42
0.0000001
 43
0.0000001
 44
0.0000000001
 40
0.0
 40
0.0
 40
0.0
 40
0.0
 40
0.1263627619
 40
0.2345868169
 40
0.3327483757
 40
0.4314408353
 40
0.5411082133
 40
0.6695047148
 40
0.8214987427
 40
1.0
 40
1.0
 40
1.0
 40
1.0
 10
4.574462134
 20
3.4239673856
 30
0.0
 10
4.5744478531
 20
3.4239816555
 30
0.0
 10
4.5744232282
 20
3.4240102682
 30
0.0
 10
4.5743985279
 20
3.4240580831
 30
0.0
 10
4.5743905985
 20
3.4241071595
 30
0.0
 10
4.5744003842
 20
3.4241561139
 30
0.0
 10
4.5744268083
 20
3.4242037081
 30
0.0
 10
4.5744687233
 20
3.4242503087
 30
0.0
 10
4.5745259377
 20
3.4242964882
 30
0.0
 10
4.574570611
 20
3.4243248142
 30
0.0
 10
4.5745952681
 20
3.4243391435
 30
0.0
  0
LINE
  5
23A
100
AcDbEntity
  8
0
100
AcDbLine
 62
7
  6
CONTINUOUS
 10
4.7243449917
 20
3.4681301848
 11
4.7248167702
 21
3.4675831137
  0
LINE
  5
23B
100
AcDbEntity
  8
0
100
AcDbLine
 62
7
  6
CONTINUOUS
 10
4.7243451932
 20
3.4993801857
 11
4.7248167702
 21
3.4988331137
  0
LINE
  5
23C
100
AcDbEntity
  8
0
100
AcDbLine
 62
7
  6
CONTINUOUS
 10
4.5692884491
 20
3.4525051853
 11
4.5688167702
 21
3.4519581137
  0
LINE
  5
23D
100
AcDbEntity
  8
0
100
AcDbLine
 62
7
  6
CONTINUOUS
 10
4.569288542
 20
3.4837551848
 11
4.5688167702
 21
3.4832081137
  0
LINE
  5
23E
100
AcDbEntity
  8
0
100
AcDbLine
 62
7
  6
CONTINUOUS
 10
4.5692885472
 20
3.4748470284
 11
4.5688167702
 21
3.4753940998
  0
LINE
  5
23F
100
AcDbEntity
  8
0
100
AcDbLine
 62
7
  6
CONTINUOUS
 10
4.5692885092
 20
3.4435970282
 11
4.5688167702
 21
3.4441440998
  0
LINE
  5
240
100
AcDbEntity
  8
0
100
AcDbLine
 62
7
  6
CONTINUOUS
 10
4.7243450889
 20
3.4904720279
 11
4.7248167702
 21
3.4910190998
  0
LINE
  5
241
100
AcDbEntity
  8
0
100
AcDbLine
 62
7
  6
CONTINUOUS
 10
4.720370507
 20
3.4256625082
 11
4.7222294966
 21
3.4270253367
  0
LINE
  5
242
100
AcDbEntity
  8
0
100
AcDbLine
 62
7
  6
CONTINUOUS
 10
4.724345
 20
3.4592220283
 11
4.7248167702
 21
3.4597690998
  0
SPLINE
  5
243
100
AcDbEntity
  8
0
100
AcDbSpline
 62
7
  6
CONTINUOUS
 70
0
 71
3
 72
61
 73
57
 74
0
 42
0.0000001
 43
0.0000001
 44
0.0000000001
 40
0.0
 40
0.0
 40
0.0
 40
0.0
 40
0.0003770763
 40
0.000766986
 40
0.0016273064
 40
0.0026529102
 40
0.0038848896
 40
0.0053467284
 40
0.0070521769
 40
0.0090096274
 40
0.0112242156
 40
0.0136985677
 40
0.0164339804
 40
0.0194309706
 40
0.0226895277
 40
0.029989355
 40
0.0383263229
 40
0.0476850762
 40
0.0580476384
 40
0.0693948673
 40
0.0817030495
 40
0.0949448398
 40
0.1090924963
 40
0.1241164859
 40
0.1399825795
 40
0.1741000198
 40
0.2111453991
 40
0.2507886447
 40
0.2926767832
 40
0.3364364141
 40
0.3816770235
 40
0.4749801476
 40
0.5692598814
 40
0.6157144369
 40
0.6611564607
 40
0.7051819314
 40
0.7473974688
 40
0.7874275988
 40
0.8249146875
 40
0.8595257853
 40
0.8909554878
 40
0.9053893418
 40
0.9189264495
 40
0.9315388899
 40
0.9431991018
 40
0.9538815827
 40
0.9635662883
 40
0.9722348716
 40
0.9798705647
 40
0.9864631783
 40
0.989367314
 40
0.9920099821
 40
0.9943919462
 40
0.9965148772
 40
0.9983821697
 40
1.0
 40
1.0
 40
1.0
 40
1.0
 10
4.7248167702
 20
3.4675831137
 30
0.0
 10
4.7248167702
 20
3.4675634159
 30
0.0
 10
4.724812964
 20
3.4675232565
 30
0.0
 10
4.7247896396
 20
3.4674410909
 30
0.0
 10
4.7247285101
 20
3.4673370001
 30
0.0
 10
4.724614825
 20
3.4672191378
 30
0.0
 10
4.724459038
 20
3.4671020577
 30
0.0
 10
4.7242607556
 20
3.4669852362
 30
0.0
 10
4.7240196819
 20
3.4668683342
 30
0.0
 10
4.723735666
 20
3.4667513321
 30
0.0
 10
4.7234087053
 20
3.4666342399
 30
0.0
 10
4.7230389249
 20
3.4665170499
 30
0.0
 10
4.7226265153
 20
3.466399779
 30
0.0
 10
4.7221716974
 20
3.4662824326
 30
0.0
 10
4.7214825062
 20
3.4661196674
 30
0.0
 10
4.7205159802
 20
3.4659185353
 30
0.0
 10
4.7192312297
 20
3.4656849169
 30
0.0
 10
4.717784234
 20
3.4654509139
 30
0.0
 10
4.7161782176
 20
3.4652165995
 30
0.0
 10
4.7144166751
 20
3.4649821126
 30
0.0
 10
4.7125035329
 20
3.4647474798
 30
0.0
 10
4.7104431062
 20
3.4645127019
 30
0.0
 10
4.7082399672
 20
3.4642778235
 30
0.0
 10
4.7058990175
 20
3.4640428828
 30
0.0
 10
4.7025183429
 20
3.463721693
 30
0.0
 10
4.6979895328
 20
3.4633232784
 30
0.0
 10
4.6922201139
 20
3.4628554472
 30
0.0
 10
4.6860435609
 20
3.4623872101
 30
0.0
 10
4.6795153454
 20
3.461918673
 30
0.0
 10
4.6726940325
 20
3.4614499282
 30
0.0
 10
4.6631917738
 20
3.460818258
 30
0.0
 10
4.6510544186
 20
3.460039391
 30
0.0
 10
4.6388532914
 20
3.4592642435
 30
0.0
 10
4.62914807
 20
3.4586358447
 30
0.0
 10
4.6220632255
 20
3.4581669212
 30
0.0
 10
4.6152003058
 20
3.4576981604
 30
0.0
 10
4.6086207636
 20
3.4572295771
 30
0.0
 10
4.6023836589
 20
3.4567612882
 30
0.0
 10
4.5965449458
 20
3.4562933957
 30
0.0
 10
4.5911570103
 20
3.4558260119
 30
0.0
 10
4.5869720703
 20
3.4554267235
 30
0.0
 10
4.5838858547
 20
3.455104301
 30
0.0
 10
4.5817788705
 20
3.4548694771
 30
0.0
 10
4.5798177176
 20
3.4546347949
 30
0.0
 10
4.5780068094
 20
3.4544002631
 30
0.0
 10
4.5763502027
 20
3.4541658783
 30
0.0
 10
4.5748515377
 20
3.4539317523
 30
0.0
 10
4.5735140861
 20
3.4536980238
 30
0.0
 10
4.5723408456
 20
3.4534647095
 30
0.0
 10
4.5714686008
 20
3.4532632523
 30
0.0
 10
4.5708558162
 20
3.4530998339
 30
0.0
 10
4.5704585122
 20
3.452982582
 30
0.0
 10
4.5701039107
 20
3.4528654294
 30
0.0
 10
4.5697921726
 20
3.4527483672
 30
0.0
 10
4.5695234274
 20
3.4526314081
 30
0.0
 10
4.5693615197
 20
3.4525476483
 30
0.0
 10
4.5692884491
 20
3.4525051853
 30
0.0
  0
SPLINE
  5
244
100
AcDbEntity
  8
0
100
AcDbSpline
 62
7
  6
CONTINUOUS
 70
0
 71
3
 72
60
 73
56
 74
0
 42
0.0000001
 43
0.0000001
 44
0.0000000001
 40
0.0
 40
0.0
 40
0.0
 40
0.0
 40
0.0003770306
 40
0.0007669057
 40
0.0016271982
 40
0.0026528191
 40
0.0038848326
 40
0.0053466912
 40
0.0070521152
 40
0.0090094687
 40
0.0112240016
 40
0.0136985169
 40
0.0164342289
 40
0.0194315614
 40
0.0226904081
 40
0.0299902695
 40
0.0383271641
 40
0.0476868986
 40
0.0580502409
 40
0.0693969444
 40
0.0817051939
 40
0.0949476912
 40
0.1090951735
 40
0.139984515
 40
0.1741017089
 40
0.211147023
 40
0.250789214
 40
0.292677385
 40
0.3364358941
 40
0.3816763133
 40
0.4749793576
 40
0.5692619766
 40
0.6157163236
 40
0.6611583817
 40
0.705182696
 40
0.7473984241
 40
0.7874270477
 40
0.8249145609
 40
0.8595247098
 40
0.890954349
 40
0.9053873886
 40
0.9189248414
 40
0.9315374968
 40
0.9431968919
 40
0.9538795237
 40
0.9635649985
 40
0.9722337553
 40
0.9798691368
 40
0.9864623036
 40
0.9893668189
 40
0.9920098038
 40
0.9943919262
 40
0.996514818
 40
0.9983821093
 40
1.0
 40
1.0
 40
1.0
 40
1.0
 10
4.5688167702
 20
3.4441440998
 30
0.0
 10
4.5688167702
 20
3.4441637952
 30
0.0
 10
4.5688205773
 20
3.4442039504
 30
0.0
 10
4.5688439068
 20
3.4442861088
 30
0.0
 10
4.5689050467
 20
3.4443901907
 30
0.0
 10
4.5690187415
 20
3.4445080443
 30
0.0
 10
4.5691745354
 20
3.4446251207
 30
0.0
 10
4.5693728184
 20
3.4447419431
 30
0.0
 10
4.5696138833
 20
3.4448588504
 30
0.0
 10
4.5698978827
 20
3.4449758674
 30
0.0
 10
4.5702248374
 20
3.4450929776
 30
0.0
 10
4.5705946377
 20
3.4452101749
 30
0.0
 10
4.5710070883
 20
3.4453274538
 30
0.0
 10
4.5714619545
 20
3.4454448063
 30
0.0
 10
4.5721511806
 20
3.4456075723
 30
0.0
 10
4.5731177168
 20
3.445808715
 30
0.0
 10
4.574402514
 20
3.4460423473
 30
0.0
 10
4.5758496009
 20
3.4462763309
 30
0.0
 10
4.5774556823
 20
3.4465106367
 30
0.0
 10
4.5792172359
 20
3.4467451561
 30
0.0
 10
4.58113039
 20
3.4469797862
 30
0.0
 10
4.5831908479
 20
3.4472145531
 30
0.0
 10
4.5862181307
 20
3.4475372568
 30
0.0
 10
4.5903337533
 20
3.4479366958
 30
0.0
 10
4.5956442963
 20
3.4484039846
 30
0.0
 10
4.601413648
 20
3.4488717692
 30
0.0
 10
4.6075901357
 20
3.4493400265
 30
0.0
 10
4.6141182363
 20
3.4498085319
 30
0.0
 10
4.6209394753
 20
3.4502772918
 30
0.0
 10
4.630441655
 20
3.4509089379
 30
0.0
 10
4.6425791356
 20
3.4516878262
 30
0.0
 10
4.6547803887
 20
3.4524629729
 30
0.0
 10
4.6644857425
 20
3.4530913931
 30
0.0
 10
4.6715705128
 20
3.4535602965
 30
0.0
 10
4.6784333767
 20
3.4540290768
 30
0.0
 10
4.6850127867
 20
3.4544976223
 30
0.0
 10
4.6912498375
 20
3.4549659381
 30
0.0
 10
4.6970884425
 20
3.4554337906
 30
0.0
 10
4.7024763404
 20
3.4559012003
 30
0.0
 10
4.7066611848
 20
3.4563004503
 30
0.0
 10
4.709747368
 20
3.4566228909
 30
0.0
 10
4.7118543389
 20
3.456857697
 30
0.0
 10
4.7138154789
 20
3.457092362
 30
0.0
 10
4.7156263585
 20
3.4573269195
 30
0.0
 10
4.7172829699
 20
3.4575612986
 30
0.0
 10
4.7187816945
 20
3.4577954041
 30
0.0
 10
4.7201191808
 20
3.4580291211
 30
0.0
 10
4.7212924379
 20
3.4582624579
 30
0.0
 10
4.7221647163
 20
3.4584639091
 30
0.0
 10
4.7227775667
 20
3.4586273326
 30
0.0
 10
4.7231749147
 20
3.4587445918
 30
0.0
 10
4.7235295374
 20
3.4588617524
 30
0.0
 10
4.7238412742
 20
3.4589788353
 30
0.0
 10
4.7241100159
 20
3.4590958039
 30
0.0
 10
4.7242719259
 20
3.4591795653
 30
0.0
 10
4.724345
 20
3.4592220283
 30
0.0
  0
SPLINE
  5
245
100
AcDbEntity
  8
0
100
AcDbSpline
 62
7
  6
CONTINUOUS
 70
0
 71
3
 72
61
 73
57
 74
0
 42
0.0000001
 43
0.0000001
 44
0.0000000001
 40
0.0
 40
0.0
 40
0.0
 40
0.0
 40
0.0020006366
 40
0.0042423484
 40
0.0067296652
 40
0.0094654714
 40
0.0124515433
 40
0.0156888898
 40
0.0229185266
 40
0.0311520508
 40
0.0403772123
 40
0.0505785886
 40
0.0617392864
 40
0.0738390137
 40
0.0868517191
 40
0.1007502263
 40
0.1155069773
 40
0.1474694297
 40
0.1824628177
 40
0.2201896482
 40
0.2603201979
 40
0.3025087561
 40
0.3463857456
 40
0.3915706561
 40
0.4376677016
 40
0.5309865639
 40
0.5773931044
 40
0.6230898103
 40
0.6676778205
 40
0.7107684809
 40
0.7519860689
 40
0.790972638
 40
0.8273896265
 40
0.8609231412
 40
0.8765170001
 40
0.8912854919
 40
0.9051967296
 40
0.918220071
 40
0.9303303055
 40
0.9415043436
 40
0.9517197686
 40
0.9609564585
 40
0.9692013862
 40
0.9764452917
 40
0.9796901568
 40
0.9826831986
 40
0.9854250577
 40
0.9879178584
 40
0.990164952
 40
0.9921712907
 40
0.9939442642
 40
0.9954950837
 40
0.9968410804
 40
0.9980093852
 40
0.9990421016
 40
1.0
 40
1.0
 40
1.0
 40
1.0
 10
4.5863252357
 20
3.4311678524
 30
0.0
 10
4.5863960969
 20
3.4312091658
 30
0.0
 10
4.5865496968
 20
3.4312910813
 30
0.0
 10
4.5868001243
 20
3.4314071369
 30
0.0
 10
4.5870833867
 20
3.4315232615
 30
0.0
 10
4.5873993353
 20
3.4316394432
 30
0.0
 10
4.5877478311
 20
3.4317556861
 30
0.0
 10
4.5882754167
 20
3.4319167279
 30
0.0
 10
4.5890160302
 20
3.4321158717
 30
0.0
 10
4.5900015503
 20
3.4323472796
 30
0.0
 10
4.5911117633
 20
3.4325790281
 30
0.0
 10
4.5923442357
 20
3.4328110559
 30
0.0
 10
4.5936964059
 20
3.4330432641
 30
0.0
 10
4.5951653621
 20
3.4332755859
 30
0.0
 10
4.5967478338
 20
3.4335080438
 30
0.0
 10
4.5984403135
 20
3.4337406184
 30
0.0
 10
4.6009051058
 20
3.4340593444
 30
0.0
 10
4.6042320021
 20
3.4344543266
 30
0.0
 10
4.6084989356
 20
3.4349173413
 30
0.0
 10
4.6131025292
 20
3.4353807299
 30
0.0
 10
4.6180024665
 20
3.4358445363
 30
0.0
 10
4.6231556029
 20
3.4363085413
 30
0.0
 10
4.6285167459
 20
3.4367727696
 30
0.0
 10
4.634038705
 20
3.4372370951
 30
0.0
 10
4.6415816579
 20
3.4378588484
 30
0.0
 10
4.6491753606
 20
3.4384745153
 30
0.0
 10
4.6567522098
 20
3.4390949095
 30
0.0
 10
4.6623372059
 20
3.4395592932
 30
0.0
 10
4.6677857833
 20
3.4400235768
 30
0.0
 10
4.6730500495
 20
3.4404877011
 30
0.0
 10
4.6780837535
 20
3.4409516211
 30
0.0
 10
4.6828426571
 20
3.4414152285
 30
0.0
 10
4.687284969
 20
3.4418784689
 30
0.0
 10
4.6907700578
 20
3.442272941
 30
0.0
 10
4.693370394
 20
3.4425909705
 30
0.0
 10
4.6951706349
 20
3.4428236017
 30
0.0
 10
4.6968645725
 20
3.443056138
 30
0.0
 10
4.6984484452
 20
3.4432886159
 30
0.0
 10
4.6999188266
 20
3.4435209751
 30
0.0
 10
4.7012725754
 20
3.4437531669
 30
0.0
 10
4.7025066797
 20
3.4439851503
 30
0.0
 10
4.7036184357
 20
3.4442169288
 30
0.0
 10
4.7046055066
 20
3.4444483995
 30
0.0
 10
4.7053475368
 20
3.4446475054
 30
0.0
 10
4.7058763651
 20
3.444808513
 30
0.0
 10
4.7062257513
 20
3.4449247466
 30
0.0
 10
4.7065425069
 20
3.445040936
 30
0.0
 10
4.7068265096
 20
3.4451570706
 30
0.0
 10
4.7070776908
 20
3.4452731456
 30
0.0
 10
4.7072960115
 20
3.4453891742
 30
0.0
 10
4.7074814693
 20
3.4455052004
 30
0.0
 10
4.7076341058
 20
3.4456213514
 30
0.0
 10
4.7077539784
 20
3.4457379041
 30
0.0
 10
4.7078409968
 20
3.4458554914
 30
0.0
 10
4.707894426
 20
3.4459748186
 30
0.0
 10
4.707906672
 20
3.4460568343
 30
0.0
 10
4.7079066493
 20
3.4460961076
 30
0.0
  0
SPLINE
  5
246
100
AcDbEntity
  8
0
100
AcDbSpline
 62
7
  6
CONTINUOUS
 70
0
 71
3
 72
33
 73
29
 74
0
 42
0.0000001
 43
0.0000001
 44
0.0000000001
 40
0.0
 40
0.0
 40
0.0
 40
0.0
 40
0.0010148689
 40
0.0021629189
 40
0.0048695449
 40
0.00813561
 40
0.0119683158
 40
0.0163709475
 40
0.0213431348
 40
0.0268825003
 40
0.0329859035
 40
0.0468697315
 40
0.0629615506
 40
0.0812142162
 40
0.1015713798
 40
0.1239754217
 40
0.148361367
 40
0.1746543325
 40
0.2027784298
 40
0.2641938868
 40
0.3318992459
 40
0.4051307517
 40
0.4830707926
 40
0.5648625032
 40
0.6496195759
 40
0.7364227068
 40
0.824365318
 40
1.0
 40
1.0
 40
1.0
 40
1.0
 10
4.5745952681
 20
3.4243391435
 30
0.0
 10
4.5746214275
 20
3.4243543459
 30
0.0
 10
4.5746785261
 20
3.4243844428
 30
0.0
 10
4.5748108395
 20
3.4244443241
 30
0.0
 10
4.5750103648
 20
3.4245175567
 30
0.0
 10
4.5752904592
 20
3.4246015596
 30
0.0
 10
4.5756229558
 20
3.4246856962
 30
0.0
 10
4.5760076446
 20
3.4247699192
 30
0.0
 10
4.5764442584
 20
3.4248541774
 30
0.0
 10
4.5769323999
 20
3.4249384526
 30
0.0
 10
4.5776843268
 20
3.4250558996
 30
0.0
 10
4.57875031
 20
3.4252002971
 30
0.0
 10
4.5801784677
 20
3.4253671313
 30
0.0
 10
4.5818007647
 20
3.4255339263
 30
0.0
 10
4.5836121256
 20
3.4257006498
 30
0.0
 10
4.5856070485
 20
3.425867175
 30
0.0
 10
4.5877795125
 20
3.4260334525
 30
0.0
 10
4.5901229828
 20
3.426199494
 30
0.0
 10
4.5935687619
 20
3.4264272346
 30
0.0
 10
4.5982482979
 20
3.4267079082
 30
0.0
 10
4.6042721301
 20
3.4270349035
 30
0.0
 10
4.6107893205
 20
3.4273609044
 30
0.0
 10
4.6177269998
 20
3.4276858451
 30
0.0
 10
4.6250086946
 20
3.4280096408
 30
0.0
 10
4.6325549242
 20
3.4283322179
 30
0.0
 10
4.6402847427
 20
3.4286535584
 30
0.0
 10
4.6507218354
 20
3.4290801233
 30
0.0
 10
4.6585733749
 20
3.4293978545
 30
0.0
 10
4.6638051227
 20
3.4296126114
 30
0.0
  0
SPLINE
  5
247
100
AcDbEntity
  8
0
100
AcDbSpline
 62
7
  6
CONTINUOUS
 70
0
 71
3
 72
61
 73
57
 74
0
 42
0.0000001
 43
0.0000001
 44
0.0000000001
 40
0.0
 40
0.0
 40
0.0
 40
0.0
 40
0.0020006996
 40
0.0042424065
 40
0.0067296738
 40
0.0094654116
 40
0.0124514237
 40
0.0156887465
 40
0.022918539
 40
0.03115211
 40
0.040377152
 40
0.0505784545
 40
0.0617393083
 40
0.0738390669
 40
0.086851661
 40
0.100750108
 40
0.115507004
 40
0.1474693773
 40
0.1824628443
 40
0.220189605
 40
0.26032022
 40
0.3025087258
 40
0.3463857591
 40
0.3915706423
 40
0.4376677034
 40
0.5309865521
 40
0.577393131
 40
0.6230897838
 40
0.6676778694
 40
0.7107684401
 40
0.7519861402
 40
0.7909725843
 40
0.8273897189
 40
0.8609230769
 40
0.8765170219
 40
0.891285603
 40
0.9051967538
 40
0.9182199995
 40
0.9303303356
 40
0.9415044696
 40
0.9517197828
 40
0.960956384
 40
0.9692014251
 40
0.9764454265
 40
0.979690266
 40
0.9826832023
 40
0.9854249869
 40
0.9879177886
 40
0.9901649295
 40
0.9921713335
 40
0.9939443634
 40
0.9954952066
 40
0.9968411777
 40
0.998009412
 40
0.9990421004
 40
1.0
 40
1.0
 40
1.0
 40
1.0
 10
4.5863252406
 20
3.4624178526
 30
0.0
 10
4.5863961054
 20
3.4624591649
 30
0.0
 10
4.5865497084
 20
3.4625410796
 30
0.0
 10
4.5868001358
 20
3.4626571361
 30
0.0
 10
4.5870833924
 20
3.4627732614
 30
0.0
 10
4.587399333
 20
3.4628894436
 30
0.0
 10
4.5877478221
 20
3.4630056869
 30
0.0
 10
4.58827541
 20
3.4631667312
 30
0.0
 10
4.5890160327
 20
3.463365869
 30
0.0
 10
4.5900015559
 20
3.4635972776
 30
0.0
 10
4.5911117622
 20
3.4638290289
 30
0.0
 10
4.5923442325
 20
3.464061059
 30
0.0
 10
4.5936964082
 20
3.4642932623
 30
0.0
 10
4.5951653673
 20
3.4645255847
 30
0.0
 10
4.5967478328
 20
3.4647580445
 30
0.0
 10
4.5984403112
 20
3.4649906206
 30
0.0
 10
4.6009051041
 20
3.465309341
 30
0.0
 10
4.6042320055
 20
3.4657043291
 30
0.0
 10
4.6084989363
 20
3.4661673396
 30
0.0
 10
4.6131025323
 20
3.4666307315
 30
0.0
 10
4.6180024671
 20
3.4670945352
 30
0.0
 10
4.6231556054
 20
3.4675585423
 30
0.0
 10
4.6285167466
 20
3.468022769
 30
0.0
 10
4.6340387066
 20
3.4684870955
 30
0.0
 10
4.6415816579
 20
3.469108848
 30
0.0
 10
4.6491753617
 20
3.4697245161
 30
0.0
 10
4.6567522093
 20
3.4703449088
 30
0.0
 10
4.6623372073
 20
3.4708092944
 30
0.0
 10
4.6677857818
 20
3.4712735753
 30
0.0
 10
4.6730500513
 20
3.471737703
 30
0.0
 10
4.6780837512
 20
3.4722016187
 30
0.0
 10
4.6828426594
 20
3.4726652314
 30
0.0
 10
4.687284966
 20
3.4731284655
 30
0.0
 10
4.6907700572
 20
3.4735229433
 30
0.0
 10
4.6933703942
 20
3.4738409707
 30
0.0
 10
4.6951706388
 20
3.4740736
 30
0.0
 10
4.6968645723
 20
3.4743061377
 30
0.0
 10
4.6984484412
 20
3.4745386181
 30
0.0
 10
4.6999188269
 20
3.4747709753
 30
0.0
 10
4.7012725797
 20
3.4750031643
 30
0.0
 10
4.7025066791
 20
3.4752351502
 30
0.0
 10
4.7036184306
 20
3.475466932
 30
0.0
 10
4.7046055072
 20
3.4756983995
 30
0.0
 10
4.7053475456
 20
3.4758975037
 30
0.0
 10
4.7058763726
 20
3.4760585111
 30
0.0
 10
4.7062257491
 20
3.476174747
 30
0.0
 10
4.7065424963
 20
3.4762909376
 30
0.0
 10
4.706826498
 20
3.4764070717
 30
0.0
 10
4.7070776845
 20
3.4765231463
 30
0.0
 10
4.7072960133
 20
3.4766391742
 30
0.0
 10
4.7074814789
 20
3.4767551994
 30
0.0
 10
4.7076341186
 20
3.4768713496
 30
0.0
 10
4.7077539894
 20
3.4769879009
 30
0.0
 10
4.7078409926
 20
3.4771054937
 30
0.0
 10
4.7078944109
 20
3.4772248204
 30
0.0
 10
4.7079066576
 20
3.4773068342
 30
0.0
 10
4.7079066365
 20
3.4773461075
 30
0.0
  0
SPLINE
  5
248
100
AcDbEntity
  8
0
100
AcDbSpline
 62
7
  6
CONTINUOUS
 70
0
 71
3
 72
40
 73
36
 74
0
 42
0.0000001
 43
0.0000001
 44
0.0000000001
 40
0.0
 40
0.0
 40
0.0
 40
0.0
 40
0.0017421942
 40
0.0036534749
 40
0.0079935287
 40
0.0130353907
 40
0.0187856005
 40
0.0219272398
 40
0.0252464781
 40
0.0324150069
 40
0.0402844839
 40
0.0488467567
 40
0.0580928981
 40
0.068013322
 40
0.0898252032
 40
0.1141658931
 40
0.1409102412
 40
0.1699104465
 40
0.2010080612
 40
0.2340333802
 40
0.2688004286
 40
0.3051190762
 40
0.3427850387
 40
0.4213142912
 40
0.5026364909
 40
0.5849360439
 40
0.6663746529
 40
0.7451330244
 40
0.8194538659
 40
0.8544291432
 40
0.8876833392
 40
0.9190355115
 40
0.9483093716
 40
0.9753463065
 40
1.0
 40
1.0
 40
1.0
 40
1.0
 10
4.5863252482
 20
3.4936678527
 30
0.0
 10
4.5863812799
 20
3.4937005158
 30
0.0
 10
4.5865008545
 20
3.4937654842
 30
0.0
 10
4.5867688286
 20
3.493895058
 30
0.0
 10
4.5871580492
 20
3.4940549431
 30
0.0
 10
4.5876903289
 20
3.494239917
 30
0.0
 10
4.588187127
 20
3.494389553
 30
0.0
 10
4.5886253973
 20
3.4945102802
 30
0.0
 10
4.5891165119
 20
3.4946378084
 30
0.0
 10
4.5897813343
 20
3.4947963234
 30
0.0
 10
4.5906400813
 20
3.4949821435
 30
0.0
 10
4.5915777806
 20
3.4951680816
 30
0.0
 10
4.5925931742
 20
3.4953541299
 30
0.0
 10
4.5940970328
 20
3.4956104402
 30
0.0
 10
4.5961603531
 20
3.4959277372
 30
0.0
 10
4.5988487699
 20
3.4962982131
 30
0.0
 10
4.601807028
 20
3.4966690389
 30
0.0
 10
4.6050185729
 20
3.497040263
 30
0.0
 10
4.6084653529
 20
3.4974117476
 30
0.0
 10
4.6121279614
 20
3.4977833926
 30
0.0
 10
4.6159858567
 20
3.4981552385
 30
0.0
 10
4.6200172647
 20
3.4985271656
 30
0.0
 10
4.6256726066
 20
3.4990302137
 30
0.0
 10
4.6329992203
 20
3.4996530825
 30
0.0
 10
4.6419835588
 20
3.5003911645
 30
0.0
 10
4.6510765484
 20
3.5011294137
 30
0.0
 10
4.6600737964
 20
3.5018674864
 30
0.0
 10
4.668773042
 20
3.502605037
 30
0.0
 10
4.6757458198
 20
3.5032307598
 30
0.0
 10
4.6810284014
 20
3.5037368101
 30
0.0
 10
4.684716881
 20
3.5041085381
 30
0.0
 10
4.6881920064
 20
3.5044800084
 30
0.0
 10
4.691434306
 20
3.5048512716
 30
0.0
 10
4.6944255227
 20
3.5052222059
 30
0.0
 10
4.696332336
 20
3.5054815515
 30
0.0
 10
4.6972407254
 20
3.50561256
 30
0.0
  0
SPLINE
  5
249
100
AcDbEntity
  8
0
100
AcDbSpline
 62
7
  6
CONTINUOUS
 70
0
 71
3
 72
23
 73
19
 74
0
 42
0.0000001
 43
0.0000001
 44
0.0000000001
 40
0.0
 40
0.0
 40
0.0
 40
0.0
 40
0.1912116483
 40
0.3657261275
 40
0.5220261041
 40
0.5929978328
 40
0.6590303922
 40
0.7200129077
 40
0.7758527745
 40
0.8264761241
 40
0.849811292
 40
0.8718187544
 40
0.9118255692
 40
0.9464811859
 40
0.9618162749
 40
0.9758354616
 40
0.9885552583
 40
1.0
 40
1.0
 40
1.0
 40
1.0
 10
4.6879047144
 20
3.4146125776
 30
0.0
 10
4.6891571173
 20
3.4147503615
 30
0.0
 10
4.6915515121
 20
3.4150236438
 30
0.0
 10
4.6949647735
 20
3.415450781
 30
0.0
 10
4.6975869859
 20
3.4158169268
 30
0.0
 10
4.6994969149
 20
3.4161128431
 30
0.0
 10
4.7007837801
 20
3.416327449
 30
0.0
 10
4.7019694767
 20
3.4165419374
 30
0.0
 10
4.7030518665
 20
3.416756306
 30
0.0
 10
4.7038874125
 20
3.4169393907
 30
0.0
 10
4.7045023667
 20
3.4170867903
 30
0.0
 10
4.7050473307
 20
3.4172257966
 30
0.0
 10
4.7056607906
 20
3.4173978128
 30
0.0
 10
4.7062247591
 20
3.4175821141
 30
0.0
 10
4.7066193106
 20
3.41773141
 30
0.0
 10
4.7068750181
 20
3.4178387256
 30
0.0
 10
4.7071027077
 20
3.4179459846
 30
0.0
 10
4.7072430817
 20
3.4180213843
 30
0.0
 10
4.7073082349
 20
3.4180593611
 30
0.0
  0
SPLINE
  5
24A
100
AcDbEntity
  8
0
100
AcDbSpline
 62
7
  6
CONTINUOUS
 70
0
 71
3
 72
34
 73
30
 74
0
 42
0.0000001
 43
0.0000001
 44
0.0000000001
 40
0.0
 40
0.0
 40
0.0
 40
0.0
 40
0.2039123477
 40
0.3011313015
 40
0.3942359175
 40
0.4825918119
 40
0.5655814435
 40
0.6426044194
 40
0.7131272393
 40
0.7766525184
 40
0.8056551138
 40
0.8327511066
 40
0.8578917112
 40
0.8810362167
 40
0.9021515384
 40
0.9212063475
 40
0.9381718693
 40
0.9530298361
 40
0.9657758242
 40
0.9713589495
 40
0.9764181837
 40
0.9809579379
 40
0.9849855573
 40
0.988513873
 40
0.9915633506
 40
0.9941662139
 40
0.9963748287
 40
0.998275033
 40
1.0
 40
1.0
 40
1.0
 40
1.0
 10
4.6638051227
 20
3.4296126114
 30
0.0
 10
4.6679906839
 20
3.4298860641
 30
0.0
 10
4.6741713372
 20
3.430297009
 30
0.0
 10
4.6822609669
 20
3.4308637252
 30
0.0
 10
4.6879781595
 20
3.431281795
 30
0.0
 10
4.6934018514
 20
3.4316996734
 30
0.0
 10
4.6984937338
 20
3.4321172288
 30
0.0
 10
4.703217506
 20
3.4325344659
 30
0.0
 10
4.707539258
 20
3.4329511432
 30
0.0
 10
4.7108742995
 20
3.4333077658
 30
0.0
 10
4.7133180745
 20
3.4335957896
 30
0.0
 10
4.714976031
 20
3.4338050917
 30
0.0
 10
4.7165124751
 20
3.4340142928
 30
0.0
 10
4.717924689
 20
3.4342233757
 30
0.0
 10
4.7192102664
 20
3.4344322637
 30
0.0
 10
4.7203669542
 20
3.4346408956
 30
0.0
 10
4.7213926987
 20
3.4348492056
 30
0.0
 10
4.7222857372
 20
3.435057156
 30
0.0
 10
4.7229445848
 20
3.4352369345
 30
0.0
 10
4.7234030818
 20
3.4353828896
 30
0.0
 10
4.7236974459
 20
3.4354873969
 30
0.0
 10
4.7239576727
 20
3.4355918137
 30
0.0
 10
4.7241836902
 20
3.4356961658
 30
0.0
 10
4.7243755211
 20
3.4358004686
 30
0.0
 10
4.7245332965
 20
3.4359048074
 30
0.0
 10
4.7246572313
 20
3.4360094306
 30
0.0
 10
4.7247474775
 20
3.4361150209
 30
0.0
 10
4.7248035282
 20
3.4362226451
 30
0.0
 10
4.7248166842
 20
3.4362976305
 30
0.0
 10
4.7248167069
 20
3.4363331131
 30
0.0
  0
SPLINE
  5
24B
100
AcDbEntity
  8
0
100
AcDbSpline
 62
7
  6
CONTINUOUS
 70
0
 71
3
 72
60
 73
56
 74
0
 42
0.0000001
 43
0.0000001
 44
0.0000000001
 40
0.0
 40
0.0
 40
0.0
 40
0.0
 40
0.0003770303
 40
0.0007669035
 40
0.0016271858
 40
0.0026527876
 40
0.0038847753
 40
0.0053466045
 40
0.0070519984
 40
0.0090093242
 40
0.0112238272
 40
0.0136982922
 40
0.0164339389
 40
0.0194311989
 40
0.0226899741
 40
0.0299897269
 40
0.0383265663
 40
0.0476861895
 40
0.0580494215
 40
0.0693960909
 40
0.0817043594
 40
0.0949468537
 40
0.1090943563
 40
0.1399838671
 40
0.1741012259
 40
0.211146781
 40
0.2507892562
 40
0.2926778022
 40
0.3364365705
 40
0.3816769504
 40
0.474978904
 40
0.5692607873
 40
0.6157151929
 40
0.6611575084
 40
0.7051821286
 40
0.7473981857
 40
0.7874271
 40
0.8249148778
 40
0.8595252165
 40
0.8909550665
 40
0.9053881891
 40
0.9189256819
 40
0.931538348
 40
0.9431976936
 40
0.9538801415
 40
0.9635653828
 40
0.9722339498
 40
0.9798692251
 40
0.9864623377
 40
0.9893668387
 40
0.9920098142
 40
0.9943919298
 40
0.9965148165
 40
0.9983821069
 40
1.0
 40
1.0
 40
1.0
 40
1.0
 10
4.7248167702
 20
3.4988331137
 30
0.0
 10
4.7248167702
 20
3.4988134183
 30
0.0
 10
4.7248129633
 20
3.4987732632
 30
0.0
 10
4.7247896348
 20
3.4986911052
 30
0.0
 10
4.7247284974
 20
3.4985870239
 30
0.0
 10
4.7246148061
 20
3.4984691708
 30
0.0
 10
4.7244590164
 20
3.4983520953
 30
0.0
 10
4.7242607377
 20
3.4982352741
 30
0.0
 10
4.7240196772
 20
3.4981183684
 30
0.0
 10
4.7237356818
 20
3.4980013535
 30
0.0
 10
4.7234087322
 20
3.497884246
 30
0.0
 10
4.7230389394
 20
3.4977670502
 30
0.0
 10
4.7226264986
 20
3.4976497727
 30
0.0
 10
4.7221716433
 20
3.4975324214
 30
0.0
 10
4.7214824306
 20
3.4973696564
 30
0.0
 10
4.7205159068
 20
3.4971685145
 30
0.0
 10
4.7192311238
 20
3.4969348844
 30
0.0
 10
4.7177840516
 20
3.4967008999
 30
0.0
 10
4.7161779839
 20
3.4964665932
 30
0.0
 10
4.7144164369
 20
3.4962320739
 30
0.0
 10
4.7125032837
 20
3.4959974438
 30
0.0
 10
4.710442824
 20
3.495762675
 30
0.0
 10
4.7074155317
 20
3.4954399685
 30
0.0
 10
4.7032998907
 20
3.4950405278
 30
0.0
 10
4.6979893179
 20
3.4945732346
 30
0.0
 10
4.6922199301
 20
3.4941054474
 30
0.0
 10
4.6860433955
 20
3.4936371861
 30
0.0
 10
4.679515247
 20
3.4931686778
 30
0.0
 10
4.672693977
 20
3.4926999157
 30
0.0
 10
4.6631918426
 20
3.4920682728
 30
0.0
 10
4.6510544591
 20
3.4912893906
 30
0.0
 10
4.6388532981
 20
3.4905142501
 30
0.0
 10
4.6291479661
 20
3.4898858312
 30
0.0
 10
4.6220631633
 20
3.4894169263
 30
0.0
 10
4.6152002529
 20
3.4889481428
 30
0.0
 10
4.6086207945
 20
3.4884795944
 30
0.0
 10
4.6023836976
 20
3.4880112747
 30
0.0
 10
4.5965450537
 20
3.4875434194
 30
0.0
 10
4.5911571213
 20
3.4870760061
 30
0.0
 10
4.5869722517
 20
3.4866767532
 30
0.0
 10
4.5838860513
 20
3.486354309
 30
0.0
 10
4.5817790737
 20
3.4861195006
 30
0.0
 10
4.5798179337
 20
3.4858848349
 30
0.0
 10
4.5780070654
 20
3.4856502799
 30
0.0
 10
4.5763504784
 20
3.4854159029
 30
0.0
 10
4.5748517854
 20
3.4851818001
 30
0.0
 10
4.5735143267
 20
3.4849480858
 30
0.0
 10
4.5723410877
 20
3.4847147521
 30
0.0
 10
4.5714688182
 20
3.4845133029
 30
0.0
 10
4.5708559717
 20
3.4843498805
 30
0.0
 10
4.5704586253
 20
3.4842326217
 30
0.0
 10
4.5701040036
 20
3.4841154613
 30
0.0
 10
4.5697922677
 20
3.4839983782
 30
0.0
 10
4.5695235262
 20
3.4838814095
 30
0.0
 10
4.5693616162
 20
3.4837976479
 30
0.0
 10
4.569288542
 20
3.4837551848
 30
0.0
  0
SPLINE
  5
24C
100
AcDbEntity
  8
0
100
AcDbSpline
 62
7
  6
CONTINUOUS
 70
0
 71
3
 72
61
 73
57
 74
0
 42
0.0000001
 43
0.0000001
 44
0.0000000001
 40
0.0
 40
0.0
 40
0.0
 40
0.0
 40
0.0009579047
 40
0.0019905734
 40
0.0031587257
 40
0.0045046486
 40
0.006055499
 40
0.0078285769
 40
0.0098350472
 40
0.0120822462
 40
0.0145750696
 40
0.0173168106
 40
0.0203096478
 40
0.0235544458
 40
0.0307984975
 40
0.0390436343
 40
0.048280214
 40
0.0584954372
 40
0.0696696032
 40
0.0817799987
 40
0.0948032331
 40
0.1087143383
 40
0.1234829304
 40
0.1390769034
 40
0.1726102522
 40
0.2090273837
 40
0.2480138532
 40
0.2892315234
 40
0.3323221374
 40
0.3769101845
 40
0.4226068802
 40
0.4690134301
 40
0.5623323
 40
0.6084293561
 40
0.6536142697
 40
0.6974912602
 40
0.7396798338
 40
0.7798103687
 40
0.8175372285
 40
0.852530587
 40
0.8844930762
 40
0.8992496762
 40
0.9131482986
 40
0.9261611416
 40
0.9382607623
 40
0.9494212732
 40
0.9596228092
 40
0.9688481415
 40
0.9770815012
 40
0.9843109353
 40
0.9875483581
 40
0.9905345556
 40
0.9932704835
 40
0.9957578675
 40
0.9979995436
 40
1.0
 40
1.0
 40
1.0
 40
1.0
 10
4.5857269144
 20
3.434381106
 30
0.0
 10
4.585726896
 20
3.4344203796
 30
0.0
 10
4.5857391459
 20
3.4345023917
 30
0.0
 10
4.5857925563
 20
3.4346217164
 30
0.0
 10
4.5858795407
 20
3.4347393155
 30
0.0
 10
4.5859994063
 20
3.4348558662
 30
0.0
 10
4.586152047
 20
3.4349720155
 30
0.0
 10
4.5863375191
 20
3.4350880397
 30
0.0
 10
4.5865558563
 20
3.4352040669
 30
0.0
 10
4.5868070496
 20
3.4353201409
 30
0.0
 10
4.5870910531
 20
3.4354362745
 30
0.0
 10
4.5874077948
 20
3.4355524655
 30
0.0
 10
4.5877571626
 20
3.435668704
 30
0.0
 10
4.5882859856
 20
3.4358297116
 30
0.0
 10
4.5890280289
 20
3.4360288146
 30
0.0
 10
4.5900151112
 20
3.4362602798
 30
0.0
 10
4.5911268619
 20
3.4364920627
 30
0.0
 10
4.5923609575
 20
3.4367240511
 30
0.0
 10
4.5937147107
 20
3.4369562385
 30
0.0
 10
4.5951851
 20
3.4371885949
 30
0.0
 10
4.5967689689
 20
3.4374210757
 30
0.0
 10
4.5984629004
 20
3.4376536143
 30
0.0
 10
4.6002631449
 20
3.4378862432
 30
0.0
 10
4.6028634833
 20
3.43820427
 30
0.0
 10
4.6063485751
 20
3.4385987484
 30
0.0
 10
4.6107908824
 20
3.4390619826
 30
0.0
 10
4.6155497905
 20
3.4395255946
 30
0.0
 10
4.620583492
 20
3.4399895114
 30
0.0
 10
4.6258477607
 20
3.4404536378
 30
0.0
 10
4.6312963372
 20
3.4409179201
 30
0.0
 10
4.6368813345
 20
3.4413823045
 30
0.0
 10
4.6444581836
 20
3.4420026984
 30
0.0
 10
4.6520518872
 20
3.4426183656
 30
0.0
 10
4.6595948406
 20
3.4432401188
 30
0.0
 10
4.6651168001
 20
3.4437044443
 30
0.0
 10
4.6704779436
 20
3.4441686728
 30
0.0
 10
4.6756310799
 20
3.4446326773
 30
0.0
 10
4.6805310181
 20
3.4450964845
 30
0.0
 10
4.6851346111
 20
3.4455598717
 30
0.0
 10
4.6894015456
 20
3.446022889
 30
0.0
 10
4.6927284365
 20
3.4464178663
 30
0.0
 10
4.6951932279
 20
3.4467365982
 30
0.0
 10
4.6968857121
 20
3.4469691705
 30
0.0
 10
4.6984681902
 20
3.4472016257
 30
0.0
 10
4.6999371397
 20
3.4474339483
 30
0.0
 10
4.7012893032
 20
3.4476661625
 30
0.0
 10
4.7025217822
 20
3.4478981866
 30
0.0
 10
4.7036320033
 20
3.4481299296
 30
0.0
 10
4.7046175147
 20
3.4483613401
 30
0.0
 10
4.7053581136
 20
3.4485604916
 30
0.0
 10
4.7058857004
 20
3.448721529
 30
0.0
 10
4.7062342104
 20
3.4488377711
 30
0.0
 10
4.7065501732
 20
3.4489539516
 30
0.0
 10
4.7068334429
 20
3.4490700748
 30
0.0
 10
4.7070838648
 20
3.4491861283
 30
0.0
 10
4.7072374535
 20
3.4492680466
 30
0.0
 10
4.7073083051
 20
3.4493093616
 30
0.0
  0
SPLINE
  5
24D
100
AcDbEntity
  8
0
100
AcDbSpline
 62
7
  6
CONTINUOUS
 70
0
 71
3
 72
60
 73
56
 74
0
 42
0.0000001
 43
0.0000001
 44
0.0000000001
 40
0.0
 40
0.0
 40
0.0
 40
0.0
 40
0.0009579657
 40
0.0019910067
 40
0.0031595337
 40
0.0045054155
 40
0.0060558592
 40
0.0078283622
 40
0.0098343412
 40
0.0120814088
 40
0.0145747253
 40
0.0173173361
 40
0.0203106623
 40
0.0235553265
 40
0.0307982342
 40
0.0390428438
 40
0.0482808635
 40
0.0584962635
 40
0.0696693271
 40
0.0817793592
 40
0.0948039669
 40
0.1087150918
 40
0.1390762877
 40
0.1726107599
 40
0.2090269963
 40
0.2480143112
 40
0.2892313644
 40
0.3323225737
 40
0.3769102306
 40
0.4226073296
 40
0.4690136391
 40
0.5623326168
 40
0.608429946
 40
0.6536146337
 40
0.6974919731
 40
0.739680186
 40
0.7798112307
 40
0.817537519
 40
0.8525316129
 40
0.8844932698
 40
0.8992498145
 40
0.9131494893
 40
0.9261626225
 40
0.9382608449
 40
0.9494214464
 40
0.9596241493
 40
0.9688496515
 40
0.9770814873
 40
0.9843111742
 40
0.9875492159
 40
0.9905359966
 40
0.9932722068
 40
0.995759318
 40
0.9980001892
 40
1.0
 40
1.0
 40
1.0
 40
1.0
 10
4.5857267884
 20
3.4656311063
 30
0.0
 10
4.585726772
 20
3.4656703823
 30
0.0
 10
4.5857390683
 20
3.465752413
 30
0.0
 10
4.585792614
 20
3.4658717123
 30
0.0
 10
4.58587966
 20
3.4659892931
 30
0.0
 10
4.5859995083
 20
3.4661058541
 30
0.0
 10
4.5861520889
 20
3.4662220126
 30
0.0
 10
4.5863374847
 20
3.4663380451
 30
0.0
 10
4.5865557634
 20
3.4664540782
 30
0.0
 10
4.586806949
 20
3.4665701568
 30
0.0
 10
4.5870910108
 20
3.4666862818
 30
0.0
 10
4.5874078394
 20
3.4668024552
 30
0.0
 10
4.5877572599
 20
3.4669186921
 30
0.0
 10
4.5882860477
 20
3.467079702
 30
0.0
 10
4.5890280074
 20
3.4672788277
 30
0.0
 10
4.5900150758
 20
3.4675103104
 30
0.0
 10
4.5911268821
 20
3.4677420403
 30
0.0
 10
4.5923609958
 20
3.4679740386
 30
0.0
 10
4.5937146904
 20
3.468206248
 30
0.0
 10
4.5951850732
 20
3.468438613
 30
0.0
 10
4.5967689879
 20
3.468671065
 30
0.0
 10
4.5990963322
 20
3.4689905286
 30
0.0
 10
4.602261857
 20
3.4693861182
 30
0.0
 10
4.6063485449
 20
3.4698487489
 30
0.0
 10
4.6107908981
 20
3.4703119947
 30
0.0
 10
4.6155497748
 20
3.4707755821
 30
0.0
 10
4.620583504
 20
3.4712395229
 30
0.0
 10
4.6258477527
 20
3.4717036293
 30
0.0
 10
4.6312963479
 20
3.4721679275
 30
0.0
 10
4.6368813318
 20
3.4726322999
 30
0.0
 10
4.6444581845
 20
3.4732527029
 30
0.0
 10
4.6520518871
 20
3.4738683689
 30
0.0
 10
4.6595948406
 20
3.4744901153
 30
0.0
 10
4.6651168106
 20
3.47495445
 30
0.0
 10
4.6704779406
 20
3.4754186666
 30
0.0
 10
4.6756310913
 20
3.4758826865
 30
0.0
 10
4.6805310096
 20
3.476346474
 30
0.0
 10
4.6851346236
 20
3.4768098859
 30
0.0
 10
4.6894015298
 20
3.4772728746
 30
0.0
 10
4.6927284095
 20
3.477667869
 30
0.0
 10
4.6951932042
 20
3.4779866099
 30
0.0
 10
4.6968857423
 20
3.4782191658
 30
0.0
 10
4.6984682192
 20
3.4784516054
 30
0.0
 10
4.6999371191
 20
3.4786839662
 30
0.0
 10
4.7012892759
 20
3.4789161767
 30
0.0
 10
4.7025218173
 20
3.4791481784
 30
0.0
 10
4.7036320351
 20
3.4793798982
 30
0.0
 10
4.7046174847
 20
3.4796113706
 30
0.0
 10
4.7053580579
 20
3.479810508
 30
0.0
 10
4.7058857112
 20
3.47997153
 30
0.0
 10
4.7062342869
 20
3.4800877667
 30
0.0
 10
4.7065502779
 20
3.4802039402
 30
0.0
 10
4.7068335145
 20
3.4803200591
 30
0.0
 10
4.7070838508
 20
3.4804361301
 30
0.0
 10
4.7072373687
 20
3.4805180533
 30
0.0
 10
4.7073081931
 20
3.4805593623
 30
0.0
  0
SPLINE
  5
24E
100
AcDbEntity
  8
0
100
AcDbSpline
 62
7
  6
CONTINUOUS
 70
0
 71
3
 72
37
 73
33
 74
0
 42
0.0000001
 43
0.0000001
 44
0.0000000001
 40
0.0
 40
0.0
 40
0.0
 40
0.0
 40
0.0009347501
 40
0.0018955573
 40
0.0039829026
 40
0.0064175359
 40
0.0092944231
 40
0.0126708297
 40
0.0165816025
 40
0.0210474806
 40
0.0260798936
 40
0.0316853537
 40
0.0378673184
 40
0.0446272303
 40
0.0519651571
 40
0.0683678193
 40
0.0870439755
 40
0.107948888
 40
0.1310333751
 40
0.1562352951
 40
0.1834805402
 40
0.2126933894
 40
0.2437923445
 40
0.2766830261
 40
0.3112687287
 40
0.3851206471
 40
0.4644692475
 40
0.5483756886
 40
0.6358379658
 40
0.7258133215
 40
0.8172277514
 40
1.0
 40
1.0
 40
1.0
 40
1.0
 10
4.5857268234
 20
3.4968811075
 30
0.0
 10
4.5857268367
 20
3.4969039273
 30
0.0
 10
4.5857308276
 20
3.4969502911
 30
0.0
 10
4.5857550921
 20
3.4970448427
 30
0.0
 10
4.5858184812
 20
3.4971648091
 30
0.0
 10
4.5859377643
 20
3.4973017828
 30
0.0
 10
4.5861014518
 20
3.4974376991
 30
0.0
 10
4.5863097885
 20
3.4975731995
 30
0.0
 10
4.5865630116
 20
3.4977086704
 30
0.0
 10
4.5868611787
 20
3.4978442006
 30
0.0
 10
4.5872041724
 20
3.4979798517
 30
0.0
 10
4.5875917905
 20
3.4981156115
 30
0.0
 10
4.5880237879
 20
3.4982514651
 30
0.0
 10
4.5884998957
 20
3.4983874057
 30
0.0
 10
4.5892203187
 20
3.4985758104
 30
0.0
 10
4.5902295363
 20
3.498808611
 30
0.0
 10
4.5915693103
 20
3.4990792255
 30
0.0
 10
4.5930750436
 20
3.4993502674
 30
0.0
 10
4.5947423236
 20
3.4996215915
 30
0.0
 10
4.5965662041
 20
3.4998931244
 30
0.0
 10
4.5985411753
 20
3.5001648753
 30
0.0
 10
4.6006613474
 20
3.5004367669
 30
0.0
 10
4.6029203845
 20
3.5007087313
 30
0.0
 10
4.6053114649
 20
3.5009808143
 30
0.0
 10
4.6087416844
 20
3.5013518565
 30
0.0
 10
4.6133029782
 20
3.5018119423
 30
0.0
 10
4.6190660636
 20
3.5023533963
 30
0.0
 10
4.625162756
 20
3.5028952234
 30
0.0
 10
4.6315198187
 20
3.5034373782
 30
0.0
 10
4.6380607993
 20
3.5039797116
 30
0.0
 10
4.6469215365
 20
3.5047029069
 30
0.0
 10
4.6535932676
 20
3.5052442645
 30
0.0
 10
4.6580400176
 20
3.5056125587
 30
0.0
  0
SPLINE
  5
24F
100
AcDbEntity
  8
0
100
AcDbSpline
 62
7
  6
CONTINUOUS
 70
0
 71
3
 72
61
 73
57
 74
0
 42
0.0000001
 43
0.0000001
 44
0.0000000001
 40
0.0
 40
0.0
 40
0.0
 40
0.0
 40
0.0003770762
 40
0.0007669854
 40
0.0016273033
 40
0.0026529021
 40
0.0038848742
 40
0.0053467037
 40
0.0070521412
 40
0.0090095793
 40
0.0112241491
 40
0.0136984764
 40
0.0164338633
 40
0.0194308325
 40
0.0226893789
 40
0.0299892382
 40
0.0383262994
 40
0.0476851631
 40
0.0580478251
 40
0.0693951261
 40
0.0817033764
 40
0.0949452199
 40
0.109092899
 40
0.1241169115
 40
0.1399830404
 40
0.1741005185
 40
0.2111459547
 40
0.2507892143
 40
0.2926773885
 40
0.3364370671
 40
0.3816776098
 40
0.4749801387
 40
0.5692601041
 40
0.615714998
 40
0.661157138
 40
0.7051825674
 40
0.7473980716
 40
0.7874281933
 40
0.8249152292
 40
0.8595262943
 40
0.8909559336
 40
0.9053897716
 40
0.9189268341
 40
0.931539209
 40
0.9431993509
 40
0.9538817401
 40
0.9635663344
 40
0.9722348143
 40
0.9798704481
 40
0.9864630757
 40
0.9893672336
 40
0.9920099265
 40
0.9943919125
 40
0.9965148576
 40
0.9983821606
 40
1.0
 40
1.0
 40
1.0
 40
1.0
 10
4.5688167702
 20
3.4753940998
 30
0.0
 10
4.5688167702
 20
3.4754137976
 30
0.0
 10
4.5688205763
 20
3.475453957
 30
0.0
 10
4.5688439005
 20
3.4755361225
 30
0.0
 10
4.5689050294
 20
3.4756402131
 30
0.0
 10
4.5690187136
 20
3.4757580752
 30
0.0
 10
4.5691744994
 20
3.475875155
 30
0.0
 10
4.5693727804
 20
3.475991976
 30
0.0
 10
4.5696138525
 20
3.4761088774
 30
0.0
 10
4.5698978665
 20
3.4762258786
 30
0.0
 10
4.5702248242
 20
3.4763429702
 30
0.0
 10
4.5705946011
 20
3.4764601596
 30
0.0
 10
4.5710070069
 20
3.4765774302
 30
0.0
 10
4.5714618218
 20
3.4766947763
 30
0.0
 10
4.5721510128
 20
3.4768575421
 30
0.0
 10
4.5731175447
 20
3.477058675
 30
0.0
 10
4.5744023075
 20
3.477292295
 30
0.0
 10
4.5758493188
 20
3.4775263004
 30
0.0
 10
4.5774553498
 20
3.4777606173
 30
0.0
 10
4.5792169045
 20
3.4779951064
 30
0.0
 10
4.5811300568
 20
3.4782297399
 30
0.0
 10
4.583190491
 20
3.4784645178
 30
0.0
 10
4.5853936352
 20
3.4786993964
 30
0.0
 10
4.5877345891
 20
3.4789343372
 30
0.0
 10
4.5911152688
 20
3.4792555267
 30
0.0
 10
4.5956440855
 20
3.479653942
 30
0.0
 10
4.6014135101
 20
3.4801217726
 30
0.0
 10
4.6075900686
 20
3.4805900102
 30
0.0
 10
4.6141182892
 20
3.481058547
 30
0.0
 10
4.6209396028
 20
3.4815272917
 30
0.0
 10
4.6304418294
 20
3.4821589595
 30
0.0
 10
4.6425791621
 20
3.482937825
 30
0.0
 10
4.6547802879
 20
3.4837129726
 30
0.0
 10
4.6644855448
 20
3.4843413736
 30
0.0
 10
4.6715704108
 20
3.4848102987
 30
0.0
 10
4.6784333325
 20
3.4852790599
 30
0.0
 10
4.6850128704
 20
3.4857476433
 30
0.0
 10
4.6912499701
 20
3.4862159319
 30
0.0
 10
4.6970886781
 20
3.486683825
 30
0.0
 10
4.7024766058
 20
3.4871512081
 30
0.0
 10
4.7066615399
 20
3.4875504971
 30
0.0
 10
4.709747749
 20
3.4878729192
 30
0.0
 10
4.7118547264
 20
3.4881077431
 30
0.0
 10
4.7138158698
 20
3.488342425
 30
0.0
 10
4.7156267663
 20
3.4885769552
 30
0.0
 10
4.7172833589
 20
3.4888113375
 30
0.0
 10
4.7187820081
 20
3.489045461
 30
0.0
 10
4.7201194455
 20
3.4892791874
 30
0.0
 10
4.7212926782
 20
3.4895125011
 30
0.0
 10
4.7221649219
 20
3.4897139576
 30
0.0
 10
4.7227777098
 20
3.4898773761
 30
0.0
 10
4.7231750174
 20
3.4899946284
 30
0.0
 10
4.723529622
 20
3.4901117816
 30
0.0
 10
4.7238413624
 20
3.4902288446
 30
0.0
 10
4.7241101092
 20
3.4903458044
 30
0.0
 10
4.7242720179
 20
3.4904295647
 30
0.0
 10
4.7243450889
 20
3.4904720279
 30
0.0
  0
SPLINE
  5
250
100
AcDbEntity
  8
0
100
AcDbSpline
 62
7
  6
CONTINUOUS
 70
0
 71
3
 72
23
 73
19
 74
0
 42
0.0000001
 43
0.0000001
 44
0.0000000001
 40
0.0
 40
0.0
 40
0.0
 40
0.0
 40
0.173879265
 40
0.3374253244
 40
0.4145731318
 40
0.4883088591
 40
0.5584105923
 40
0.624664427
 40
0.686889535
 40
0.7449337553
 40
0.79865877
 40
0.8479653889
 40
0.8927734981
 40
0.9330365715
 40
0.9514657176
 40
0.9687639633
 40
0.98493823
 40
1.0
 40
1.0
 40
1.0
 40
1.0
 10
4.6778998787
 20
3.4146125776
 30
0.0
 10
4.6804034584
 20
3.4150987035
 30
0.0
 10
4.6852599662
 20
3.4160517668
 30
0.0
 10
4.6912175279
 20
3.4172697487
 30
0.0
 10
4.6957269272
 20
3.4182365248
 30
0.0
 10
4.6988908837
 20
3.4189403525
 30
0.0
 10
4.7018926056
 20
3.4196370974
 30
0.0
 10
4.7047224209
 20
3.4203270569
 30
0.0
 10
4.7073716051
 20
3.421010354
 30
0.0
 10
4.7098324302
 20
3.4216869994
 30
0.0
 10
4.7120980618
 20
3.4223573469
 30
0.0
 10
4.7141625985
 20
3.4230212595
 30
0.0
 10
4.7160209434
 20
3.4236788742
 30
0.0
 10
4.7174332042
 20
3.4242370567
 30
0.0
 10
4.7184544809
 20
3.4246837241
 30
0.0
 10
4.7191436306
 20
3.4250073741
 30
0.0
 10
4.7197784967
 20
3.4253296576
 30
0.0
 10
4.7201795217
 20
3.4255514754
 30
0.0
 10
4.720370507
 20
3.4256625082
 30
0.0
  0
ENDSEC
  0
SECTION
  2
OBJECTS
  0
DICTIONARY
  5
C
100
AcDbDictionary
280
0
281
1
  3
ACAD_GROUP
350
D
  3
ACAD_MLINESTYLE
350
17
  3
ACAD_LAYOUT
350
1A
  3
ACAD_PLOTSETTINGS
350
19
  3
ACAD_PLOTSTYLENAME
350
E
  0
DICTIONARY
  5
D
102
{ACAD_REACTORS
330
C
102
}
100
AcDbDictionary
280
0
281
1
  0
ACDBDICTIONARYWDFLT
  5
E
102
{ACAD_REACTORS
330
C
102
}
100
AcDbDictionary
281
1
  3
Normal
350
F
100
AcDbDictionaryWithDefault
340
F
  0
DICTIONARY
  5
17
102
{ACAD_REACTORS
330
C
102
}
100
AcDbDictionary
280
0
281
1
  3
Standard
350
18
  0
DICTIONARY
  5
19
102
{ACAD_REACTORS
330
C
102
}
100
AcDbDictionary
281
1
  0
DICTIONARY
  5
1A
102
{ACAD_REACTORS
330
C
102
}
100
AcDbDictionary
281
1
  3
Model
350
251
  3
Layout1
350
252
  0
ACDBPLACEHOLDER
  5
F
102
{ACAD_REACTORS
330
E
102
}
  0
MLINESTYLE
  5
18
102
{ACAD_REACTORS
330
17
102
}
100
AcDbMlineStyle
  2
STANDARD
 70
0
  3

 62
256
 51
90.0
 52
90.0
 71
2
 49
0.5
 62
256
  6
BYLAYER
 49
-0.5
 62
256
  6
BYLAYER
  0
LAYOUT
  5
251
102
{ACAD_REACTORS
330
1A
102
}
100
AcDbPlotSettings
  1

  2
none_device
  4
ANSI_A_(11.00_x_8.50_Inches)
  6

 40
0.0
 41
0.0
 42
0.0
 43
0.0
 44
279.4
 45
215.9
 46
0.0
 47
0.0
 48
0.0
 49
0.0
140
0.0
141
0.0
142
1.0
143
1.0
 70
1024
 72
0
 73
0
 74
0
  7

 75
0
147
1.0
148
0.0
149
0.0
100
AcDbLayout
  1
Model
 70
0
 71
0
 10
0.0
 20
0.0
 11
11.0
 21
8.5
 12
0.0
 22
0.0
 32
0.0
 14
0.0
 24
0.0
 34
0.0
 15
0.0
 25
0.0
 35
0.0
146
0.0
 13
0.0
 23
0.0
 33
0.0
 16
1.0
 26
0.0
 36
0.0
 17
0.0
 27
1.0
 37
0.0
 76
0
330
208
345
0
346
0
  0
LAYOUT
  5
252
102
{ACAD_REACTORS
330
1A
102
}
100
AcDbPlotSettings
  1

  2
none_device
  4
ANSI_A_(11.00_x_8.50_Inches)
  6

 40
0.0
 41
0.0
 42
0.0
 43
0.0
 44
279.4
 45
215.9
 46
0.0
 47
0.0
 48
0.0
 49
0.0
140
0.0
141
0.0
142
1.0
143
1.0
 70
0
 72
0
 73
0
 74
0
  7

 75
0
147
1.0
148
0.0
149
0.0
100
AcDbLayout
  1
Layout1
 70
0
 71
1
 10
0.0
 20
0.0
 11
11.0
 21
8.5
 12
0.0
 22
0.0
 32
0.0
 14
0.0
 24
0.0
 34
0.0
 15
0.0
 25
0.0
 35
0.0
146
0.0
 13
0.0
 23
0.0
 33
0.0
 16
1.0
 26
0.0
 36
0.0
 17
0.0
 27
1.0
 37
0.0
 76
0
330
209
345
0
346
0
  0
ENDSEC
  0
EOF
