999
DXF file: 230_RIGHT.dxf
999
Pro/ENGINEER 2018400 by Parametric Technology Corporation
  0
SECTION
  2
HEADER
  9
$ACADVER
  1
AC1027
  9
$DWGCODEPAGE
  3
ANSI_1252
  9
$EXTMAX
 10
11.0
 20
8.5
 30
0.0
  9
$EXTMIN
 10
0.0
 20
0.0
 30
0.0
  9
$LIMMIN
 10
0.0
 20
0.0
  9
$LIMMAX
 10
11.0
 20
8.5
  9
$VIEWCTR
 10
5.5
 20
4.25
  9
$VIEWSIZE
 40
8.5
  9
$CLAYER
  8
0
  9
$LTSCALE
 40
0.605
  9
$CELTYPE
  6
BYLAYER
  9
$DIMSCALE
 40
1.0
  9
$DIMASZ
 40
0.1
  9
$DIMEXO
 40
0.0625
  9
$DIMDLI
 40
0.418
  9
$DIMEXE
 40
0.125
  9
$DIMCEN
 40
0.099
  9
$DIMLFAC
 40
1.0
  9
$DIMBLK
  1
_FILLED
  9
$DIMALT
 70
1
  9
$DIMALTD
 70
1
  9
$DIMALTTD
 70
2
  9
$DIMALTF
 40
25.4
  9
$DIMTXT
 40
0.08
  9
$DIMTOL
 70
1
  9
$DIMLIM
 70
0
  9
$DIMTFAC
 40
1.0
  9
$DIMTP
 40
0.01
  9
$DIMTM
 40
0.01
  9
$DIMGAP
 40
0.09
  9
$DIMDSEP
 70
46
  9
$AUNITS
 70
0
  9
$PDMODE
 70
3
  9
$PDSIZE
 40
0.3125
  9
$HANDSEED
  5
297
  9
$TILEMODE
 70
1
  9
$MEASUREMENT
 70
0
  9
$INSUNITS
 70
1
  0
ENDSEC
  0
SECTION
  2
CLASSES
  0
CLASS
  1
ACDBDICTIONARYWDFLT
  2
AcDbDictionaryWithDefault
  3
AutoCAD 2000
 90
0
 91
1
280
0
281
0
  0
CLASS
  1
ACDBPLACEHOLDER
  2
AcDbPlaceHolder
  3
AutoCAD 2000
 90
0
 91
1
280
0
281
0
  0
CLASS
  1
LAYOUT
  2
AcDbLayout
  3
AutoCAD 2000
 90
0
 91
0
280
0
281
0
  0
ENDSEC
  0
SECTION
  2
TABLES
  0
TABLE
  2
VPORT
  5
8
100
AcDbSymbolTable
 70
2
  0
VPORT
  5
1F4
100
AcDbSymbolTableRecord
100
AcDbViewportTableRecord
  2
*ACTIVE
 70
0
 10
0.0
 20
0.0
 11
1.0
 21
1.0
 12
5.5
 22
4.25
 13
0.0
 23
0.0
 14
1.0
 24
1.0
 15
0.0
 25
0.0
 16
0.0
 26
0.0
 36
1.0
 17
0.0
 27
0.0
 37
0.0
 40
8.5
 41
1.2941176471
 42
50.0
 43
0.0
 44
0.0
 50
0.0
 51
0.0
 71
0
 72
100
 73
1
 74
1
 75
0
 76
0
 77
0
 78
0
  0
ENDTAB
  0
TABLE
  2
LTYPE
  5
5
100
AcDbSymbolTable
 70
6
  0
LTYPE
  5
14
100
AcDbSymbolTableRecord
100
AcDbLinetypeTableRecord
  2
BYBLOCK
 70
0
  3

 72
65
 73
0
 40
0.0
  0
LTYPE
  5
15
100
AcDbSymbolTableRecord
100
AcDbLinetypeTableRecord
  2
BYLAYER
 70
0
  3

 72
65
 73
0
 40
0.0
  0
LTYPE
  5
16
100
AcDbSymbolTableRecord
100
AcDbLinetypeTableRecord
  2
CONTINUOUS
 70
64
  3
Solid line
 72
65
 73
0
 40
0.0
  0
LTYPE
  5
1F5
100
AcDbSymbolTableRecord
100
AcDbLinetypeTableRecord
  2
CENTER
 70
64
  3
____ _ ____ _ ____ _ ____ _ ____ _ ____ _ ____
 72
65
 73
4
 40
0.6
 49
0.375
 74
0
 49
-0.075
 74
0
 49
0.075
 74
0
 49
-0.075
 74
0
  0
LTYPE
  5
1F6
100
AcDbSymbolTableRecord
100
AcDbLinetypeTableRecord
  2
HIDDEN
 70
64
  3
- - - - - - - - - - - - - - - - - - - -
 72
65
 73
2
 40
0.2
 49
0.1
 74
0
 49
-0.1
 74
0
  0
LTYPE
  5
1F7
100
AcDbSymbolTableRecord
100
AcDbLinetypeTableRecord
  2
PHANTOM
 70
64
  3
_____ _ _ _____ _ _ _____ _ _ _____
 72
65
 73
6
 40
0.8
 49
0.45
 74
0
 49
-0.05
 74
0
 49
0.1
 74
0
 49
-0.05
 74
0
 49
0.1
 74
0
 49
-0.05
 74
0
  0
LTYPE
  5
1F8
100
AcDbSymbolTableRecord
100
AcDbLinetypeTableRecord
  2
DOT
 70
64
  3
. . . . . . . . . . . . . . . . . . . .
 72
65
 73
2
 40
0.2
 49
0.1
 74
0
 49
-0.1
 74
0
  0
LTYPE
  5
1F9
100
AcDbSymbolTableRecord
100
AcDbLinetypeTableRecord
  2
DASHED
 70
64
  3
- - - - - - - - - - - - - - - - - - - -
 72
65
 73
2
 40
0.2
 49
0.1
 74
0
 49
-0.1
 74
0
  0
ENDTAB
  0
TABLE
  2
LAYER
  5
2
100
AcDbSymbolTable
 70
36
  0
LAYER
  5
10
100
AcDbSymbolTableRecord
100
AcDbLayerTableRecord
  2
0
 70
0
 62
7
  6
CONTINUOUS
370
-3
390
F
  0
LAYER
  5
1FA
100
AcDbSymbolTableRecord
100
AcDbLayerTableRecord
  2
DEFAULT_1
 70
0
 62
7
  6
CENTER
370
-3
390
F
  0
LAYER
  5
1FB
100
AcDbSymbolTableRecord
100
AcDbLayerTableRecord
  2
DEFAULT_2
 70
0
 62
8
  6
HIDDEN
370
-3
390
F
  0
LAYER
  5
1FC
100
AcDbSymbolTableRecord
100
AcDbLayerTableRecord
  2
DEFAULT_3
 70
0
 62
7
  6
PHANTOM
370
-3
390
F
  0
LAYER
  5
1FD
100
AcDbSymbolTableRecord
100
AcDbLayerTableRecord
  2
ALL_FEATURES
 70
0
 62
7
  6
CONTINUOUS
370
-3
390
F
  0
LAYER
  5
1FE
100
AcDbSymbolTableRecord
100
AcDbLayerTableRecord
  2
AXES_FEATURES
 70
0
 62
7
  6
CONTINUOUS
370
-3
390
F
  0
LAYER
  5
1FF
100
AcDbSymbolTableRecord
100
AcDbLayerTableRecord
  2
DEFAULT_COORDINATE_SYSTEM
 70
0
 62
7
  6
CONTINUOUS
370
-3
390
F
  0
LAYER
  5
200
100
AcDbSymbolTableRecord
100
AcDbLayerTableRecord
  2
DEFAULT_DATUM_AXES
 70
0
 62
7
  6
CONTINUOUS
370
-3
390
F
  0
LAYER
  5
201
100
AcDbSymbolTableRecord
100
AcDbLayerTableRecord
  2
DEFAULT_DATUM_PLANES
 70
0
 62
7
  6
CONTINUOUS
370
-3
390
F
  0
LAYER
  5
202
100
AcDbSymbolTableRecord
100
AcDbLayerTableRecord
  2
DEFAULT_SURFACES
 70
0
 62
7
  6
CONTINUOUS
370
-3
390
F
  0
LAYER
  5
203
100
AcDbSymbolTableRecord
100
AcDbLayerTableRecord
  2
DIMENSIONS
 70
0
 62
7
  6
CONTINUOUS
370
-3
390
F
  0
LAYER
  5
204
100
AcDbSymbolTableRecord
100
AcDbLayerTableRecord
  2
PLATED_SURFACE_AREA
 70
0
 62
7
  6
CONTINUOUS
370
-3
390
F
  0
LAYER
  5
205
100
AcDbSymbolTableRecord
100
AcDbLayerTableRecord
  2
QUILT
 70
0
 62
7
  6
CONTINUOUS
370
-3
390
F
  0
ENDTAB
  0
TABLE
  2
STYLE
  5
3
100
AcDbSymbolTable
 70
1
  0
STYLE
  5
11
100
AcDbSymbolTableRecord
100
AcDbTextStyleTableRecord
  2
STANDARD
 70
0
 40
0.0
 41
0.8
 50
0.0
 71
0
 42
0.2
  3
txt
  4

  0
STYLE
  5
206
100
AcDbSymbolTableRecord
100
AcDbTextStyleTableRecord
  2
TEXTSTYLE_1
 70
0
 40
0.0
 41
0.8
 50
0.0
 71
0
 42
0.2
  3
gdt
  4

  0
ENDTAB
  0
TABLE
  2
VIEW
  5
6
100
AcDbSymbolTable
 70
0
  0
ENDTAB
  0
TABLE
  2
UCS
  5
7
100
AcDbSymbolTable
 70
0
  0
ENDTAB
  0
TABLE
  2
APPID
  5
9
100
AcDbSymbolTable
 70
1
  0
APPID
  5
207
100
AcDbSymbolTableRecord
100
AcDbRegAppTableRecord
  2
ACAD
 70
0
  0
ENDTAB
  0
TABLE
  2
BLOCK_RECORD
  5
1
100
AcDbSymbolTable
 70
0
  0
BLOCK_RECORD
  5
208
100
AcDbSymbolTableRecord
100
AcDbBlockTableRecord
  2
*Model_Space
  0
BLOCK_RECORD
  5
209
100
AcDbSymbolTableRecord
100
AcDbBlockTableRecord
  2
*Paper_Space
  0
BLOCK_RECORD
  5
20A
100
AcDbSymbolTableRecord
100
AcDbBlockTableRecord
  2
_FILLED
  0
ENDTAB
  0
TABLE
  2
DIMSTYLE
  5
A
100
AcDbSymbolTable
 70
1
100
AcDbDimStyleTable
 71
0
  0
DIMSTYLE
105
20B
100
AcDbSymbolTableRecord
100
AcDbDimStyleTableRecord
  2
STANDARD
 70
0
  3

  4

 40
1.0
 41
0.1
 42
0.0625
 43
0.38
 44
0.125
 45
0.0
 46
0.0
 47
0.01
 48
0.01
140
0.08
141
0.09
142
0.0
143
25.4
144
1.0
145
0.0
146
1.0
147
0.09
 71
1.0
 72
0.0
 73
1
 74
1
 75
0
 76
0
 77
0
 78
4
 79
1
170
1
171
1
172
0
173
0
174
0
175
0
176
0
177
0
178
0
270
2
179
2
271
2
272
2
273
2
274
2
275
0
280
0
281
0
282
0
283
1
284
4
285
0
286
0
287
3
288
0
340
11
278
46
341
20A
342
20A
343
20A
344
20A
  0
ENDTAB
  0
ENDSEC
  0
SECTION
  2
BLOCKS
  0
BLOCK
  5
20
100
AcDbEntity
  8
0
100
AcDbBlockBegin
  2
*Model_Space
 70
0
 10
0.0
 20
0.0
 30
0.0
  3
*Model_Space
  1

  0
ENDBLK
  5
21
100
AcDbEntity
  8
0
100
AcDbBlockEnd
  0
BLOCK
  5
1C
100
AcDbEntity
  8
0
100
AcDbBlockBegin
  2
*Paper_Space
 70
0
 10
0.0
 20
0.0
 30
0.0
  3
*Paper_Space
  1

  0
ENDBLK
  5
1D
100
AcDbEntity
  8
0
100
AcDbBlockEnd
  0
BLOCK
  5
20C
100
AcDbEntity
  8
0
100
AcDbBlockBegin
  2
_FILLED
 70
64
 10
0.0
 20
0.0
  3
_FILLED
  1

  0
SOLID
  5
20D
100
AcDbEntity
  8
0
  6
BYBLOCK
 62
0
100
AcDbTrace
 10
0.0
 20
0.0
 11
-1.0
 21
0.2
 12
-1.0
 22
-0.2
 13
-1.0
 23
-0.2
  0
ENDBLK
  5
20E
100
AcDbEntity
  8
0
  6
BYBLOCK
 62
0
100
AcDbBlockEnd
  0
ENDSEC
  0
SECTION
  2
ENTITIES
  0
MTEXT
  5
20F
100
AcDbEntity
  8
0
100
AcDbMText
 62
2
  6
CONTINUOUS
  7
STANDARD
 71
3
 72
1
 10
5.0844967294
 20
2.5125473602
 30
0.0
 11
1.0
 21
0.0
 31
0.0
 73
2
 44
0.9
  1
SCALE  1.000
 40
0.08
 41
0.768
  0
LINE
  5
210
100
AcDbEntity
  8
0
100
AcDbLine
 62
7
  6
CONTINUOUS
 10
0.0
 20
0.0
 11
0.0
 21
8.5
  0
LINE
  5
211
100
AcDbEntity
  8
0
100
AcDbLine
 62
7
  6
CONTINUOUS
 10
0.0
 20
0.0
 11
11.0
 21
0.0
  0
LINE
  5
212
100
AcDbEntity
  8
0
100
AcDbLine
 62
7
  6
CONTINUOUS
 10
0.0
 20
8.5
 11
11.0
 21
8.5
  0
LINE
  5
213
100
AcDbEntity
  8
0
100
AcDbLine
 62
7
  6
CONTINUOUS
 10
11.0
 20
0.0
 11
11.0
 21
8.5
  0
LINE
  5
214
100
AcDbEntity
  8
0
100
AcDbLine
 62
7
  6
CONTINUOUS
 10
2.8368167702
 20
3.7556125776
 11
2.8368167702
 21
3.5056125776
  0
LINE
  5
215
100
AcDbEntity
  8
0
100
AcDbLine
 62
7
  6
CONTINUOUS
 10
3.1688167702
 20
3.4519565998
 11
3.1688167702
 21
3.4597706137
  0
LINE
  5
216
100
AcDbEntity
  8
0
100
AcDbLine
 62
7
  6
CONTINUOUS
 10
3.1688167702
 20
3.4832065998
 11
3.1688167702
 21
3.4910206137
  0
LINE
  5
217
100
AcDbEntity
  8
0
100
AcDbLine
 62
7
  6
CONTINUOUS
 10
3.1857267702
 20
3.5046936067
 11
3.1857267702
 21
3.5011314703
  0
LINE
  5
218
100
AcDbEntity
  8
0
100
AcDbLine
 62
7
  6
CONTINUOUS
 10
3.1857267702
 20
3.4734436067
 11
3.1857267702
 21
3.4698814703
  0
LINE
  5
219
100
AcDbEntity
  8
0
100
AcDbLine
 62
7
  6
CONTINUOUS
 10
3.1857267702
 20
3.4421936067
 11
3.1857267702
 21
3.4386314703
  0
LINE
  5
21A
100
AcDbEntity
  8
0
100
AcDbLine
 62
7
  6
CONTINUOUS
 10
3.3079067702
 20
3.4226586067
 11
3.3079067702
 21
3.4262207467
  0
LINE
  5
21B
100
AcDbEntity
  8
0
100
AcDbLine
 62
7
  6
CONTINUOUS
 10
3.3079067702
 20
3.4539086067
 11
3.3079067702
 21
3.4574707467
  0
LINE
  5
21C
100
AcDbEntity
  8
0
100
AcDbLine
 62
7
  6
CONTINUOUS
 10
3.3079067702
 20
3.4851586067
 11
3.3079067702
 21
3.4887207467
  0
LINE
  5
21D
100
AcDbEntity
  8
0
100
AcDbLine
 62
7
  6
CONTINUOUS
 10
3.3248167702
 20
3.4363315998
 11
3.3248167702
 21
3.4441456137
  0
LINE
  5
21E
100
AcDbEntity
  8
0
100
AcDbLine
 62
7
  6
CONTINUOUS
 10
3.3248167702
 20
3.4675815998
 11
3.3248167702
 21
3.4753956137
  0
LINE
  5
21F
100
AcDbEntity
  8
0
100
AcDbLine
 62
7
  6
CONTINUOUS
 10
3.3248167702
 20
3.4988315998
 11
3.3248167702
 21
3.5056125776
  0
LINE
  5
220
100
AcDbEntity
  8
0
100
AcDbLine
 62
7
  6
CONTINUOUS
 10
3.1838167974
 20
3.4146125776
 11
3.1695090688
 21
3.4289203125
  0
LINE
  5
221
100
AcDbEntity
  8
0
100
AcDbLine
 62
7
  6
CONTINUOUS
 10
3.169288157
 20
3.4514095265
 11
3.1857267702
 21
3.4418457467
  0
LINE
  5
222
100
AcDbEntity
  8
0
100
AcDbLine
 62
7
  6
CONTINUOUS
 10
3.169288157
 20
3.4826595265
 11
3.1857267702
 21
3.4730957467
  0
LINE
  5
223
100
AcDbEntity
  8
0
100
AcDbLine
 62
7
  6
CONTINUOUS
 10
3.3140763807
 20
3.4194129524
 11
3.3079067702
 21
3.4230064703
  0
LINE
  5
224
100
AcDbEntity
  8
0
100
AcDbLine
 62
7
  6
CONTINUOUS
 10
3.3098167429
 20
3.4146125776
 11
3.3142186212
 21
3.4190144578
  0
LINE
  5
225
100
AcDbEntity
  8
0
100
AcDbLine
 62
7
  6
CONTINUOUS
 10
3.1835529458
 20
3.5056125776
 11
3.1857267702
 21
3.5043457467
  0
LINE
  5
226
100
AcDbEntity
  8
0
100
AcDbLine
 62
7
  6
CONTINUOUS
 10
3.324345384
 20
3.4446926866
 11
3.3079067702
 21
3.4542564703
  0
LINE
  5
227
100
AcDbEntity
  8
0
100
AcDbLine
 62
7
  6
CONTINUOUS
 10
3.324345384
 20
3.4759426866
 11
3.3079067702
 21
3.4855064703
  0
LINE
  5
228
100
AcDbEntity
  8
0
100
AcDbLine
 62
7
  6
CONTINUOUS
 10
3.1863252339
 20
3.5014803523
 11
3.1692881564
 21
3.4915676866
  0
LINE
  5
229
100
AcDbEntity
  8
0
100
AcDbLine
 62
7
  6
CONTINUOUS
 10
3.1863252339
 20
3.4702303523
 11
3.1692881564
 21
3.4603176866
  0
LINE
  5
22A
100
AcDbEntity
  8
0
100
AcDbLine
 62
7
  6
CONTINUOUS
 10
3.1863252339
 20
3.4389803523
 11
3.1696341489
 21
3.4292686655
  0
LINE
  5
22B
100
AcDbEntity
  8
0
100
AcDbLine
 62
7
  6
CONTINUOUS
 10
3.3073083069
 20
3.4883718615
 11
3.3243453834
 21
3.4982845265
  0
LINE
  5
22C
100
AcDbEntity
  8
0
100
AcDbLine
 62
7
  6
CONTINUOUS
 10
3.3073083069
 20
3.4571218615
 11
3.3243453834
 21
3.4670345265
  0
LINE
  5
22D
100
AcDbEntity
  8
0
100
AcDbLine
 62
7
  6
CONTINUOUS
 10
3.3073083069
 20
3.4258718615
 11
3.3243453834
 21
3.4357845265
  0
LINE
  5
22E
100
AcDbEntity
  8
0
100
AcDbLine
 62
7
  6
CONTINUOUS
 10
6.109815787
 20
3.4146125776
 11
5.9838171646
 21
3.4146125776
  0
LINE
  5
22F
100
AcDbEntity
  8
0
100
AcDbLine
 62
7
  6
CONTINUOUS
 10
3.309815787
 20
3.4146125776
 11
3.1838171646
 21
3.4146125776
  0
LINE
  5
230
100
AcDbEntity
  8
0
100
AcDbLine
 62
7
  6
CONTINUOUS
 10
5.9706892727
 20
3.4296126114
 11
6.0638282942
 21
3.4296126114
  0
LINE
  5
231
100
AcDbEntity
  8
0
100
AcDbLine
 62
7
  6
CONTINUOUS
 10
3.1706892727
 20
3.4296126114
 11
3.2638282942
 21
3.4296126114
  0
LINE
  5
232
100
AcDbEntity
  8
0
100
AcDbLine
 62
7
  6
CONTINUOUS
 10
2.836819522
 20
3.5056125776
 11
6.4568140183
 21
3.5056125776
  0
LINE
  5
233
100
AcDbEntity
  8
0
100
AcDbLine
 62
7
  6
CONTINUOUS
 10
2.8368167702
 20
3.7556125776
 11
6.4568167702
 21
3.7556125776
  0
LINE
  5
234
100
AcDbEntity
  8
0
100
AcDbLine
 62
7
  6
CONTINUOUS
 10
6.4068167702
 20
3.8056125776
 11
2.8868167702
 21
3.8056125776
  0
LINE
  5
235
100
AcDbEntity
  8
0
100
AcDbLine
 62
7
  6
CONTINUOUS
 10
5.969288157
 20
3.4514095265
 11
5.9708519578
 21
3.4505010648
  0
LINE
  5
236
100
AcDbEntity
  8
0
100
AcDbLine
 62
7
  6
CONTINUOUS
 10
5.969288157
 20
3.4826595265
 11
5.9708519578
 21
3.4817510648
  0
LINE
  5
237
100
AcDbEntity
  8
0
100
AcDbLine
 62
7
  6
CONTINUOUS
 10
6.124345384
 20
3.4446926866
 11
6.122847562
 21
3.4455628146
  0
LINE
  5
238
100
AcDbEntity
  8
0
100
AcDbLine
 62
7
  6
CONTINUOUS
 10
5.9708519578
 20
3.4505010648
 11
5.9857267702
 21
3.4418457467
  0
LINE
  5
239
100
AcDbEntity
  8
0
100
AcDbLine
 62
7
  6
CONTINUOUS
 10
5.9708519578
 20
3.4817510648
 11
5.9857267702
 21
3.4730957467
  0
LINE
  5
23A
100
AcDbEntity
  8
0
100
AcDbLine
 62
7
  6
CONTINUOUS
 10
6.1140763807
 20
3.4194129524
 11
6.1079067702
 21
3.4230064703
  0
LINE
  5
23B
100
AcDbEntity
  8
0
100
AcDbLine
 62
7
  6
CONTINUOUS
 10
5.9835529458
 20
3.5056125776
 11
5.9857267702
 21
3.5043457467
  0
LINE
  5
23C
100
AcDbEntity
  8
0
100
AcDbLine
 62
7
  6
CONTINUOUS
 10
6.122847562
 20
3.4455628146
 11
6.1079067702
 21
3.4542564703
  0
LINE
  5
23D
100
AcDbEntity
  8
0
100
AcDbLine
 62
7
  6
CONTINUOUS
 10
6.124345384
 20
3.4759426866
 11
6.122847562
 21
3.4768128146
  0
LINE
  5
23E
100
AcDbEntity
  8
0
100
AcDbLine
 62
7
  6
CONTINUOUS
 10
6.122847562
 20
3.4768128146
 11
6.1079067702
 21
3.4855064703
  0
LINE
  5
23F
100
AcDbEntity
  8
0
100
AcDbLine
 62
7
  6
CONTINUOUS
 10
5.9863252339
 20
3.5014803523
 11
5.9692881564
 21
3.4915676866
  0
LINE
  5
240
100
AcDbEntity
  8
0
100
AcDbLine
 62
7
  6
CONTINUOUS
 10
5.9863252339
 20
3.4702303523
 11
5.9692881564
 21
3.4603176866
  0
LINE
  5
241
100
AcDbEntity
  8
0
100
AcDbLine
 62
7
  6
CONTINUOUS
 10
5.9863252339
 20
3.4389803523
 11
5.9696341489
 21
3.4292686655
  0
LINE
  5
242
100
AcDbEntity
  8
0
100
AcDbLine
 62
7
  6
CONTINUOUS
 10
6.1073083069
 20
3.4883718615
 11
6.1243453834
 21
3.4982845265
  0
LINE
  5
243
100
AcDbEntity
  8
0
100
AcDbLine
 62
7
  6
CONTINUOUS
 10
5.9838167974
 20
3.4146125776
 11
5.9695090688
 21
3.4289203125
  0
LINE
  5
244
100
AcDbEntity
  8
0
100
AcDbLine
 62
7
  6
CONTINUOUS
 10
6.1073083069
 20
3.4571218615
 11
6.1243453834
 21
3.4670345265
  0
LINE
  5
245
100
AcDbEntity
  8
0
100
AcDbLine
 62
7
  6
CONTINUOUS
 10
6.1073083069
 20
3.4258718615
 11
6.1243453834
 21
3.4357845265
  0
LINE
  5
246
100
AcDbEntity
  8
0
100
AcDbLine
 62
7
  6
CONTINUOUS
 10
6.1098167429
 20
3.4146125776
 11
6.1142186212
 21
3.4190144578
  0
LINE
  5
247
100
AcDbEntity
  8
0
100
AcDbLine
 62
7
  6
CONTINUOUS
 10
5.9688167702
 20
3.4519565998
 11
5.9688167702
 21
3.4597706137
  0
LINE
  5
248
100
AcDbEntity
  8
0
100
AcDbLine
 62
7
  6
CONTINUOUS
 10
5.9688167702
 20
3.4832065998
 11
5.9688167702
 21
3.4910206137
  0
LINE
  5
249
100
AcDbEntity
  8
0
100
AcDbLine
 62
7
  6
CONTINUOUS
 10
5.9857267702
 20
3.5046936067
 11
5.9857267702
 21
3.5011314703
  0
LINE
  5
24A
100
AcDbEntity
  8
0
100
AcDbLine
 62
7
  6
CONTINUOUS
 10
5.9857267702
 20
3.4734436067
 11
5.9857267702
 21
3.4698814703
  0
LINE
  5
24B
100
AcDbEntity
  8
0
100
AcDbLine
 62
7
  6
CONTINUOUS
 10
5.9857267702
 20
3.4421936067
 11
5.9857267702
 21
3.4386314703
  0
LINE
  5
24C
100
AcDbEntity
  8
0
100
AcDbLine
 62
7
  6
CONTINUOUS
 10
6.1079067702
 20
3.4226586067
 11
6.1079067702
 21
3.4262207467
  0
LINE
  5
24D
100
AcDbEntity
  8
0
100
AcDbLine
 62
7
  6
CONTINUOUS
 10
6.1079067702
 20
3.4539086067
 11
6.1079067702
 21
3.4574707467
  0
LINE
  5
24E
100
AcDbEntity
  8
0
100
AcDbLine
 62
7
  6
CONTINUOUS
 10
6.1079067702
 20
3.4851586067
 11
6.1079067702
 21
3.4887207467
  0
LINE
  5
24F
100
AcDbEntity
  8
0
100
AcDbLine
 62
7
  6
CONTINUOUS
 10
6.1248167702
 20
3.4363315998
 11
6.1248167702
 21
3.4441456137
  0
LINE
  5
250
100
AcDbEntity
  8
0
100
AcDbLine
 62
7
  6
CONTINUOUS
 10
6.1248167702
 20
3.4675815998
 11
6.1248167702
 21
3.4753956137
  0
LINE
  5
251
100
AcDbEntity
  8
0
100
AcDbLine
 62
7
  6
CONTINUOUS
 10
6.1248167702
 20
3.4988315998
 11
6.1248167702
 21
3.5056125776
  0
LINE
  5
252
100
AcDbEntity
  8
0
100
AcDbLine
 62
7
  6
CONTINUOUS
 10
6.4568167702
 20
3.7556125776
 11
6.4568167702
 21
3.5056125776
  0
ARC
  5
253
100
AcDbEntity
  8
0
100
AcDbCircle
 62
7
  6
CONTINUOUS
 10
6.4659756664
 20
0.7282439927
 40
2.7311380271
100
AcDbArc
 50
98.4673240843
 51
98.8283086162
  0
ARC
  5
254
100
AcDbEntity
  8
0
100
AcDbCircle
 62
7
  6
CONTINUOUS
 10
3.6659756664
 20
0.7282439928
 40
2.731138027
100
AcDbArc
 50
98.4673240843
 51
98.8283086162
  0
ARC
  5
255
100
AcDbEntity
  8
0
100
AcDbCircle
 62
7
  6
CONTINUOUS
 10
2.8868167702
 20
3.7556125776
 40
0.05
100
AcDbArc
 50
90.0
 51
180.0
  0
ARC
  5
256
100
AcDbEntity
  8
0
100
AcDbCircle
 62
7
  6
CONTINUOUS
 10
6.4068167702
 20
3.7556125776
 40
0.05
100
AcDbArc
 50
0.0
 51
90.0
  0
LINE
  5
257
100
AcDbEntity
  8
0
100
AcDbLine
 62
7
  6
CONTINUOUS
 10
3.3248167507
 20
3.4441456133
 11
3.3243452056
 21
3.4446926865
  0
LINE
  5
258
100
AcDbEntity
  8
0
100
AcDbLine
 62
7
  6
CONTINUOUS
 10
3.1692882064
 20
3.4826595261
 11
3.168816914
 21
3.4832065998
  0
SPLINE
  5
259
100
AcDbEntity
  8
0
100
AcDbSpline
 62
7
  6
CONTINUOUS
 70
0
 71
3
 72
15
 73
11
 74
0
 42
0.0000001
 43
0.0000001
 44
0.0000000001
 40
0.0
 40
0.0
 40
0.0
 40
0.0
 40
0.1261892868
 40
0.2342633959
 40
0.3323278206
 40
0.431007821
 40
0.5407419093
 40
0.669250311
 40
0.82137311
 40
1.0
 40
1.0
 40
1.0
 40
1.0
 10
3.1695090333
 20
3.4289203122
 30
0.0
 10
3.1694956655
 20
3.4289336752
 30
0.0
 10
3.1694726192
 20
3.428960473
 30
0.0
 10
3.1694495338
 20
3.4290052711
 30
0.0
 10
3.1694421919
 20
3.4290512614
 30
0.0
 10
3.1694514791
 20
3.4290971291
 30
0.0
 10
3.1694763497
 20
3.4291417216
 30
0.0
 10
3.1695157327
 20
3.4291853941
 30
0.0
 10
3.1695694515
 20
3.4292286786
 30
0.0
 10
3.1696113806
 20
3.4292552334
 30
0.0
 10
3.1696345198
 20
3.429268667
 30
0.0
  0
SPLINE
  5
25A
100
AcDbEntity
  8
0
100
AcDbSpline
 62
7
  6
CONTINUOUS
 70
0
 71
3
 72
15
 73
11
 74
0
 42
0.0000001
 43
0.0000001
 44
0.0000000001
 40
0.0
 40
0.0
 40
0.0
 40
0.0
 40
0.1264743155
 40
0.2347788909
 40
0.3329963551
 40
0.431735459
 40
0.5414159875
 40
0.6697697944
 40
0.8216605892
 40
1.0
 40
1.0
 40
1.0
 40
1.0
 10
3.3142185321
 20
3.419014458
 30
0.0
 10
3.3142338486
 20
3.4190297595
 30
0.0
 10
3.314260259
 20
3.4190604378
 30
0.0
 10
3.3142867558
 20
3.4191117027
 30
0.0
 10
3.3142952539
 20
3.4191643197
 30
0.0
 10
3.3142847616
 20
3.4192167892
 30
0.0
 10
3.3142564802
 20
3.4192678019
 30
0.0
 10
3.3142116227
 20
3.4193177497
 30
0.0
 10
3.3141503972
 20
3.4193672413
 30
0.0
 10
3.3141025894
 20
3.4193975983
 30
0.0
 10
3.3140762035
 20
3.4194129536
 30
0.0
  0
LINE
  5
25B
100
AcDbEntity
  8
0
100
AcDbLine
 62
7
  6
CONTINUOUS
 10
3.1692883307
 20
3.4514095268
 11
3.1688167703
 21
3.4519565998
  0
LINE
  5
25C
100
AcDbEntity
  8
0
100
AcDbLine
 62
7
  6
CONTINUOUS
 10
3.3243452031
 20
3.4982845268
 11
3.3248167702
 21
3.4988315998
  0
LINE
  5
25D
100
AcDbEntity
  8
0
100
AcDbLine
 62
7
  6
CONTINUOUS
 10
3.3243452037
 20
3.4670345269
 11
3.3248167701
 21
3.4675815998
  0
LINE
  5
25E
100
AcDbEntity
  8
0
100
AcDbLine
 62
7
  6
CONTINUOUS
 10
3.3243452896
 20
3.4357845271
 11
3.3248167293
 21
3.4363315993
  0
LINE
  5
25F
100
AcDbEntity
  8
0
100
AcDbLine
 62
7
  6
CONTINUOUS
 10
3.3243452034
 20
3.4759426863
 11
3.3248167702
 21
3.4753956137
  0
LINE
  5
260
100
AcDbEntity
  8
0
100
AcDbLine
 62
7
  6
CONTINUOUS
 10
3.1692882073
 20
3.4603176871
 11
3.168816914
 21
3.4597706137
  0
LINE
  5
261
100
AcDbEntity
  8
0
100
AcDbLine
 62
7
  6
CONTINUOUS
 10
3.1692883236
 20
3.4915676863
 11
3.1688167702
 21
3.4910206137
  0
SPLINE
  5
262
100
AcDbEntity
  8
0
100
AcDbSpline
 62
7
  6
CONTINUOUS
 70
0
 71
3
 72
30
 73
26
 74
0
 42
0.0000001
 43
0.0000001
 44
0.0000000001
 40
0.0
 40
0.0
 40
0.0
 40
0.0
 40
0.1900648436
 40
0.2811809175
 40
0.3689144727
 40
0.4527663406
 40
0.5322473836
 40
0.6068771856
 40
0.6762079989
 40
0.7398348683
 40
0.7973784046
 40
0.8237668258
 40
0.8485138419
 40
0.8715818444
 40
0.8929412243
 40
0.9125660266
 40
0.9304314172
 40
0.9465143628
 40
0.9607994369
 40
0.9732812233
 40
0.9839611977
 40
0.9886296579
 40
0.9928543692
 40
0.9966411885
 40
1.0
 40
1.0
 40
1.0
 40
1.0
 10
3.2638282942
 20
3.4296126114
 30
0.0
 10
3.2676806071
 20
3.4298643093
 30
0.0
 10
3.2733793101
 20
3.4302427667
 30
0.0
 10
3.2808545152
 20
3.4307626329
 30
0.0
 10
3.286176564
 20
3.4311468999
 30
0.0
 10
3.2912616575
 20
3.4315310159
 30
0.0
 10
3.2960798119
 20
3.4319149554
 30
0.0
 10
3.30060205
 20
3.4322986724
 30
0.0
 10
3.3048010572
 20
3.4326821055
 30
0.0
 10
3.308651495
 20
3.4330650915
 30
0.0
 10
3.3116307945
 20
3.4333925626
 30
0.0
 10
3.3138223938
 20
3.4336567567
 30
0.0
 10
3.3153172873
 20
3.4338490581
 30
0.0
 10
3.3167091432
 20
3.4340412932
 30
0.0
 10
3.317995913
 20
3.4342334288
 30
0.0
 10
3.3191757648
 20
3.4344254234
 30
0.0
 10
3.3202469419
 20
3.4346172311
 30
0.0
 10
3.3212077991
 20
3.4348088315
 30
0.0
 10
3.3220569846
 20
3.4350001527
 30
0.0
 10
3.32279338
 20
3.4351910965
 30
0.0
 10
3.3233342952
 20
3.4353562784
 30
0.0
 10
3.323708621
 20
3.4354904189
 30
0.0
 10
3.323947701
 20
3.4355864072
 30
0.0
 10
3.3241578835
 20
3.4356823369
 30
0.0
 10
3.3242863025
 20
3.4357502503
 30
0.0
 10
3.3243452896
 20
3.4357845271
 30
0.0
  0
SPLINE
  5
263
100
AcDbEntity
  8
0
100
AcDbSpline
 62
7
  6
CONTINUOUS
 70
0
 71
3
 72
23
 73
19
 74
0
 42
0.0000001
 43
0.0000001
 44
0.0000000001
 40
0.0
 40
0.0
 40
0.0
 40
0.0
 40
0.0144815274
 40
0.0304043774
 40
0.0477444209
 40
0.0664765976
 40
0.0865745669
 40
0.108009131
 40
0.1547670506
 40
0.206495196
 40
0.2628889753
 40
0.3236226426
 40
0.3883371694
 40
0.4566575503
 40
0.5281810503
 40
0.6791401317
 40
0.8376588862
 40
1.0
 40
1.0
 40
1.0
 40
1.0
 10
3.3203788175
 20
3.5049597977
 30
0.0
 10
3.3200287528
 20
3.5048926653
 30
0.0
 10
3.3192922915
 20
3.5047594479
 30
0.0
 10
3.3181326415
 20
3.5045688884
 30
0.0
 10
3.3168671157
 20
3.5043781265
 30
0.0
 10
3.3154977769
 20
3.5041872477
 30
0.0
 10
3.3140267596
 20
3.5039963261
 30
0.0
 10
3.3118694743
 20
3.5037340348
 30
0.0
 10
3.3089356569
 20
3.5034089677
 30
0.0
 10
3.3051424495
 20
3.5030287974
 30
0.0
 10
3.3010037201
 20
3.5026481665
 30
0.0
 10
3.2965441319
 20
3.5022672749
 30
0.0
 10
3.2917900116
 20
3.5018861216
 30
0.0
 10
3.2867695243
 20
3.5015048101
 30
0.0
 10
3.2796305487
 20
3.5009868408
 30
0.0
 10
3.2702745684
 20
3.5003463431
 30
0.0
 10
3.2586860227
 20
3.4995899137
 30
0.0
 10
3.2508044839
 20
3.4990873863
 30
0.0
 10
3.2468167702
 20
3.4988331137
 30
0.0
  0
SPLINE
  5
264
100
AcDbEntity
  8
0
100
AcDbSpline
 62
7
  6
CONTINUOUS
 70
0
 71
3
 72
38
 73
34
 74
0
 42
0.0000001
 43
0.0000001
 44
0.0000000001
 40
0.0
 40
0.0
 40
0.0
 40
0.0
 40
0.0007788203
 40
0.0015858104
 40
0.0024463033
 40
0.0033812141
 40
0.0055328282
 40
0.0081321604
 40
0.0112278539
 40
0.0148479525
 40
0.0190093491
 40
0.0237224233
 40
0.0289922829
 40
0.0348209594
 40
0.0412089075
 40
0.0481555203
 40
0.0637184145
 40
0.0814917894
 40
0.1014399758
 40
0.1235198619
 40
0.1476863824
 40
0.1738868636
 40
0.2020574273
 40
0.2321326407
 40
0.264045596
 40
0.2977194102
 40
0.370019695
 40
0.4483521096
 40
0.5319697554
 40
0.6200758149
 40
0.7118152043
 40
0.8063269432
 40
1.0
 40
1.0
 40
1.0
 40
1.0
 10
3.1688167703
 20
3.4519565998
 30
0.0
 10
3.1688167693
 20
3.4519770397
 30
0.0
 10
3.1688208658
 20
3.4520187625
 30
0.0
 10
3.1688390925
 20
3.4520806633
 30
0.0
 10
3.1688692223
 20
3.4521422733
 30
0.0
 10
3.1689278309
 20
3.452228043
 30
0.0
 10
3.1690341427
 20
3.452334383
 30
0.0
 10
3.1692013142
 20
3.4524554456
 30
0.0
 10
3.169414185
 20
3.45257643
 30
0.0
 10
3.1696729512
 20
3.4526974641
 30
0.0
 10
3.1699778118
 20
3.4528186485
 30
0.0
 10
3.1703287523
 20
3.4529399456
 30
0.0
 10
3.1707256374
 20
3.4530613614
 30
0.0
 10
3.1711682384
 20
3.4531828767
 30
0.0
 10
3.1716562894
 20
3.4533044808
 30
0.0
 10
3.1723957379
 20
3.4534731647
 30
0.0
 10
3.1734323706
 20
3.4536816071
 30
0.0
 10
3.1748097843
 20
3.4539236946
 30
0.0
 10
3.1763604884
 20
3.4541661648
 30
0.0
 10
3.1780807441
 20
3.4544089649
 30
0.0
 10
3.1799665356
 20
3.4546519657
 30
0.0
 10
3.1820133663
 20
3.4548951042
 30
0.0
 10
3.1842162582
 20
3.4551383973
 30
0.0
 10
3.1865699086
 20
3.4553818061
 30
0.0
 10
3.1890687064
 20
3.4556252759
 30
0.0
 10
3.1926721998
 20
3.4559579222
 30
0.0
 10
3.1974916869
 20
3.4563705529
 30
0.0
 10
3.2036204054
 20
3.4568552461
 30
0.0
 10
3.2101651135
 20
3.457340383
 30
0.0
 10
3.2170625704
 20
3.4578257983
 30
0.0
 10
3.224246597
 20
3.4583114545
 30
0.0
 10
3.2341961833
 20
3.4589644834
 30
0.0
 10
3.2417441841
 20
3.4594456514
 30
0.0
 10
3.2468167702
 20
3.4597690998
 30
0.0
  0
SPLINE
  5
265
100
AcDbEntity
  8
0
100
AcDbSpline
 62
7
  6
CONTINUOUS
 70
0
 71
3
 72
38
 73
34
 74
0
 42
0.0000001
 43
0.0000001
 44
0.0000000001
 40
0.0
 40
0.0
 40
0.0
 40
0.0
 40
0.0007787681
 40
0.0015855498
 40
0.0024456263
 40
0.0033799624
 40
0.0055304478
 40
0.0081297144
 40
0.0112265354
 40
0.0148480894
 40
0.019010254
 40
0.0237225415
 40
0.02899068
 40
0.0348180329
 40
0.0412061213
 40
0.0481539241
 40
0.0637187915
 40
0.0814896609
 40
0.1014372941
 40
0.1235198834
 40
0.1476865123
 40
0.1738848319
 40
0.2020569393
 40
0.2321340009
 40
0.2640453691
 40
0.2977188899
 40
0.3700221372
 40
0.4483558794
 40
0.5319735938
 40
0.6200805173
 40
0.7118206161
 40
0.8063269194
 40
1.0
 40
1.0
 40
1.0
 40
1.0
 10
3.168816914
 20
3.4832065998
 30
0.0
 10
3.1688169139
 20
3.4832270383
 30
0.0
 10
3.1688209954
 20
3.4832687536
 30
0.0
 10
3.1688391656
 20
3.4833306513
 30
0.0
 10
3.1688692216
 20
3.4833922622
 30
0.0
 10
3.1689277234
 20
3.4834780381
 30
0.0
 10
3.1690339523
 20
3.4835844035
 30
0.0
 10
3.1692011371
 20
3.4837054511
 30
0.0
 10
3.1694140975
 20
3.4838264114
 30
0.0
 10
3.1696729675
 20
3.4839474296
 30
0.0
 10
3.1699778714
 20
3.4840686045
 30
0.0
 10
3.170328758
 20
3.484189916
 30
0.0
 10
3.1707255329
 20
3.4843113484
 30
0.0
 10
3.1711680521
 20
3.4844328745
 30
0.0
 10
3.1716561051
 20
3.4845544721
 30
0.0
 10
3.1723956455
 20
3.484723143
 30
0.0
 10
3.1734323016
 20
3.4849315527
 30
0.0
 10
3.174809675
 20
3.4851737018
 30
0.0
 10
3.17636037
 20
3.4854161722
 30
0.0
 10
3.1780806901
 20
3.485658938
 30
0.0
 10
3.179966497
 20
3.4859019489
 30
0.0
 10
3.1820133098
 20
3.4861451236
 30
0.0
 10
3.1842162361
 20
3.4863883973
 30
0.0
 10
3.1865699352
 20
3.4866317918
 30
0.0
 10
3.1890687293
 20
3.4868752871
 30
0.0
 10
3.1926722505
 20
3.4872079363
 30
0.0
 10
3.1974918431
 20
3.4876205563
 30
0.0
 10
3.2036206739
 20
3.48810527
 30
0.0
 10
3.2101654404
 20
3.4885904099
 30
0.0
 10
3.2170629398
 20
3.4890758219
 30
0.0
 10
3.2242468642
 20
3.489561474
 30
0.0
 10
3.2341963262
 20
3.4902144912
 30
0.0
 10
3.2417441842
 20
3.4906956514
 30
0.0
 10
3.2468167702
 20
3.4910190998
 30
0.0
  0
SPLINE
  5
266
100
AcDbEntity
  8
0
100
AcDbSpline
 62
7
  6
CONTINUOUS
 70
0
 71
3
 72
31
 73
27
 74
0
 42
0.0000001
 43
0.0000001
 44
0.0000000001
 40
0.0
 40
0.0
 40
0.0
 40
0.0
 40
0.182005699
 40
0.2711262616
 40
0.3579838662
 40
0.4418792756
 40
0.5221143892
 40
0.5980164978
 40
0.668964549
 40
0.7343745969
 40
0.7937115347
 40
0.8209483361
 40
0.8464918791
 40
0.8702892943
 40
0.8922910914
 40
0.912458097
 40
0.9307541939
 40
0.9471448612
 40
0.9616027415
 40
0.9741137697
 40
0.9796372981
 40
0.9846727564
 40
0.9892215384
 40
0.9932869155
 40
0.9968759227
 40
1.0
 40
1.0
 40
1.0
 40
1.0
 10
3.2468167702
 20
3.4597690998
 30
0.0
 10
3.2515382033
 20
3.4600701573
 30
0.0
 10
3.2585715323
 20
3.4605185423
 30
0.0
 10
3.2678570761
 20
3.4611256197
 30
0.0
 10
3.2745970453
 20
3.461577629
 30
0.0
 10
3.2811055237
 20
3.4620294991
 30
0.0
 10
3.2873285317
 20
3.4624811461
 30
0.0
 10
3.2932140791
 20
3.4629325414
 30
0.0
 10
3.2987131042
 20
3.4633835138
 30
0.0
 10
3.3037800211
 20
3.463834018
 30
0.0
 10
3.3077119446
 20
3.4642189512
 30
0.0
 10
3.3106096971
 20
3.4645297764
 30
0.0
 10
3.3125873581
 20
3.4647560838
 30
0.0
 10
3.314428009
 20
3.4649822651
 30
0.0
 10
3.3161277866
 20
3.4652083473
 30
0.0
 10
3.3176832282
 20
3.465434242
 30
0.0
 10
3.3190911814
 20
3.4656598826
 30
0.0
 10
3.3203487107
 20
3.4658851886
 30
0.0
 10
3.321453229
 20
3.4661101542
 30
0.0
 10
3.3222754503
 20
3.4663042828
 30
0.0
 10
3.3228541601
 20
3.4664616794
 30
0.0
 10
3.3232303123
 20
3.4665746968
 30
0.0
 10
3.3235667448
 20
3.4666876161
 30
0.0
 10
3.3238633214
 20
3.4668004565
 30
0.0
 10
3.3241199542
 20
3.4669131856
 30
0.0
 10
3.3242749882
 20
3.4669937309
 30
0.0
 10
3.3243452037
 20
3.4670345269
 30
0.0
  0
SPLINE
  5
267
100
AcDbEntity
  8
0
100
AcDbSpline
 62
7
  6
CONTINUOUS
 70
0
 71
3
 72
31
 73
27
 74
0
 42
0.0000001
 43
0.0000001
 44
0.0000000001
 40
0.0
 40
0.0
 40
0.0
 40
0.0
 40
0.1820063969
 40
0.2711273978
 40
0.357985312
 40
0.4418809648
 40
0.5221163473
 40
0.5980187031
 40
0.6689674019
 40
0.7343781213
 40
0.7937148888
 40
0.8209509305
 40
0.8464935224
 40
0.8702900867
 40
0.8922913424
 40
0.9124580534
 40
0.9307539838
 40
0.9471445072
 40
0.9616024012
 40
0.9741135686
 40
0.9796371709
 40
0.9846726835
 40
0.9892214838
 40
0.993286862
 40
0.9968758906
 40
1.0
 40
1.0
 40
1.0
 40
1.0
 10
3.2468167702
 20
3.4910190998
 30
0.0
 10
3.2515382213
 20
3.4913201584
 30
0.0
 10
3.2585715798
 20
3.4917685453
 30
0.0
 10
3.2678571611
 20
3.4923756253
 30
0.0
 10
3.2745971559
 20
3.4928276364
 30
0.0
 10
3.2811056554
 20
3.4932795088
 30
0.0
 10
3.2873286831
 20
3.4937311571
 30
0.0
 10
3.2932142606
 20
3.4941825554
 30
0.0
 10
3.2987133261
 20
3.4946335322
 30
0.0
 10
3.3037802723
 20
3.4950840439
 30
0.0
 10
3.3077121892
 20
3.4954689746
 30
0.0
 10
3.310609893
 20
3.4957797964
 30
0.0
 10
3.3125874875
 20
3.4960060984
 30
0.0
 10
3.3144280777
 20
3.4962322743
 30
0.0
 10
3.3161278117
 20
3.496458351
 30
0.0
 10
3.3176832276
 20
3.4966842414
 30
0.0
 10
3.3190911655
 20
3.4969098785
 30
0.0
 10
3.3203486869
 20
3.4971351848
 30
0.0
 10
3.3214532054
 20
3.4973601506
 30
0.0
 10
3.3222754327
 20
3.497554279
 30
0.0
 10
3.3228541496
 20
3.4977116762
 30
0.0
 10
3.3232303056
 20
3.497824694
 30
0.0
 10
3.3235667399
 20
3.4979376142
 30
0.0
 10
3.3238633171
 20
3.4980504558
 30
0.0
 10
3.3241199513
 20
3.4981631853
 30
0.0
 10
3.3242749867
 20
3.4982437308
 30
0.0
 10
3.3243452031
 20
3.4982845268
 30
0.0
  0
SPLINE
  5
268
100
AcDbEntity
  8
0
100
AcDbSpline
 62
7
  6
CONTINUOUS
 70
0
 71
3
 72
32
 73
28
 74
0
 42
0.0000001
 43
0.0000001
 44
0.0000000001
 40
0.0
 40
0.0
 40
0.0
 40
0.0
 40
0.1962154773
 40
0.2906716855
 40
0.3816677854
 40
0.4685252519
 40
0.5505896557
 40
0.6272287796
 40
0.6978874035
 40
0.7620476891
 40
0.8192663258
 40
0.8451437825
 40
0.8691406246
 40
0.8912213974
 40
0.9113513323
 40
0.9294966628
 40
0.9456319014
 40
0.9597416123
 40
0.971813845
 40
0.9770838899
 40
0.9818430029
 40
0.9860932462
 40
0.9898390892
 40
0.9930874074
 40
0.9958491117
 40
0.9981424502
 40
1.0
 40
1.0
 40
1.0
 40
1.0
 10
3.2577708039
 20
3.4146125776
 30
0.0
 10
3.2614753356
 20
3.4147992071
 30
0.0
 10
3.2669631083
 20
3.4150774124
 30
0.0
 10
3.2741681661
 20
3.4154559869
 30
0.0
 10
3.2793083092
 20
3.4157349827
 30
0.0
 10
3.2842139134
 20
3.4160126891
 30
0.0
 10
3.2888477411
 20
3.4162890193
 30
0.0
 10
3.2931748538
 20
3.4165640335
 30
0.0
 10
3.2971628819
 20
3.4168375367
 30
0.0
 10
3.300782953
 20
3.4171095969
 30
0.0
 10
3.3035570096
 20
3.4173419352
 30
0.0
 10
3.3055728065
 20
3.4175292724
 30
0.0
 10
3.3069262911
 20
3.4176646892
 30
0.0
 10
3.308170581
 20
3.4177997228
 30
0.0
 10
3.3093035972
 20
3.4179343487
 30
0.0
 10
3.3103234052
 20
3.4180685551
 30
0.0
 10
3.3112283931
 20
3.4182022865
 30
0.0
 10
3.3120172497
 20
3.4183354618
 30
0.0
 10
3.3126007273
 20
3.4184504055
 30
0.0
 10
3.3130080215
 20
3.4185436593
 30
0.0
 10
3.3132696424
 20
3.4186102732
 30
0.0
 10
3.3135014665
 20
3.4186767467
 30
0.0
 10
3.3137034904
 20
3.4187430636
 30
0.0
 10
3.3138757457
 20
3.4188091917
 30
0.0
 10
3.3140183803
 20
3.4188751531
 30
0.0
 10
3.3141315184
 20
3.4189409203
 30
0.0
 10
3.31419369
 20
3.4189896402
 30
0.0
 10
3.3142185321
 20
3.419014458
 30
0.0
  0
SPLINE
  5
269
100
AcDbEntity
  8
0
100
AcDbSpline
 62
7
  6
CONTINUOUS
 70
0
 71
3
 72
26
 73
22
 74
0
 42
0.0000001
 43
0.0000001
 44
0.0000000001
 40
0.0
 40
0.0
 40
0.0
 40
0.0
 40
0.0159062014
 40
0.0330629256
 40
0.0514640681
 40
0.0710975203
 40
0.0919467368
 40
0.1139917908
 40
0.1372100841
 40
0.1615769378
 40
0.2136467271
 40
0.269955308
 40
0.3302277359
 40
0.3941733678
 40
0.4614880314
 40
0.5318585331
 40
0.6049585888
 40
0.6804596287
 40
0.7580437061
 40
0.8373961788
 40
1.0
 40
1.0
 40
1.0
 40
1.0
 10
3.192018623
 20
3.4146125776
 30
0.0
 10
3.1922788247
 20
3.4147594519
 30
0.0
 10
3.1928274861
 20
3.4150510317
 30
0.0
 10
3.1936991541
 20
3.415469561
 30
0.0
 10
3.1946488866
 20
3.4158857769
 30
0.0
 10
3.1956748149
 20
3.4162996105
 30
0.0
 10
3.1967750976
 20
3.4167109927
 30
0.0
 10
3.1979478272
 20
3.417119949
 30
0.0
 10
3.1991910786
 20
3.4175265543
 30
0.0
 10
3.200980114
 20
3.4180778771
 30
0.0
 10
3.2033797677
 20
3.4187570616
 30
0.0
 10
3.2064479866
 20
3.4195469705
 30
0.0
 10
3.209747943
 20
3.420328799
 30
0.0
 10
3.2132617255
 20
3.4211026975
 30
0.0
 10
3.2169710799
 20
3.4218688697
 30
0.0
 10
3.2208573268
 20
3.42262746
 30
0.0
 10
3.2249015073
 20
3.4233786465
 30
0.0
 10
3.2290847112
 20
3.4241226134
 30
0.0
 10
3.2333883523
 20
3.4248595809
 30
0.0
 10
3.2393100456
 20
3.4258410454
 30
0.0
 10
3.2437988351
 20
3.4265544087
 30
0.0
 10
3.2468167702
 20
3.4270253367
 30
0.0
  0
SPLINE
  5
26A
100
AcDbEntity
  8
0
100
AcDbSpline
 62
7
  6
CONTINUOUS
 70
0
 71
3
 72
31
 73
27
 74
0
 42
0.0000001
 43
0.0000001
 44
0.0000000001
 40
0.0
 40
0.0
 40
0.0
 40
0.0
 40
0.1820026274
 40
0.2711211888
 40
0.3579778409
 40
0.441872987
 40
0.522107778
 40
0.5980103109
 40
0.6689597892
 40
0.73437251
 40
0.7937117121
 40
0.8209491142
 40
0.8464930762
 40
0.8702908983
 40
0.8922929122
 40
0.9124598462
 40
0.9307558064
 40
0.9471464718
 40
0.9616040917
 40
0.9741146011
 40
0.979637868
 40
0.9846731128
 40
0.9892217655
 40
0.9932870779
 40
0.9968760071
 40
1.0
 40
1.0
 40
1.0
 40
1.0
 10
3.2468167702
 20
3.4988331137
 30
0.0
 10
3.2420954161
 20
3.4985320613
 30
0.0
 10
3.2350622176
 20
3.4980836843
 30
0.0
 10
3.2257768284
 20
3.4974766183
 30
0.0
 10
3.2190369417
 20
3.4970246142
 30
0.0
 10
3.212528502
 20
3.4965727494
 30
0.0
 10
3.2063054972
 20
3.4961211029
 30
0.0
 10
3.2004199089
 20
3.4956697092
 30
0.0
 10
3.1949207658
 20
3.4952187267
 30
0.0
 10
3.1898536831
 20
3.49476821
 30
0.0
 10
3.1859216155
 20
3.4943832653
 30
0.0
 10
3.1830237777
 20
3.4940724297
 30
0.0
 10
3.1810460797
 20
3.4938461165
 30
0.0
 10
3.1792054017
 20
3.4936199321
 30
0.0
 10
3.1775056097
 20
3.493393847
 30
0.0
 10
3.1759501682
 20
3.4931679484
 30
0.0
 10
3.1745422209
 20
3.4929423042
 30
0.0
 10
3.1732847013
 20
3.4927170016
 30
0.0
 10
3.1721802029
 20
3.492492039
 30
0.0
 10
3.171358009
 20
3.4922979114
 30
0.0
 10
3.1707793251
 20
3.4921405175
 30
0.0
 10
3.1704031887
 20
3.4920275024
 30
0.0
 10
3.1700667662
 20
3.491914586
 30
0.0
 10
3.1697701955
 20
3.4918017501
 30
0.0
 10
3.1695135677
 20
3.4916890242
 30
0.0
 10
3.1693585372
 20
3.4916084811
 30
0.0
 10
3.1692883236
 20
3.4915676863
 30
0.0
  0
SPLINE
  5
26B
100
AcDbEntity
  8
0
100
AcDbSpline
 62
7
  6
CONTINUOUS
 70
0
 71
3
 72
36
 73
32
 74
0
 42
0.0000001
 43
0.0000001
 44
0.0000000001
 40
0.0
 40
0.0
 40
0.0
 40
0.0
 40
0.1905161478
 40
0.2840316683
 40
0.3751033003
 40
0.4628318889
 40
0.546319772
 40
0.6247211805
 40
0.6972464985
 40
0.7310781843
 40
0.7631759336
 40
0.7934565799
 40
0.8218479455
 40
0.8482841191
 40
0.8727001677
 40
0.8950365626
 40
0.9152483837
 40
0.9332959549
 40
0.9491442984
 40
0.9562373436
 40
0.9627758253
 40
0.9687609491
 40
0.9741954183
 40
0.9790841126
 40
0.9834351764
 40
0.9872618914
 40
0.9905868424
 40
0.9934467019
 40
0.9958996876
 40
0.9980381365
 40
1.0
 40
1.0
 40
1.0
 40
1.0
 10
3.2439494156
 20
3.4146125776
 30
0.0
 10
3.2480543901
 20
3.4149471495
 30
0.0
 10
3.2541745039
 20
3.4154435383
 30
0.0
 10
3.2622556897
 20
3.4161146376
 30
0.0
 10
3.2681213517
 20
3.4166147153
 30
0.0
 10
3.2737694447
 20
3.4171145736
 30
0.0
 10
3.2791425447
 20
3.4176141519
 30
0.0
 10
3.2841855221
 20
3.4181133041
 30
0.0
 10
3.2881570575
 20
3.4185380223
 30
0.0
 10
3.2911305438
 20
3.4188804321
 30
0.0
 10
3.2931952649
 20
3.4191311639
 30
0.0
 10
3.2951414726
 20
3.4193818361
 30
0.0
 10
3.2969642282
 20
3.4196324136
 30
0.0
 10
3.2986589512
 20
3.4198828402
 30
0.0
 10
3.3002212781
 20
3.4201330883
 30
0.0
 10
3.3016472114
 20
3.420383181
 30
0.0
 10
3.3029332335
 20
3.4206329748
 30
0.0
 10
3.3040761545
 20
3.420882385
 30
0.0
 10
3.3049360938
 20
3.4210969807
 30
0.0
 10
3.305549339
 20
3.4212705921
 30
0.0
 10
3.305954533
 20
3.4213958799
 30
0.0
 10
3.3063220696
 20
3.4215210954
 30
0.0
 10
3.3066517559
 20
3.421646236
 30
0.0
 10
3.3069434201
 20
3.4217712934
 30
0.0
 10
3.3071969251
 20
3.4218962699
 30
0.0
 10
3.3074121992
 20
3.4220212239
 30
0.0
 10
3.3075892941
 20
3.4221462869
 30
0.0
 10
3.3077283875
 20
3.4222717421
 30
0.0
 10
3.307829549
 20
3.4223983419
 30
0.0
 10
3.3078920892
 20
3.422527094
 30
0.0
 10
3.307906645
 20
3.4226161942
 30
0.0
 10
3.3079066712
 20
3.4226586059
 30
0.0
  0
SPLINE
  5
26C
100
AcDbEntity
  8
0
100
AcDbSpline
 62
7
  6
CONTINUOUS
 70
0
 71
3
 72
37
 73
33
 74
0
 42
0.0000001
 43
0.0000001
 44
0.0000000001
 40
0.0
 40
0.0
 40
0.0
 40
0.0
 40
0.0285297393
 40
0.0590549429
 40
0.0914029917
 40
0.1254045943
 40
0.1977070094
 40
0.2745567333
 40
0.3544234524
 40
0.4357228977
 40
0.5168413932
 40
0.5961689454
 40
0.6721317548
 40
0.7083766956
 40
0.7432241002
 40
0.7765011196
 40
0.8080422206
 40
0.8376957241
 40
0.865313368
 40
0.8907631616
 40
0.9139244406
 40
0.9346848538
 40
0.944136703
 40
0.9529558851
 40
0.9611326053
 40
0.9686582106
 40
0.9755275941
 40
0.9817375142
 40
0.9872862918
 40
0.9921746859
 40
0.9964077613
 40
1.0
 40
1.0
 40
1.0
 40
1.0
 10
3.2016087074
 20
3.4146125776
 30
0.0
 10
3.2026134238
 20
3.414734196
 30
0.0
 10
3.2046943403
 20
3.4149759831
 30
0.0
 10
3.207917763
 20
3.4153263451
 30
0.0
 10
3.2113363425
 20
3.4156769434
 30
0.0
 10
3.2162316199
 20
3.4161542645
 30
0.0
 10
3.222701888
 20
3.4167448456
 30
0.0
 10
3.2307961462
 20
3.4174408179
 30
0.0
 10
3.2392106415
 20
3.4181372956
 30
0.0
 10
3.2477770443
 20
3.4188340333
 30
0.0
 10
3.2563242626
 20
3.4195307346
 30
0.0
 10
3.2646815586
 20
3.4202271524
 30
0.0
 10
3.271450478
 20
3.4208157489
 30
0.0
 10
3.276645369
 20
3.42129088
 30
0.0
 10
3.2803310838
 20
3.4216415506
 30
0.0
 10
3.2838491647
 20
3.4219920918
 30
0.0
 10
3.2871820526
 20
3.4223425347
 30
0.0
 10
3.29031304
 20
3.4226927382
 30
0.0
 10
3.2932265337
 20
3.423042749
 30
0.0
 10
3.2959079887
 20
3.4233924412
 30
0.0
 10
3.2983440081
 20
3.4237416769
 30
0.0
 10
3.3002136954
 20
3.4240408892
 30
0.0
 10
3.3015770745
 20
3.4242824471
 30
0.0
 10
3.3024987618
 20
3.4244578255
 30
0.0
 10
3.3033508213
 20
3.4246331081
 30
0.0
 10
3.3041321653
 20
3.4248083189
 30
0.0
 10
3.3048418818
 20
3.4249834058
 30
0.0
 10
3.3054792104
 20
3.4251583259
 30
0.0
 10
3.3060434346
 20
3.4253330337
 30
0.0
 10
3.3065339544
 20
3.4255074785
 30
0.0
 10
3.30695022
 20
3.425681654
 30
0.0
 10
3.3071980859
 20
3.4258076635
 30
0.0
 10
3.3073081622
 20
3.4258718622
 30
0.0
  0
SPLINE
  5
26D
100
AcDbEntity
  8
0
100
AcDbSpline
 62
7
  6
CONTINUOUS
 70
0
 71
3
 72
31
 73
27
 74
0
 42
0.0000001
 43
0.0000001
 44
0.0000000001
 40
0.0
 40
0.0
 40
0.0
 40
0.0
 40
0.1820050219
 40
0.2711174766
 40
0.3579728296
 40
0.4418683692
 40
0.5221003095
 40
0.5980044093
 40
0.6689538642
 40
0.7343689723
 40
0.7937068325
 40
0.8209465022
 40
0.8464903024
 40
0.8702858897
 40
0.8922894913
 40
0.912458922
 40
0.9307536055
 40
0.9471423881
 40
0.9616023614
 40
0.9741146846
 40
0.9796370712
 40
0.9846708717
 40
0.989218565
 40
0.9932842563
 40
0.9968745426
 40
1.0
 40
1.0
 40
1.0
 40
1.0
 10
3.2468167702
 20
3.4675831137
 30
0.0
 10
3.2420953479
 20
3.4672820569
 30
0.0
 10
3.2350622369
 20
3.4668336834
 30
0.0
 10
3.2257769657
 20
3.4662266301
 30
0.0
 10
3.2190372528
 20
3.4657746298
 30
0.0
 10
3.212528901
 20
3.4653227878
 30
0.0
 10
3.2063059128
 20
3.4648711234
 30
0.0
 10
3.2004203488
 20
3.464419758
 30
0.0
 10
3.1949210992
 20
3.4639687392
 30
0.0
 10
3.1898539796
 20
3.4635182628
 30
0.0
 10
3.1859218256
 20
3.4631332661
 30
0.0
 10
3.1830239604
 20
3.4628224668
 30
0.0
 10
3.1810462629
 20
3.4625961552
 30
0.0
 10
3.1792056082
 20
3.4623699334
 30
0.0
 10
3.1775057642
 20
3.4621438607
 30
0.0
 10
3.1759502422
 20
3.4619179937
 30
0.0
 10
3.1745423125
 20
3.4616923341
 30
0.0
 10
3.1732848213
 20
3.4614669843
 30
0.0
 10
3.1721802553
 20
3.4612420535
 30
0.0
 10
3.1713579646
 20
3.4610479552
 30
0.0
 10
3.1707793006
 20
3.4608905348
 30
0.0
 10
3.1704032567
 20
3.4607775058
 30
0.0
 10
3.1700668954
 20
3.4606645723
 30
0.0
 10
3.1697703036
 20
3.4605517355
 30
0.0
 10
3.1695135811
 20
3.4604390194
 30
0.0
 10
3.1693584641
 20
3.4603584836
 30
0.0
 10
3.1692882073
 20
3.4603176871
 30
0.0
  0
SPLINE
  5
26E
100
AcDbEntity
  8
0
100
AcDbSpline
 62
7
  6
CONTINUOUS
 70
0
 71
3
 72
59
 73
55
 74
0
 42
0.0000001
 43
0.0000001
 44
0.0000000001
 40
0.0
 40
0.0
 40
0.0
 40
0.0
 40
0.0009579653
 40
0.0019906644
 40
0.0031585348
 40
0.0045039017
 40
0.0060544981
 40
0.0078277313
 40
0.0098346145
 40
0.0120822973
 40
0.0145754705
 40
0.0173172143
 40
0.0203095208
 40
0.0235536263
 40
0.0307976921
 40
0.0390437738
 40
0.0482805999
 40
0.0584946248
 40
0.0696689252
 40
0.0817802067
 40
0.0948035627
 40
0.1087135957
 40
0.1234824027
 40
0.1390771552
 40
0.172609633
 40
0.2090276531
 40
0.2480134004
 40
0.2892317841
 40
0.3323218819
 40
0.3769104137
 40
0.469013592
 40
0.5623324045
 40
0.6084297211
 40
0.6536143176
 40
0.6974918098
 40
0.7396798363
 40
0.7798110708
 40
0.8175372068
 40
0.8525314027
 40
0.8844930599
 40
0.9131489564
 40
0.9261609658
 40
0.9382605579
 40
0.9494222549
 40
0.9596234959
 40
0.9688479246
 40
0.977081379
 40
0.9843120227
 40
0.9875494056
 40
0.9905352316
 40
0.9932706684
 40
0.9957576478
 40
0.9979992029
 40
1.0
 40
1.0
 40
1.0
 40
1.0
 10
3.185726951
 20
3.4734436069
 30
0.0
 10
3.1857269541
 20
3.4734828829
 30
0.0
 10
3.1857392433
 20
3.4735648903
 30
0.0
 10
3.185792656
 20
3.4736841995
 30
0.0
 10
3.1858795693
 20
3.4738018058
 30
0.0
 10
3.1859993471
 20
3.4739183849
 30
0.0
 10
3.1861519599
 20
3.4740345302
 30
0.0
 10
3.1863374519
 20
3.4741505469
 30
0.0
 10
3.1865558411
 20
3.4742665679
 30
0.0
 10
3.1868070925
 20
3.474382637
 30
0.0
 10
3.1870911339
 20
3.4744987671
 30
0.0
 10
3.1874078684
 20
3.474614955
 30
0.0
 10
3.1877571797
 20
3.4747312029
 30
0.0
 10
3.1882859429
 20
3.474892236
 30
0.0
 10
3.1890280011
 20
3.4750913256
 30
0.0
 10
3.190015138
 20
3.4753227693
 30
0.0
 10
3.1911268887
 20
3.4755545431
 30
0.0
 10
3.1923609414
 20
3.4757865721
 30
0.0
 10
3.1937146886
 20
3.4760187447
 30
0.0
 10
3.1951851259
 20
3.4762510875
 30
0.0
 10
3.1967689911
 20
3.4764835639
 30
0.0
 10
3.1984628869
 20
3.4767161287
 30
0.0
 10
3.2002631278
 20
3.4769487473
 30
0.0
 10
3.2028634713
 20
3.4772667523
 30
0.0
 10
3.2063485881
 20
3.4776612695
 30
0.0
 10
3.2107908661
 20
3.4781244654
 30
0.0
 10
3.2155498025
 20
3.4785881095
 30
0.0
 10
3.22058348
 20
3.4790519987
 30
0.0
 10
3.2258477692
 20
3.4795161518
 30
0.0
 10
3.233192114
 20
3.4801419246
 30
0.0
 10
3.2425907853
 20
3.4809137364
 30
0.0
 10
3.2520518885
 20
3.4816808771
 30
0.0
 10
3.2595948316
 20
3.4823026124
 30
0.0
 10
3.2651168027
 20
3.4827669517
 30
0.0
 10
3.2704779277
 20
3.4832311625
 30
0.0
 10
3.2756310835
 20
3.4836951898
 30
0.0
 10
3.2805309971
 20
3.4841589671
 30
0.0
 10
3.2851346118
 20
3.4846223966
 30
0.0
 10
3.2894015297
 20
3.4850853419
 30
0.0
 10
3.2932942743
 20
3.4855476556
 30
0.0
 10
3.2962870921
 20
3.4859437566
 30
0.0
 10
3.2984681604
 20
3.4862641255
 30
0.0
 10
3.2999371191
 20
3.4864964663
 30
0.0
 10
3.3012893236
 20
3.4867286425
 30
0.0
 10
3.3025217991
 20
3.4869606772
 30
0.0
 10
3.303631969
 20
3.4871924397
 30
0.0
 10
3.3046174916
 20
3.4874238654
 30
0.0
 10
3.3053581558
 20
3.4876229718
 30
0.0
 10
3.3058857727
 20
3.4877840216
 30
0.0
 10
3.3062342425
 20
3.4879002668
 30
0.0
 10
3.306550148
 20
3.4880164515
 30
0.0
 10
3.3068333702
 20
3.4881325798
 30
0.0
 10
3.30708378
 20
3.4882486402
 30
0.0
 10
3.3072373814
 20
3.4883305519
 30
0.0
 10
3.3073082528
 20
3.4883718607
 30
0.0
  0
SPLINE
  5
26F
100
AcDbEntity
  8
0
100
AcDbSpline
 62
7
  6
CONTINUOUS
 70
0
 71
3
 72
56
 73
52
 74
0
 42
0.0000001
 43
0.0000001
 44
0.0000000001
 40
0.0
 40
0.0
 40
0.0
 40
0.0
 40
0.0027239344
 40
0.0056949898
 40
0.0123752346
 40
0.0200324674
 40
0.0286553111
 40
0.038229326
 40
0.048735898
 40
0.0601553291
 40
0.0724673639
 40
0.0856481239
 40
0.099669538
 40
0.1301199116
 40
0.163571885
 40
0.1997494306
 40
0.2383554817
 40
0.2790703495
 40
0.3215572214
 40
0.3654640994
 40
0.4560723956
 40
0.5478947083
 40
0.6378895779
 40
0.6812657307
 40
0.7230771587
 40
0.7629791621
 40
0.8006399321
 40
0.8357501906
 40
0.8680193828
 40
0.8971843817
 40
0.9105269265
 40
0.9230077351
 40
0.9346012367
 40
0.9452834187
 40
0.9550354792
 40
0.963840371
 40
0.9716819945
 40
0.9785480561
 40
0.981613635
 40
0.9844338107
 40
0.9870087414
 40
0.989339109
 40
0.9914263674
 40
0.9932732593
 40
0.9948849906
 40
0.996269989
 40
0.9974418676
 40
0.9984234875
 40
0.9992539805
 40
0.999632758
 40
1.0
 40
1.0
 40
1.0
 40
1.0
 10
3.1706892727
 20
3.4296126114
 30
0.0
 10
3.170824522
 20
3.4296522076
 30
0.0
 10
3.1711084844
 20
3.4297309413
 30
0.0
 10
3.1717292301
 20
3.4298879286
 30
0.0
 10
3.172603641
 20
3.4300818991
 30
0.0
 10
3.1737700709
 20
3.4303071523
 30
0.0
 10
3.1750885894
 20
3.430532749
 30
0.0
 10
3.176556387
 20
3.4307585457
 30
0.0
 10
3.1781703781
 20
3.4309845338
 30
0.0
 10
3.1799272629
 20
3.4312106806
 30
0.0
 10
3.1818235378
 20
3.4314369389
 30
0.0
 10
3.1838553045
 20
3.4316632999
 30
0.0
 10
3.1868218405
 20
3.4319738658
 30
0.0
 10
3.190834996
 20
3.4323586927
 30
0.0
 10
3.1959931526
 20
3.4328093617
 30
0.0
 10
3.2015746902
 20
3.4332605173
 30
0.0
 10
3.2075330918
 20
3.4337120247
 30
0.0
 10
3.2138187762
 20
3.4341637975
 30
0.0
 10
3.2203793652
 20
3.4346157645
 30
0.0
 10
3.2295165207
 20
3.435224935
 30
0.0
 10
3.2412022412
 20
3.4359767185
 30
0.0
 10
3.2552681813
 20
3.4368701598
 30
0.0
 10
3.2668945164
 20
3.4376230663
 30
0.0
 10
3.2759372535
 20
3.4382332709
 30
0.0
 10
3.282393139
 20
3.4386851843
 30
0.0
 10
3.2885525982
 20
3.4391368412
 30
0.0
 10
3.2943644047
 20
3.4395882415
 30
0.0
 10
3.2997800946
 20
3.4400391901
 30
0.0
 10
3.3047546446
 20
3.4404896495
 30
0.0
 10
3.3086041852
 20
3.4408748494
 30
0.0
 10
3.311432031
 20
3.4411860394
 30
0.0
 10
3.3133545903
 20
3.4414123392
 30
0.0
 10
3.3151385127
 20
3.4416384996
 30
0.0
 10
3.3167800582
 20
3.4418645465
 30
0.0
 10
3.3182758802
 20
3.4420903919
 30
0.0
 10
3.3196229704
 20
3.4423159401
 30
0.0
 10
3.3208184896
 20
3.4425411531
 30
0.0
 10
3.3217175075
 20
3.4427350652
 30
0.0
 10
3.3223583527
 20
3.4428919612
 30
0.0
 10
3.3227812484
 20
3.4430050824
 30
0.0
 10
3.3231646701
 20
3.4431181262
 30
0.0
 10
3.3235084249
 20
3.4432310854
 30
0.0
 10
3.3238123477
 20
3.4433439428
 30
0.0
 10
3.3240763351
 20
3.4434567071
 30
0.0
 10
3.3243003997
 20
3.4435693863
 30
0.0
 10
3.3244846918
 20
3.4436820249
 30
0.0
 10
3.3246294807
 20
3.4437949635
 30
0.0
 10
3.324735087
 20
3.4439087339
 30
0.0
 10
3.3247916082
 20
3.4440089084
 30
0.0
 10
3.3248132025
 20
3.4440879349
 30
0.0
 10
3.324816742
 20
3.4441266136
 30
0.0
 10
3.3248167507
 20
3.4441456133
 30
0.0
  0
SPLINE
  5
270
100
AcDbEntity
  8
0
100
AcDbSpline
 62
7
  6
CONTINUOUS
 70
0
 71
3
 72
59
 73
55
 74
0
 42
0.0000001
 43
0.0000001
 44
0.0000000001
 40
0.0
 40
0.0
 40
0.0
 40
0.0
 40
0.0009580555
 40
0.001991023
 40
0.0031591465
 40
0.0045044413
 40
0.0060544138
 40
0.0078269203
 40
0.0098336076
 40
0.0120816096
 40
0.0145753757
 40
0.0173177243
 40
0.0203103746
 40
0.0235542841
 40
0.0307968231
 40
0.0390431837
 40
0.0482811962
 40
0.0584952058
 40
0.0696681033
 40
0.0817797752
 40
0.0948042084
 40
0.1087140805
 40
0.1390767165
 40
0.172609856
 40
0.2090273805
 40
0.2480135733
 40
0.2892316585
 40
0.3323220529
 40
0.3769104049
 40
0.4226070648
 40
0.4690136814
 40
0.5623325326
 40
0.6536144125
 40
0.697492501
 40
0.7396798936
 40
0.779811984
 40
0.8175371982
 40
0.8525325342
 40
0.8844929676
 40
0.8992507514
 40
0.913150508
 40
0.9261620757
 40
0.938260607
 40
0.9494225865
 40
0.9596251895
 40
0.9688490117
 40
0.9770813552
 40
0.9843124729
 40
0.9875507276
 40
0.9905369857
 40
0.9932722354
 40
0.9957586788
 40
0.9979996243
 40
1.0
 40
1.0
 40
1.0
 40
1.0
 10
3.1857268597
 20
3.4421936076
 30
0.0
 10
3.1857268837
 20
3.4422328873
 30
0.0
 10
3.1857392353
 20
3.4423149018
 30
0.0
 10
3.1857927339
 20
3.4424341968
 30
0.0
 10
3.1858796902
 20
3.4425517899
 30
0.0
 10
3.1859994435
 20
3.4426683638
 30
0.0
 10
3.186151964
 20
3.4427845322
 30
0.0
 10
3.1863373709
 20
3.4429005678
 30
0.0
 10
3.1865557367
 20
3.4430165818
 30
0.0
 10
3.186807024
 20
3.4431326429
 30
0.0
 10
3.1870911351
 20
3.4432487665
 30
0.0
 10
3.1874079382
 20
3.4433649494
 30
0.0
 10
3.187757283
 20
3.4434811929
 30
0.0
 10
3.1882859875
 20
3.4436422216
 30
0.0
 10
3.1890279697
 20
3.443841364
 30
0.0
 10
3.1900151111
 20
3.4440727777
 30
0.0
 10
3.1911269262
 20
3.4443045271
 30
0.0
 10
3.1923609679
 20
3.4445365556
 30
0.0
 10
3.1937146642
 20
3.4447687694
 30
0.0
 10
3.1951851062
 20
3.4450010913
 30
0.0
 10
3.1967690259
 20
3.4452335571
 30
0.0
 10
3.1990963628
 20
3.4455530629
 30
0.0
 10
3.2022618461
 20
3.445948582
 30
0.0
 10
3.2063485796
 20
3.4464112804
 30
0.0
 10
3.2107908864
 20
3.4468744693
 30
0.0
 10
3.215549803
 20
3.4473381042
 30
0.0
 10
3.2205834937
 20
3.4478020057
 30
0.0
 10
3.2258477719
 20
3.4482661434
 30
0.0
 10
3.2312963409
 20
3.4487304172
 30
0.0
 10
3.2368813408
 20
3.449194808
 30
0.0
 10
3.2444581779
 20
3.449815188
 30
0.0
 10
3.2538983482
 20
3.4505806504
 30
0.0
 10
3.2632338843
 20
3.4513539597
 30
0.0
 10
3.2704779257
 20
3.4519811459
 30
0.0
 10
3.2756311078
 20
3.4524452057
 30
0.0
 10
3.2805309904
 20
3.4529089511
 30
0.0
 10
3.2851346448
 20
3.4533724118
 30
0.0
 10
3.2894015097
 20
3.4538353421
 30
0.0
 10
3.2927284306
 20
3.4542303985
 30
0.0
 10
3.2951932319
 20
3.4545490998
 30
0.0
 10
3.2968857597
 20
3.4547816458
 30
0.0
 10
3.2984681806
 20
3.4550141246
 30
0.0
 10
3.2999370849
 20
3.4552464783
 30
0.0
 10
3.3012893111
 20
3.455478661
 30
0.0
 10
3.3025218374
 20
3.45571065
 30
0.0
 10
3.3036319882
 20
3.4559424303
 30
0.0
 10
3.3046174501
 20
3.4561738882
 30
0.0
 10
3.305358122
 20
3.4563729959
 30
0.0
 10
3.3058858241
 20
3.4565340143
 30
0.0
 10
3.3062343438
 20
3.4566502542
 30
0.0
 10
3.306550235
 20
3.4567664432
 30
0.0
 10
3.306833396
 20
3.4568825765
 30
0.0
 10
3.3070837318
 20
3.4569986437
 30
0.0
 10
3.3072372847
 20
3.4570805555
 30
0.0
 10
3.3073081379
 20
3.4571218611
 30
0.0
  0
SPLINE
  5
271
100
AcDbEntity
  8
0
100
AcDbSpline
 62
7
  6
CONTINUOUS
 70
0
 71
3
 72
38
 73
34
 74
0
 42
0.0000001
 43
0.0000001
 44
0.0000000001
 40
0.0
 40
0.0
 40
0.0
 40
0.0
 40
0.0007788315
 40
0.0015858354
 40
0.002446343
 40
0.0033812684
 40
0.0055329112
 40
0.0081322751
 40
0.0112280111
 40
0.0148481713
 40
0.0190096578
 40
0.0237228545
 40
0.0289928557
 40
0.0348216787
 40
0.0412097637
 40
0.0481564892
 40
0.0637194785
 40
0.0814927508
 40
0.1014406586
 40
0.1235200031
 40
0.1476856151
 40
0.1738846721
 40
0.2020536049
 40
0.2321273933
 40
0.2640391689
 40
0.2977116393
 40
0.3700104907
 40
0.4483429504
 40
0.5319622076
 40
0.6200699941
 40
0.7118110858
 40
0.8063248263
 40
1.0
 40
1.0
 40
1.0
 40
1.0
 10
3.3248167702
 20
3.4753956137
 30
0.0
 10
3.3248167705
 20
3.4753751735
 30
0.0
 10
3.3248126726
 20
3.4753334502
 30
0.0
 10
3.3247944444
 20
3.4752715488
 30
0.0
 10
3.3247643133
 20
3.4752099381
 30
0.0
 10
3.3247057033
 20
3.4751241676
 30
0.0
 10
3.32459939
 20
3.4750178264
 30
0.0
 10
3.3244322162
 20
3.4748967623
 30
0.0
 10
3.3242193421
 20
3.4747757766
 30
0.0
 10
3.3239605709
 20
3.4746547411
 30
0.0
 10
3.3236557031
 20
3.4745335553
 30
0.0
 10
3.3233047532
 20
3.474412257
 30
0.0
 10
3.3229078572
 20
3.4742908399
 30
0.0
 10
3.322465245
 20
3.4741693234
 30
0.0
 10
3.3219771835
 20
3.4740477182
 30
0.0
 10
3.3212377259
 20
3.473879034
 30
0.0
 10
3.3202010904
 20
3.4736705917
 30
0.0
 10
3.318823684
 20
3.4734285059
 30
0.0
 10
3.3172730037
 20
3.4731860408
 30
0.0
 10
3.3155527928
 20
3.472943248
 30
0.0
 10
3.3136670762
 20
3.4727002573
 30
0.0
 10
3.3116203492
 20
3.4724571282
 30
0.0
 10
3.3094175745
 20
3.472213845
 30
0.0
 10
3.3070640348
 20
3.471970447
 30
0.0
 10
3.3045653402
 20
3.4717269878
 30
0.0
 10
3.300961951
 20
3.4713943441
 30
0.0
 10
3.2961425356
 20
3.4709817176
 30
0.0
 10
3.2900138119
 20
3.4704970182
 30
0.0
 10
3.2834690155
 20
3.470011874
 30
0.0
 10
3.276571427
 20
3.4695264461
 30
0.0
 10
3.2693872584
 20
3.4690407801
 30
0.0
 10
3.25943752
 20
3.4683877403
 30
0.0
 10
3.2518894116
 20
3.4679065656
 30
0.0
 10
3.2468167702
 20
3.4675831137
 30
0.0
  0
SPLINE
  5
272
100
AcDbEntity
  8
0
100
AcDbSpline
 62
7
  6
CONTINUOUS
 70
0
 71
3
 72
59
 73
55
 74
0
 42
0.0000001
 43
0.0000001
 44
0.0000000001
 40
0.0
 40
0.0
 40
0.0
 40
0.0
 40
0.0020000721
 40
0.004240797
 40
0.0067272376
 40
0.0094628349
 40
0.0124495481
 40
0.0156879222
 40
0.0229186212
 40
0.031150471
 40
0.0403746941
 40
0.0505777526
 40
0.0617393325
 40
0.0738374528
 40
0.086849432
 40
0.1007495149
 40
0.1155069465
 40
0.1474674411
 40
0.1824627051
 40
0.2201880021
 40
0.260320014
 40
0.302507475
 40
0.3463855128
 40
0.4376674205
 40
0.5309863058
 40
0.5773928254
 40
0.6230896181
 40
0.6676778122
 40
0.7107683973
 40
0.7519862761
 40
0.7909727014
 40
0.8273899893
 40
0.8609233819
 40
0.8912857723
 40
0.9051957498
 40
0.9182203281
 40
0.9303319219
 40
0.9415046652
 40
0.9517187752
 40
0.9609569123
 40
0.9692031892
 40
0.9764456139
 40
0.9796895521
 40
0.982682257
 40
0.9854246625
 40
0.9879184654
 40
0.9901664624
 40
0.9921730849
 40
0.9939455353
 40
0.9954954973
 40
0.9968408081
 40
0.9980089558
 40
0.9990419404
 40
1.0
 40
1.0
 40
1.0
 40
1.0
 10
3.1863254172
 20
3.4389803521
 30
0.0
 10
3.1863962557
 20
3.439021658
 30
0.0
 10
3.1865497828
 20
3.4391035728
 30
0.0
 10
3.1868000938
 20
3.4392196423
 30
0.0
 10
3.1870832595
 20
3.439335778
 30
0.0
 10
3.1873991883
 20
3.4394519603
 30
0.0
 10
3.1877477508
 20
3.4395681911
 30
0.0
 10
3.1882754593
 20
3.4397292094
 30
0.0
 10
3.1890160951
 20
3.4399283253
 30
0.0
 10
3.1900015323
 20
3.4401597971
 30
0.0
 10
3.1911117015
 20
3.4403915622
 30
0.0
 10
3.1923442484
 20
3.4406235414
 30
0.0
 10
3.1936964576
 20
3.4408557358
 30
0.0
 10
3.195165344
 20
3.4410880975
 30
0.0
 10
3.1967477798
 20
3.4413205657
 30
0.0
 10
3.1984403241
 20
3.4415531069
 30
0.0
 10
3.2009051247
 20
3.4418718224
 30
0.0
 10
3.2042320316
 20
3.4422668676
 30
0.0
 10
3.2084988984
 20
3.4427298037
 30
0.0
 10
3.21310255
 20
3.4431932604
 30
0.0
 10
3.2180024347
 20
3.443657009
 30
0.0
 10
3.223155614
 20
3.4441210663
 30
0.0
 10
3.2303996563
 20
3.4447482546
 30
0.0
 10
3.2397351918
 20
3.4455215631
 30
0.0
 10
3.2491753599
 20
3.4462870237
 30
0.0
 10
3.2567521987
 20
3.4469074071
 30
0.0
 10
3.2623371933
 20
3.4473717936
 30
0.0
 10
3.2677857681
 20
3.4478360731
 30
0.0
 10
3.2730500393
 20
3.4483002039
 30
0.0
 10
3.2780837376
 20
3.4487641135
 30
0.0
 10
3.2828426459
 20
3.4492277392
 30
0.0
 10
3.2872849614
 20
3.4496909385
 30
0.0
 10
3.2913716863
 20
3.4501536255
 30
0.0
 10
3.2945371727
 20
3.4505491539
 30
0.0
 10
3.29686451
 20
3.4508686569
 30
0.0
 10
3.298448437
 20
3.4511011198
 30
0.0
 10
3.2999188752
 20
3.4513334427
 30
0.0
 10
3.301272565
 20
3.4515656611
 30
0.0
 10
3.3025066099
 20
3.4517976869
 30
0.0
 10
3.3036184316
 20
3.4520294327
 30
0.0
 10
3.3046055695
 20
3.4522608483
 30
0.0
 10
3.3053475434
 20
3.4524599944
 30
0.0
 10
3.3058762471
 20
3.4526210211
 30
0.0
 10
3.306225598
 20
3.4527372642
 30
0.0
 10
3.3065424078
 20
3.4528534466
 30
0.0
 10
3.3068265229
 20
3.4529695697
 30
0.0
 10
3.3070778093
 20
3.4530856296
 30
0.0
 10
3.3072961683
 20
3.4532016456
 30
0.0
 10
3.3074815677
 20
3.4533176829
 30
0.0
 10
3.3076340858
 20
3.4534338508
 30
0.0
 10
3.3077538411
 20
3.4535504242
 30
0.0
 10
3.3078408021
 20
3.4536680165
 30
0.0
 10
3.3078943065
 20
3.4537873109
 30
0.0
 10
3.307906661
 20
3.4538693261
 30
0.0
 10
3.3079066855
 20
3.4539086059
 30
0.0
  0
LINE
  5
273
100
AcDbEntity
  8
0
100
AcDbLine
 62
7
  6
CONTINUOUS
 10
3.1696345198
 20
3.429268667
 11
3.1706892727
 21
3.4296126114
  0
SPLINE
  5
274
100
AcDbEntity
  8
0
100
AcDbSpline
 62
7
  6
CONTINUOUS
 70
0
 71
3
 72
59
 73
55
 74
0
 42
0.0000001
 43
0.0000001
 44
0.0000000001
 40
0.0
 40
0.0
 40
0.0
 40
0.0
 40
0.0020000147
 40
0.004240716
 40
0.0067271957
 40
0.0094629062
 40
0.0124496763
 40
0.0156880389
 40
0.0229186139
 40
0.0311503861
 40
0.0403747687
 40
0.0505778579
 40
0.0617393181
 40
0.073837373
 40
0.0868495047
 40
0.1007496044
 40
0.1155069276
 40
0.1474675061
 40
0.1824626848
 40
0.2201880545
 40
0.2603199956
 40
0.3025075102
 40
0.3463854998
 40
0.4376674161
 40
0.5309863125
 40
0.5773927932
 40
0.6230896379
 40
0.6676777564
 40
0.7107684314
 40
0.7519861985
 40
0.7909727498
 40
0.8273898927
 40
0.8609234435
 40
0.8912856606
 40
0.905195733
 40
0.9182204007
 40
0.9303318869
 40
0.9415045432
 40
0.9517187624
 40
0.9609569923
 40
0.9692031386
 40
0.9764454879
 40
0.9796894748
 40
0.9826822483
 40
0.9854247149
 40
0.9879185447
 40
0.9901665095
 40
0.9921730267
 40
0.9939454171
 40
0.9954953847
 40
0.9968407352
 40
0.9980089267
 40
0.9990419369
 40
1.0
 40
1.0
 40
1.0
 40
1.0
 10
3.1863254139
 20
3.470230352
 30
0.0
 10
3.1863962497
 20
3.4702716581
 30
0.0
 10
3.1865497725
 20
3.4703535738
 30
0.0
 10
3.1868000815
 20
3.4704696437
 30
0.0
 10
3.187083253
 20
3.4705857796
 30
0.0
 10
3.1873991922
 20
3.4707019585
 30
0.0
 10
3.1877477613
 20
3.4708181897
 30
0.0
 10
3.1882754665
 20
3.4709792081
 30
0.0
 10
3.1890160926
 20
3.4711783262
 30
0.0
 10
3.1900015276
 20
3.4714098008
 30
0.0
 10
3.1911117028
 20
3.4716415596
 30
0.0
 10
3.1923442525
 20
3.4718735398
 30
0.0
 10
3.193696455
 20
3.4721057363
 30
0.0
 10
3.1951653399
 20
3.4723380998
 30
0.0
 10
3.1967477807
 20
3.472570564
 30
0.0
 10
3.1984403274
 20
3.4728031057
 30
0.0
 10
3.2009051274
 20
3.4731218248
 30
0.0
 10
3.2042320306
 20
3.4735168652
 30
0.0
 10
3.2084989001
 20
3.4739798055
 30
0.0
 10
3.2131025488
 20
3.4744432588
 30
0.0
 10
3.2180024358
 20
3.4749070101
 30
0.0
 10
3.2231556129
 20
3.4753710653
 30
0.0
 10
3.230399656
 20
3.4759982553
 30
0.0
 10
3.239735191
 20
3.476771563
 30
0.0
 10
3.2491753588
 20
3.477537023
 30
0.0
 10
3.256752199
 20
3.4781574078
 30
0.0
 10
3.2623371915
 20
3.4786217924
 30
0.0
 10
3.2677857691
 20
3.4790860745
 30
0.0
 10
3.2730500368
 20
3.479550202
 30
0.0
 10
3.2780837392
 20
3.4800141159
 30
0.0
 10
3.282842643
 20
3.4804777362
 30
0.0
 10
3.2872849638
 20
3.480940942
 30
0.0
 10
3.2913716832
 20
3.4814036215
 30
0.0
 10
3.2945371722
 20
3.4817991567
 30
0.0
 10
3.2968645104
 20
3.4821186571
 30
0.0
 10
3.2984484411
 20
3.4823511177
 30
0.0
 10
3.2999188746
 20
3.4825834427
 30
0.0
 10
3.3012725606
 20
3.4828156635
 30
0.0
 10
3.3025066107
 20
3.4830476872
 30
0.0
 10
3.3036184363
 20
3.4832794291
 30
0.0
 10
3.3046055686
 20
3.4835108487
 30
0.0
 10
3.3053475352
 20
3.4837099971
 30
0.0
 10
3.3058762414
 20
3.4838710215
 30
0.0
 10
3.3062256001
 20
3.4839872643
 30
0.0
 10
3.306542417
 20
3.484103446
 30
0.0
 10
3.3068265349
 20
3.4842195685
 30
0.0
 10
3.3070778171
 20
3.4843356269
 30
0.0
 10
3.3072961649
 20
3.4844516469
 30
0.0
 10
3.3074815558
 20
3.4845676852
 30
0.0
 10
3.3076340735
 20
3.4846838524
 30
0.0
 10
3.3077538345
 20
3.4848004248
 30
0.0
 10
3.3078408045
 20
3.4849180158
 30
0.0
 10
3.307894318
 20
3.4850373095
 30
0.0
 10
3.3079066755
 20
3.4851193259
 30
0.0
 10
3.3079066999
 20
3.4851586059
 30
0.0
  0
SPLINE
  5
275
100
AcDbEntity
  8
0
100
AcDbSpline
 62
7
  6
CONTINUOUS
 70
0
 71
3
 72
24
 73
20
 74
0
 42
0.0000001
 43
0.0000001
 44
0.0000000001
 40
0.0
 40
0.0
 40
0.0
 40
0.0
 40
0.0103811918
 40
0.0221407151
 40
0.0353091059
 40
0.0499052376
 40
0.0659364953
 40
0.083404439
 40
0.1226393381
 40
0.1675737983
 40
0.2181397637
 40
0.2742207539
 40
0.3356820478
 40
0.4023832259
 40
0.4741599379
 40
0.5508187225
 40
0.6321624881
 40
0.8080650407
 40
1.0
 40
1.0
 40
1.0
 40
1.0
 10
3.1863254089
 20
3.5014803519
 30
0.0
 10
3.1864043359
 20
3.5015263782
 30
0.0
 10
3.186576808
 20
3.5016174852
 30
0.0
 10
3.186859946
 20
3.5017458759
 30
0.0
 10
3.187183325
 20
3.5018743594
 30
0.0
 10
3.1875467927
 20
3.5020029026
 30
0.0
 10
3.1879501316
 20
3.5021315331
 30
0.0
 10
3.1885649223
 20
3.5023101198
 30
0.0
 10
3.1894320755
 20
3.5025307055
 30
0.0
 10
3.1905900558
 20
3.5027867923
 30
0.0
 10
3.1918993892
 20
3.5030431954
 30
0.0
 10
3.1933565614
 20
3.5032999512
 30
0.0
 10
3.1949576759
 20
3.5035569692
 30
0.0
 10
3.1966985203
 20
3.5038141501
 30
0.0
 10
3.1985744435
 20
3.5040714436
 30
0.0
 10
3.2005803418
 20
3.5043288843
 30
0.0
 10
3.2034978894
 20
3.5046815255
 30
0.0
 10
3.2074271002
 20
3.5051183147
 30
0.0
 10
3.2106478368
 20
3.5054467469
 30
0.0
 10
3.2123289341
 20
3.50561256
 30
0.0
  0
LINE
  5
276
100
AcDbEntity
  8
0
100
AcDbLine
 62
7
  6
CONTINUOUS
 10
6.1248167507
 20
3.4441456133
 11
6.1243452056
 21
3.4446926865
  0
LINE
  5
277
100
AcDbEntity
  8
0
100
AcDbLine
 62
7
  6
CONTINUOUS
 10
5.9692882064
 20
3.4826595261
 11
5.968816914
 21
3.4832065998
  0
SPLINE
  5
278
100
AcDbEntity
  8
0
100
AcDbSpline
 62
7
  6
CONTINUOUS
 70
0
 71
3
 72
15
 73
11
 74
0
 42
0.0000001
 43
0.0000001
 44
0.0000000001
 40
0.0
 40
0.0
 40
0.0
 40
0.0
 40
0.1261892868
 40
0.2342633959
 40
0.3323278206
 40
0.431007821
 40
0.5407419093
 40
0.669250311
 40
0.82137311
 40
1.0
 40
1.0
 40
1.0
 40
1.0
 10
5.9695090333
 20
3.4289203122
 30
0.0
 10
5.9694956655
 20
3.4289336752
 30
0.0
 10
5.9694726192
 20
3.428960473
 30
0.0
 10
5.9694495338
 20
3.4290052711
 30
0.0
 10
5.9694421919
 20
3.4290512614
 30
0.0
 10
5.9694514791
 20
3.4290971291
 30
0.0
 10
5.9694763497
 20
3.4291417216
 30
0.0
 10
5.9695157327
 20
3.4291853941
 30
0.0
 10
5.9695694515
 20
3.4292286786
 30
0.0
 10
5.9696113806
 20
3.4292552334
 30
0.0
 10
5.9696345198
 20
3.429268667
 30
0.0
  0
SPLINE
  5
279
100
AcDbEntity
  8
0
100
AcDbSpline
 62
7
  6
CONTINUOUS
 70
0
 71
3
 72
15
 73
11
 74
0
 42
0.0000001
 43
0.0000001
 44
0.0000000001
 40
0.0
 40
0.0
 40
0.0
 40
0.0
 40
0.1264743155
 40
0.2347788909
 40
0.3329963551
 40
0.431735459
 40
0.5414159875
 40
0.6697697944
 40
0.8216605892
 40
1.0
 40
1.0
 40
1.0
 40
1.0
 10
6.1142185321
 20
3.419014458
 30
0.0
 10
6.1142338486
 20
3.4190297595
 30
0.0
 10
6.114260259
 20
3.4190604378
 30
0.0
 10
6.1142867558
 20
3.4191117027
 30
0.0
 10
6.1142952539
 20
3.4191643197
 30
0.0
 10
6.1142847616
 20
3.4192167892
 30
0.0
 10
6.1142564802
 20
3.4192678019
 30
0.0
 10
6.1142116227
 20
3.4193177497
 30
0.0
 10
6.1141503972
 20
3.4193672413
 30
0.0
 10
6.1141025894
 20
3.4193975983
 30
0.0
 10
6.1140762035
 20
3.4194129536
 30
0.0
  0
LINE
  5
27A
100
AcDbEntity
  8
0
100
AcDbLine
 62
7
  6
CONTINUOUS
 10
5.9692883307
 20
3.4514095268
 11
5.9688167703
 21
3.4519565998
  0
LINE
  5
27B
100
AcDbEntity
  8
0
100
AcDbLine
 62
7
  6
CONTINUOUS
 10
6.1243452031
 20
3.4982845268
 11
6.1248167702
 21
3.4988315998
  0
LINE
  5
27C
100
AcDbEntity
  8
0
100
AcDbLine
 62
7
  6
CONTINUOUS
 10
6.1243452037
 20
3.4670345269
 11
6.1248167701
 21
3.4675815998
  0
LINE
  5
27D
100
AcDbEntity
  8
0
100
AcDbLine
 62
7
  6
CONTINUOUS
 10
6.1243452896
 20
3.4357845271
 11
6.1248167293
 21
3.4363315993
  0
LINE
  5
27E
100
AcDbEntity
  8
0
100
AcDbLine
 62
7
  6
CONTINUOUS
 10
6.1243452034
 20
3.4759426863
 11
6.1248167702
 21
3.4753956137
  0
LINE
  5
27F
100
AcDbEntity
  8
0
100
AcDbLine
 62
7
  6
CONTINUOUS
 10
5.9692882073
 20
3.4603176871
 11
5.968816914
 21
3.4597706137
  0
LINE
  5
280
100
AcDbEntity
  8
0
100
AcDbLine
 62
7
  6
CONTINUOUS
 10
5.9692883236
 20
3.4915676863
 11
5.9688167702
 21
3.4910206137
  0
SPLINE
  5
281
100
AcDbEntity
  8
0
100
AcDbSpline
 62
7
  6
CONTINUOUS
 70
0
 71
3
 72
30
 73
26
 74
0
 42
0.0000001
 43
0.0000001
 44
0.0000000001
 40
0.0
 40
0.0
 40
0.0
 40
0.0
 40
0.1900648436
 40
0.2811809175
 40
0.3689144727
 40
0.4527663406
 40
0.5322473836
 40
0.6068771856
 40
0.6762079989
 40
0.7398348683
 40
0.7973784046
 40
0.8237668258
 40
0.8485138419
 40
0.8715818444
 40
0.8929412243
 40
0.9125660266
 40
0.9304314172
 40
0.9465143628
 40
0.9607994369
 40
0.9732812233
 40
0.9839611977
 40
0.9886296579
 40
0.9928543692
 40
0.9966411885
 40
1.0
 40
1.0
 40
1.0
 40
1.0
 10
6.0638282942
 20
3.4296126114
 30
0.0
 10
6.0676806071
 20
3.4298643093
 30
0.0
 10
6.0733793101
 20
3.4302427667
 30
0.0
 10
6.0808545152
 20
3.4307626329
 30
0.0
 10
6.086176564
 20
3.4311468999
 30
0.0
 10
6.0912616575
 20
3.4315310159
 30
0.0
 10
6.0960798119
 20
3.4319149554
 30
0.0
 10
6.10060205
 20
3.4322986724
 30
0.0
 10
6.1048010572
 20
3.4326821055
 30
0.0
 10
6.108651495
 20
3.4330650915
 30
0.0
 10
6.1116307945
 20
3.4333925626
 30
0.0
 10
6.1138223938
 20
3.4336567567
 30
0.0
 10
6.1153172873
 20
3.4338490581
 30
0.0
 10
6.1167091432
 20
3.4340412932
 30
0.0
 10
6.117995913
 20
3.4342334288
 30
0.0
 10
6.1191757648
 20
3.4344254234
 30
0.0
 10
6.1202469419
 20
3.4346172311
 30
0.0
 10
6.1212077991
 20
3.4348088315
 30
0.0
 10
6.1220569846
 20
3.4350001527
 30
0.0
 10
6.12279338
 20
3.4351910965
 30
0.0
 10
6.1233342952
 20
3.4353562784
 30
0.0
 10
6.123708621
 20
3.4354904189
 30
0.0
 10
6.123947701
 20
3.4355864072
 30
0.0
 10
6.1241578835
 20
3.4356823369
 30
0.0
 10
6.1242863025
 20
3.4357502503
 30
0.0
 10
6.1243452896
 20
3.4357845271
 30
0.0
  0
SPLINE
  5
282
100
AcDbEntity
  8
0
100
AcDbSpline
 62
7
  6
CONTINUOUS
 70
0
 71
3
 72
23
 73
19
 74
0
 42
0.0000001
 43
0.0000001
 44
0.0000000001
 40
0.0
 40
0.0
 40
0.0
 40
0.0
 40
0.0144815274
 40
0.0304043774
 40
0.0477444209
 40
0.0664765976
 40
0.0865745669
 40
0.108009131
 40
0.1547670506
 40
0.206495196
 40
0.2628889753
 40
0.3236226426
 40
0.3883371694
 40
0.4566575503
 40
0.5281810503
 40
0.6791401317
 40
0.8376588862
 40
1.0
 40
1.0
 40
1.0
 40
1.0
 10
6.1203788175
 20
3.5049597977
 30
0.0
 10
6.1200287528
 20
3.5048926653
 30
0.0
 10
6.1192922915
 20
3.5047594479
 30
0.0
 10
6.1181326415
 20
3.5045688884
 30
0.0
 10
6.1168671157
 20
3.5043781265
 30
0.0
 10
6.1154977769
 20
3.5041872477
 30
0.0
 10
6.1140267596
 20
3.5039963261
 30
0.0
 10
6.1118694743
 20
3.5037340348
 30
0.0
 10
6.1089356569
 20
3.5034089677
 30
0.0
 10
6.1051424495
 20
3.5030287974
 30
0.0
 10
6.1010037201
 20
3.5026481665
 30
0.0
 10
6.0965441319
 20
3.5022672749
 30
0.0
 10
6.0917900116
 20
3.5018861216
 30
0.0
 10
6.0867695243
 20
3.5015048101
 30
0.0
 10
6.0796305487
 20
3.5009868408
 30
0.0
 10
6.0702745684
 20
3.5003463431
 30
0.0
 10
6.0586860227
 20
3.4995899137
 30
0.0
 10
6.0508044839
 20
3.4990873863
 30
0.0
 10
6.0468167702
 20
3.4988331137
 30
0.0
  0
SPLINE
  5
283
100
AcDbEntity
  8
0
100
AcDbSpline
 62
7
  6
CONTINUOUS
 70
0
 71
3
 72
38
 73
34
 74
0
 42
0.0000001
 43
0.0000001
 44
0.0000000001
 40
0.0
 40
0.0
 40
0.0
 40
0.0
 40
0.0007788203
 40
0.0015858104
 40
0.0024463033
 40
0.0033812141
 40
0.0055328282
 40
0.0081321604
 40
0.0112278539
 40
0.0148479525
 40
0.0190093491
 40
0.0237224233
 40
0.0289922829
 40
0.0348209594
 40
0.0412089075
 40
0.0481555203
 40
0.0637184145
 40
0.0814917894
 40
0.1014399758
 40
0.1235198619
 40
0.1476863824
 40
0.1738868636
 40
0.2020574273
 40
0.2321326407
 40
0.264045596
 40
0.2977194102
 40
0.370019695
 40
0.4483521096
 40
0.5319697554
 40
0.6200758149
 40
0.7118152043
 40
0.8063269432
 40
1.0
 40
1.0
 40
1.0
 40
1.0
 10
5.9688167703
 20
3.4519565998
 30
0.0
 10
5.9688167693
 20
3.4519770397
 30
0.0
 10
5.9688208658
 20
3.4520187625
 30
0.0
 10
5.9688390925
 20
3.4520806633
 30
0.0
 10
5.9688692223
 20
3.4521422733
 30
0.0
 10
5.9689278309
 20
3.452228043
 30
0.0
 10
5.9690341427
 20
3.452334383
 30
0.0
 10
5.9692013142
 20
3.4524554456
 30
0.0
 10
5.969414185
 20
3.45257643
 30
0.0
 10
5.9696729512
 20
3.4526974641
 30
0.0
 10
5.9699778118
 20
3.4528186485
 30
0.0
 10
5.9703287523
 20
3.4529399456
 30
0.0
 10
5.9707256374
 20
3.4530613614
 30
0.0
 10
5.9711682384
 20
3.4531828767
 30
0.0
 10
5.9716562894
 20
3.4533044808
 30
0.0
 10
5.9723957379
 20
3.4534731647
 30
0.0
 10
5.9734323706
 20
3.4536816071
 30
0.0
 10
5.9748097843
 20
3.4539236946
 30
0.0
 10
5.9763604884
 20
3.4541661648
 30
0.0
 10
5.9780807441
 20
3.4544089649
 30
0.0
 10
5.9799665356
 20
3.4546519657
 30
0.0
 10
5.9820133663
 20
3.4548951042
 30
0.0
 10
5.9842162582
 20
3.4551383973
 30
0.0
 10
5.9865699086
 20
3.4553818061
 30
0.0
 10
5.9890687064
 20
3.4556252759
 30
0.0
 10
5.9926721998
 20
3.4559579222
 30
0.0
 10
5.9974916869
 20
3.4563705529
 30
0.0
 10
6.0036204054
 20
3.4568552461
 30
0.0
 10
6.0101651135
 20
3.457340383
 30
0.0
 10
6.0170625704
 20
3.4578257983
 30
0.0
 10
6.024246597
 20
3.4583114545
 30
0.0
 10
6.0341961833
 20
3.4589644834
 30
0.0
 10
6.0417441841
 20
3.4594456514
 30
0.0
 10
6.0468167702
 20
3.4597690998
 30
0.0
  0
SPLINE
  5
284
100
AcDbEntity
  8
0
100
AcDbSpline
 62
7
  6
CONTINUOUS
 70
0
 71
3
 72
38
 73
34
 74
0
 42
0.0000001
 43
0.0000001
 44
0.0000000001
 40
0.0
 40
0.0
 40
0.0
 40
0.0
 40
0.0007787681
 40
0.0015855498
 40
0.0024456263
 40
0.0033799624
 40
0.0055304478
 40
0.0081297144
 40
0.0112265354
 40
0.0148480894
 40
0.0190102539
 40
0.0237225415
 40
0.02899068
 40
0.0348180329
 40
0.0412061213
 40
0.0481539241
 40
0.0637187915
 40
0.0814896609
 40
0.1014372941
 40
0.1235198834
 40
0.1476865123
 40
0.1738848319
 40
0.2020569393
 40
0.2321340009
 40
0.2640453691
 40
0.2977188899
 40
0.3700221372
 40
0.4483558794
 40
0.5319735938
 40
0.6200805173
 40
0.7118206161
 40
0.8063269194
 40
1.0
 40
1.0
 40
1.0
 40
1.0
 10
5.968816914
 20
3.4832065998
 30
0.0
 10
5.9688169139
 20
3.4832270383
 30
0.0
 10
5.9688209954
 20
3.4832687536
 30
0.0
 10
5.9688391656
 20
3.4833306513
 30
0.0
 10
5.9688692216
 20
3.4833922622
 30
0.0
 10
5.9689277234
 20
3.4834780381
 30
0.0
 10
5.9690339523
 20
3.4835844035
 30
0.0
 10
5.9692011371
 20
3.4837054511
 30
0.0
 10
5.9694140975
 20
3.4838264114
 30
0.0
 10
5.9696729675
 20
3.4839474296
 30
0.0
 10
5.9699778714
 20
3.4840686045
 30
0.0
 10
5.970328758
 20
3.484189916
 30
0.0
 10
5.9707255329
 20
3.4843113484
 30
0.0
 10
5.9711680521
 20
3.4844328745
 30
0.0
 10
5.9716561051
 20
3.4845544721
 30
0.0
 10
5.9723956455
 20
3.484723143
 30
0.0
 10
5.9734323016
 20
3.4849315527
 30
0.0
 10
5.974809675
 20
3.4851737018
 30
0.0
 10
5.97636037
 20
3.4854161722
 30
0.0
 10
5.9780806901
 20
3.485658938
 30
0.0
 10
5.979966497
 20
3.4859019489
 30
0.0
 10
5.9820133098
 20
3.4861451236
 30
0.0
 10
5.9842162361
 20
3.4863883973
 30
0.0
 10
5.9865699352
 20
3.4866317918
 30
0.0
 10
5.9890687293
 20
3.4868752871
 30
0.0
 10
5.9926722505
 20
3.4872079363
 30
0.0
 10
5.9974918431
 20
3.4876205563
 30
0.0
 10
6.0036206739
 20
3.48810527
 30
0.0
 10
6.0101654404
 20
3.4885904099
 30
0.0
 10
6.0170629398
 20
3.4890758219
 30
0.0
 10
6.0242468642
 20
3.489561474
 30
0.0
 10
6.0341963262
 20
3.4902144912
 30
0.0
 10
6.0417441842
 20
3.4906956514
 30
0.0
 10
6.0468167702
 20
3.4910190998
 30
0.0
  0
SPLINE
  5
285
100
AcDbEntity
  8
0
100
AcDbSpline
 62
7
  6
CONTINUOUS
 70
0
 71
3
 72
31
 73
27
 74
0
 42
0.0000001
 43
0.0000001
 44
0.0000000001
 40
0.0
 40
0.0
 40
0.0
 40
0.0
 40
0.182005699
 40
0.2711262616
 40
0.3579838662
 40
0.4418792756
 40
0.5221143892
 40
0.5980164978
 40
0.668964549
 40
0.7343745969
 40
0.7937115347
 40
0.8209483361
 40
0.8464918791
 40
0.8702892943
 40
0.8922910914
 40
0.912458097
 40
0.9307541939
 40
0.9471448612
 40
0.9616027415
 40
0.9741137697
 40
0.9796372981
 40
0.9846727564
 40
0.9892215384
 40
0.9932869155
 40
0.9968759227
 40
1.0
 40
1.0
 40
1.0
 40
1.0
 10
6.0468167702
 20
3.4597690998
 30
0.0
 10
6.0515382033
 20
3.4600701573
 30
0.0
 10
6.0585715323
 20
3.4605185423
 30
0.0
 10
6.0678570761
 20
3.4611256197
 30
0.0
 10
6.0745970453
 20
3.461577629
 30
0.0
 10
6.0811055237
 20
3.4620294991
 30
0.0
 10
6.0873285317
 20
3.4624811461
 30
0.0
 10
6.0932140791
 20
3.4629325414
 30
0.0
 10
6.0987131042
 20
3.4633835138
 30
0.0
 10
6.1037800211
 20
3.463834018
 30
0.0
 10
6.1077119446
 20
3.4642189512
 30
0.0
 10
6.1106096971
 20
3.4645297764
 30
0.0
 10
6.1125873581
 20
3.4647560838
 30
0.0
 10
6.114428009
 20
3.4649822651
 30
0.0
 10
6.1161277866
 20
3.4652083473
 30
0.0
 10
6.1176832282
 20
3.465434242
 30
0.0
 10
6.1190911814
 20
3.4656598826
 30
0.0
 10
6.1203487107
 20
3.4658851886
 30
0.0
 10
6.121453229
 20
3.4661101542
 30
0.0
 10
6.1222754503
 20
3.4663042828
 30
0.0
 10
6.1228541601
 20
3.4664616794
 30
0.0
 10
6.1232303123
 20
3.4665746968
 30
0.0
 10
6.1235667448
 20
3.4666876161
 30
0.0
 10
6.1238633214
 20
3.4668004565
 30
0.0
 10
6.1241199542
 20
3.4669131856
 30
0.0
 10
6.1242749882
 20
3.4669937309
 30
0.0
 10
6.1243452037
 20
3.4670345269
 30
0.0
  0
SPLINE
  5
286
100
AcDbEntity
  8
0
100
AcDbSpline
 62
7
  6
CONTINUOUS
 70
0
 71
3
 72
31
 73
27
 74
0
 42
0.0000001
 43
0.0000001
 44
0.0000000001
 40
0.0
 40
0.0
 40
0.0
 40
0.0
 40
0.1820063969
 40
0.2711273978
 40
0.357985312
 40
0.4418809648
 40
0.5221163473
 40
0.5980187031
 40
0.6689674019
 40
0.7343781213
 40
0.7937148888
 40
0.8209509305
 40
0.8464935224
 40
0.8702900867
 40
0.8922913424
 40
0.9124580534
 40
0.9307539838
 40
0.9471445072
 40
0.9616024012
 40
0.9741135686
 40
0.9796371709
 40
0.9846726835
 40
0.9892214838
 40
0.993286862
 40
0.9968758906
 40
1.0
 40
1.0
 40
1.0
 40
1.0
 10
6.0468167702
 20
3.4910190998
 30
0.0
 10
6.0515382213
 20
3.4913201584
 30
0.0
 10
6.0585715798
 20
3.4917685453
 30
0.0
 10
6.0678571611
 20
3.4923756253
 30
0.0
 10
6.0745971559
 20
3.4928276364
 30
0.0
 10
6.0811056554
 20
3.4932795088
 30
0.0
 10
6.0873286831
 20
3.4937311571
 30
0.0
 10
6.0932142606
 20
3.4941825554
 30
0.0
 10
6.0987133261
 20
3.4946335322
 30
0.0
 10
6.1037802723
 20
3.4950840439
 30
0.0
 10
6.1077121892
 20
3.4954689746
 30
0.0
 10
6.110609893
 20
3.4957797964
 30
0.0
 10
6.1125874875
 20
3.4960060984
 30
0.0
 10
6.1144280777
 20
3.4962322743
 30
0.0
 10
6.1161278117
 20
3.496458351
 30
0.0
 10
6.1176832276
 20
3.4966842414
 30
0.0
 10
6.1190911655
 20
3.4969098785
 30
0.0
 10
6.1203486869
 20
3.4971351848
 30
0.0
 10
6.1214532054
 20
3.4973601506
 30
0.0
 10
6.1222754327
 20
3.497554279
 30
0.0
 10
6.1228541496
 20
3.4977116762
 30
0.0
 10
6.1232303056
 20
3.497824694
 30
0.0
 10
6.1235667399
 20
3.4979376142
 30
0.0
 10
6.1238633171
 20
3.4980504558
 30
0.0
 10
6.1241199513
 20
3.4981631853
 30
0.0
 10
6.1242749867
 20
3.4982437308
 30
0.0
 10
6.1243452031
 20
3.4982845268
 30
0.0
  0
SPLINE
  5
287
100
AcDbEntity
  8
0
100
AcDbSpline
 62
7
  6
CONTINUOUS
 70
0
 71
3
 72
32
 73
28
 74
0
 42
0.0000001
 43
0.0000001
 44
0.0000000001
 40
0.0
 40
0.0
 40
0.0
 40
0.0
 40
0.1962154773
 40
0.2906716855
 40
0.3816677854
 40
0.4685252519
 40
0.5505896557
 40
0.6272287796
 40
0.6978874035
 40
0.7620476891
 40
0.8192663258
 40
0.8451437825
 40
0.8691406246
 40
0.8912213974
 40
0.9113513323
 40
0.9294966628
 40
0.9456319014
 40
0.9597416123
 40
0.971813845
 40
0.9770838899
 40
0.9818430029
 40
0.9860932462
 40
0.9898390892
 40
0.9930874074
 40
0.9958491117
 40
0.9981424502
 40
1.0
 40
1.0
 40
1.0
 40
1.0
 10
6.0577708039
 20
3.4146125776
 30
0.0
 10
6.0614753356
 20
3.4147992071
 30
0.0
 10
6.0669631083
 20
3.4150774124
 30
0.0
 10
6.0741681661
 20
3.4154559869
 30
0.0
 10
6.0793083092
 20
3.4157349827
 30
0.0
 10
6.0842139134
 20
3.4160126891
 30
0.0
 10
6.0888477411
 20
3.4162890193
 30
0.0
 10
6.0931748538
 20
3.4165640335
 30
0.0
 10
6.0971628819
 20
3.4168375367
 30
0.0
 10
6.100782953
 20
3.4171095969
 30
0.0
 10
6.1035570096
 20
3.4173419352
 30
0.0
 10
6.1055728065
 20
3.4175292724
 30
0.0
 10
6.1069262911
 20
3.4176646892
 30
0.0
 10
6.108170581
 20
3.4177997228
 30
0.0
 10
6.1093035972
 20
3.4179343487
 30
0.0
 10
6.1103234052
 20
3.4180685551
 30
0.0
 10
6.1112283931
 20
3.4182022865
 30
0.0
 10
6.1120172497
 20
3.4183354618
 30
0.0
 10
6.1126007273
 20
3.4184504055
 30
0.0
 10
6.1130080215
 20
3.4185436593
 30
0.0
 10
6.1132696424
 20
3.4186102732
 30
0.0
 10
6.1135014665
 20
3.4186767467
 30
0.0
 10
6.1137034904
 20
3.4187430636
 30
0.0
 10
6.1138757457
 20
3.4188091917
 30
0.0
 10
6.1140183803
 20
3.4188751531
 30
0.0
 10
6.1141315184
 20
3.4189409203
 30
0.0
 10
6.11419369
 20
3.4189896402
 30
0.0
 10
6.1142185321
 20
3.419014458
 30
0.0
  0
SPLINE
  5
288
100
AcDbEntity
  8
0
100
AcDbSpline
 62
7
  6
CONTINUOUS
 70
0
 71
3
 72
26
 73
22
 74
0
 42
0.0000001
 43
0.0000001
 44
0.0000000001
 40
0.0
 40
0.0
 40
0.0
 40
0.0
 40
0.0159062014
 40
0.0330629256
 40
0.0514640681
 40
0.0710975203
 40
0.0919467368
 40
0.1139917908
 40
0.1372100841
 40
0.1615769378
 40
0.2136467271
 40
0.269955308
 40
0.3302277359
 40
0.3941733678
 40
0.4614880314
 40
0.5318585331
 40
0.6049585888
 40
0.6804596287
 40
0.7580437061
 40
0.8373961788
 40
1.0
 40
1.0
 40
1.0
 40
1.0
 10
5.992018623
 20
3.4146125776
 30
0.0
 10
5.9922788247
 20
3.4147594519
 30
0.0
 10
5.9928274861
 20
3.4150510317
 30
0.0
 10
5.9936991541
 20
3.415469561
 30
0.0
 10
5.9946488866
 20
3.4158857769
 30
0.0
 10
5.9956748149
 20
3.4162996105
 30
0.0
 10
5.9967750976
 20
3.4167109927
 30
0.0
 10
5.9979478272
 20
3.417119949
 30
0.0
 10
5.9991910786
 20
3.4175265543
 30
0.0
 10
6.000980114
 20
3.4180778771
 30
0.0
 10
6.0033797677
 20
3.4187570616
 30
0.0
 10
6.0064479866
 20
3.4195469705
 30
0.0
 10
6.009747943
 20
3.420328799
 30
0.0
 10
6.0132617255
 20
3.4211026975
 30
0.0
 10
6.0169710799
 20
3.4218688697
 30
0.0
 10
6.0208573268
 20
3.42262746
 30
0.0
 10
6.0249015073
 20
3.4233786465
 30
0.0
 10
6.0290847112
 20
3.4241226134
 30
0.0
 10
6.0333883523
 20
3.4248595809
 30
0.0
 10
6.0393100456
 20
3.4258410454
 30
0.0
 10
6.0437988351
 20
3.4265544087
 30
0.0
 10
6.0468167702
 20
3.4270253367
 30
0.0
  0
SPLINE
  5
289
100
AcDbEntity
  8
0
100
AcDbSpline
 62
7
  6
CONTINUOUS
 70
0
 71
3
 72
31
 73
27
 74
0
 42
0.0000001
 43
0.0000001
 44
0.0000000001
 40
0.0
 40
0.0
 40
0.0
 40
0.0
 40
0.1820026274
 40
0.2711211888
 40
0.3579778409
 40
0.441872987
 40
0.522107778
 40
0.5980103109
 40
0.6689597892
 40
0.73437251
 40
0.7937117121
 40
0.8209491142
 40
0.8464930762
 40
0.8702908983
 40
0.8922929122
 40
0.9124598462
 40
0.9307558064
 40
0.9471464718
 40
0.9616040917
 40
0.9741146011
 40
0.979637868
 40
0.9846731128
 40
0.9892217655
 40
0.9932870779
 40
0.9968760071
 40
1.0
 40
1.0
 40
1.0
 40
1.0
 10
6.0468167702
 20
3.4988331137
 30
0.0
 10
6.0420954161
 20
3.4985320613
 30
0.0
 10
6.0350622176
 20
3.4980836843
 30
0.0
 10
6.0257768284
 20
3.4974766183
 30
0.0
 10
6.0190369417
 20
3.4970246142
 30
0.0
 10
6.012528502
 20
3.4965727494
 30
0.0
 10
6.0063054972
 20
3.4961211029
 30
0.0
 10
6.0004199089
 20
3.4956697092
 30
0.0
 10
5.9949207658
 20
3.4952187267
 30
0.0
 10
5.9898536831
 20
3.49476821
 30
0.0
 10
5.9859216155
 20
3.4943832653
 30
0.0
 10
5.9830237777
 20
3.4940724297
 30
0.0
 10
5.9810460797
 20
3.4938461165
 30
0.0
 10
5.9792054017
 20
3.4936199321
 30
0.0
 10
5.9775056097
 20
3.493393847
 30
0.0
 10
5.9759501682
 20
3.4931679484
 30
0.0
 10
5.9745422209
 20
3.4929423042
 30
0.0
 10
5.9732847013
 20
3.4927170016
 30
0.0
 10
5.9721802029
 20
3.492492039
 30
0.0
 10
5.971358009
 20
3.4922979114
 30
0.0
 10
5.9707793251
 20
3.4921405175
 30
0.0
 10
5.9704031887
 20
3.4920275024
 30
0.0
 10
5.9700667662
 20
3.491914586
 30
0.0
 10
5.9697701955
 20
3.4918017501
 30
0.0
 10
5.9695135677
 20
3.4916890242
 30
0.0
 10
5.9693585372
 20
3.4916084811
 30
0.0
 10
5.9692883236
 20
3.4915676863
 30
0.0
  0
SPLINE
  5
28A
100
AcDbEntity
  8
0
100
AcDbSpline
 62
7
  6
CONTINUOUS
 70
0
 71
3
 72
36
 73
32
 74
0
 42
0.0000001
 43
0.0000001
 44
0.0000000001
 40
0.0
 40
0.0
 40
0.0
 40
0.0
 40
0.1905161478
 40
0.2840316683
 40
0.3751033003
 40
0.4628318889
 40
0.546319772
 40
0.6247211805
 40
0.6972464985
 40
0.7310781843
 40
0.7631759336
 40
0.7934565799
 40
0.8218479455
 40
0.8482841191
 40
0.8727001677
 40
0.8950365626
 40
0.9152483837
 40
0.9332959549
 40
0.9491442984
 40
0.9562373436
 40
0.9627758253
 40
0.9687609491
 40
0.9741954183
 40
0.9790841126
 40
0.9834351764
 40
0.9872618914
 40
0.9905868424
 40
0.9934467019
 40
0.9958996876
 40
0.9980381365
 40
1.0
 40
1.0
 40
1.0
 40
1.0
 10
6.0439494156
 20
3.4146125776
 30
0.0
 10
6.0480543901
 20
3.4149471495
 30
0.0
 10
6.0541745039
 20
3.4154435383
 30
0.0
 10
6.0622556897
 20
3.4161146376
 30
0.0
 10
6.0681213517
 20
3.4166147153
 30
0.0
 10
6.0737694447
 20
3.4171145736
 30
0.0
 10
6.0791425447
 20
3.4176141519
 30
0.0
 10
6.0841855221
 20
3.4181133041
 30
0.0
 10
6.0881570575
 20
3.4185380223
 30
0.0
 10
6.0911305438
 20
3.4188804321
 30
0.0
 10
6.0931952649
 20
3.4191311639
 30
0.0
 10
6.0951414726
 20
3.4193818361
 30
0.0
 10
6.0969642282
 20
3.4196324136
 30
0.0
 10
6.0986589512
 20
3.4198828402
 30
0.0
 10
6.1002212781
 20
3.4201330883
 30
0.0
 10
6.1016472114
 20
3.420383181
 30
0.0
 10
6.1029332335
 20
3.4206329748
 30
0.0
 10
6.1040761545
 20
3.420882385
 30
0.0
 10
6.1049360938
 20
3.4210969807
 30
0.0
 10
6.105549339
 20
3.4212705921
 30
0.0
 10
6.105954533
 20
3.4213958799
 30
0.0
 10
6.1063220696
 20
3.4215210954
 30
0.0
 10
6.1066517559
 20
3.421646236
 30
0.0
 10
6.1069434201
 20
3.4217712934
 30
0.0
 10
6.1071969251
 20
3.4218962699
 30
0.0
 10
6.1074121992
 20
3.4220212239
 30
0.0
 10
6.1075892941
 20
3.4221462869
 30
0.0
 10
6.1077283875
 20
3.4222717421
 30
0.0
 10
6.107829549
 20
3.4223983419
 30
0.0
 10
6.1078920892
 20
3.422527094
 30
0.0
 10
6.107906645
 20
3.4226161942
 30
0.0
 10
6.1079066712
 20
3.4226586059
 30
0.0
  0
SPLINE
  5
28B
100
AcDbEntity
  8
0
100
AcDbSpline
 62
7
  6
CONTINUOUS
 70
0
 71
3
 72
37
 73
33
 74
0
 42
0.0000001
 43
0.0000001
 44
0.0000000001
 40
0.0
 40
0.0
 40
0.0
 40
0.0
 40
0.0285297393
 40
0.0590549429
 40
0.0914029917
 40
0.1254045943
 40
0.1977070094
 40
0.2745567333
 40
0.3544234524
 40
0.4357228977
 40
0.5168413932
 40
0.5961689454
 40
0.6721317548
 40
0.7083766956
 40
0.7432241002
 40
0.7765011196
 40
0.8080422206
 40
0.8376957241
 40
0.865313368
 40
0.8907631616
 40
0.9139244406
 40
0.9346848538
 40
0.944136703
 40
0.9529558851
 40
0.9611326053
 40
0.9686582106
 40
0.9755275941
 40
0.9817375142
 40
0.9872862918
 40
0.9921746859
 40
0.9964077613
 40
1.0
 40
1.0
 40
1.0
 40
1.0
 10
6.0016087074
 20
3.4146125776
 30
0.0
 10
6.0026134238
 20
3.414734196
 30
0.0
 10
6.0046943403
 20
3.4149759831
 30
0.0
 10
6.007917763
 20
3.4153263451
 30
0.0
 10
6.0113363425
 20
3.4156769434
 30
0.0
 10
6.0162316199
 20
3.4161542645
 30
0.0
 10
6.022701888
 20
3.4167448456
 30
0.0
 10
6.0307961462
 20
3.4174408179
 30
0.0
 10
6.0392106415
 20
3.4181372956
 30
0.0
 10
6.0477770443
 20
3.4188340333
 30
0.0
 10
6.0563242626
 20
3.4195307346
 30
0.0
 10
6.0646815586
 20
3.4202271524
 30
0.0
 10
6.071450478
 20
3.4208157489
 30
0.0
 10
6.076645369
 20
3.42129088
 30
0.0
 10
6.0803310838
 20
3.4216415506
 30
0.0
 10
6.0838491647
 20
3.4219920918
 30
0.0
 10
6.0871820526
 20
3.4223425347
 30
0.0
 10
6.09031304
 20
3.4226927382
 30
0.0
 10
6.0932265337
 20
3.423042749
 30
0.0
 10
6.0959079887
 20
3.4233924412
 30
0.0
 10
6.0983440081
 20
3.4237416769
 30
0.0
 10
6.1002136954
 20
3.4240408892
 30
0.0
 10
6.1015770745
 20
3.4242824471
 30
0.0
 10
6.1024987618
 20
3.4244578255
 30
0.0
 10
6.1033508213
 20
3.4246331081
 30
0.0
 10
6.1041321653
 20
3.4248083189
 30
0.0
 10
6.1048418818
 20
3.4249834058
 30
0.0
 10
6.1054792104
 20
3.4251583259
 30
0.0
 10
6.1060434346
 20
3.4253330337
 30
0.0
 10
6.1065339544
 20
3.4255074785
 30
0.0
 10
6.10695022
 20
3.425681654
 30
0.0
 10
6.1071980859
 20
3.4258076635
 30
0.0
 10
6.1073081622
 20
3.4258718622
 30
0.0
  0
SPLINE
  5
28C
100
AcDbEntity
  8
0
100
AcDbSpline
 62
7
  6
CONTINUOUS
 70
0
 71
3
 72
31
 73
27
 74
0
 42
0.0000001
 43
0.0000001
 44
0.0000000001
 40
0.0
 40
0.0
 40
0.0
 40
0.0
 40
0.1820050219
 40
0.2711174766
 40
0.3579728296
 40
0.4418683692
 40
0.5221003095
 40
0.5980044093
 40
0.6689538642
 40
0.7343689723
 40
0.7937068325
 40
0.8209465022
 40
0.8464903024
 40
0.8702858897
 40
0.8922894913
 40
0.912458922
 40
0.9307536055
 40
0.9471423881
 40
0.9616023614
 40
0.9741146846
 40
0.9796370712
 40
0.9846708717
 40
0.989218565
 40
0.9932842563
 40
0.9968745426
 40
1.0
 40
1.0
 40
1.0
 40
1.0
 10
6.0468167702
 20
3.4675831137
 30
0.0
 10
6.0420953479
 20
3.4672820569
 30
0.0
 10
6.0350622369
 20
3.4668336834
 30
0.0
 10
6.0257769657
 20
3.4662266301
 30
0.0
 10
6.0190372528
 20
3.4657746298
 30
0.0
 10
6.012528901
 20
3.4653227878
 30
0.0
 10
6.0063059128
 20
3.4648711234
 30
0.0
 10
6.0004203488
 20
3.464419758
 30
0.0
 10
5.9949210992
 20
3.4639687392
 30
0.0
 10
5.9898539796
 20
3.4635182628
 30
0.0
 10
5.9859218256
 20
3.4631332661
 30
0.0
 10
5.9830239604
 20
3.4628224668
 30
0.0
 10
5.9810462629
 20
3.4625961552
 30
0.0
 10
5.9792056082
 20
3.4623699334
 30
0.0
 10
5.9775057642
 20
3.4621438607
 30
0.0
 10
5.9759502422
 20
3.4619179937
 30
0.0
 10
5.9745423125
 20
3.4616923341
 30
0.0
 10
5.9732848213
 20
3.4614669843
 30
0.0
 10
5.9721802553
 20
3.4612420535
 30
0.0
 10
5.9713579646
 20
3.4610479552
 30
0.0
 10
5.9707793006
 20
3.4608905348
 30
0.0
 10
5.9704032567
 20
3.4607775058
 30
0.0
 10
5.9700668954
 20
3.4606645723
 30
0.0
 10
5.9697703036
 20
3.4605517355
 30
0.0
 10
5.9695135811
 20
3.4604390194
 30
0.0
 10
5.9693584641
 20
3.4603584836
 30
0.0
 10
5.9692882073
 20
3.4603176871
 30
0.0
  0
SPLINE
  5
28D
100
AcDbEntity
  8
0
100
AcDbSpline
 62
7
  6
CONTINUOUS
 70
0
 71
3
 72
59
 73
55
 74
0
 42
0.0000001
 43
0.0000001
 44
0.0000000001
 40
0.0
 40
0.0
 40
0.0
 40
0.0
 40
0.0009579653
 40
0.0019906644
 40
0.0031585348
 40
0.0045039017
 40
0.0060544981
 40
0.0078277313
 40
0.0098346145
 40
0.0120822973
 40
0.0145754705
 40
0.0173172143
 40
0.0203095208
 40
0.0235536263
 40
0.0307976921
 40
0.0390437738
 40
0.0482805999
 40
0.0584946248
 40
0.0696689252
 40
0.0817802067
 40
0.0948035627
 40
0.1087135957
 40
0.1234824027
 40
0.1390771552
 40
0.172609633
 40
0.2090276531
 40
0.2480134004
 40
0.2892317841
 40
0.3323218819
 40
0.3769104137
 40
0.469013592
 40
0.5623324045
 40
0.6084297211
 40
0.6536143176
 40
0.6974918098
 40
0.7396798363
 40
0.7798110708
 40
0.8175372068
 40
0.8525314027
 40
0.8844930599
 40
0.9131489564
 40
0.9261609658
 40
0.9382605579
 40
0.9494222549
 40
0.9596234959
 40
0.9688479246
 40
0.977081379
 40
0.9843120227
 40
0.9875494056
 40
0.9905352316
 40
0.9932706684
 40
0.9957576478
 40
0.9979992029
 40
1.0
 40
1.0
 40
1.0
 40
1.0
 10
5.985726951
 20
3.4734436069
 30
0.0
 10
5.9857269541
 20
3.4734828829
 30
0.0
 10
5.9857392433
 20
3.4735648903
 30
0.0
 10
5.985792656
 20
3.4736841995
 30
0.0
 10
5.9858795693
 20
3.4738018058
 30
0.0
 10
5.9859993471
 20
3.4739183849
 30
0.0
 10
5.9861519599
 20
3.4740345302
 30
0.0
 10
5.9863374519
 20
3.4741505469
 30
0.0
 10
5.9865558411
 20
3.4742665679
 30
0.0
 10
5.9868070925
 20
3.474382637
 30
0.0
 10
5.9870911339
 20
3.4744987671
 30
0.0
 10
5.9874078684
 20
3.474614955
 30
0.0
 10
5.9877571797
 20
3.4747312029
 30
0.0
 10
5.9882859429
 20
3.474892236
 30
0.0
 10
5.9890280011
 20
3.4750913256
 30
0.0
 10
5.990015138
 20
3.4753227693
 30
0.0
 10
5.9911268887
 20
3.4755545431
 30
0.0
 10
5.9923609414
 20
3.4757865721
 30
0.0
 10
5.9937146886
 20
3.4760187447
 30
0.0
 10
5.9951851259
 20
3.4762510875
 30
0.0
 10
5.9967689911
 20
3.4764835639
 30
0.0
 10
5.9984628869
 20
3.4767161287
 30
0.0
 10
6.0002631278
 20
3.4769487473
 30
0.0
 10
6.0028634713
 20
3.4772667523
 30
0.0
 10
6.0063485881
 20
3.4776612695
 30
0.0
 10
6.0107908661
 20
3.4781244654
 30
0.0
 10
6.0155498025
 20
3.4785881095
 30
0.0
 10
6.02058348
 20
3.4790519987
 30
0.0
 10
6.0258477692
 20
3.4795161518
 30
0.0
 10
6.033192114
 20
3.4801419246
 30
0.0
 10
6.0425907853
 20
3.4809137364
 30
0.0
 10
6.0520518885
 20
3.4816808771
 30
0.0
 10
6.0595948316
 20
3.4823026124
 30
0.0
 10
6.0651168027
 20
3.4827669517
 30
0.0
 10
6.0704779277
 20
3.4832311625
 30
0.0
 10
6.0756310835
 20
3.4836951898
 30
0.0
 10
6.0805309971
 20
3.4841589671
 30
0.0
 10
6.0851346118
 20
3.4846223966
 30
0.0
 10
6.0894015297
 20
3.4850853419
 30
0.0
 10
6.0932942743
 20
3.4855476556
 30
0.0
 10
6.0962870921
 20
3.4859437566
 30
0.0
 10
6.0984681604
 20
3.4862641255
 30
0.0
 10
6.0999371191
 20
3.4864964663
 30
0.0
 10
6.1012893236
 20
3.4867286425
 30
0.0
 10
6.1025217991
 20
3.4869606772
 30
0.0
 10
6.103631969
 20
3.4871924397
 30
0.0
 10
6.1046174916
 20
3.4874238654
 30
0.0
 10
6.1053581558
 20
3.4876229718
 30
0.0
 10
6.1058857727
 20
3.4877840216
 30
0.0
 10
6.1062342425
 20
3.4879002668
 30
0.0
 10
6.106550148
 20
3.4880164515
 30
0.0
 10
6.1068333702
 20
3.4881325798
 30
0.0
 10
6.10708378
 20
3.4882486402
 30
0.0
 10
6.1072373814
 20
3.4883305519
 30
0.0
 10
6.1073082528
 20
3.4883718607
 30
0.0
  0
SPLINE
  5
28E
100
AcDbEntity
  8
0
100
AcDbSpline
 62
7
  6
CONTINUOUS
 70
0
 71
3
 72
56
 73
52
 74
0
 42
0.0000001
 43
0.0000001
 44
0.0000000001
 40
0.0
 40
0.0
 40
0.0
 40
0.0
 40
0.0027239344
 40
0.0056949898
 40
0.0123752346
 40
0.0200324674
 40
0.0286553111
 40
0.038229326
 40
0.048735898
 40
0.0601553291
 40
0.0724673639
 40
0.0856481239
 40
0.099669538
 40
0.1301199116
 40
0.163571885
 40
0.1997494306
 40
0.2383554817
 40
0.2790703495
 40
0.3215572214
 40
0.3654640994
 40
0.4560723956
 40
0.5478947083
 40
0.6378895779
 40
0.6812657307
 40
0.7230771587
 40
0.7629791621
 40
0.8006399321
 40
0.8357501906
 40
0.8680193828
 40
0.8971843817
 40
0.9105269265
 40
0.9230077351
 40
0.9346012367
 40
0.9452834187
 40
0.9550354792
 40
0.963840371
 40
0.9716819945
 40
0.9785480561
 40
0.981613635
 40
0.9844338107
 40
0.9870087414
 40
0.989339109
 40
0.9914263674
 40
0.9932732593
 40
0.9948849906
 40
0.996269989
 40
0.9974418676
 40
0.9984234875
 40
0.9992539805
 40
0.999632758
 40
1.0
 40
1.0
 40
1.0
 40
1.0
 10
5.9706892727
 20
3.4296126114
 30
0.0
 10
5.970824522
 20
3.4296522076
 30
0.0
 10
5.9711084844
 20
3.4297309413
 30
0.0
 10
5.9717292301
 20
3.4298879286
 30
0.0
 10
5.972603641
 20
3.4300818991
 30
0.0
 10
5.9737700709
 20
3.4303071523
 30
0.0
 10
5.9750885894
 20
3.430532749
 30
0.0
 10
5.976556387
 20
3.4307585457
 30
0.0
 10
5.9781703781
 20
3.4309845338
 30
0.0
 10
5.9799272629
 20
3.4312106806
 30
0.0
 10
5.9818235378
 20
3.4314369389
 30
0.0
 10
5.9838553045
 20
3.4316632999
 30
0.0
 10
5.9868218405
 20
3.4319738658
 30
0.0
 10
5.990834996
 20
3.4323586927
 30
0.0
 10
5.9959931526
 20
3.4328093617
 30
0.0
 10
6.0015746902
 20
3.4332605173
 30
0.0
 10
6.0075330918
 20
3.4337120247
 30
0.0
 10
6.0138187762
 20
3.4341637975
 30
0.0
 10
6.0203793652
 20
3.4346157645
 30
0.0
 10
6.0295165207
 20
3.435224935
 30
0.0
 10
6.0412022412
 20
3.4359767185
 30
0.0
 10
6.0552681813
 20
3.4368701598
 30
0.0
 10
6.0668945164
 20
3.4376230663
 30
0.0
 10
6.0759372535
 20
3.4382332709
 30
0.0
 10
6.082393139
 20
3.4386851843
 30
0.0
 10
6.0885525982
 20
3.4391368412
 30
0.0
 10
6.0943644047
 20
3.4395882415
 30
0.0
 10
6.0997800946
 20
3.4400391901
 30
0.0
 10
6.1047546446
 20
3.4404896495
 30
0.0
 10
6.1086041852
 20
3.4408748494
 30
0.0
 10
6.111432031
 20
3.4411860394
 30
0.0
 10
6.1133545903
 20
3.4414123392
 30
0.0
 10
6.1151385127
 20
3.4416384996
 30
0.0
 10
6.1167800582
 20
3.4418645465
 30
0.0
 10
6.1182758802
 20
3.4420903919
 30
0.0
 10
6.1196229704
 20
3.4423159401
 30
0.0
 10
6.1208184896
 20
3.4425411531
 30
0.0
 10
6.1217175075
 20
3.4427350652
 30
0.0
 10
6.1223583527
 20
3.4428919612
 30
0.0
 10
6.1227812484
 20
3.4430050824
 30
0.0
 10
6.1231646701
 20
3.4431181262
 30
0.0
 10
6.1235084249
 20
3.4432310854
 30
0.0
 10
6.1238123477
 20
3.4433439428
 30
0.0
 10
6.1240763351
 20
3.4434567071
 30
0.0
 10
6.1243003997
 20
3.4435693863
 30
0.0
 10
6.1244846918
 20
3.4436820249
 30
0.0
 10
6.1246294807
 20
3.4437949635
 30
0.0
 10
6.124735087
 20
3.4439087339
 30
0.0
 10
6.1247916082
 20
3.4440089084
 30
0.0
 10
6.1248132025
 20
3.4440879349
 30
0.0
 10
6.124816742
 20
3.4441266136
 30
0.0
 10
6.1248167507
 20
3.4441456133
 30
0.0
  0
SPLINE
  5
28F
100
AcDbEntity
  8
0
100
AcDbSpline
 62
7
  6
CONTINUOUS
 70
0
 71
3
 72
59
 73
55
 74
0
 42
0.0000001
 43
0.0000001
 44
0.0000000001
 40
0.0
 40
0.0
 40
0.0
 40
0.0
 40
0.0009580555
 40
0.001991023
 40
0.0031591465
 40
0.0045044413
 40
0.0060544138
 40
0.0078269203
 40
0.0098336076
 40
0.0120816096
 40
0.0145753757
 40
0.0173177243
 40
0.0203103746
 40
0.0235542841
 40
0.0307968231
 40
0.0390431837
 40
0.0482811962
 40
0.0584952058
 40
0.0696681033
 40
0.0817797752
 40
0.0948042084
 40
0.1087140805
 40
0.1390767165
 40
0.172609856
 40
0.2090273805
 40
0.2480135733
 40
0.2892316585
 40
0.3323220529
 40
0.3769104049
 40
0.4226070648
 40
0.4690136814
 40
0.5623325326
 40
0.6536144125
 40
0.697492501
 40
0.7396798936
 40
0.779811984
 40
0.8175371982
 40
0.8525325342
 40
0.8844929676
 40
0.8992507514
 40
0.913150508
 40
0.9261620757
 40
0.938260607
 40
0.9494225865
 40
0.9596251895
 40
0.9688490117
 40
0.9770813552
 40
0.9843124729
 40
0.9875507276
 40
0.9905369857
 40
0.9932722354
 40
0.9957586788
 40
0.9979996243
 40
1.0
 40
1.0
 40
1.0
 40
1.0
 10
5.9857268597
 20
3.4421936076
 30
0.0
 10
5.9857268837
 20
3.4422328873
 30
0.0
 10
5.9857392353
 20
3.4423149018
 30
0.0
 10
5.9857927339
 20
3.4424341968
 30
0.0
 10
5.9858796902
 20
3.4425517899
 30
0.0
 10
5.9859994435
 20
3.4426683638
 30
0.0
 10
5.986151964
 20
3.4427845322
 30
0.0
 10
5.9863373709
 20
3.4429005678
 30
0.0
 10
5.9865557367
 20
3.4430165818
 30
0.0
 10
5.986807024
 20
3.4431326429
 30
0.0
 10
5.9870911351
 20
3.4432487665
 30
0.0
 10
5.9874079382
 20
3.4433649494
 30
0.0
 10
5.987757283
 20
3.4434811929
 30
0.0
 10
5.9882859875
 20
3.4436422216
 30
0.0
 10
5.9890279697
 20
3.443841364
 30
0.0
 10
5.9900151111
 20
3.4440727777
 30
0.0
 10
5.9911269262
 20
3.4443045271
 30
0.0
 10
5.9923609679
 20
3.4445365556
 30
0.0
 10
5.9937146642
 20
3.4447687694
 30
0.0
 10
5.9951851062
 20
3.4450010913
 30
0.0
 10
5.9967690259
 20
3.4452335571
 30
0.0
 10
5.9990963628
 20
3.4455530629
 30
0.0
 10
6.0022618461
 20
3.445948582
 30
0.0
 10
6.0063485796
 20
3.4464112804
 30
0.0
 10
6.0107908864
 20
3.4468744693
 30
0.0
 10
6.015549803
 20
3.4473381042
 30
0.0
 10
6.0205834937
 20
3.4478020057
 30
0.0
 10
6.0258477719
 20
3.4482661434
 30
0.0
 10
6.0312963409
 20
3.4487304172
 30
0.0
 10
6.0368813408
 20
3.449194808
 30
0.0
 10
6.0444581779
 20
3.449815188
 30
0.0
 10
6.0538983482
 20
3.4505806504
 30
0.0
 10
6.0632338843
 20
3.4513539597
 30
0.0
 10
6.0704779257
 20
3.4519811459
 30
0.0
 10
6.0756311078
 20
3.4524452057
 30
0.0
 10
6.0805309904
 20
3.4529089511
 30
0.0
 10
6.0851346448
 20
3.4533724118
 30
0.0
 10
6.0894015097
 20
3.4538353421
 30
0.0
 10
6.0927284306
 20
3.4542303985
 30
0.0
 10
6.0951932319
 20
3.4545490998
 30
0.0
 10
6.0968857597
 20
3.4547816458
 30
0.0
 10
6.0984681806
 20
3.4550141246
 30
0.0
 10
6.0999370849
 20
3.4552464783
 30
0.0
 10
6.1012893111
 20
3.455478661
 30
0.0
 10
6.1025218374
 20
3.45571065
 30
0.0
 10
6.1036319882
 20
3.4559424303
 30
0.0
 10
6.1046174501
 20
3.4561738882
 30
0.0
 10
6.105358122
 20
3.4563729959
 30
0.0
 10
6.1058858241
 20
3.4565340143
 30
0.0
 10
6.1062343438
 20
3.4566502542
 30
0.0
 10
6.106550235
 20
3.4567664432
 30
0.0
 10
6.106833396
 20
3.4568825765
 30
0.0
 10
6.1070837318
 20
3.4569986437
 30
0.0
 10
6.1072372847
 20
3.4570805555
 30
0.0
 10
6.1073081379
 20
3.4571218611
 30
0.0
  0
SPLINE
  5
290
100
AcDbEntity
  8
0
100
AcDbSpline
 62
7
  6
CONTINUOUS
 70
0
 71
3
 72
38
 73
34
 74
0
 42
0.0000001
 43
0.0000001
 44
0.0000000001
 40
0.0
 40
0.0
 40
0.0
 40
0.0
 40
0.0007788315
 40
0.0015858354
 40
0.002446343
 40
0.0033812684
 40
0.0055329112
 40
0.0081322751
 40
0.0112280111
 40
0.0148481713
 40
0.0190096578
 40
0.0237228545
 40
0.0289928557
 40
0.0348216787
 40
0.0412097637
 40
0.0481564892
 40
0.0637194785
 40
0.0814927508
 40
0.1014406586
 40
0.1235200031
 40
0.1476856151
 40
0.1738846721
 40
0.2020536049
 40
0.2321273933
 40
0.2640391689
 40
0.2977116393
 40
0.3700104907
 40
0.4483429504
 40
0.5319622076
 40
0.6200699941
 40
0.7118110858
 40
0.8063248263
 40
1.0
 40
1.0
 40
1.0
 40
1.0
 10
6.1248167702
 20
3.4753956137
 30
0.0
 10
6.1248167705
 20
3.4753751735
 30
0.0
 10
6.1248126726
 20
3.4753334502
 30
0.0
 10
6.1247944444
 20
3.4752715488
 30
0.0
 10
6.1247643133
 20
3.4752099381
 30
0.0
 10
6.1247057033
 20
3.4751241676
 30
0.0
 10
6.12459939
 20
3.4750178264
 30
0.0
 10
6.1244322162
 20
3.4748967623
 30
0.0
 10
6.1242193421
 20
3.4747757766
 30
0.0
 10
6.1239605709
 20
3.4746547411
 30
0.0
 10
6.1236557031
 20
3.4745335553
 30
0.0
 10
6.1233047532
 20
3.474412257
 30
0.0
 10
6.1229078572
 20
3.4742908399
 30
0.0
 10
6.122465245
 20
3.4741693234
 30
0.0
 10
6.1219771835
 20
3.4740477182
 30
0.0
 10
6.1212377259
 20
3.473879034
 30
0.0
 10
6.1202010904
 20
3.4736705917
 30
0.0
 10
6.118823684
 20
3.4734285059
 30
0.0
 10
6.1172730037
 20
3.4731860408
 30
0.0
 10
6.1155527928
 20
3.472943248
 30
0.0
 10
6.1136670762
 20
3.4727002573
 30
0.0
 10
6.1116203492
 20
3.4724571282
 30
0.0
 10
6.1094175745
 20
3.472213845
 30
0.0
 10
6.1070640348
 20
3.471970447
 30
0.0
 10
6.1045653402
 20
3.4717269878
 30
0.0
 10
6.100961951
 20
3.4713943441
 30
0.0
 10
6.0961425356
 20
3.4709817176
 30
0.0
 10
6.0900138119
 20
3.4704970182
 30
0.0
 10
6.0834690155
 20
3.470011874
 30
0.0
 10
6.076571427
 20
3.4695264461
 30
0.0
 10
6.0693872584
 20
3.4690407801
 30
0.0
 10
6.05943752
 20
3.4683877403
 30
0.0
 10
6.0518894116
 20
3.4679065656
 30
0.0
 10
6.0468167702
 20
3.4675831137
 30
0.0
  0
SPLINE
  5
291
100
AcDbEntity
  8
0
100
AcDbSpline
 62
7
  6
CONTINUOUS
 70
0
 71
3
 72
59
 73
55
 74
0
 42
0.0000001
 43
0.0000001
 44
0.0000000001
 40
0.0
 40
0.0
 40
0.0
 40
0.0
 40
0.0020000721
 40
0.004240797
 40
0.0067272376
 40
0.0094628349
 40
0.0124495481
 40
0.0156879222
 40
0.0229186212
 40
0.031150471
 40
0.0403746941
 40
0.0505777526
 40
0.0617393325
 40
0.0738374528
 40
0.086849432
 40
0.1007495149
 40
0.1155069465
 40
0.1474674411
 40
0.1824627051
 40
0.2201880021
 40
0.260320014
 40
0.302507475
 40
0.3463855128
 40
0.4376674205
 40
0.5309863058
 40
0.5773928254
 40
0.6230896181
 40
0.6676778122
 40
0.7107683973
 40
0.7519862761
 40
0.7909727014
 40
0.8273899893
 40
0.8609233819
 40
0.8912857723
 40
0.9051957498
 40
0.9182203281
 40
0.9303319219
 40
0.9415046652
 40
0.9517187752
 40
0.9609569123
 40
0.9692031892
 40
0.9764456139
 40
0.9796895521
 40
0.982682257
 40
0.9854246625
 40
0.9879184654
 40
0.9901664624
 40
0.9921730849
 40
0.9939455353
 40
0.9954954973
 40
0.9968408081
 40
0.9980089558
 40
0.9990419404
 40
1.0
 40
1.0
 40
1.0
 40
1.0
 10
5.9863254172
 20
3.4389803521
 30
0.0
 10
5.9863962557
 20
3.439021658
 30
0.0
 10
5.9865497828
 20
3.4391035728
 30
0.0
 10
5.9868000938
 20
3.4392196423
 30
0.0
 10
5.9870832595
 20
3.439335778
 30
0.0
 10
5.9873991883
 20
3.4394519603
 30
0.0
 10
5.9877477508
 20
3.4395681911
 30
0.0
 10
5.9882754593
 20
3.4397292094
 30
0.0
 10
5.9890160951
 20
3.4399283253
 30
0.0
 10
5.9900015323
 20
3.4401597971
 30
0.0
 10
5.9911117015
 20
3.4403915622
 30
0.0
 10
5.9923442484
 20
3.4406235414
 30
0.0
 10
5.9936964576
 20
3.4408557358
 30
0.0
 10
5.995165344
 20
3.4410880975
 30
0.0
 10
5.9967477798
 20
3.4413205657
 30
0.0
 10
5.9984403241
 20
3.4415531069
 30
0.0
 10
6.0009051247
 20
3.4418718224
 30
0.0
 10
6.0042320316
 20
3.4422668676
 30
0.0
 10
6.0084988984
 20
3.4427298037
 30
0.0
 10
6.01310255
 20
3.4431932604
 30
0.0
 10
6.0180024347
 20
3.443657009
 30
0.0
 10
6.023155614
 20
3.4441210663
 30
0.0
 10
6.0303996563
 20
3.4447482546
 30
0.0
 10
6.0397351918
 20
3.4455215631
 30
0.0
 10
6.0491753599
 20
3.4462870237
 30
0.0
 10
6.0567521987
 20
3.4469074071
 30
0.0
 10
6.0623371933
 20
3.4473717936
 30
0.0
 10
6.0677857681
 20
3.4478360731
 30
0.0
 10
6.0730500393
 20
3.4483002039
 30
0.0
 10
6.0780837376
 20
3.4487641135
 30
0.0
 10
6.0828426459
 20
3.4492277392
 30
0.0
 10
6.0872849614
 20
3.4496909385
 30
0.0
 10
6.0913716863
 20
3.4501536255
 30
0.0
 10
6.0945371727
 20
3.4505491539
 30
0.0
 10
6.09686451
 20
3.4508686569
 30
0.0
 10
6.098448437
 20
3.4511011198
 30
0.0
 10
6.0999188752
 20
3.4513334427
 30
0.0
 10
6.101272565
 20
3.4515656611
 30
0.0
 10
6.1025066099
 20
3.4517976869
 30
0.0
 10
6.1036184316
 20
3.4520294327
 30
0.0
 10
6.1046055695
 20
3.4522608483
 30
0.0
 10
6.1053475434
 20
3.4524599944
 30
0.0
 10
6.1058762471
 20
3.4526210211
 30
0.0
 10
6.106225598
 20
3.4527372642
 30
0.0
 10
6.1065424078
 20
3.4528534466
 30
0.0
 10
6.1068265229
 20
3.4529695697
 30
0.0
 10
6.1070778093
 20
3.4530856296
 30
0.0
 10
6.1072961683
 20
3.4532016456
 30
0.0
 10
6.1074815677
 20
3.4533176829
 30
0.0
 10
6.1076340858
 20
3.4534338508
 30
0.0
 10
6.1077538411
 20
3.4535504242
 30
0.0
 10
6.1078408021
 20
3.4536680165
 30
0.0
 10
6.1078943065
 20
3.4537873109
 30
0.0
 10
6.107906661
 20
3.4538693261
 30
0.0
 10
6.1079066855
 20
3.4539086059
 30
0.0
  0
LINE
  5
292
100
AcDbEntity
  8
0
100
AcDbLine
 62
7
  6
CONTINUOUS
 10
5.9696345198
 20
3.429268667
 11
5.9706892727
 21
3.4296126114
  0
SPLINE
  5
293
100
AcDbEntity
  8
0
100
AcDbSpline
 62
7
  6
CONTINUOUS
 70
0
 71
3
 72
59
 73
55
 74
0
 42
0.0000001
 43
0.0000001
 44
0.0000000001
 40
0.0
 40
0.0
 40
0.0
 40
0.0
 40
0.0020000147
 40
0.004240716
 40
0.0067271957
 40
0.0094629062
 40
0.0124496763
 40
0.0156880389
 40
0.0229186139
 40
0.0311503861
 40
0.0403747687
 40
0.0505778579
 40
0.0617393181
 40
0.073837373
 40
0.0868495047
 40
0.1007496044
 40
0.1155069276
 40
0.1474675061
 40
0.1824626848
 40
0.2201880545
 40
0.2603199956
 40
0.3025075102
 40
0.3463854998
 40
0.4376674161
 40
0.5309863125
 40
0.5773927932
 40
0.6230896379
 40
0.6676777564
 40
0.7107684314
 40
0.7519861985
 40
0.7909727498
 40
0.8273898927
 40
0.8609234435
 40
0.8912856606
 40
0.905195733
 40
0.9182204007
 40
0.9303318869
 40
0.9415045432
 40
0.9517187624
 40
0.9609569923
 40
0.9692031386
 40
0.9764454879
 40
0.9796894748
 40
0.9826822483
 40
0.9854247149
 40
0.9879185447
 40
0.9901665095
 40
0.9921730267
 40
0.9939454171
 40
0.9954953847
 40
0.9968407352
 40
0.9980089267
 40
0.9990419369
 40
1.0
 40
1.0
 40
1.0
 40
1.0
 10
5.9863254139
 20
3.470230352
 30
0.0
 10
5.9863962497
 20
3.4702716581
 30
0.0
 10
5.9865497725
 20
3.4703535738
 30
0.0
 10
5.9868000815
 20
3.4704696437
 30
0.0
 10
5.987083253
 20
3.4705857796
 30
0.0
 10
5.9873991922
 20
3.4707019585
 30
0.0
 10
5.9877477613
 20
3.4708181897
 30
0.0
 10
5.9882754665
 20
3.4709792081
 30
0.0
 10
5.9890160926
 20
3.4711783262
 30
0.0
 10
5.9900015276
 20
3.4714098008
 30
0.0
 10
5.9911117028
 20
3.4716415596
 30
0.0
 10
5.9923442525
 20
3.4718735398
 30
0.0
 10
5.993696455
 20
3.4721057363
 30
0.0
 10
5.9951653399
 20
3.4723380998
 30
0.0
 10
5.9967477807
 20
3.472570564
 30
0.0
 10
5.9984403274
 20
3.4728031057
 30
0.0
 10
6.0009051274
 20
3.4731218248
 30
0.0
 10
6.0042320306
 20
3.4735168652
 30
0.0
 10
6.0084989001
 20
3.4739798055
 30
0.0
 10
6.0131025488
 20
3.4744432588
 30
0.0
 10
6.0180024358
 20
3.4749070101
 30
0.0
 10
6.0231556129
 20
3.4753710653
 30
0.0
 10
6.030399656
 20
3.4759982553
 30
0.0
 10
6.039735191
 20
3.476771563
 30
0.0
 10
6.0491753588
 20
3.477537023
 30
0.0
 10
6.056752199
 20
3.4781574078
 30
0.0
 10
6.0623371915
 20
3.4786217924
 30
0.0
 10
6.0677857691
 20
3.4790860745
 30
0.0
 10
6.0730500368
 20
3.479550202
 30
0.0
 10
6.0780837392
 20
3.4800141159
 30
0.0
 10
6.082842643
 20
3.4804777362
 30
0.0
 10
6.0872849638
 20
3.480940942
 30
0.0
 10
6.0913716832
 20
3.4814036215
 30
0.0
 10
6.0945371722
 20
3.4817991567
 30
0.0
 10
6.0968645104
 20
3.4821186571
 30
0.0
 10
6.0984484411
 20
3.4823511177
 30
0.0
 10
6.0999188746
 20
3.4825834427
 30
0.0
 10
6.1012725606
 20
3.4828156635
 30
0.0
 10
6.1025066107
 20
3.4830476872
 30
0.0
 10
6.1036184363
 20
3.4832794291
 30
0.0
 10
6.1046055686
 20
3.4835108487
 30
0.0
 10
6.1053475352
 20
3.4837099971
 30
0.0
 10
6.1058762414
 20
3.4838710215
 30
0.0
 10
6.1062256001
 20
3.4839872643
 30
0.0
 10
6.106542417
 20
3.484103446
 30
0.0
 10
6.1068265349
 20
3.4842195685
 30
0.0
 10
6.1070778171
 20
3.4843356269
 30
0.0
 10
6.1072961649
 20
3.4844516469
 30
0.0
 10
6.1074815558
 20
3.4845676852
 30
0.0
 10
6.1076340735
 20
3.4846838524
 30
0.0
 10
6.1077538345
 20
3.4848004248
 30
0.0
 10
6.1078408045
 20
3.4849180158
 30
0.0
 10
6.107894318
 20
3.4850373095
 30
0.0
 10
6.1079066755
 20
3.4851193259
 30
0.0
 10
6.1079066999
 20
3.4851586059
 30
0.0
  0
SPLINE
  5
294
100
AcDbEntity
  8
0
100
AcDbSpline
 62
7
  6
CONTINUOUS
 70
0
 71
3
 72
24
 73
20
 74
0
 42
0.0000001
 43
0.0000001
 44
0.0000000001
 40
0.0
 40
0.0
 40
0.0
 40
0.0
 40
0.0103811918
 40
0.0221407151
 40
0.0353091059
 40
0.0499052376
 40
0.0659364953
 40
0.083404439
 40
0.1226393381
 40
0.1675737983
 40
0.2181397637
 40
0.2742207539
 40
0.3356820478
 40
0.4023832259
 40
0.4741599379
 40
0.5508187225
 40
0.6321624881
 40
0.8080650407
 40
1.0
 40
1.0
 40
1.0
 40
1.0
 10
5.9863254089
 20
3.5014803519
 30
0.0
 10
5.9864043359
 20
3.5015263782
 30
0.0
 10
5.986576808
 20
3.5016174852
 30
0.0
 10
5.986859946
 20
3.5017458759
 30
0.0
 10
5.987183325
 20
3.5018743594
 30
0.0
 10
5.9875467927
 20
3.5020029026
 30
0.0
 10
5.9879501316
 20
3.5021315331
 30
0.0
 10
5.9885649223
 20
3.5023101198
 30
0.0
 10
5.9894320755
 20
3.5025307055
 30
0.0
 10
5.9905900558
 20
3.5027867923
 30
0.0
 10
5.9918993892
 20
3.5030431954
 30
0.0
 10
5.9933565614
 20
3.5032999512
 30
0.0
 10
5.9949576759
 20
3.5035569692
 30
0.0
 10
5.9966985203
 20
3.5038141501
 30
0.0
 10
5.9985744435
 20
3.5040714436
 30
0.0
 10
6.0005803418
 20
3.5043288843
 30
0.0
 10
6.0034978894
 20
3.5046815255
 30
0.0
 10
6.0074271002
 20
3.5051183147
 30
0.0
 10
6.0106478368
 20
3.5054467469
 30
0.0
 10
6.0123289341
 20
3.50561256
 30
0.0
  0
ENDSEC
  0
SECTION
  2
OBJECTS
  0
DICTIONARY
  5
C
100
AcDbDictionary
280
0
281
1
  3
ACAD_GROUP
350
D
  3
ACAD_MLINESTYLE
350
17
  3
ACAD_LAYOUT
350
1A
  3
ACAD_PLOTSETTINGS
350
19
  3
ACAD_PLOTSTYLENAME
350
E
  0
DICTIONARY
  5
D
102
{ACAD_REACTORS
330
C
102
}
100
AcDbDictionary
280
0
281
1
  0
ACDBDICTIONARYWDFLT
  5
E
102
{ACAD_REACTORS
330
C
102
}
100
AcDbDictionary
281
1
  3
Normal
350
F
100
AcDbDictionaryWithDefault
340
F
  0
DICTIONARY
  5
17
102
{ACAD_REACTORS
330
C
102
}
100
AcDbDictionary
280
0
281
1
  3
Standard
350
18
  0
DICTIONARY
  5
19
102
{ACAD_REACTORS
330
C
102
}
100
AcDbDictionary
281
1
  0
DICTIONARY
  5
1A
102
{ACAD_REACTORS
330
C
102
}
100
AcDbDictionary
281
1
  3
Model
350
295
  3
Layout1
350
296
  0
ACDBPLACEHOLDER
  5
F
102
{ACAD_REACTORS
330
E
102
}
  0
MLINESTYLE
  5
18
102
{ACAD_REACTORS
330
17
102
}
100
AcDbMlineStyle
  2
STANDARD
 70
0
  3

 62
256
 51
90.0
 52
90.0
 71
2
 49
0.5
 62
256
  6
BYLAYER
 49
-0.5
 62
256
  6
BYLAYER
  0
LAYOUT
  5
295
102
{ACAD_REACTORS
330
1A
102
}
100
AcDbPlotSettings
  1

  2
none_device
  4
ANSI_A_(11.00_x_8.50_Inches)
  6

 40
0.0
 41
0.0
 42
0.0
 43
0.0
 44
279.4
 45
215.9
 46
0.0
 47
0.0
 48
0.0
 49
0.0
140
0.0
141
0.0
142
1.0
143
1.0
 70
1024
 72
0
 73
0
 74
0
  7

 75
0
147
1.0
148
0.0
149
0.0
100
AcDbLayout
  1
Model
 70
0
 71
0
 10
0.0
 20
0.0
 11
11.0
 21
8.5
 12
0.0
 22
0.0
 32
0.0
 14
0.0
 24
0.0
 34
0.0
 15
0.0
 25
0.0
 35
0.0
146
0.0
 13
0.0
 23
0.0
 33
0.0
 16
1.0
 26
0.0
 36
0.0
 17
0.0
 27
1.0
 37
0.0
 76
0
330
208
345
0
346
0
  0
LAYOUT
  5
296
102
{ACAD_REACTORS
330
1A
102
}
100
AcDbPlotSettings
  1

  2
none_device
  4
ANSI_A_(11.00_x_8.50_Inches)
  6

 40
0.0
 41
0.0
 42
0.0
 43
0.0
 44
279.4
 45
215.9
 46
0.0
 47
0.0
 48
0.0
 49
0.0
140
0.0
141
0.0
142
1.0
143
1.0
 70
0
 72
0
 73
0
 74
0
  7

 75
0
147
1.0
148
0.0
149
0.0
100
AcDbLayout
  1
Layout1
 70
0
 71
1
 10
0.0
 20
0.0
 11
11.0
 21
8.5
 12
0.0
 22
0.0
 32
0.0
 14
0.0
 24
0.0
 34
0.0
 15
0.0
 25
0.0
 35
0.0
146
0.0
 13
0.0
 23
0.0
 33
0.0
 16
1.0
 26
0.0
 36
0.0
 17
0.0
 27
1.0
 37
0.0
 76
0
330
209
345
0
346
0
  0
ENDSEC
  0
EOF
