999
DXF file: 233-403_front.dxf
999
Pro/ENGINEER 2018400 by Parametric Technology Corporation
  0
SECTION
  2
HEADER
  9
$ACADVER
  1
AC1027
  9
$DWGCODEPAGE
  3
ANSI_1252
  9
$EXTMAX
 10
11.0
 20
8.5
 30
0.0
  9
$EXTMIN
 10
0.0
 20
0.0
 30
0.0
  9
$LIMMIN
 10
0.0
 20
0.0
  9
$LIMMAX
 10
11.0
 20
8.5
  9
$VIEWCTR
 10
5.5
 20
4.25
  9
$VIEWSIZE
 40
8.5
  9
$CLAYER
  8
0
  9
$LTSCALE
 40
0.605
  9
$CELTYPE
  6
BYLAYER
  9
$DIMSCALE
 40
1.0
  9
$DIMASZ
 40
0.1
  9
$DIMEXO
 40
0.0625
  9
$DIMDLI
 40
0.418
  9
$DIMEXE
 40
0.125
  9
$DIMCEN
 40
0.099
  9
$DIMLFAC
 40
1.0
  9
$DIMBLK
  1
_FILLED
  9
$DIMALT
 70
1
  9
$DIMALTD
 70
1
  9
$DIMALTTD
 70
2
  9
$DIMALTF
 40
25.4
  9
$DIMTXT
 40
0.08
  9
$DIMTOL
 70
1
  9
$DIMLIM
 70
0
  9
$DIMTFAC
 40
1.0
  9
$DIMTP
 40
0.01
  9
$DIMTM
 40
0.01
  9
$DIMGAP
 40
0.09
  9
$DIMDSEP
 70
46
  9
$AUNITS
 70
0
  9
$PDMODE
 70
3
  9
$PDSIZE
 40
0.3125
  9
$HANDSEED
  5
4FB
  9
$TILEMODE
 70
1
  9
$MEASUREMENT
 70
0
  9
$INSUNITS
 70
1
  0
ENDSEC
  0
SECTION
  2
CLASSES
  0
CLASS
  1
ACDBDICTIONARYWDFLT
  2
AcDbDictionaryWithDefault
  3
AutoCAD 2000
 90
0
 91
1
280
0
281
0
  0
CLASS
  1
ACDBPLACEHOLDER
  2
AcDbPlaceHolder
  3
AutoCAD 2000
 90
0
 91
1
280
0
281
0
  0
CLASS
  1
LAYOUT
  2
AcDbLayout
  3
AutoCAD 2000
 90
0
 91
0
280
0
281
0
  0
ENDSEC
  0
SECTION
  2
TABLES
  0
TABLE
  2
VPORT
  5
8
100
AcDbSymbolTable
 70
2
  0
VPORT
  5
1F4
100
AcDbSymbolTableRecord
100
AcDbViewportTableRecord
  2
*ACTIVE
 70
0
 10
0.0
 20
0.0
 11
1.0
 21
1.0
 12
5.5
 22
4.25
 13
0.0
 23
0.0
 14
1.0
 24
1.0
 15
0.0
 25
0.0
 16
0.0
 26
0.0
 36
1.0
 17
0.0
 27
0.0
 37
0.0
 40
8.5
 41
1.2941176471
 42
50.0
 43
0.0
 44
0.0
 50
0.0
 51
0.0
 71
0
 72
100
 73
1
 74
1
 75
0
 76
0
 77
0
 78
0
  0
ENDTAB
  0
TABLE
  2
LTYPE
  5
5
100
AcDbSymbolTable
 70
6
  0
LTYPE
  5
14
100
AcDbSymbolTableRecord
100
AcDbLinetypeTableRecord
  2
BYBLOCK
 70
0
  3

 72
65
 73
0
 40
0.0
  0
LTYPE
  5
15
100
AcDbSymbolTableRecord
100
AcDbLinetypeTableRecord
  2
BYLAYER
 70
0
  3

 72
65
 73
0
 40
0.0
  0
LTYPE
  5
16
100
AcDbSymbolTableRecord
100
AcDbLinetypeTableRecord
  2
CONTINUOUS
 70
64
  3
Solid line
 72
65
 73
0
 40
0.0
  0
LTYPE
  5
1F5
100
AcDbSymbolTableRecord
100
AcDbLinetypeTableRecord
  2
CENTER
 70
64
  3
____ _ ____ _ ____ _ ____ _ ____ _ ____ _ ____
 72
65
 73
4
 40
0.6
 49
0.375
 74
0
 49
-0.075
 74
0
 49
0.075
 74
0
 49
-0.075
 74
0
  0
LTYPE
  5
1F6
100
AcDbSymbolTableRecord
100
AcDbLinetypeTableRecord
  2
HIDDEN
 70
64
  3
- - - - - - - - - - - - - - - - - - - -
 72
65
 73
2
 40
0.2
 49
0.1
 74
0
 49
-0.1
 74
0
  0
LTYPE
  5
1F7
100
AcDbSymbolTableRecord
100
AcDbLinetypeTableRecord
  2
PHANTOM
 70
64
  3
_____ _ _ _____ _ _ _____ _ _ _____
 72
65
 73
6
 40
0.8
 49
0.45
 74
0
 49
-0.05
 74
0
 49
0.1
 74
0
 49
-0.05
 74
0
 49
0.1
 74
0
 49
-0.05
 74
0
  0
LTYPE
  5
1F8
100
AcDbSymbolTableRecord
100
AcDbLinetypeTableRecord
  2
DOT
 70
64
  3
. . . . . . . . . . . . . . . . . . . .
 72
65
 73
2
 40
0.2
 49
0.1
 74
0
 49
-0.1
 74
0
  0
LTYPE
  5
1F9
100
AcDbSymbolTableRecord
100
AcDbLinetypeTableRecord
  2
DASHED
 70
64
  3
- - - - - - - - - - - - - - - - - - - -
 72
65
 73
2
 40
0.2
 49
0.1
 74
0
 49
-0.1
 74
0
  0
ENDTAB
  0
TABLE
  2
LAYER
  5
2
100
AcDbSymbolTable
 70
36
  0
LAYER
  5
10
100
AcDbSymbolTableRecord
100
AcDbLayerTableRecord
  2
0
 70
0
 62
7
  6
CONTINUOUS
370
-3
390
F
  0
LAYER
  5
1FA
100
AcDbSymbolTableRecord
100
AcDbLayerTableRecord
  2
DEFAULT_1
 70
0
 62
7
  6
CENTER
370
-3
390
F
  0
LAYER
  5
1FB
100
AcDbSymbolTableRecord
100
AcDbLayerTableRecord
  2
DEFAULT_2
 70
0
 62
8
  6
HIDDEN
370
-3
390
F
  0
LAYER
  5
1FC
100
AcDbSymbolTableRecord
100
AcDbLayerTableRecord
  2
DEFAULT_3
 70
0
 62
7
  6
PHANTOM
370
-3
390
F
  0
LAYER
  5
1FD
100
AcDbSymbolTableRecord
100
AcDbLayerTableRecord
  2
DEFAULT_COORDINATE_SYSTEM
 70
0
 62
7
  6
CONTINUOUS
370
-3
390
F
  0
LAYER
  5
1FE
100
AcDbSymbolTableRecord
100
AcDbLayerTableRecord
  2
DEFAULT_DATUM_AXES
 70
0
 62
7
  6
CONTINUOUS
370
-3
390
F
  0
LAYER
  5
1FF
100
AcDbSymbolTableRecord
100
AcDbLayerTableRecord
  2
DEFAULT_DATUM_CURVES
 70
0
 62
7
  6
CONTINUOUS
370
-3
390
F
  0
LAYER
  5
200
100
AcDbSymbolTableRecord
100
AcDbLayerTableRecord
  2
DEFAULT_DATUM_PLANES
 70
0
 62
7
  6
CONTINUOUS
370
-3
390
F
  0
LAYER
  5
201
100
AcDbSymbolTableRecord
100
AcDbLayerTableRecord
  2
DEFAULT_SURFACES
 70
0
 62
7
  6
CONTINUOUS
370
-3
390
F
  0
LAYER
  5
202
100
AcDbSymbolTableRecord
100
AcDbLayerTableRecord
  2
INTF_1
 70
0
 62
7
  6
CONTINUOUS
370
-3
390
F
  0
LAYER
  5
203
100
AcDbSymbolTableRecord
100
AcDbLayerTableRecord
  2
RGB____0____0____0__
 70
0
 62
7
  6
CONTINUOUS
370
-3
390
F
  0
ENDTAB
  0
TABLE
  2
STYLE
  5
3
100
AcDbSymbolTable
 70
1
  0
STYLE
  5
11
100
AcDbSymbolTableRecord
100
AcDbTextStyleTableRecord
  2
STANDARD
 70
0
 40
0.0
 41
0.8
 50
0.0
 71
0
 42
0.2
  3
txt
  4

  0
STYLE
  5
204
100
AcDbSymbolTableRecord
100
AcDbTextStyleTableRecord
  2
TEXTSTYLE_1
 70
0
 40
0.0
 41
0.8
 50
0.0
 71
0
 42
0.2
  3
gdt
  4

  0
ENDTAB
  0
TABLE
  2
VIEW
  5
6
100
AcDbSymbolTable
 70
0
  0
ENDTAB
  0
TABLE
  2
UCS
  5
7
100
AcDbSymbolTable
 70
0
  0
ENDTAB
  0
TABLE
  2
APPID
  5
9
100
AcDbSymbolTable
 70
1
  0
APPID
  5
205
100
AcDbSymbolTableRecord
100
AcDbRegAppTableRecord
  2
ACAD
 70
0
  0
ENDTAB
  0
TABLE
  2
BLOCK_RECORD
  5
1
100
AcDbSymbolTable
 70
0
  0
BLOCK_RECORD
  5
206
100
AcDbSymbolTableRecord
100
AcDbBlockTableRecord
  2
*Model_Space
  0
BLOCK_RECORD
  5
207
100
AcDbSymbolTableRecord
100
AcDbBlockTableRecord
  2
*Paper_Space
  0
BLOCK_RECORD
  5
208
100
AcDbSymbolTableRecord
100
AcDbBlockTableRecord
  2
_FILLED
  0
ENDTAB
  0
TABLE
  2
DIMSTYLE
  5
A
100
AcDbSymbolTable
 70
1
100
AcDbDimStyleTable
 71
0
  0
DIMSTYLE
105
209
100
AcDbSymbolTableRecord
100
AcDbDimStyleTableRecord
  2
STANDARD
 70
0
  3

  4

 40
1.0
 41
0.1
 42
0.0625
 43
0.38
 44
0.125
 45
0.0
 46
0.0
 47
0.01
 48
0.01
140
0.08
141
0.09
142
0.0
143
25.4
144
1.0
145
0.0
146
1.0
147
0.09
 71
1.0
 72
0.0
 73
1
 74
1
 75
0
 76
0
 77
0
 78
4
 79
1
170
1
171
1
172
0
173
0
174
0
175
0
176
0
177
0
178
0
270
2
179
2
271
2
272
2
273
2
274
2
275
0
280
0
281
0
282
0
283
1
284
4
285
0
286
0
287
3
288
0
340
11
278
46
341
208
342
208
343
208
344
208
  0
ENDTAB
  0
ENDSEC
  0
SECTION
  2
BLOCKS
  0
BLOCK
  5
20
100
AcDbEntity
  8
0
100
AcDbBlockBegin
  2
*Model_Space
 70
0
 10
0.0
 20
0.0
 30
0.0
  3
*Model_Space
  1

  0
ENDBLK
  5
21
100
AcDbEntity
  8
0
100
AcDbBlockEnd
  0
BLOCK
  5
1C
100
AcDbEntity
  8
0
100
AcDbBlockBegin
  2
*Paper_Space
 70
0
 10
0.0
 20
0.0
 30
0.0
  3
*Paper_Space
  1

  0
ENDBLK
  5
1D
100
AcDbEntity
  8
0
100
AcDbBlockEnd
  0
BLOCK
  5
20A
100
AcDbEntity
  8
0
100
AcDbBlockBegin
  2
_FILLED
 70
64
 10
0.0
 20
0.0
  3
_FILLED
  1

  0
SOLID
  5
20B
100
AcDbEntity
  8
0
  6
BYBLOCK
 62
0
100
AcDbTrace
 10
0.0
 20
0.0
 11
-1.0
 21
0.2
 12
-1.0
 22
-0.2
 13
-1.0
 23
-0.2
  0
ENDBLK
  5
20C
100
AcDbEntity
  8
0
  6
BYBLOCK
 62
0
100
AcDbBlockEnd
  0
ENDSEC
  0
SECTION
  2
ENTITIES
  0
MTEXT
  5
20D
100
AcDbEntity
  8
0
100
AcDbMText
 62
2
  6
CONTINUOUS
  7
STANDARD
 71
3
 72
1
 10
5.1195263975
 20
1.5848486025
 30
0.0
 11
1.0
 21
0.0
 31
0.0
 73
2
 44
0.9
  1
SCALE  1.000
 40
0.08
 41
0.768
  0
LINE
  5
20E
100
AcDbEntity
  8
0
100
AcDbLine
 62
7
  6
CONTINUOUS
 10
0.0
 20
0.0
 11
0.0
 21
8.5
  0
LINE
  5
20F
100
AcDbEntity
  8
0
100
AcDbLine
 62
7
  6
CONTINUOUS
 10
0.0
 20
0.0
 11
11.0
 21
0.0
  0
LINE
  5
210
100
AcDbEntity
  8
0
100
AcDbLine
 62
7
  6
CONTINUOUS
 10
0.0
 20
8.5
 11
11.0
 21
8.5
  0
LINE
  5
211
100
AcDbEntity
  8
0
100
AcDbLine
 62
7
  6
CONTINUOUS
 10
11.0
 20
0.0
 11
11.0
 21
8.5
  0
LINE
  5
212
100
AcDbEntity
  8
0
100
AcDbLine
 62
7
  6
CONTINUOUS
 10
3.1180658235
 20
6.3903591544
 11
3.1134780008
 21
6.3851510619
  0
LINE
  5
213
100
AcDbEntity
  8
0
100
AcDbLine
 62
7
  6
CONTINUOUS
 10
3.1177185171
 20
2.9470193829
 11
3.1128385305
 21
2.9533950081
  0
LINE
  5
214
100
AcDbEntity
  8
0
100
AcDbLine
 62
7
  6
CONTINUOUS
 10
3.1493914008
 20
5.9470590481
 11
3.1542554033
 21
5.9534468761
  0
LINE
  5
215
100
AcDbEntity
  8
0
100
AcDbLine
 62
7
  6
CONTINUOUS
 10
6.4633529798
 20
2.8732333725
 11
6.4565487273
 21
2.8718642476
  0
LINE
  5
216
100
AcDbEntity
  8
0
100
AcDbLine
 62
7
  6
CONTINUOUS
 10
2.9169450752
 20
2.6483268634
 11
6.8019450752
 21
2.6483268634
  0
LINE
  5
217
100
AcDbEntity
  8
0
100
AcDbLine
 62
7
  6
CONTINUOUS
 10
3.2592528448
 20
2.8720658919
 11
3.2524520436
 21
2.8734520548
  0
LINE
  5
218
100
AcDbEntity
  8
0
100
AcDbLine
 62
7
  6
CONTINUOUS
 10
3.1479336734
 20
3.3903965591
 11
3.1525345268
 21
3.3851999734
  0
LINE
  5
219
100
AcDbEntity
  8
0
100
AcDbLine
 62
7
  6
CONTINUOUS
 10
2.8369450752
 20
6.6133268634
 11
2.8369450752
 21
2.7283268634
  0
LINE
  5
21A
100
AcDbEntity
  8
0
100
AcDbLine
 62
7
  6
CONTINUOUS
 10
3.2397669414
 20
5.905914292
 11
3.2375505121
 21
5.899337074
  0
LINE
  5
21B
100
AcDbEntity
  8
0
100
AcDbLine
 62
7
  6
CONTINUOUS
 10
3.1134780008
 20
5.6351510619
 11
3.1180658235
 21
5.6403591544
  0
LINE
  5
21C
100
AcDbEntity
  8
0
100
AcDbLine
 62
7
  6
CONTINUOUS
 10
5.3133529798
 20
2.8732333725
 11
5.3065487273
 21
2.8718642476
  0
LINE
  5
21D
100
AcDbEntity
  8
0
100
AcDbLine
 62
7
  6
CONTINUOUS
 10
4.4092528448
 20
2.8720658919
 11
4.4024520436
 21
2.8734520548
  0
LINE
  5
21E
100
AcDbEntity
  8
0
100
AcDbLine
 62
7
  6
CONTINUOUS
 10
3.1177185171
 20
3.6970193829
 11
3.1128385305
 21
3.7033950081
  0
LINE
  5
21F
100
AcDbEntity
  8
0
100
AcDbLine
 62
7
  6
CONTINUOUS
 10
3.2397669411
 20
3.4351912815
 11
3.2375505121
 21
3.4417684987
  0
LINE
  5
220
100
AcDbEntity
  8
0
100
AcDbLine
 62
7
  6
CONTINUOUS
 10
3.2375505121
 20
5.149337074
 11
3.2397669414
 21
5.155914292
  0
LINE
  5
221
100
AcDbEntity
  8
0
100
AcDbLine
 62
7
  6
CONTINUOUS
 10
3.6340224342
 20
6.0864521176
 11
3.6371224543
 21
6.0938583814
  0
LINE
  5
222
100
AcDbEntity
  8
0
100
AcDbLine
 62
7
  6
CONTINUOUS
 10
3.1542554033
 20
5.2034468761
 11
3.1493914008
 21
5.1970590481
  0
LINE
  5
223
100
AcDbEntity
  8
0
100
AcDbLine
 62
7
  6
CONTINUOUS
 10
3.6948576217
 20
5.9605449884
 11
3.6932059781
 21
5.9586700439
  0
LINE
  5
224
100
AcDbEntity
  8
0
100
AcDbLine
 62
7
  6
CONTINUOUS
 10
4.1633529798
 20
2.8732333725
 11
4.1565487273
 21
2.8718642476
  0
LINE
  5
225
100
AcDbEntity
  8
0
100
AcDbLine
 62
7
  6
CONTINUOUS
 10
5.9213203636
 20
3.2197978368
 11
5.9133589168
 21
3.2187594571
  0
LINE
  5
226
100
AcDbEntity
  8
0
100
AcDbLine
 62
7
  6
CONTINUOUS
 10
6.0951066149
 20
3.1220121715
 11
6.1030706375
 21
3.1230306072
  0
LINE
  5
227
100
AcDbEntity
  8
0
100
AcDbLine
 62
7
  6
CONTINUOUS
 10
4.9451066149
 20
3.1220121715
 11
4.9530706375
 21
3.1230306072
  0
LINE
  5
228
100
AcDbEntity
  8
0
100
AcDbLine
 62
7
  6
CONTINUOUS
 10
3.8030706375
 20
3.2180749655
 11
3.7951066149
 21
3.2190934012
  0
LINE
  5
229
100
AcDbEntity
  8
0
100
AcDbLine
 62
7
  6
CONTINUOUS
 10
3.6133589168
 20
3.1223461157
 11
3.6213203636
 21
3.1213077359
  0
LINE
  5
22A
100
AcDbEntity
  8
0
100
AcDbLine
 62
7
  6
CONTINUOUS
 10
5.5592528448
 20
2.8720658919
 11
5.5524520436
 21
2.8734520548
  0
LINE
  5
22B
100
AcDbEntity
  8
0
100
AcDbLine
 62
7
  6
CONTINUOUS
 10
3.1479336734
 20
4.1403965591
 11
3.1525345268
 21
4.1351999734
  0
LINE
  5
22C
100
AcDbEntity
  8
0
100
AcDbLine
 62
7
  6
CONTINUOUS
 10
3.6944196178
 20
3.3396277571
 11
3.6926627924
 21
3.3419230217
  0
LINE
  5
22D
100
AcDbEntity
  8
0
100
AcDbLine
 62
7
  6
CONTINUOUS
 10
3.6340224342
 20
3.2546534551
 11
3.6371224543
 21
3.2472471913
  0
LINE
  5
22E
100
AcDbEntity
  8
0
100
AcDbLine
 62
7
  6
CONTINUOUS
 10
3.2397669411
 20
4.1851912815
 11
3.2375505121
 21
4.1917684987
  0
LINE
  5
22F
100
AcDbEntity
  8
0
100
AcDbLine
 62
7
  6
CONTINUOUS
 10
3.2375505121
 20
4.399337074
 11
3.2397669414
 21
4.405914292
  0
LINE
  5
230
100
AcDbEntity
  8
0
100
AcDbLine
 62
7
  6
CONTINUOUS
 10
3.779235822
 20
6.2465030905
 11
3.7823172821
 21
6.2539170956
  0
LINE
  5
231
100
AcDbEntity
  8
0
100
AcDbLine
 62
7
  6
CONTINUOUS
 10
3.7260925015
 20
5.5896674223
 11
3.7278435725
 21
5.5919670799
  0
LINE
  5
232
100
AcDbEntity
  8
0
100
AcDbLine
 62
7
  6
CONTINUOUS
 10
4.2634780008
 20
6.3851510619
 11
4.2680658235
 21
6.3903591544
  0
LINE
  5
233
100
AcDbEntity
  8
0
100
AcDbLine
 62
7
  6
CONTINUOUS
 10
3.1134780008
 20
4.8851510619
 11
3.1180658235
 21
4.8903591544
  0
LINE
  5
234
100
AcDbEntity
  8
0
100
AcDbLine
 62
7
  6
CONTINUOUS
 10
6.4633529798
 20
3.6232333725
 11
6.4565487273
 21
3.6218642476
  0
LINE
  5
235
100
AcDbEntity
  8
0
100
AcDbLine
 62
7
  6
CONTINUOUS
 10
4.7713203636
 20
3.2197978368
 11
4.7633589168
 21
3.2187594571
  0
LINE
  5
236
100
AcDbEntity
  8
0
100
AcDbLine
 62
7
  6
CONTINUOUS
 10
3.7951066149
 20
3.1220121715
 11
3.8030706375
 21
3.1230306072
  0
LINE
  5
237
100
AcDbEntity
  8
0
100
AcDbLine
 62
7
  6
CONTINUOUS
 10
4.9530706375
 20
3.2180749655
 11
4.9451066149
 21
3.2190934012
  0
LINE
  5
238
100
AcDbEntity
  8
0
100
AcDbLine
 62
7
  6
CONTINUOUS
 10
4.7633589168
 20
3.1223461157
 11
4.7713203636
 21
3.1213077359
  0
LINE
  5
239
100
AcDbEntity
  8
0
100
AcDbLine
 62
7
  6
CONTINUOUS
 10
5.9133589168
 20
3.1223461157
 11
5.9213203636
 21
3.1213077359
  0
LINE
  5
23A
100
AcDbEntity
  8
0
100
AcDbLine
 62
7
  6
CONTINUOUS
 10
3.7247254717
 20
3.7105823931
 11
3.7263818076
 21
3.7087115898
  0
LINE
  5
23B
100
AcDbEntity
  8
0
100
AcDbLine
 62
7
  6
CONTINUOUS
 10
3.1177185171
 20
4.4470193829
 11
3.1128385305
 21
4.4533950081
  0
LINE
  5
23C
100
AcDbEntity
  8
0
100
AcDbLine
 62
7
  6
CONTINUOUS
 10
4.2677185171
 20
2.9470193829
 11
4.2628385305
 21
2.9533950081
  0
LINE
  5
23D
100
AcDbEntity
  8
0
100
AcDbLine
 62
7
  6
CONTINUOUS
 10
3.7823172821
 20
3.0871884771
 11
3.779235822
 21
3.0946024822
  0
LINE
  5
23E
100
AcDbEntity
  8
0
100
AcDbLine
 62
7
  6
CONTINUOUS
 10
3.2397669411
 20
4.9351912815
 11
3.2303459948
 21
4.9631477864
  0
LINE
  5
23F
100
AcDbEntity
  8
0
100
AcDbLine
 62
7
  6
CONTINUOUS
 10
3.779235822
 20
5.4965030905
 11
3.7823172821
 21
5.5039170956
  0
LINE
  5
240
100
AcDbEntity
  8
0
100
AcDbLine
 62
7
  6
CONTINUOUS
 10
3.6371224543
 20
5.3438583814
 11
3.6340224342
 21
5.3364521176
  0
LINE
  5
241
100
AcDbEntity
  8
0
100
AcDbLine
 62
7
  6
CONTINUOUS
 10
5.5524520436
 20
3.4676535179
 11
5.5592528456
 21
3.4690396809
  0
LINE
  5
242
100
AcDbEntity
  8
0
100
AcDbLine
 62
7
  6
CONTINUOUS
 10
3.6213203636
 20
3.2197978368
 11
3.6133589168
 21
3.2187594571
  0
LINE
  5
243
100
AcDbEntity
  8
0
100
AcDbLine
 62
7
  6
CONTINUOUS
 10
6.1030706375
 20
3.2180749655
 11
6.0951066149
 21
3.2190934012
  0
LINE
  5
244
100
AcDbEntity
  8
0
100
AcDbLine
 62
7
  6
CONTINUOUS
 10
4.1565487281
 20
3.4692413249
 11
4.1633529798
 21
3.4678722002
  0
LINE
  5
245
100
AcDbEntity
  8
0
100
AcDbLine
 62
7
  6
CONTINUOUS
 10
3.2592528448
 20
3.6220658919
 11
3.2524520436
 21
3.6234520548
  0
LINE
  5
246
100
AcDbEntity
  8
0
100
AcDbLine
 62
7
  6
CONTINUOUS
 10
4.2979336734
 20
3.3903965591
 11
4.3025345268
 21
3.3851999734
  0
LINE
  5
247
100
AcDbEntity
  8
0
100
AcDbLine
 62
7
  6
CONTINUOUS
 10
3.6944196178
 20
4.0896277571
 11
3.6926627924
 21
4.0919230217
  0
LINE
  5
248
100
AcDbEntity
  8
0
100
AcDbLine
 62
7
  6
CONTINUOUS
 10
3.6340224342
 20
4.0046534551
 11
3.6371224543
 21
3.9972471913
  0
LINE
  5
249
100
AcDbEntity
  8
0
100
AcDbLine
 62
7
  6
CONTINUOUS
 10
3.7823172821
 20
3.8371884771
 11
3.779235822
 21
3.8446024822
  0
LINE
  5
24A
100
AcDbEntity
  8
0
100
AcDbLine
 62
7
  6
CONTINUOUS
 10
4.1783192982
 20
6.4420245857
 11
4.1761193496
 21
6.4354418369
  0
LINE
  5
24B
100
AcDbEntity
  8
0
100
AcDbLine
 62
7
  6
CONTINUOUS
 10
3.2375505121
 20
3.649337074
 11
3.2397669414
 21
3.655914292
  0
LINE
  5
24C
100
AcDbEntity
  8
0
100
AcDbLine
 62
7
  6
CONTINUOUS
 10
3.6371224543
 20
4.5938583814
 11
3.6340224342
 21
4.5864521176
  0
LINE
  5
24D
100
AcDbEntity
  8
0
100
AcDbLine
 62
7
  6
CONTINUOUS
 10
3.1542554033
 20
4.4534468761
 11
3.1493914008
 21
4.4470590481
  0
LINE
  5
24E
100
AcDbEntity
  8
0
100
AcDbLine
 62
7
  6
CONTINUOUS
 10
4.3042554033
 20
5.9534468761
 11
4.2993914008
 21
5.9470590481
  0
LINE
  5
24F
100
AcDbEntity
  8
0
100
AcDbLine
 62
7
  6
CONTINUOUS
 10
3.6932059781
 20
5.2086700439
 11
3.6948576217
 21
5.2105449884
  0
LINE
  5
250
100
AcDbEntity
  8
0
100
AcDbLine
 62
7
  6
CONTINUOUS
 10
4.2634780008
 20
5.6351510619
 11
4.2680658235
 21
5.6403591544
  0
LINE
  5
251
100
AcDbEntity
  8
0
100
AcDbLine
 62
7
  6
CONTINUOUS
 10
4.4024520436
 20
3.4676535179
 11
4.4092528456
 21
3.4690396809
  0
LINE
  5
252
100
AcDbEntity
  8
0
100
AcDbLine
 62
7
  6
CONTINUOUS
 10
5.3133529798
 20
3.6232333725
 11
5.3065487273
 21
3.6218642476
  0
LINE
  5
253
100
AcDbEntity
  8
0
100
AcDbLine
 62
7
  6
CONTINUOUS
 10
6.0951066149
 20
3.8720121715
 11
6.1030706375
 21
3.8730306072
  0
LINE
  5
254
100
AcDbEntity
  8
0
100
AcDbLine
 62
7
  6
CONTINUOUS
 10
5.3065487281
 20
3.4692413249
 11
5.3133529798
 21
3.4678722002
  0
LINE
  5
255
100
AcDbEntity
  8
0
100
AcDbLine
 62
7
  6
CONTINUOUS
 10
4.4092528448
 20
3.6220658919
 11
4.4024520436
 21
3.6234520548
  0
LINE
  5
256
100
AcDbEntity
  8
0
100
AcDbLine
 62
7
  6
CONTINUOUS
 10
3.1479336734
 20
4.8903965591
 11
3.1525345268
 21
4.8851999734
  0
LINE
  5
257
100
AcDbEntity
  8
0
100
AcDbLine
 62
7
  6
CONTINUOUS
 10
3.1177185171
 20
5.1970193829
 11
3.1128385305
 21
5.2033950081
  0
LINE
  5
258
100
AcDbEntity
  8
0
100
AcDbLine
 62
7
  6
CONTINUOUS
 10
4.2677185171
 20
3.6970193829
 11
4.2628385305
 21
3.7033950081
  0
LINE
  5
259
100
AcDbEntity
  8
0
100
AcDbLine
 62
7
  6
CONTINUOUS
 10
3.6340224342
 20
4.7546534551
 11
3.6371224543
 21
4.7472471913
  0
LINE
  5
25A
100
AcDbEntity
  8
0
100
AcDbLine
 62
7
  6
CONTINUOUS
 10
3.2397669411
 20
5.6851912815
 11
3.2375505121
 21
5.6917684987
  0
LINE
  5
25B
100
AcDbEntity
  8
0
100
AcDbLine
 62
7
  6
CONTINUOUS
 10
4.1761193499
 20
2.905663735
 11
4.1783192982
 21
2.899080987
  0
LINE
  5
25C
100
AcDbEntity
  8
0
100
AcDbLine
 62
7
  6
CONTINUOUS
 10
4.1783192982
 20
5.6920245857
 11
4.1761193496
 21
5.6854418369
  0
LINE
  5
25D
100
AcDbEntity
  8
0
100
AcDbLine
 62
7
  6
CONTINUOUS
 10
3.2375505121
 20
2.899337074
 11
3.2397669414
 21
2.905914292
  0
LINE
  5
25E
100
AcDbEntity
  8
0
100
AcDbLine
 62
7
  6
CONTINUOUS
 10
3.779235822
 20
4.7465030905
 11
3.7823172821
 21
4.7539170956
  0
LINE
  5
25F
100
AcDbEntity
  8
0
100
AcDbLine
 62
7
  6
CONTINUOUS
 10
3.7278435725
 20
4.8419670799
 11
3.7260925015
 21
4.8396674223
  0
LINE
  5
260
100
AcDbEntity
  8
0
100
AcDbLine
 62
7
  6
CONTINUOUS
 10
3.1134780008
 20
4.1351510619
 11
3.1180658235
 21
4.1403591544
  0
LINE
  5
261
100
AcDbEntity
  8
0
100
AcDbLine
 62
7
  6
CONTINUOUS
 10
4.8432059781
 20
5.9586700439
 11
4.8448576217
 21
5.9605449884
  0
LINE
  5
262
100
AcDbEntity
  8
0
100
AcDbLine
 62
7
  6
CONTINUOUS
 10
3.2524520436
 20
3.4676535179
 11
3.2592528456
 21
3.4690396809
  0
LINE
  5
263
100
AcDbEntity
  8
0
100
AcDbLine
 62
7
  6
CONTINUOUS
 10
4.1633529798
 20
3.6232333725
 11
4.1565487273
 21
3.6218642476
  0
LINE
  5
264
100
AcDbEntity
  8
0
100
AcDbLine
 62
7
  6
CONTINUOUS
 10
5.9213203636
 20
3.9697978368
 11
5.9133589168
 21
3.9687594571
  0
LINE
  5
265
100
AcDbEntity
  8
0
100
AcDbLine
 62
7
  6
CONTINUOUS
 10
4.9451066149
 20
3.8720121715
 11
4.9530706375
 21
3.8730306072
  0
LINE
  5
266
100
AcDbEntity
  8
0
100
AcDbLine
 62
7
  6
CONTINUOUS
 10
3.8030706375
 20
3.9680749655
 11
3.7951066149
 21
3.9690934012
  0
LINE
  5
267
100
AcDbEntity
  8
0
100
AcDbLine
 62
7
  6
CONTINUOUS
 10
3.6133589168
 20
3.8723461157
 11
3.6213203636
 21
3.8713077359
  0
LINE
  5
268
100
AcDbEntity
  8
0
100
AcDbLine
 62
7
  6
CONTINUOUS
 10
4.7633589168
 20
3.8723461157
 11
4.7713203636
 21
3.8713077359
  0
LINE
  5
269
100
AcDbEntity
  8
0
100
AcDbLine
 62
7
  6
CONTINUOUS
 10
6.4565487281
 20
3.4692413249
 11
6.4633529798
 21
3.4678722002
  0
LINE
  5
26A
100
AcDbEntity
  8
0
100
AcDbLine
 62
7
  6
CONTINUOUS
 10
5.5592528448
 20
3.6220658919
 11
5.5524520436
 21
3.6234520548
  0
LINE
  5
26B
100
AcDbEntity
  8
0
100
AcDbLine
 62
7
  6
CONTINUOUS
 10
3.7247254717
 20
4.4605823931
 11
3.7263818076
 21
4.4587115898
  0
LINE
  5
26C
100
AcDbEntity
  8
0
100
AcDbLine
 62
7
  6
CONTINUOUS
 10
3.7823172821
 20
4.5871884771
 11
3.779235822
 21
4.5946024822
  0
LINE
  5
26D
100
AcDbEntity
  8
0
100
AcDbLine
 62
7
  6
CONTINUOUS
 10
3.2375505121
 20
6.4417684987
 11
3.2397669411
 21
6.4351912815
  0
LINE
  5
26E
100
AcDbEntity
  8
0
100
AcDbLine
 62
7
  6
CONTINUOUS
 10
4.1761193499
 20
3.655663735
 11
4.1783192982
 21
3.649080987
  0
LINE
  5
26F
100
AcDbEntity
  8
0
100
AcDbLine
 62
7
  6
CONTINUOUS
 10
4.1783192982
 20
4.9420245857
 11
4.1761193496
 21
4.9354418369
  0
LINE
  5
270
100
AcDbEntity
  8
0
100
AcDbLine
 62
7
  6
CONTINUOUS
 10
4.3875505121
 20
5.899337074
 11
4.3897669414
 21
5.905914292
  0
LINE
  5
271
100
AcDbEntity
  8
0
100
AcDbLine
 62
7
  6
CONTINUOUS
 10
3.779235822
 20
3.9965030905
 11
3.7823172821
 21
4.0039170956
  0
LINE
  5
272
100
AcDbEntity
  8
0
100
AcDbLine
 62
7
  6
CONTINUOUS
 10
3.6371224543
 20
3.8438583814
 11
3.6340224342
 21
3.8364521176
  0
LINE
  5
273
100
AcDbEntity
  8
0
100
AcDbLine
 62
7
  6
CONTINUOUS
 10
3.1542554033
 20
3.7034468761
 11
3.1493914008
 21
3.6970590481
  0
LINE
  5
274
100
AcDbEntity
  8
0
100
AcDbLine
 62
7
  6
CONTINUOUS
 10
4.3042554033
 20
5.2034468761
 11
4.2993914008
 21
5.1970590481
  0
LINE
  5
275
100
AcDbEntity
  8
0
100
AcDbLine
 62
7
  6
CONTINUOUS
 10
3.6932059781
 20
4.4586700439
 11
3.6948576217
 21
4.4605449884
  0
LINE
  5
276
100
AcDbEntity
  8
0
100
AcDbLine
 62
7
  6
CONTINUOUS
 10
5.4134780008
 20
6.3851510619
 11
5.4180658235
 21
6.3903591544
  0
LINE
  5
277
100
AcDbEntity
  8
0
100
AcDbLine
 62
7
  6
CONTINUOUS
 10
5.5524520436
 20
4.2176535179
 11
5.5592528456
 21
4.2190396809
  0
LINE
  5
278
100
AcDbEntity
  8
0
100
AcDbLine
 62
7
  6
CONTINUOUS
 10
6.4633529798
 20
4.3732333725
 11
6.4565487273
 21
4.3718642476
  0
LINE
  5
279
100
AcDbEntity
  8
0
100
AcDbLine
 62
7
  6
CONTINUOUS
 10
4.7713203636
 20
3.9697978368
 11
4.7633589168
 21
3.9687594571
  0
LINE
  5
27A
100
AcDbEntity
  8
0
100
AcDbLine
 62
7
  6
CONTINUOUS
 10
3.7951066149
 20
3.8720121715
 11
3.8030706375
 21
3.8730306072
  0
LINE
  5
27B
100
AcDbEntity
  8
0
100
AcDbLine
 62
7
  6
CONTINUOUS
 10
4.9530706375
 20
3.9680749655
 11
4.9451066149
 21
3.9690934012
  0
LINE
  5
27C
100
AcDbEntity
  8
0
100
AcDbLine
 62
7
  6
CONTINUOUS
 10
5.9133589168
 20
3.8723461157
 11
5.9213203636
 21
3.8713077359
  0
LINE
  5
27D
100
AcDbEntity
  8
0
100
AcDbLine
 62
7
  6
CONTINUOUS
 10
3.2592528448
 20
4.3720658919
 11
3.2524520436
 21
4.3734520548
  0
LINE
  5
27E
100
AcDbEntity
  8
0
100
AcDbLine
 62
7
  6
CONTINUOUS
 10
4.2979336734
 20
4.1403965591
 11
4.3025345268
 21
4.1351999734
  0
LINE
  5
27F
100
AcDbEntity
  8
0
100
AcDbLine
 62
7
  6
CONTINUOUS
 10
3.6944196178
 20
4.8396277571
 11
3.6926627924
 21
4.8419230217
  0
LINE
  5
280
100
AcDbEntity
  8
0
100
AcDbLine
 62
7
  6
CONTINUOUS
 10
4.8444196178
 20
3.3396277571
 11
4.8426627924
 21
3.3419230217
  0
LINE
  5
281
100
AcDbEntity
  8
0
100
AcDbLine
 62
7
  6
CONTINUOUS
 10
3.6340224342
 20
5.5046534551
 11
3.6371224543
 21
5.4972471913
  0
LINE
  5
282
100
AcDbEntity
  8
0
100
AcDbLine
 62
7
  6
CONTINUOUS
 10
3.7823172821
 20
5.3371884771
 11
3.779235822
 21
5.3446024822
  0
LINE
  5
283
100
AcDbEntity
  8
0
100
AcDbLine
 62
7
  6
CONTINUOUS
 10
4.3897669411
 20
3.4351912815
 11
4.3875505121
 21
3.4417684987
  0
LINE
  5
284
100
AcDbEntity
  8
0
100
AcDbLine
 62
7
  6
CONTINUOUS
 10
4.1761193499
 20
4.405663735
 11
4.1783192982
 21
4.399080987
  0
LINE
  5
285
100
AcDbEntity
  8
0
100
AcDbLine
 62
7
  6
CONTINUOUS
 10
4.1783192982
 20
4.1920245857
 11
4.1761193496
 21
4.1854418369
  0
LINE
  5
286
100
AcDbEntity
  8
0
100
AcDbLine
 62
7
  6
CONTINUOUS
 10
4.3875505121
 20
5.149337074
 11
4.3897669414
 21
5.155914292
  0
LINE
  5
287
100
AcDbEntity
  8
0
100
AcDbLine
 62
7
  6
CONTINUOUS
 10
4.929235822
 20
6.2465030905
 11
4.9323172821
 21
6.2539170956
  0
LINE
  5
288
100
AcDbEntity
  8
0
100
AcDbLine
 62
7
  6
CONTINUOUS
 10
4.7871224543
 20
6.0938583814
 11
4.7840224342
 21
6.0864521176
  0
LINE
  5
289
100
AcDbEntity
  8
0
100
AcDbLine
 62
7
  6
CONTINUOUS
 10
3.6371224543
 20
3.0938583814
 11
3.6340224342
 21
3.0864521176
  0
LINE
  5
28A
100
AcDbEntity
  8
0
100
AcDbLine
 62
7
  6
CONTINUOUS
 10
3.7278435725
 20
4.0919670799
 11
3.7260925015
 21
4.0896674223
  0
LINE
  5
28B
100
AcDbEntity
  8
0
100
AcDbLine
 62
7
  6
CONTINUOUS
 10
4.8778435725
 20
5.5919670799
 11
4.8760925015
 21
5.5896674223
  0
LINE
  5
28C
100
AcDbEntity
  8
0
100
AcDbLine
 62
7
  6
CONTINUOUS
 10
4.2634780008
 20
4.8851510619
 11
4.2680658235
 21
4.8903591544
  0
LINE
  5
28D
100
AcDbEntity
  8
0
100
AcDbLine
 62
7
  6
CONTINUOUS
 10
3.1134780008
 20
3.3851510619
 11
3.1180658235
 21
3.3903591544
  0
LINE
  5
28E
100
AcDbEntity
  8
0
100
AcDbLine
 62
7
  6
CONTINUOUS
 10
4.4024520436
 20
4.2176535179
 11
4.4092528456
 21
4.2190396809
  0
LINE
  5
28F
100
AcDbEntity
  8
0
100
AcDbLine
 62
7
  6
CONTINUOUS
 10
5.3133529798
 20
4.3732333725
 11
5.3065487273
 21
4.3718642476
  0
LINE
  5
290
100
AcDbEntity
  8
0
100
AcDbLine
 62
7
  6
CONTINUOUS
 10
3.6213203636
 20
3.9697978368
 11
3.6133589168
 21
3.9687594571
  0
LINE
  5
291
100
AcDbEntity
  8
0
100
AcDbLine
 62
7
  6
CONTINUOUS
 10
6.1030706375
 20
3.9680749655
 11
6.0951066149
 21
3.9690934012
  0
LINE
  5
292
100
AcDbEntity
  8
0
100
AcDbLine
 62
7
  6
CONTINUOUS
 10
4.1565487281
 20
4.2192413249
 11
4.1633529798
 21
4.2178722002
  0
LINE
  5
293
100
AcDbEntity
  8
0
100
AcDbLine
 62
7
  6
CONTINUOUS
 10
3.1479336734
 20
5.6403965591
 11
3.1525345268
 21
5.6351999734
  0
LINE
  5
294
100
AcDbEntity
  8
0
100
AcDbLine
 62
7
  6
CONTINUOUS
 10
4.8747254717
 20
3.7105823931
 11
4.8763818076
 21
3.7087115898
  0
LINE
  5
295
100
AcDbEntity
  8
0
100
AcDbLine
 62
7
  6
CONTINUOUS
 10
3.7247254717
 20
5.2105823931
 11
3.7263818076
 21
5.2087115898
  0
LINE
  5
296
100
AcDbEntity
  8
0
100
AcDbLine
 62
7
  6
CONTINUOUS
 10
3.1128385305
 20
5.9533950081
 11
3.1177185171
 21
5.9470193829
  0
LINE
  5
297
100
AcDbEntity
  8
0
100
AcDbLine
 62
7
  6
CONTINUOUS
 10
4.2677185171
 20
4.4470193829
 11
4.2628385305
 21
4.4533950081
  0
LINE
  5
298
100
AcDbEntity
  8
0
100
AcDbLine
 62
7
  6
CONTINUOUS
 10
5.4177185171
 20
2.9470193829
 11
5.4128385305
 21
2.9533950081
  0
LINE
  5
299
100
AcDbEntity
  8
0
100
AcDbLine
 62
7
  6
CONTINUOUS
 10
4.7840224342
 20
3.2546534551
 11
4.7871224543
 21
3.2472471913
  0
LINE
  5
29A
100
AcDbEntity
  8
0
100
AcDbLine
 62
7
  6
CONTINUOUS
 10
3.6371224543
 20
6.2472471913
 11
3.6340224342
 21
6.2546534551
  0
LINE
  5
29B
100
AcDbEntity
  8
0
100
AcDbLine
 62
7
  6
CONTINUOUS
 10
4.9323172821
 20
3.0871884771
 11
4.929235822
 21
3.0946024822
  0
LINE
  5
29C
100
AcDbEntity
  8
0
100
AcDbLine
 62
7
  6
CONTINUOUS
 10
4.3897669411
 20
4.1851912815
 11
4.3875505121
 21
4.1917684987
  0
LINE
  5
29D
100
AcDbEntity
  8
0
100
AcDbLine
 62
7
  6
CONTINUOUS
 10
4.1761193499
 20
5.155663735
 11
4.1783192982
 21
5.149080987
  0
LINE
  5
29E
100
AcDbEntity
  8
0
100
AcDbLine
 62
7
  6
CONTINUOUS
 10
4.3875505121
 20
4.399337074
 11
4.3897669414
 21
4.405914292
  0
LINE
  5
29F
100
AcDbEntity
  8
0
100
AcDbLine
 62
7
  6
CONTINUOUS
 10
3.779235822
 20
3.2465030905
 11
3.7823172821
 21
3.2539170956
  0
LINE
  5
2A0
100
AcDbEntity
  8
0
100
AcDbLine
 62
7
  6
CONTINUOUS
 10
4.7871224543
 20
5.3438583814
 11
4.7840224342
 21
5.3364521176
  0
LINE
  5
2A1
100
AcDbEntity
  8
0
100
AcDbLine
 62
7
  6
CONTINUOUS
 10
3.1542554033
 20
2.9534468761
 11
3.1493914008
 21
2.9470590481
  0
LINE
  5
2A2
100
AcDbEntity
  8
0
100
AcDbLine
 62
7
  6
CONTINUOUS
 10
4.3042554033
 20
4.4534468761
 11
4.2993914008
 21
4.4470590481
  0
LINE
  5
2A3
100
AcDbEntity
  8
0
100
AcDbLine
 62
7
  6
CONTINUOUS
 10
5.4542554033
 20
5.9534468761
 11
5.4493914008
 21
5.9470590481
  0
LINE
  5
2A4
100
AcDbEntity
  8
0
100
AcDbLine
 62
7
  6
CONTINUOUS
 10
4.8432059781
 20
5.2086700439
 11
4.8448576217
 21
5.2105449884
  0
LINE
  5
2A5
100
AcDbEntity
  8
0
100
AcDbLine
 62
7
  6
CONTINUOUS
 10
4.1633529798
 20
4.3732333725
 11
4.1565487273
 21
4.3718642476
  0
LINE
  5
2A6
100
AcDbEntity
  8
0
100
AcDbLine
 62
7
  6
CONTINUOUS
 10
6.0951066149
 20
4.6220121715
 11
6.1030706375
 21
4.6230306072
  0
LINE
  5
2A7
100
AcDbEntity
  8
0
100
AcDbLine
 62
7
  6
CONTINUOUS
 10
3.6133589168
 20
4.6223461157
 11
3.6213203636
 21
4.6213077359
  0
LINE
  5
2A8
100
AcDbEntity
  8
0
100
AcDbLine
 62
7
  6
CONTINUOUS
 10
5.3065487281
 20
4.2192413249
 11
5.3133529798
 21
4.2178722002
  0
LINE
  5
2A9
100
AcDbEntity
  8
0
100
AcDbLine
 62
7
  6
CONTINUOUS
 10
4.4092528448
 20
4.3720658919
 11
4.4024520436
 21
4.3734520548
  0
LINE
  5
2AA
100
AcDbEntity
  8
0
100
AcDbLine
 62
7
  6
CONTINUOUS
 10
5.4479336734
 20
3.3903965591
 11
5.4525345268
 21
3.3851999734
  0
LINE
  5
2AB
100
AcDbEntity
  8
0
100
AcDbLine
 62
7
  6
CONTINUOUS
 10
4.2979336734
 20
4.8903965591
 11
4.3025345268
 21
4.8851999734
  0
LINE
  5
2AC
100
AcDbEntity
  8
0
100
AcDbLine
 62
7
  6
CONTINUOUS
 10
3.6926627924
 20
5.5919230217
 11
3.6944196178
 21
5.5896277571
  0
LINE
  5
2AD
100
AcDbEntity
  8
0
100
AcDbLine
 62
7
  6
CONTINUOUS
 10
4.8444196178
 20
4.0896277571
 11
4.8426627924
 21
4.0919230217
  0
LINE
  5
2AE
100
AcDbEntity
  8
0
100
AcDbLine
 62
7
  6
CONTINUOUS
 10
4.7840224342
 20
4.0046534551
 11
4.7871224543
 21
3.9972471913
  0
LINE
  5
2AF
100
AcDbEntity
  8
0
100
AcDbLine
 62
7
  6
CONTINUOUS
 10
3.7823172821
 20
6.0871884771
 11
3.779235822
 21
6.0946024822
  0
LINE
  5
2B0
100
AcDbEntity
  8
0
100
AcDbLine
 62
7
  6
CONTINUOUS
 10
4.3897669411
 20
4.9351912815
 11
4.3875505121
 21
4.9417684987
  0
LINE
  5
2B1
100
AcDbEntity
  8
0
100
AcDbLine
 62
7
  6
CONTINUOUS
 10
4.1783192982
 20
3.4420245857
 11
4.1761193496
 21
3.4354418369
  0
LINE
  5
2B2
100
AcDbEntity
  8
0
100
AcDbLine
 62
7
  6
CONTINUOUS
 10
5.3283192982
 20
6.4420245857
 11
5.3261193496
 21
6.4354418369
  0
LINE
  5
2B3
100
AcDbEntity
  8
0
100
AcDbLine
 62
7
  6
CONTINUOUS
 10
4.3875505121
 20
3.649337074
 11
4.3897669414
 21
3.655914292
  0
LINE
  5
2B4
100
AcDbEntity
  8
0
100
AcDbLine
 62
7
  6
CONTINUOUS
 10
4.929235822
 20
5.4965030905
 11
4.9323172821
 21
5.5039170956
  0
LINE
  5
2B5
100
AcDbEntity
  8
0
100
AcDbLine
 62
7
  6
CONTINUOUS
 10
3.7278435725
 20
3.3419670799
 11
3.7260925015
 21
3.3396674223
  0
LINE
  5
2B6
100
AcDbEntity
  8
0
100
AcDbLine
 62
7
  6
CONTINUOUS
 10
4.8778435725
 20
4.8419670799
 11
4.8760925015
 21
4.8396674223
  0
LINE
  5
2B7
100
AcDbEntity
  8
0
100
AcDbLine
 62
7
  6
CONTINUOUS
 10
3.6932059781
 20
3.7086700439
 11
3.6948576217
 21
3.7105449884
  0
LINE
  5
2B8
100
AcDbEntity
  8
0
100
AcDbLine
 62
7
  6
CONTINUOUS
 10
5.4134780008
 20
5.6351510619
 11
5.4180658235
 21
5.6403591544
  0
LINE
  5
2B9
100
AcDbEntity
  8
0
100
AcDbLine
 62
7
  6
CONTINUOUS
 10
4.2634780008
 20
4.1351510619
 11
4.2680658235
 21
4.1403591544
  0
LINE
  5
2BA
100
AcDbEntity
  8
0
100
AcDbLine
 62
7
  6
CONTINUOUS
 10
3.2524520436
 20
4.2176535179
 11
3.2592528456
 21
4.2190396809
  0
LINE
  5
2BB
100
AcDbEntity
  8
0
100
AcDbLine
 62
7
  6
CONTINUOUS
 10
5.9213203636
 20
4.7197978368
 11
5.9133589168
 21
4.7187594571
  0
LINE
  5
2BC
100
AcDbEntity
  8
0
100
AcDbLine
 62
7
  6
CONTINUOUS
 10
4.9451066149
 20
4.6220121715
 11
4.9530706375
 21
4.6230306072
  0
LINE
  5
2BD
100
AcDbEntity
  8
0
100
AcDbLine
 62
7
  6
CONTINUOUS
 10
3.8030706375
 20
4.7180749655
 11
3.7951066149
 21
4.7190934012
  0
LINE
  5
2BE
100
AcDbEntity
  8
0
100
AcDbLine
 62
7
  6
CONTINUOUS
 10
4.7633589168
 20
4.6223461157
 11
4.7713203636
 21
4.6213077359
  0
LINE
  5
2BF
100
AcDbEntity
  8
0
100
AcDbLine
 62
7
  6
CONTINUOUS
 10
6.4565487281
 20
4.2192413249
 11
6.4633529798
 21
4.2178722002
  0
LINE
  5
2C0
100
AcDbEntity
  8
0
100
AcDbLine
 62
7
  6
CONTINUOUS
 10
5.5592528448
 20
4.3720658919
 11
5.5524520436
 21
4.3734520548
  0
LINE
  5
2C1
100
AcDbEntity
  8
0
100
AcDbLine
 62
7
  6
CONTINUOUS
 10
3.1525345268
 20
6.3851999733
 11
3.1479336734
 21
6.3903965591
  0
LINE
  5
2C2
100
AcDbEntity
  8
0
100
AcDbLine
 62
7
  6
CONTINUOUS
 10
4.8747254717
 20
4.4605823931
 11
4.8763818076
 21
4.4587115898
  0
LINE
  5
2C3
100
AcDbEntity
  8
0
100
AcDbLine
 62
7
  6
CONTINUOUS
 10
4.2677185171
 20
5.1970193829
 11
4.2628385305
 21
5.2033950081
  0
LINE
  5
2C4
100
AcDbEntity
  8
0
100
AcDbLine
 62
7
  6
CONTINUOUS
 10
5.4177185171
 20
3.6970193829
 11
5.4128385305
 21
3.7033950081
  0
LINE
  5
2C5
100
AcDbEntity
  8
0
100
AcDbLine
 62
7
  6
CONTINUOUS
 10
4.9323172821
 20
3.8371884771
 11
4.929235822
 21
3.8446024822
  0
LINE
  5
2C6
100
AcDbEntity
  8
0
100
AcDbLine
 62
7
  6
CONTINUOUS
 10
4.3897669411
 20
5.6851912815
 11
4.3875505121
 21
5.6917684987
  0
LINE
  5
2C7
100
AcDbEntity
  8
0
100
AcDbLine
 62
7
  6
CONTINUOUS
 10
4.1761193499
 20
5.905663735
 11
4.1783192982
 21
5.899080987
  0
LINE
  5
2C8
100
AcDbEntity
  8
0
100
AcDbLine
 62
7
  6
CONTINUOUS
 10
5.3261193499
 20
2.905663735
 11
5.3283192982
 21
2.899080987
  0
LINE
  5
2C9
100
AcDbEntity
  8
0
100
AcDbLine
 62
7
  6
CONTINUOUS
 10
4.3875505121
 20
2.899337074
 11
4.3897669414
 21
2.905914292
  0
LINE
  5
2CA
100
AcDbEntity
  8
0
100
AcDbLine
 62
7
  6
CONTINUOUS
 10
4.929235822
 20
4.7465030905
 11
4.9323172821
 21
4.7539170956
  0
LINE
  5
2CB
100
AcDbEntity
  8
0
100
AcDbLine
 62
7
  6
CONTINUOUS
 10
4.7871224543
 20
4.5938583814
 11
4.7840224342
 21
4.5864521176
  0
LINE
  5
2CC
100
AcDbEntity
  8
0
100
AcDbLine
 62
7
  6
CONTINUOUS
 10
5.9932059781
 20
5.9586700439
 11
5.9948576217
 21
5.9605449884
  0
LINE
  5
2CD
100
AcDbEntity
  8
0
100
AcDbLine
 62
7
  6
CONTINUOUS
 10
4.8432059781
 20
4.4586700439
 11
4.8448576217
 21
4.4605449884
  0
LINE
  5
2CE
100
AcDbEntity
  8
0
100
AcDbLine
 62
7
  6
CONTINUOUS
 10
5.5524520436
 20
4.9676535179
 11
5.5592528456
 21
4.9690396809
  0
LINE
  5
2CF
100
AcDbEntity
  8
0
100
AcDbLine
 62
7
  6
CONTINUOUS
 10
6.4633529798
 20
5.1232333725
 11
6.4565487273
 21
5.1218642476
  0
LINE
  5
2D0
100
AcDbEntity
  8
0
100
AcDbLine
 62
7
  6
CONTINUOUS
 10
4.7713203636
 20
4.7197978368
 11
4.7633589168
 21
4.7187594571
  0
LINE
  5
2D1
100
AcDbEntity
  8
0
100
AcDbLine
 62
7
  6
CONTINUOUS
 10
3.6213203636
 20
4.7197978368
 11
3.6133589168
 21
4.7187594571
  0
LINE
  5
2D2
100
AcDbEntity
  8
0
100
AcDbLine
 62
7
  6
CONTINUOUS
 10
3.7951066149
 20
4.6220121715
 11
3.8030706375
 21
4.6230306072
  0
LINE
  5
2D3
100
AcDbEntity
  8
0
100
AcDbLine
 62
7
  6
CONTINUOUS
 10
4.9530706375
 20
4.7180749655
 11
4.9451066149
 21
4.7190934012
  0
LINE
  5
2D4
100
AcDbEntity
  8
0
100
AcDbLine
 62
7
  6
CONTINUOUS
 10
6.1030706375
 20
4.7180749655
 11
6.0951066149
 21
4.7190934012
  0
LINE
  5
2D5
100
AcDbEntity
  8
0
100
AcDbLine
 62
7
  6
CONTINUOUS
 10
5.9133589168
 20
4.6223461157
 11
5.9213203636
 21
4.6213077359
  0
LINE
  5
2D6
100
AcDbEntity
  8
0
100
AcDbLine
 62
7
  6
CONTINUOUS
 10
4.1565487281
 20
4.9692413249
 11
4.1633529798
 21
4.9678722002
  0
LINE
  5
2D7
100
AcDbEntity
  8
0
100
AcDbLine
 62
7
  6
CONTINUOUS
 10
3.2592528448
 20
5.1220658919
 11
3.2524520436
 21
5.1234520548
  0
LINE
  5
2D8
100
AcDbEntity
  8
0
100
AcDbLine
 62
7
  6
CONTINUOUS
 10
3.7263818076
 20
5.9587115898
 11
3.7247254717
 21
5.9605823931
  0
LINE
  5
2D9
100
AcDbEntity
  8
0
100
AcDbLine
 62
7
  6
CONTINUOUS
 10
5.4479336734
 20
4.1403965591
 11
5.4525345268
 21
4.1351999734
  0
LINE
  5
2DA
100
AcDbEntity
  8
0
100
AcDbLine
 62
7
  6
CONTINUOUS
 10
4.8444196178
 20
4.8396277571
 11
4.8426627924
 21
4.8419230217
  0
LINE
  5
2DB
100
AcDbEntity
  8
0
100
AcDbLine
 62
7
  6
CONTINUOUS
 10
5.9944196178
 20
3.3396277571
 11
5.9926627924
 21
3.3419230217
  0
LINE
  5
2DC
100
AcDbEntity
  8
0
100
AcDbLine
 62
7
  6
CONTINUOUS
 10
4.7840224342
 20
4.7546534551
 11
4.7871224543
 21
4.7472471913
  0
LINE
  5
2DD
100
AcDbEntity
  8
0
100
AcDbLine
 62
7
  6
CONTINUOUS
 10
4.9323172821
 20
4.5871884771
 11
4.929235822
 21
4.5946024822
  0
LINE
  5
2DE
100
AcDbEntity
  8
0
100
AcDbLine
 62
7
  6
CONTINUOUS
 10
4.3897669411
 20
6.4351912815
 11
4.3875505121
 21
6.4417684987
  0
LINE
  5
2DF
100
AcDbEntity
  8
0
100
AcDbLine
 62
7
  6
CONTINUOUS
 10
5.3283192982
 20
5.6920245857
 11
5.3261193496
 21
5.6854418369
  0
LINE
  5
2E0
100
AcDbEntity
  8
0
100
AcDbLine
 62
7
  6
CONTINUOUS
 10
5.5375505121
 20
5.899337074
 11
5.5397669414
 21
5.905914292
  0
LINE
  5
2E1
100
AcDbEntity
  8
0
100
AcDbLine
 62
7
  6
CONTINUOUS
 10
4.7871224543
 20
3.8438583814
 11
4.7840224342
 21
3.8364521176
  0
LINE
  5
2E2
100
AcDbEntity
  8
0
100
AcDbLine
 62
7
  6
CONTINUOUS
 10
4.3042554033
 20
3.7034468761
 11
4.2993914008
 21
3.6970590481
  0
LINE
  5
2E3
100
AcDbEntity
  8
0
100
AcDbLine
 62
7
  6
CONTINUOUS
 10
5.4542554033
 20
5.2034468761
 11
5.4493914008
 21
5.1970590481
  0
LINE
  5
2E4
100
AcDbEntity
  8
0
100
AcDbLine
 62
7
  6
CONTINUOUS
 10
6.5634780008
 20
6.3851510619
 11
6.5680658235
 21
6.3903591544
  0
LINE
  5
2E5
100
AcDbEntity
  8
0
100
AcDbLine
 62
7
  6
CONTINUOUS
 10
5.4134780008
 20
4.8851510619
 11
5.4180658235
 21
4.8903591544
  0
LINE
  5
2E6
100
AcDbEntity
  8
0
100
AcDbLine
 62
7
  6
CONTINUOUS
 10
4.4024520436
 20
4.9676535179
 11
4.4092528456
 21
4.9690396809
  0
LINE
  5
2E7
100
AcDbEntity
  8
0
100
AcDbLine
 62
7
  6
CONTINUOUS
 10
5.3133529798
 20
5.1232333725
 11
5.3065487273
 21
5.1218642476
  0
LINE
  5
2E8
100
AcDbEntity
  8
0
100
AcDbLine
 62
7
  6
CONTINUOUS
 10
5.3065487281
 20
4.9692413249
 11
5.3133529798
 21
4.9678722002
  0
LINE
  5
2E9
100
AcDbEntity
  8
0
100
AcDbLine
 62
7
  6
CONTINUOUS
 10
4.4092528448
 20
5.1220658919
 11
4.4024520436
 21
5.1234520548
  0
LINE
  5
2EA
100
AcDbEntity
  8
0
100
AcDbLine
 62
7
  6
CONTINUOUS
 10
4.2979336734
 20
5.6403965591
 11
4.3025345268
 21
5.6351999734
  0
LINE
  5
2EB
100
AcDbEntity
  8
0
100
AcDbLine
 62
7
  6
CONTINUOUS
 10
6.0247254717
 20
3.7105823931
 11
6.0263818076
 21
3.7087115898
  0
LINE
  5
2EC
100
AcDbEntity
  8
0
100
AcDbLine
 62
7
  6
CONTINUOUS
 10
4.2677185171
 20
5.9470193829
 11
4.2628385305
 21
5.9533950081
  0
LINE
  5
2ED
100
AcDbEntity
  8
0
100
AcDbLine
 62
7
  6
CONTINUOUS
 10
5.4177185171
 20
4.4470193829
 11
5.4128385305
 21
4.4533950081
  0
LINE
  5
2EE
100
AcDbEntity
  8
0
100
AcDbLine
 62
7
  6
CONTINUOUS
 10
6.5677185171
 20
2.9470193829
 11
6.5628385305
 21
2.9533950081
  0
LINE
  5
2EF
100
AcDbEntity
  8
0
100
AcDbLine
 62
7
  6
CONTINUOUS
 10
4.7840224342
 20
5.5046534551
 11
4.7871224543
 21
5.4972471913
  0
LINE
  5
2F0
100
AcDbEntity
  8
0
100
AcDbLine
 62
7
  6
CONTINUOUS
 10
5.5397669411
 20
3.4351912815
 11
5.5375505121
 21
3.4417684987
  0
LINE
  5
2F1
100
AcDbEntity
  8
0
100
AcDbLine
 62
7
  6
CONTINUOUS
 10
5.3261193499
 20
3.655663735
 11
5.3283192982
 21
3.649080987
  0
LINE
  5
2F2
100
AcDbEntity
  8
0
100
AcDbLine
 62
7
  6
CONTINUOUS
 10
5.3283192982
 20
4.9420245857
 11
5.3261193496
 21
4.9354418369
  0
LINE
  5
2F3
100
AcDbEntity
  8
0
100
AcDbLine
 62
7
  6
CONTINUOUS
 10
5.5375505121
 20
5.149337074
 11
5.5397669414
 21
5.155914292
  0
LINE
  5
2F4
100
AcDbEntity
  8
0
100
AcDbLine
 62
7
  6
CONTINUOUS
 10
4.929235822
 20
3.9965030905
 11
4.9323172821
 21
4.0039170956
  0
LINE
  5
2F5
100
AcDbEntity
  8
0
100
AcDbLine
 62
7
  6
CONTINUOUS
 10
5.9371224543
 20
6.0938583814
 11
5.9340224342
 21
6.0864521176
  0
LINE
  5
2F6
100
AcDbEntity
  8
0
100
AcDbLine
 62
7
  6
CONTINUOUS
 10
4.8778435725
 20
4.0919670799
 11
4.8760925015
 21
4.0896674223
  0
LINE
  5
2F7
100
AcDbEntity
  8
0
100
AcDbLine
 62
7
  6
CONTINUOUS
 10
6.0278435725
 20
5.5919670799
 11
6.0260925015
 21
5.5896674223
  0
LINE
  5
2F8
100
AcDbEntity
  8
0
100
AcDbLine
 62
7
  6
CONTINUOUS
 10
4.2634780008
 20
3.3851510619
 11
4.2680658235
 21
3.3903591544
  0
LINE
  5
2F9
100
AcDbEntity
  8
0
100
AcDbLine
 62
7
  6
CONTINUOUS
 10
5.9932059781
 20
5.2086700439
 11
5.9948576217
 21
5.2105449884
  0
LINE
  5
2FA
100
AcDbEntity
  8
0
100
AcDbLine
 62
7
  6
CONTINUOUS
 10
3.2303459948
 20
4.9631477864
 11
3.2592528456
 21
4.9690396809
  0
LINE
  5
2FB
100
AcDbEntity
  8
0
100
AcDbLine
 62
7
  6
CONTINUOUS
 10
4.1633529798
 20
5.1232333725
 11
4.1565487273
 21
5.1218642476
  0
LINE
  5
2FC
100
AcDbEntity
  8
0
100
AcDbLine
 62
7
  6
CONTINUOUS
 10
6.0951066149
 20
5.3720121715
 11
6.1030706375
 21
5.3730306072
  0
LINE
  5
2FD
100
AcDbEntity
  8
0
100
AcDbLine
 62
7
  6
CONTINUOUS
 10
3.6133589168
 20
5.3723461157
 11
3.6213203636
 21
5.3713077359
  0
LINE
  5
2FE
100
AcDbEntity
  8
0
100
AcDbLine
 62
7
  6
CONTINUOUS
 10
5.5592528448
 20
5.1220658919
 11
5.5524520436
 21
5.1234520548
  0
LINE
  5
2FF
100
AcDbEntity
  8
0
100
AcDbLine
 62
7
  6
CONTINUOUS
 10
4.8747254717
 20
5.2105823931
 11
4.8763818076
 21
5.2087115898
  0
LINE
  5
300
100
AcDbEntity
  8
0
100
AcDbLine
 62
7
  6
CONTINUOUS
 10
6.5979336734
 20
3.3903965591
 11
6.6025345268
 21
3.3851999734
  0
LINE
  5
301
100
AcDbEntity
  8
0
100
AcDbLine
 62
7
  6
CONTINUOUS
 10
5.9340224342
 20
3.2546534551
 11
5.9371224543
 21
3.2472471913
  0
LINE
  5
302
100
AcDbEntity
  8
0
100
AcDbLine
 62
7
  6
CONTINUOUS
 10
4.9323172821
 20
5.3371884771
 11
4.929235822
 21
5.3446024822
  0
LINE
  5
303
100
AcDbEntity
  8
0
100
AcDbLine
 62
7
  6
CONTINUOUS
 10
5.5397669411
 20
4.1851912815
 11
5.5375505121
 21
4.1917684987
  0
LINE
  5
304
100
AcDbEntity
  8
0
100
AcDbLine
 62
7
  6
CONTINUOUS
 10
5.3261193499
 20
4.405663735
 11
5.3283192982
 21
4.399080987
  0
LINE
  5
305
100
AcDbEntity
  8
0
100
AcDbLine
 62
7
  6
CONTINUOUS
 10
5.3283192982
 20
4.1920245857
 11
5.3261193496
 21
4.1854418369
  0
LINE
  5
306
100
AcDbEntity
  8
0
100
AcDbLine
 62
7
  6
CONTINUOUS
 10
6.079235822
 20
6.2465030905
 11
6.0823172821
 21
6.2539170956
  0
LINE
  5
307
100
AcDbEntity
  8
0
100
AcDbLine
 62
7
  6
CONTINUOUS
 10
4.929235822
 20
3.2465030905
 11
4.9323172821
 21
3.2539170956
  0
LINE
  5
308
100
AcDbEntity
  8
0
100
AcDbLine
 62
7
  6
CONTINUOUS
 10
4.7871224543
 20
3.0938583814
 11
4.7840224342
 21
3.0864521176
  0
LINE
  5
309
100
AcDbEntity
  8
0
100
AcDbLine
 62
7
  6
CONTINUOUS
 10
4.3042554033
 20
2.9534468761
 11
4.2993914008
 21
2.9470590481
  0
LINE
  5
30A
100
AcDbEntity
  8
0
100
AcDbLine
 62
7
  6
CONTINUOUS
 10
5.4542554033
 20
4.4534468761
 11
5.4493914008
 21
4.4470590481
  0
LINE
  5
30B
100
AcDbEntity
  8
0
100
AcDbLine
 62
7
  6
CONTINUOUS
 10
6.6042554033
 20
5.9534468761
 11
6.5993914008
 21
5.9470590481
  0
LINE
  5
30C
100
AcDbEntity
  8
0
100
AcDbLine
 62
7
  6
CONTINUOUS
 10
4.8432059781
 20
3.7086700439
 11
4.8448576217
 21
3.7105449884
  0
LINE
  5
30D
100
AcDbEntity
  8
0
100
AcDbLine
 62
7
  6
CONTINUOUS
 10
6.5634780008
 20
5.6351510619
 11
6.5680658235
 21
5.6403591544
  0
LINE
  5
30E
100
AcDbEntity
  8
0
100
AcDbLine
 62
7
  6
CONTINUOUS
 10
5.9213203636
 20
5.4697978368
 11
5.9133589168
 21
5.4687594571
  0
LINE
  5
30F
100
AcDbEntity
  8
0
100
AcDbLine
 62
7
  6
CONTINUOUS
 10
4.7713203636
 20
5.4697978368
 11
4.7633589168
 21
5.4687594571
  0
LINE
  5
310
100
AcDbEntity
  8
0
100
AcDbLine
 62
7
  6
CONTINUOUS
 10
4.9451066149
 20
5.3720121715
 11
4.9530706375
 21
5.3730306072
  0
LINE
  5
311
100
AcDbEntity
  8
0
100
AcDbLine
 62
7
  6
CONTINUOUS
 10
3.8030706375
 20
5.4680749655
 11
3.7951066149
 21
5.4690934012
  0
LINE
  5
312
100
AcDbEntity
  8
0
100
AcDbLine
 62
7
  6
CONTINUOUS
 10
4.7633589168
 20
5.3723461157
 11
4.7713203636
 21
5.3713077359
  0
LINE
  5
313
100
AcDbEntity
  8
0
100
AcDbLine
 62
7
  6
CONTINUOUS
 10
6.4565487281
 20
4.9692413249
 11
6.4633529798
 21
4.9678722002
  0
LINE
  5
314
100
AcDbEntity
  8
0
100
AcDbLine
 62
7
  6
CONTINUOUS
 10
5.4479336734
 20
4.8903965591
 11
5.4525345268
 21
4.8851999734
  0
LINE
  5
315
100
AcDbEntity
  8
0
100
AcDbLine
 62
7
  6
CONTINUOUS
 10
4.2979336734
 20
6.3903965591
 11
4.3025345268
 21
6.3851999734
  0
LINE
  5
316
100
AcDbEntity
  8
0
100
AcDbLine
 62
7
  6
CONTINUOUS
 10
4.8444196178
 20
5.5896277571
 11
4.8426627924
 21
5.5919230217
  0
LINE
  5
317
100
AcDbEntity
  8
0
100
AcDbLine
 62
7
  6
CONTINUOUS
 10
5.9944196178
 20
4.0896277571
 11
5.9926627924
 21
4.0919230217
  0
LINE
  5
318
100
AcDbEntity
  8
0
100
AcDbLine
 62
7
  6
CONTINUOUS
 10
4.7840224342
 20
6.2546534551
 11
4.7871224543
 21
6.2472471913
  0
LINE
  5
319
100
AcDbEntity
  8
0
100
AcDbLine
 62
7
  6
CONTINUOUS
 10
6.0823172821
 20
3.0871884771
 11
6.079235822
 21
3.0946024822
  0
LINE
  5
31A
100
AcDbEntity
  8
0
100
AcDbLine
 62
7
  6
CONTINUOUS
 10
4.9323172821
 20
6.0871884771
 11
4.929235822
 21
6.0946024822
  0
LINE
  5
31B
100
AcDbEntity
  8
0
100
AcDbLine
 62
7
  6
CONTINUOUS
 10
5.3261193499
 20
5.155663735
 11
5.3283192982
 21
5.149080987
  0
LINE
  5
31C
100
AcDbEntity
  8
0
100
AcDbLine
 62
7
  6
CONTINUOUS
 10
5.3283192982
 20
3.4420245857
 11
5.3261193496
 21
3.4354418369
  0
LINE
  5
31D
100
AcDbEntity
  8
0
100
AcDbLine
 62
7
  6
CONTINUOUS
 10
5.5375505121
 20
4.399337074
 11
5.5397669414
 21
4.405914292
  0
LINE
  5
31E
100
AcDbEntity
  8
0
100
AcDbLine
 62
7
  6
CONTINUOUS
 10
6.079235822
 20
5.4965030905
 11
6.0823172821
 21
5.5039170956
  0
LINE
  5
31F
100
AcDbEntity
  8
0
100
AcDbLine
 62
7
  6
CONTINUOUS
 10
5.9371224543
 20
5.3438583814
 11
5.9340224342
 21
5.3364521176
  0
LINE
  5
320
100
AcDbEntity
  8
0
100
AcDbLine
 62
7
  6
CONTINUOUS
 10
4.8778435725
 20
3.3419670799
 11
4.8760925015
 21
3.3396674223
  0
LINE
  5
321
100
AcDbEntity
  8
0
100
AcDbLine
 62
7
  6
CONTINUOUS
 10
6.0278435725
 20
4.8419670799
 11
6.0260925015
 21
4.8396674223
  0
LINE
  5
322
100
AcDbEntity
  8
0
100
AcDbLine
 62
7
  6
CONTINUOUS
 10
5.4134780008
 20
4.1351510619
 11
5.4180658235
 21
4.1403591544
  0
LINE
  5
323
100
AcDbEntity
  8
0
100
AcDbLine
 62
7
  6
CONTINUOUS
 10
5.5524520436
 20
5.7176535179
 11
5.5592528456
 21
5.7190396809
  0
LINE
  5
324
100
AcDbEntity
  8
0
100
AcDbLine
 62
7
  6
CONTINUOUS
 10
6.4633529798
 20
5.8732333725
 11
6.4565487273
 21
5.8718642476
  0
LINE
  5
325
100
AcDbEntity
  8
0
100
AcDbLine
 62
7
  6
CONTINUOUS
 10
3.6213203636
 20
5.4697978368
 11
3.6133589168
 21
5.4687594571
  0
LINE
  5
326
100
AcDbEntity
  8
0
100
AcDbLine
 62
7
  6
CONTINUOUS
 10
3.7951066149
 20
5.3720121715
 11
3.8030706375
 21
5.3730306072
  0
LINE
  5
327
100
AcDbEntity
  8
0
100
AcDbLine
 62
7
  6
CONTINUOUS
 10
4.9530706375
 20
5.4680749655
 11
4.9451066149
 21
5.4690934012
  0
LINE
  5
328
100
AcDbEntity
  8
0
100
AcDbLine
 62
7
  6
CONTINUOUS
 10
6.1030706375
 20
5.4680749655
 11
6.0951066149
 21
5.4690934012
  0
LINE
  5
329
100
AcDbEntity
  8
0
100
AcDbLine
 62
7
  6
CONTINUOUS
 10
5.9133589168
 20
5.3723461157
 11
5.9213203636
 21
5.3713077359
  0
LINE
  5
32A
100
AcDbEntity
  8
0
100
AcDbLine
 62
7
  6
CONTINUOUS
 10
4.1565487281
 20
5.7192413249
 11
4.1633529798
 21
5.7178722002
  0
LINE
  5
32B
100
AcDbEntity
  8
0
100
AcDbLine
 62
7
  6
CONTINUOUS
 10
3.2524520436
 20
5.8734520548
 11
3.2592528448
 21
5.8720658919
  0
LINE
  5
32C
100
AcDbEntity
  8
0
100
AcDbLine
 62
7
  6
CONTINUOUS
 10
6.0247254717
 20
4.4605823931
 11
6.0263818076
 21
4.4587115898
  0
LINE
  5
32D
100
AcDbEntity
  8
0
100
AcDbLine
 62
7
  6
CONTINUOUS
 10
4.8747254717
 20
5.9605823931
 11
4.8763818076
 21
5.9587115898
  0
LINE
  5
32E
100
AcDbEntity
  8
0
100
AcDbLine
 62
7
  6
CONTINUOUS
 10
5.4177185171
 20
5.1970193829
 11
5.4128385305
 21
5.2033950081
  0
LINE
  5
32F
100
AcDbEntity
  8
0
100
AcDbLine
 62
7
  6
CONTINUOUS
 10
6.5677185171
 20
3.6970193829
 11
6.5628385305
 21
3.7033950081
  0
LINE
  5
330
100
AcDbEntity
  8
0
100
AcDbLine
 62
7
  6
CONTINUOUS
 10
5.9340224342
 20
4.0046534551
 11
5.9371224543
 21
3.9972471913
  0
LINE
  5
331
100
AcDbEntity
  8
0
100
AcDbLine
 62
7
  6
CONTINUOUS
 10
6.0823172821
 20
3.8371884771
 11
6.079235822
 21
3.8446024822
  0
LINE
  5
332
100
AcDbEntity
  8
0
100
AcDbLine
 62
7
  6
CONTINUOUS
 10
5.5397669411
 20
4.9351912815
 11
5.5375505121
 21
4.9417684987
  0
LINE
  5
333
100
AcDbEntity
  8
0
100
AcDbLine
 62
7
  6
CONTINUOUS
 10
5.3261193499
 20
5.905663735
 11
5.3283192982
 21
5.899080987
  0
LINE
  5
334
100
AcDbEntity
  8
0
100
AcDbLine
 62
7
  6
CONTINUOUS
 10
6.4783192982
 20
6.4420245857
 11
6.4761193496
 21
6.4354418369
  0
LINE
  5
335
100
AcDbEntity
  8
0
100
AcDbLine
 62
7
  6
CONTINUOUS
 10
5.5375505121
 20
3.649337074
 11
5.5397669414
 21
3.655914292
  0
LINE
  5
336
100
AcDbEntity
  8
0
100
AcDbLine
 62
7
  6
CONTINUOUS
 10
6.079235822
 20
4.7465030905
 11
6.0823172821
 21
4.7539170956
  0
LINE
  5
337
100
AcDbEntity
  8
0
100
AcDbLine
 62
7
  6
CONTINUOUS
 10
5.9371224543
 20
4.5938583814
 11
5.9340224342
 21
4.5864521176
  0
LINE
  5
338
100
AcDbEntity
  8
0
100
AcDbLine
 62
7
  6
CONTINUOUS
 10
5.4542554033
 20
3.7034468761
 11
5.4493914008
 21
3.6970590481
  0
LINE
  5
339
100
AcDbEntity
  8
0
100
AcDbLine
 62
7
  6
CONTINUOUS
 10
6.6042554033
 20
5.2034468761
 11
6.5993914008
 21
5.1970590481
  0
LINE
  5
33A
100
AcDbEntity
  8
0
100
AcDbLine
 62
7
  6
CONTINUOUS
 10
5.9932059781
 20
4.4586700439
 11
5.9948576217
 21
4.4605449884
  0
LINE
  5
33B
100
AcDbEntity
  8
0
100
AcDbLine
 62
7
  6
CONTINUOUS
 10
4.4024520436
 20
5.7176535179
 11
4.4092528456
 21
5.7190396809
  0
LINE
  5
33C
100
AcDbEntity
  8
0
100
AcDbLine
 62
7
  6
CONTINUOUS
 10
5.3133529798
 20
5.8732333725
 11
5.3065487273
 21
5.8718642476
  0
LINE
  5
33D
100
AcDbEntity
  8
0
100
AcDbLine
 62
7
  6
CONTINUOUS
 10
5.3065487281
 20
5.7192413249
 11
5.3133529798
 21
5.7178722002
  0
LINE
  5
33E
100
AcDbEntity
  8
0
100
AcDbLine
 62
7
  6
CONTINUOUS
 10
4.4092528448
 20
5.8720658919
 11
4.4024520436
 21
5.8734520548
  0
LINE
  5
33F
100
AcDbEntity
  8
0
100
AcDbLine
 62
7
  6
CONTINUOUS
 10
6.5979336734
 20
4.1403965591
 11
6.6025345268
 21
4.1351999734
  0
LINE
  5
340
100
AcDbEntity
  8
0
100
AcDbLine
 62
7
  6
CONTINUOUS
 10
5.4479336734
 20
5.6403965591
 11
5.4525345268
 21
5.6351999734
  0
LINE
  5
341
100
AcDbEntity
  8
0
100
AcDbLine
 62
7
  6
CONTINUOUS
 10
5.9944196178
 20
4.8396277571
 11
5.9926627924
 21
4.8419230217
  0
LINE
  5
342
100
AcDbEntity
  8
0
100
AcDbLine
 62
7
  6
CONTINUOUS
 10
5.9340224342
 20
4.7546534551
 11
5.9371224543
 21
4.7472471913
  0
LINE
  5
343
100
AcDbEntity
  8
0
100
AcDbLine
 62
7
  6
CONTINUOUS
 10
6.0823172821
 20
4.5871884771
 11
6.079235822
 21
4.5946024822
  0
LINE
  5
344
100
AcDbEntity
  8
0
100
AcDbLine
 62
7
  6
CONTINUOUS
 10
5.5397669411
 20
5.6851912815
 11
5.5375505121
 21
5.6917684987
  0
LINE
  5
345
100
AcDbEntity
  8
0
100
AcDbLine
 62
7
  6
CONTINUOUS
 10
6.4761193499
 20
2.905663735
 11
6.4783192982
 21
2.899080987
  0
LINE
  5
346
100
AcDbEntity
  8
0
100
AcDbLine
 62
7
  6
CONTINUOUS
 10
6.4783192982
 20
5.6920245857
 11
6.4761193496
 21
5.6854418369
  0
LINE
  5
347
100
AcDbEntity
  8
0
100
AcDbLine
 62
7
  6
CONTINUOUS
 10
5.5375505121
 20
2.899337074
 11
5.5397669414
 21
2.905914292
  0
LINE
  5
348
100
AcDbEntity
  8
0
100
AcDbLine
 62
7
  6
CONTINUOUS
 10
6.0278435725
 20
4.0919670799
 11
6.0260925015
 21
4.0896674223
  0
LINE
  5
349
100
AcDbEntity
  8
0
100
AcDbLine
 62
7
  6
CONTINUOUS
 10
6.5634780008
 20
4.8851510619
 11
6.5680658235
 21
4.8903591544
  0
LINE
  5
34A
100
AcDbEntity
  8
0
100
AcDbLine
 62
7
  6
CONTINUOUS
 10
5.4134780008
 20
3.3851510619
 11
5.4180658235
 21
3.3903591544
  0
LINE
  5
34B
100
AcDbEntity
  8
0
100
AcDbLine
 62
7
  6
CONTINUOUS
 10
3.2524520436
 20
5.7176535179
 11
3.2592528456
 21
5.7190396809
  0
LINE
  5
34C
100
AcDbEntity
  8
0
100
AcDbLine
 62
7
  6
CONTINUOUS
 10
4.1633529798
 20
5.8732333725
 11
4.1565487273
 21
5.8718642476
  0
LINE
  5
34D
100
AcDbEntity
  8
0
100
AcDbLine
 62
7
  6
CONTINUOUS
 10
5.9213203636
 20
6.2197978368
 11
5.9133589168
 21
6.2187594571
  0
LINE
  5
34E
100
AcDbEntity
  8
0
100
AcDbLine
 62
7
  6
CONTINUOUS
 10
6.0951066149
 20
6.1220121715
 11
6.1030706375
 21
6.1230306072
  0
LINE
  5
34F
100
AcDbEntity
  8
0
100
AcDbLine
 62
7
  6
CONTINUOUS
 10
3.6213203636
 20
6.1213077359
 11
3.6133589168
 21
6.1223461157
  0
LINE
  5
350
100
AcDbEntity
  8
0
100
AcDbLine
 62
7
  6
CONTINUOUS
 10
6.4565487281
 20
5.7192413249
 11
6.4633529798
 21
5.7178722002
  0
LINE
  5
351
100
AcDbEntity
  8
0
100
AcDbLine
 62
7
  6
CONTINUOUS
 10
5.5592528448
 20
5.8720658919
 11
5.5524520436
 21
5.8734520548
  0
LINE
  5
352
100
AcDbEntity
  8
0
100
AcDbLine
 62
7
  6
CONTINUOUS
 10
6.0247254717
 20
5.2105823931
 11
6.0263818076
 21
5.2087115898
  0
LINE
  5
353
100
AcDbEntity
  8
0
100
AcDbLine
 62
7
  6
CONTINUOUS
 10
5.4177185171
 20
5.9470193829
 11
5.4128385305
 21
5.9533950081
  0
LINE
  5
354
100
AcDbEntity
  8
0
100
AcDbLine
 62
7
  6
CONTINUOUS
 10
6.5677185171
 20
4.4470193829
 11
6.5628385305
 21
4.4533950081
  0
LINE
  5
355
100
AcDbEntity
  8
0
100
AcDbLine
 62
7
  6
CONTINUOUS
 10
5.5397669411
 20
6.4351912815
 11
5.5375505121
 21
6.4417684987
  0
LINE
  5
356
100
AcDbEntity
  8
0
100
AcDbLine
 62
7
  6
CONTINUOUS
 10
6.4761193499
 20
3.655663735
 11
6.4783192982
 21
3.649080987
  0
LINE
  5
357
100
AcDbEntity
  8
0
100
AcDbLine
 62
7
  6
CONTINUOUS
 10
6.4783192982
 20
4.9420245857
 11
6.4761193496
 21
4.9354418369
  0
LINE
  5
358
100
AcDbEntity
  8
0
100
AcDbLine
 62
7
  6
CONTINUOUS
 10
6.079235822
 20
3.9965030905
 11
6.0823172821
 21
4.0039170956
  0
LINE
  5
359
100
AcDbEntity
  8
0
100
AcDbLine
 62
7
  6
CONTINUOUS
 10
5.9371224543
 20
3.8438583814
 11
5.9340224342
 21
3.8364521176
  0
LINE
  5
35A
100
AcDbEntity
  8
0
100
AcDbLine
 62
7
  6
CONTINUOUS
 10
5.9932059781
 20
3.7086700439
 11
5.9948576217
 21
3.7105449884
  0
LINE
  5
35B
100
AcDbEntity
  8
0
100
AcDbLine
 62
7
  6
CONTINUOUS
 10
4.7713203636
 20
6.2197978368
 11
4.7633589168
 21
6.2187594571
  0
LINE
  5
35C
100
AcDbEntity
  8
0
100
AcDbLine
 62
7
  6
CONTINUOUS
 10
4.9451066149
 20
6.1220121715
 11
4.9530706375
 21
6.1230306072
  0
LINE
  5
35D
100
AcDbEntity
  8
0
100
AcDbLine
 62
7
  6
CONTINUOUS
 10
3.7951066149
 20
6.1220121715
 11
3.8030706375
 21
6.1230306072
  0
LINE
  5
35E
100
AcDbEntity
  8
0
100
AcDbLine
 62
7
  6
CONTINUOUS
 10
3.8030706375
 20
6.2180749655
 11
3.7951066149
 21
6.2190934012
  0
LINE
  5
35F
100
AcDbEntity
  8
0
100
AcDbLine
 62
7
  6
CONTINUOUS
 10
4.9530706375
 20
6.2180749655
 11
4.9451066149
 21
6.2190934012
  0
LINE
  5
360
100
AcDbEntity
  8
0
100
AcDbLine
 62
7
  6
CONTINUOUS
 10
4.7633589168
 20
6.1223461157
 11
4.7713203636
 21
6.1213077359
  0
LINE
  5
361
100
AcDbEntity
  8
0
100
AcDbLine
 62
7
  6
CONTINUOUS
 10
5.9133589168
 20
6.1223461157
 11
5.9213203636
 21
6.1213077359
  0
LINE
  5
362
100
AcDbEntity
  8
0
100
AcDbLine
 62
7
  6
CONTINUOUS
 10
6.5979336734
 20
4.8903965591
 11
6.6025345268
 21
4.8851999734
  0
LINE
  5
363
100
AcDbEntity
  8
0
100
AcDbLine
 62
7
  6
CONTINUOUS
 10
5.9944196178
 20
5.5896277571
 11
5.9926627924
 21
5.5919230217
  0
LINE
  5
364
100
AcDbEntity
  8
0
100
AcDbLine
 62
7
  6
CONTINUOUS
 10
5.9340224342
 20
5.5046534551
 11
5.9371224543
 21
5.4972471913
  0
LINE
  5
365
100
AcDbEntity
  8
0
100
AcDbLine
 62
7
  6
CONTINUOUS
 10
6.0823172821
 20
5.3371884771
 11
6.079235822
 21
5.3446024822
  0
LINE
  5
366
100
AcDbEntity
  8
0
100
AcDbLine
 62
7
  6
CONTINUOUS
 10
6.4761193499
 20
4.405663735
 11
6.4783192982
 21
4.399080987
  0
LINE
  5
367
100
AcDbEntity
  8
0
100
AcDbLine
 62
7
  6
CONTINUOUS
 10
6.079235822
 20
3.2465030905
 11
6.0823172821
 21
3.2539170956
  0
LINE
  5
368
100
AcDbEntity
  8
0
100
AcDbLine
 62
7
  6
CONTINUOUS
 10
5.9371224543
 20
3.0938583814
 11
5.9340224342
 21
3.0864521176
  0
LINE
  5
369
100
AcDbEntity
  8
0
100
AcDbLine
 62
7
  6
CONTINUOUS
 10
5.4542554033
 20
2.9534468761
 11
5.4493914008
 21
2.9470590481
  0
LINE
  5
36A
100
AcDbEntity
  8
0
100
AcDbLine
 62
7
  6
CONTINUOUS
 10
6.6042554033
 20
4.4534468761
 11
6.5993914008
 21
4.4470590481
  0
LINE
  5
36B
100
AcDbEntity
  8
0
100
AcDbLine
 62
7
  6
CONTINUOUS
 10
6.5634780008
 20
4.1351510619
 11
6.5680658235
 21
4.1403591544
  0
LINE
  5
36C
100
AcDbEntity
  8
0
100
AcDbLine
 62
7
  6
CONTINUOUS
 10
5.5524520436
 20
6.4676535179
 11
5.5592528456
 21
6.4690396809
  0
LINE
  5
36D
100
AcDbEntity
  8
0
100
AcDbLine
 62
7
  6
CONTINUOUS
 10
3.6133589168
 20
6.2187594571
 11
3.6213203636
 21
6.2197978368
  0
LINE
  5
36E
100
AcDbEntity
  8
0
100
AcDbLine
 62
7
  6
CONTINUOUS
 10
6.1030706375
 20
6.2180749655
 11
6.0951066149
 21
6.2190934012
  0
LINE
  5
36F
100
AcDbEntity
  8
0
100
AcDbLine
 62
7
  6
CONTINUOUS
 10
4.1565487281
 20
6.4692413249
 11
4.1633529798
 21
6.4678722002
  0
LINE
  5
370
100
AcDbEntity
  8
0
100
AcDbLine
 62
7
  6
CONTINUOUS
 10
5.4479336734
 20
6.3903965591
 11
5.4525345268
 21
6.3851999734
  0
LINE
  5
371
100
AcDbEntity
  8
0
100
AcDbLine
 62
7
  6
CONTINUOUS
 10
6.5677185171
 20
5.1970193829
 11
6.5628385305
 21
5.2033950081
  0
LINE
  5
372
100
AcDbEntity
  8
0
100
AcDbLine
 62
7
  6
CONTINUOUS
 10
5.9340224342
 20
6.2546534551
 11
5.9371224543
 21
6.2472471913
  0
LINE
  5
373
100
AcDbEntity
  8
0
100
AcDbLine
 62
7
  6
CONTINUOUS
 10
6.0823172821
 20
6.0871884771
 11
6.079235822
 21
6.0946024822
  0
LINE
  5
374
100
AcDbEntity
  8
0
100
AcDbLine
 62
7
  6
CONTINUOUS
 10
6.4783192982
 20
4.1920245857
 11
6.4761193496
 21
4.1854418369
  0
LINE
  5
375
100
AcDbEntity
  8
0
100
AcDbLine
 62
7
  6
CONTINUOUS
 10
6.0278435725
 20
3.3419670799
 11
6.0260925015
 21
3.3396674223
  0
LINE
  5
376
100
AcDbEntity
  8
0
100
AcDbLine
 62
7
  6
CONTINUOUS
 10
4.4024520436
 20
6.4676535179
 11
4.4092528456
 21
6.4690396809
  0
LINE
  5
377
100
AcDbEntity
  8
0
100
AcDbLine
 62
7
  6
CONTINUOUS
 10
5.3065487281
 20
6.4692413249
 11
5.3133529798
 21
6.4678722002
  0
LINE
  5
378
100
AcDbEntity
  8
0
100
AcDbLine
 62
7
  6
CONTINUOUS
 10
6.0247254717
 20
5.9605823931
 11
6.0263818076
 21
5.9587115898
  0
LINE
  5
379
100
AcDbEntity
  8
0
100
AcDbLine
 62
7
  6
CONTINUOUS
 10
6.4761193499
 20
5.155663735
 11
6.4783192982
 21
5.149080987
  0
LINE
  5
37A
100
AcDbEntity
  8
0
100
AcDbLine
 62
7
  6
CONTINUOUS
 10
6.8819450752
 20
2.7283268634
 11
6.8819450752
 21
6.6133268634
  0
LINE
  5
37B
100
AcDbEntity
  8
0
100
AcDbLine
 62
7
  6
CONTINUOUS
 10
6.4783192982
 20
3.4420245857
 11
6.4761193496
 21
3.4354418369
  0
LINE
  5
37C
100
AcDbEntity
  8
0
100
AcDbLine
 62
7
  6
CONTINUOUS
 10
6.6042554033
 20
3.7034468761
 11
6.5993914008
 21
3.6970590481
  0
LINE
  5
37D
100
AcDbEntity
  8
0
100
AcDbLine
 62
7
  6
CONTINUOUS
 10
3.2592528456
 20
6.4690396809
 11
3.2524520436
 21
6.4676535179
  0
LINE
  5
37E
100
AcDbEntity
  8
0
100
AcDbLine
 62
7
  6
CONTINUOUS
 10
6.8019450752
 20
6.6933268634
 11
2.9169450752
 21
6.6933268634
  0
LINE
  5
37F
100
AcDbEntity
  8
0
100
AcDbLine
 62
7
  6
CONTINUOUS
 10
6.4565487281
 20
6.4692413249
 11
6.4633529798
 21
6.4678722002
  0
LINE
  5
380
100
AcDbEntity
  8
0
100
AcDbLine
 62
7
  6
CONTINUOUS
 10
6.5979336734
 20
5.6403965591
 11
6.6025345268
 21
5.6351999734
  0
LINE
  5
381
100
AcDbEntity
  8
0
100
AcDbLine
 62
7
  6
CONTINUOUS
 10
6.4761193499
 20
5.905663735
 11
6.4783192982
 21
5.899080987
  0
LINE
  5
382
100
AcDbEntity
  8
0
100
AcDbLine
 62
7
  6
CONTINUOUS
 10
6.5634780008
 20
3.3851510619
 11
6.5680658235
 21
3.3903591544
  0
LINE
  5
383
100
AcDbEntity
  8
0
100
AcDbLine
 62
7
  6
CONTINUOUS
 10
6.5677185171
 20
5.9470193829
 11
6.5628385305
 21
5.9533950081
  0
LINE
  5
384
100
AcDbEntity
  8
0
100
AcDbLine
 62
7
  6
CONTINUOUS
 10
6.6042554033
 20
2.9534468761
 11
6.5993914008
 21
2.9470590481
  0
LINE
  5
385
100
AcDbEntity
  8
0
100
AcDbLine
 62
7
  6
CONTINUOUS
 10
6.5979336734
 20
6.3903965591
 11
6.6025345268
 21
6.3851999734
  0
ARC
  5
386
100
AcDbEntity
  8
0
100
AcDbCircle
 62
7
  6
CONTINUOUS
 10
6.8019450752
 20
6.6133268634
 40
0.08
100
AcDbArc
 50
0.0
 51
90.0
  0
ARC
  5
387
100
AcDbEntity
  8
0
100
AcDbCircle
 62
7
  6
CONTINUOUS
 10
6.8019450752
 20
2.7283268634
 40
0.08
100
AcDbArc
 50
270.0
 51
360.0
  0
ARC
  5
388
100
AcDbEntity
  8
0
100
AcDbCircle
 62
7
  6
CONTINUOUS
 10
2.9169450752
 20
2.7283268634
 40
0.08
100
AcDbArc
 50
180.0
 51
270.0
  0
ARC
  5
389
100
AcDbEntity
  8
0
100
AcDbCircle
 62
7
  6
CONTINUOUS
 10
2.9169450752
 20
6.6133268634
 40
0.08
100
AcDbArc
 50
90.0
 51
180.0
  0
SPLINE
  5
38A
100
AcDbEntity
  8
0
100
AcDbSpline
 62
7
  6
CONTINUOUS
 70
0
 71
3
 72
23
 73
19
 74
0
 42
0.0000001
 43
0.0000001
 44
0.0000000001
 40
0.0
 40
0.0
 40
0.0
 40
0.0
 40
0.0671476521
 40
0.131922658
 40
0.1945807968
 40
0.2554239209
 40
0.3148023802
 40
0.3731151014
 40
0.4308065226
 40
0.4883599216
 40
0.5462921
 40
0.605132422
 40
0.6653637301
 40
0.7274075168
 40
0.791622353
 40
0.8583062013
 40
0.9277012461
 40
1.0
 40
1.0
 40
1.0
 40
1.0
 10
3.7263818076
 20
5.9587115898
 30
0.0
 10
3.7323715461
 20
5.9519462819
 30
0.0
 10
3.7436905247
 20
5.9382469765
 30
0.0
 10
3.7588232562
 20
5.9168475166
 30
0.0
 10
3.77175173
 20
5.8950241485
 30
0.0
 10
3.7824348145
 20
5.8728182205
 30
0.0
 10
3.7908317543
 20
5.8502705176
 30
0.0
 10
3.7969008366
 20
5.8274236769
 30
0.0
 10
3.8006004873
 20
5.8043222722
 30
0.0
 10
3.8018901501
 20
5.7810115351
 30
0.0
 10
3.800730652
 20
5.757540073
 30
0.0
 10
3.797165765
 20
5.7339510495
 30
0.0
 10
3.7912421222
 20
5.7102742998
 30
0.0
 10
3.7830058714
 20
5.686536731
 30
0.0
 10
3.7725022808
 20
5.6627634106
 30
0.0
 10
3.7597750685
 20
5.6389781619
 30
0.0
 10
3.7448675925
 20
5.6152056095
 30
0.0
 10
3.733737535
 20
5.5997075404
 30
0.0
 10
3.7278435725
 20
5.5919670799
 30
0.0
  0
SPLINE
  5
38B
100
AcDbEntity
  8
0
100
AcDbSpline
 62
7
  6
CONTINUOUS
 70
0
 71
3
 72
23
 73
19
 74
0
 42
0.0000001
 43
0.0000001
 44
0.0000000001
 40
0.0
 40
0.0
 40
0.0
 40
0.0
 40
0.0722987539
 40
0.1416937986
 40
0.2083776469
 40
0.272592483
 40
0.3346362697
 40
0.3948675776
 40
0.4537078996
 40
0.5116400779
 40
0.5691934769
 40
0.6268848981
 40
0.6851976193
 40
0.7445760787
 40
0.8054192029
 40
0.8680773417
 40
0.9328523478
 40
1.0
 40
1.0
 40
1.0
 40
1.0
 10
3.6926627924
 20
5.5919230217
 30
0.0
 10
3.686749461
 20
5.5996486954
 30
0.0
 10
3.6755806207
 20
5.6151188388
 30
0.0
 10
3.6606136489
 20
5.6388539783
 30
0.0
 10
3.6478269022
 20
5.662607275
 30
0.0
 10
3.6372638001
 20
5.6863542129
 30
0.0
 10
3.6289681202
 20
5.7100710782
 30
0.0
 10
3.6229851934
 20
5.7337329169
 30
0.0
 10
3.6193612349
 20
5.7573129377
 30
0.0
 10
3.6181429521
 20
5.780781422
 30
0.0
 10
3.6193742251
 20
5.8040953164
 30
0.0
 10
3.6230160028
 20
5.8272059151
 30
0.0
 10
3.6290278422
 20
5.8500678853
 30
0.0
 10
3.6373682813
 20
5.8726365492
 30
0.0
 10
3.6479957137
 20
5.8948691653
 30
0.0
 10
3.6608694868
 20
5.9167248466
 30
0.0
 10
3.6759485723
 20
5.938162142
 30
0.0
 10
3.6872332032
 20
5.9518897549
 30
0.0
 10
3.6932059781
 20
5.9586700439
 30
0.0
  0
SPLINE
  5
38C
100
AcDbEntity
  8
0
100
AcDbSpline
 62
7
  6
CONTINUOUS
 70
0
 71
3
 72
23
 73
19
 74
0
 42
0.0000001
 43
0.0000001
 44
0.0000000001
 40
0.0
 40
0.0
 40
0.0
 40
0.0
 40
0.0671476521
 40
0.131922658
 40
0.1945807968
 40
0.2554239209
 40
0.3148023802
 40
0.3731151014
 40
0.4308065226
 40
0.4883599216
 40
0.5462921
 40
0.605132422
 40
0.6653637301
 40
0.7274075168
 40
0.791622353
 40
0.8583062013
 40
0.9277012461
 40
1.0
 40
1.0
 40
1.0
 40
1.0
 10
4.8763818076
 20
5.9587115898
 30
0.0
 10
4.8823715461
 20
5.9519462819
 30
0.0
 10
4.8936905247
 20
5.9382469765
 30
0.0
 10
4.9088232562
 20
5.9168475166
 30
0.0
 10
4.92175173
 20
5.8950241485
 30
0.0
 10
4.9324348145
 20
5.8728182205
 30
0.0
 10
4.9408317543
 20
5.8502705176
 30
0.0
 10
4.9469008366
 20
5.8274236769
 30
0.0
 10
4.9506004873
 20
5.8043222722
 30
0.0
 10
4.9518901501
 20
5.7810115351
 30
0.0
 10
4.950730652
 20
5.757540073
 30
0.0
 10
4.947165765
 20
5.7339510495
 30
0.0
 10
4.9412421222
 20
5.7102742998
 30
0.0
 10
4.9330058714
 20
5.686536731
 30
0.0
 10
4.9225022808
 20
5.6627634106
 30
0.0
 10
4.9097750685
 20
5.6389781619
 30
0.0
 10
4.8948675925
 20
5.6152056095
 30
0.0
 10
4.883737535
 20
5.5997075404
 30
0.0
 10
4.8778435725
 20
5.5919670799
 30
0.0
  0
SPLINE
  5
38D
100
AcDbEntity
  8
0
100
AcDbSpline
 62
7
  6
CONTINUOUS
 70
0
 71
3
 72
23
 73
19
 74
0
 42
0.0000001
 43
0.0000001
 44
0.0000000001
 40
0.0
 40
0.0
 40
0.0
 40
0.0
 40
0.0722987539
 40
0.1416937986
 40
0.2083776469
 40
0.272592483
 40
0.3346362697
 40
0.3948675776
 40
0.4537078996
 40
0.5116400779
 40
0.5691934769
 40
0.6268848981
 40
0.6851976193
 40
0.7445760787
 40
0.8054192029
 40
0.8680773417
 40
0.9328523478
 40
1.0
 40
1.0
 40
1.0
 40
1.0
 10
4.8426627924
 20
5.5919230217
 30
0.0
 10
4.836749461
 20
5.5996486954
 30
0.0
 10
4.8255806207
 20
5.6151188388
 30
0.0
 10
4.8106136489
 20
5.6388539783
 30
0.0
 10
4.7978269022
 20
5.662607275
 30
0.0
 10
4.7872638001
 20
5.6863542129
 30
0.0
 10
4.7789681202
 20
5.7100710782
 30
0.0
 10
4.7729851934
 20
5.7337329169
 30
0.0
 10
4.7693612349
 20
5.7573129377
 30
0.0
 10
4.7681429521
 20
5.780781422
 30
0.0
 10
4.7693742251
 20
5.8040953164
 30
0.0
 10
4.7730160028
 20
5.8272059151
 30
0.0
 10
4.7790278422
 20
5.8500678853
 30
0.0
 10
4.7873682813
 20
5.8726365492
 30
0.0
 10
4.7979957137
 20
5.8948691653
 30
0.0
 10
4.8108694868
 20
5.9167248466
 30
0.0
 10
4.8259485723
 20
5.938162142
 30
0.0
 10
4.8372332032
 20
5.9518897549
 30
0.0
 10
4.8432059781
 20
5.9586700439
 30
0.0
  0
SPLINE
  5
38E
100
AcDbEntity
  8
0
100
AcDbSpline
 62
7
  6
CONTINUOUS
 70
0
 71
3
 72
23
 73
19
 74
0
 42
0.0000001
 43
0.0000001
 44
0.0000000001
 40
0.0
 40
0.0
 40
0.0
 40
0.0
 40
0.0671476521
 40
0.131922658
 40
0.1945807968
 40
0.2554239209
 40
0.3148023802
 40
0.3731151014
 40
0.4308065226
 40
0.4883599216
 40
0.5462921
 40
0.605132422
 40
0.6653637301
 40
0.7274075168
 40
0.791622353
 40
0.8583062013
 40
0.9277012461
 40
1.0
 40
1.0
 40
1.0
 40
1.0
 10
6.0263818076
 20
5.9587115898
 30
0.0
 10
6.0323715461
 20
5.9519462819
 30
0.0
 10
6.0436905247
 20
5.9382469765
 30
0.0
 10
6.0588232562
 20
5.9168475166
 30
0.0
 10
6.07175173
 20
5.8950241485
 30
0.0
 10
6.0824348145
 20
5.8728182205
 30
0.0
 10
6.0908317543
 20
5.8502705176
 30
0.0
 10
6.0969008366
 20
5.8274236769
 30
0.0
 10
6.1006004873
 20
5.8043222722
 30
0.0
 10
6.1018901501
 20
5.7810115351
 30
0.0
 10
6.100730652
 20
5.757540073
 30
0.0
 10
6.097165765
 20
5.7339510495
 30
0.0
 10
6.0912421222
 20
5.7102742998
 30
0.0
 10
6.0830058714
 20
5.686536731
 30
0.0
 10
6.0725022808
 20
5.6627634106
 30
0.0
 10
6.0597750685
 20
5.6389781619
 30
0.0
 10
6.0448675925
 20
5.6152056095
 30
0.0
 10
6.033737535
 20
5.5997075404
 30
0.0
 10
6.0278435725
 20
5.5919670799
 30
0.0
  0
SPLINE
  5
38F
100
AcDbEntity
  8
0
100
AcDbSpline
 62
7
  6
CONTINUOUS
 70
0
 71
3
 72
23
 73
19
 74
0
 42
0.0000001
 43
0.0000001
 44
0.0000000001
 40
0.0
 40
0.0
 40
0.0
 40
0.0
 40
0.0722987539
 40
0.1416937986
 40
0.2083776469
 40
0.272592483
 40
0.3346362697
 40
0.3948675776
 40
0.4537078996
 40
0.5116400779
 40
0.5691934769
 40
0.6268848981
 40
0.6851976193
 40
0.7445760787
 40
0.8054192029
 40
0.8680773417
 40
0.9328523478
 40
1.0
 40
1.0
 40
1.0
 40
1.0
 10
5.9926627924
 20
5.5919230217
 30
0.0
 10
5.986749461
 20
5.5996486954
 30
0.0
 10
5.9755806207
 20
5.6151188388
 30
0.0
 10
5.9606136489
 20
5.6388539783
 30
0.0
 10
5.9478269022
 20
5.662607275
 30
0.0
 10
5.9372638001
 20
5.6863542129
 30
0.0
 10
5.9289681202
 20
5.7100710782
 30
0.0
 10
5.9229851934
 20
5.7337329169
 30
0.0
 10
5.9193612349
 20
5.7573129377
 30
0.0
 10
5.9181429521
 20
5.780781422
 30
0.0
 10
5.9193742251
 20
5.8040953164
 30
0.0
 10
5.9230160028
 20
5.8272059151
 30
0.0
 10
5.9290278422
 20
5.8500678853
 30
0.0
 10
5.9373682813
 20
5.8726365492
 30
0.0
 10
5.9479957137
 20
5.8948691653
 30
0.0
 10
5.9608694868
 20
5.9167248466
 30
0.0
 10
5.9759485723
 20
5.938162142
 30
0.0
 10
5.9872332032
 20
5.9518897549
 30
0.0
 10
5.9932059781
 20
5.9586700439
 30
0.0
  0
SPLINE
  5
390
100
AcDbEntity
  8
0
100
AcDbSpline
 62
7
  6
CONTINUOUS
 70
0
 71
3
 72
23
 73
19
 74
0
 42
0.0000001
 43
0.0000001
 44
0.0000000001
 40
0.0
 40
0.0
 40
0.0
 40
0.0
 40
0.0671476521
 40
0.131922658
 40
0.1945807968
 40
0.2554239209
 40
0.3148023802
 40
0.3731151014
 40
0.4308065226
 40
0.4883599216
 40
0.5462921
 40
0.605132422
 40
0.6653637301
 40
0.7274075168
 40
0.791622353
 40
0.8583062013
 40
0.9277012461
 40
1.0
 40
1.0
 40
1.0
 40
1.0
 10
3.7263818076
 20
5.2087115898
 30
0.0
 10
3.7323715461
 20
5.2019462819
 30
0.0
 10
3.7436905247
 20
5.1882469765
 30
0.0
 10
3.7588232562
 20
5.1668475166
 30
0.0
 10
3.77175173
 20
5.1450241485
 30
0.0
 10
3.7824348145
 20
5.1228182205
 30
0.0
 10
3.7908317543
 20
5.1002705176
 30
0.0
 10
3.7969008366
 20
5.0774236769
 30
0.0
 10
3.8006004873
 20
5.0543222722
 30
0.0
 10
3.8018901501
 20
5.0310115351
 30
0.0
 10
3.800730652
 20
5.007540073
 30
0.0
 10
3.797165765
 20
4.9839510495
 30
0.0
 10
3.7912421222
 20
4.9602742998
 30
0.0
 10
3.7830058714
 20
4.936536731
 30
0.0
 10
3.7725022808
 20
4.9127634106
 30
0.0
 10
3.7597750685
 20
4.8889781619
 30
0.0
 10
3.7448675925
 20
4.8652056095
 30
0.0
 10
3.733737535
 20
4.8497075404
 30
0.0
 10
3.7278435725
 20
4.8419670799
 30
0.0
  0
SPLINE
  5
391
100
AcDbEntity
  8
0
100
AcDbSpline
 62
7
  6
CONTINUOUS
 70
0
 71
3
 72
23
 73
19
 74
0
 42
0.0000001
 43
0.0000001
 44
0.0000000001
 40
0.0
 40
0.0
 40
0.0
 40
0.0
 40
0.0722987539
 40
0.1416937986
 40
0.2083776469
 40
0.272592483
 40
0.3346362697
 40
0.3948675776
 40
0.4537078996
 40
0.5116400779
 40
0.5691934769
 40
0.6268848981
 40
0.6851976193
 40
0.7445760787
 40
0.8054192029
 40
0.8680773417
 40
0.9328523478
 40
1.0
 40
1.0
 40
1.0
 40
1.0
 10
3.6926627924
 20
4.8419230217
 30
0.0
 10
3.686749461
 20
4.8496486954
 30
0.0
 10
3.6755806207
 20
4.8651188388
 30
0.0
 10
3.6606136489
 20
4.8888539783
 30
0.0
 10
3.6478269022
 20
4.912607275
 30
0.0
 10
3.6372638001
 20
4.9363542129
 30
0.0
 10
3.6289681202
 20
4.9600710782
 30
0.0
 10
3.6229851934
 20
4.9837329169
 30
0.0
 10
3.6193612349
 20
5.0073129377
 30
0.0
 10
3.6181429521
 20
5.030781422
 30
0.0
 10
3.6193742251
 20
5.0540953164
 30
0.0
 10
3.6230160028
 20
5.0772059151
 30
0.0
 10
3.6290278422
 20
5.1000678853
 30
0.0
 10
3.6373682813
 20
5.1226365492
 30
0.0
 10
3.6479957137
 20
5.1448691653
 30
0.0
 10
3.6608694868
 20
5.1667248466
 30
0.0
 10
3.6759485723
 20
5.188162142
 30
0.0
 10
3.6872332032
 20
5.2018897549
 30
0.0
 10
3.6932059781
 20
5.2086700439
 30
0.0
  0
SPLINE
  5
392
100
AcDbEntity
  8
0
100
AcDbSpline
 62
7
  6
CONTINUOUS
 70
0
 71
3
 72
23
 73
19
 74
0
 42
0.0000001
 43
0.0000001
 44
0.0000000001
 40
0.0
 40
0.0
 40
0.0
 40
0.0
 40
0.0671476521
 40
0.131922658
 40
0.1945807968
 40
0.2554239209
 40
0.3148023802
 40
0.3731151014
 40
0.4308065226
 40
0.4883599216
 40
0.5462921
 40
0.605132422
 40
0.6653637301
 40
0.7274075168
 40
0.791622353
 40
0.8583062013
 40
0.9277012461
 40
1.0
 40
1.0
 40
1.0
 40
1.0
 10
4.8763818076
 20
5.2087115898
 30
0.0
 10
4.8823715461
 20
5.2019462819
 30
0.0
 10
4.8936905247
 20
5.1882469765
 30
0.0
 10
4.9088232562
 20
5.1668475166
 30
0.0
 10
4.92175173
 20
5.1450241485
 30
0.0
 10
4.9324348145
 20
5.1228182205
 30
0.0
 10
4.9408317543
 20
5.1002705176
 30
0.0
 10
4.9469008366
 20
5.0774236769
 30
0.0
 10
4.9506004873
 20
5.0543222722
 30
0.0
 10
4.9518901501
 20
5.0310115351
 30
0.0
 10
4.950730652
 20
5.007540073
 30
0.0
 10
4.947165765
 20
4.9839510495
 30
0.0
 10
4.9412421222
 20
4.9602742998
 30
0.0
 10
4.9330058714
 20
4.936536731
 30
0.0
 10
4.9225022808
 20
4.9127634106
 30
0.0
 10
4.9097750685
 20
4.8889781619
 30
0.0
 10
4.8948675925
 20
4.8652056095
 30
0.0
 10
4.883737535
 20
4.8497075404
 30
0.0
 10
4.8778435725
 20
4.8419670799
 30
0.0
  0
SPLINE
  5
393
100
AcDbEntity
  8
0
100
AcDbSpline
 62
7
  6
CONTINUOUS
 70
0
 71
3
 72
23
 73
19
 74
0
 42
0.0000001
 43
0.0000001
 44
0.0000000001
 40
0.0
 40
0.0
 40
0.0
 40
0.0
 40
0.0722987539
 40
0.1416937986
 40
0.2083776469
 40
0.272592483
 40
0.3346362697
 40
0.3948675776
 40
0.4537078996
 40
0.5116400779
 40
0.5691934769
 40
0.6268848981
 40
0.6851976193
 40
0.7445760787
 40
0.8054192029
 40
0.8680773417
 40
0.9328523478
 40
1.0
 40
1.0
 40
1.0
 40
1.0
 10
4.8426627924
 20
4.8419230217
 30
0.0
 10
4.836749461
 20
4.8496486954
 30
0.0
 10
4.8255806207
 20
4.8651188388
 30
0.0
 10
4.8106136489
 20
4.8888539783
 30
0.0
 10
4.7978269022
 20
4.912607275
 30
0.0
 10
4.7872638001
 20
4.9363542129
 30
0.0
 10
4.7789681202
 20
4.9600710782
 30
0.0
 10
4.7729851934
 20
4.9837329169
 30
0.0
 10
4.7693612349
 20
5.0073129377
 30
0.0
 10
4.7681429521
 20
5.030781422
 30
0.0
 10
4.7693742251
 20
5.0540953164
 30
0.0
 10
4.7730160028
 20
5.0772059151
 30
0.0
 10
4.7790278422
 20
5.1000678853
 30
0.0
 10
4.7873682813
 20
5.1226365492
 30
0.0
 10
4.7979957137
 20
5.1448691653
 30
0.0
 10
4.8108694868
 20
5.1667248466
 30
0.0
 10
4.8259485723
 20
5.188162142
 30
0.0
 10
4.8372332032
 20
5.2018897549
 30
0.0
 10
4.8432059781
 20
5.2086700439
 30
0.0
  0
SPLINE
  5
394
100
AcDbEntity
  8
0
100
AcDbSpline
 62
7
  6
CONTINUOUS
 70
0
 71
3
 72
23
 73
19
 74
0
 42
0.0000001
 43
0.0000001
 44
0.0000000001
 40
0.0
 40
0.0
 40
0.0
 40
0.0
 40
0.0671476521
 40
0.131922658
 40
0.1945807968
 40
0.2554239209
 40
0.3148023802
 40
0.3731151014
 40
0.4308065226
 40
0.4883599216
 40
0.5462921
 40
0.605132422
 40
0.6653637301
 40
0.7274075168
 40
0.791622353
 40
0.8583062013
 40
0.9277012461
 40
1.0
 40
1.0
 40
1.0
 40
1.0
 10
6.0263818076
 20
5.2087115898
 30
0.0
 10
6.0323715461
 20
5.2019462819
 30
0.0
 10
6.0436905247
 20
5.1882469765
 30
0.0
 10
6.0588232562
 20
5.1668475166
 30
0.0
 10
6.07175173
 20
5.1450241485
 30
0.0
 10
6.0824348145
 20
5.1228182205
 30
0.0
 10
6.0908317543
 20
5.1002705176
 30
0.0
 10
6.0969008366
 20
5.0774236769
 30
0.0
 10
6.1006004873
 20
5.0543222722
 30
0.0
 10
6.1018901501
 20
5.0310115351
 30
0.0
 10
6.100730652
 20
5.007540073
 30
0.0
 10
6.097165765
 20
4.9839510495
 30
0.0
 10
6.0912421222
 20
4.9602742998
 30
0.0
 10
6.0830058714
 20
4.936536731
 30
0.0
 10
6.0725022808
 20
4.9127634106
 30
0.0
 10
6.0597750685
 20
4.8889781619
 30
0.0
 10
6.0448675925
 20
4.8652056095
 30
0.0
 10
6.033737535
 20
4.8497075404
 30
0.0
 10
6.0278435725
 20
4.8419670799
 30
0.0
  0
SPLINE
  5
395
100
AcDbEntity
  8
0
100
AcDbSpline
 62
7
  6
CONTINUOUS
 70
0
 71
3
 72
23
 73
19
 74
0
 42
0.0000001
 43
0.0000001
 44
0.0000000001
 40
0.0
 40
0.0
 40
0.0
 40
0.0
 40
0.0722987539
 40
0.1416937986
 40
0.2083776469
 40
0.272592483
 40
0.3346362697
 40
0.3948675776
 40
0.4537078996
 40
0.5116400779
 40
0.5691934769
 40
0.6268848981
 40
0.6851976193
 40
0.7445760787
 40
0.8054192029
 40
0.8680773417
 40
0.9328523478
 40
1.0
 40
1.0
 40
1.0
 40
1.0
 10
5.9926627924
 20
4.8419230217
 30
0.0
 10
5.986749461
 20
4.8496486954
 30
0.0
 10
5.9755806207
 20
4.8651188388
 30
0.0
 10
5.9606136489
 20
4.8888539783
 30
0.0
 10
5.9478269022
 20
4.912607275
 30
0.0
 10
5.9372638001
 20
4.9363542129
 30
0.0
 10
5.9289681202
 20
4.9600710782
 30
0.0
 10
5.9229851934
 20
4.9837329169
 30
0.0
 10
5.9193612349
 20
5.0073129377
 30
0.0
 10
5.9181429521
 20
5.030781422
 30
0.0
 10
5.9193742251
 20
5.0540953164
 30
0.0
 10
5.9230160028
 20
5.0772059151
 30
0.0
 10
5.9290278422
 20
5.1000678853
 30
0.0
 10
5.9373682813
 20
5.1226365492
 30
0.0
 10
5.9479957137
 20
5.1448691653
 30
0.0
 10
5.9608694868
 20
5.1667248466
 30
0.0
 10
5.9759485723
 20
5.188162142
 30
0.0
 10
5.9872332032
 20
5.2018897549
 30
0.0
 10
5.9932059781
 20
5.2086700439
 30
0.0
  0
SPLINE
  5
396
100
AcDbEntity
  8
0
100
AcDbSpline
 62
7
  6
CONTINUOUS
 70
0
 71
3
 72
23
 73
19
 74
0
 42
0.0000001
 43
0.0000001
 44
0.0000000001
 40
0.0
 40
0.0
 40
0.0
 40
0.0
 40
0.0671476521
 40
0.131922658
 40
0.1945807968
 40
0.2554239209
 40
0.3148023802
 40
0.3731151014
 40
0.4308065226
 40
0.4883599216
 40
0.5462921
 40
0.605132422
 40
0.6653637301
 40
0.7274075168
 40
0.791622353
 40
0.8583062013
 40
0.9277012461
 40
1.0
 40
1.0
 40
1.0
 40
1.0
 10
3.7263818076
 20
4.4587115898
 30
0.0
 10
3.7323715461
 20
4.4519462819
 30
0.0
 10
3.7436905247
 20
4.4382469765
 30
0.0
 10
3.7588232562
 20
4.4168475166
 30
0.0
 10
3.77175173
 20
4.3950241485
 30
0.0
 10
3.7824348145
 20
4.3728182205
 30
0.0
 10
3.7908317543
 20
4.3502705176
 30
0.0
 10
3.7969008366
 20
4.3274236769
 30
0.0
 10
3.8006004873
 20
4.3043222722
 30
0.0
 10
3.8018901501
 20
4.2810115351
 30
0.0
 10
3.800730652
 20
4.257540073
 30
0.0
 10
3.797165765
 20
4.2339510495
 30
0.0
 10
3.7912421222
 20
4.2102742998
 30
0.0
 10
3.7830058714
 20
4.186536731
 30
0.0
 10
3.7725022808
 20
4.1627634106
 30
0.0
 10
3.7597750685
 20
4.1389781619
 30
0.0
 10
3.7448675925
 20
4.1152056095
 30
0.0
 10
3.733737535
 20
4.0997075404
 30
0.0
 10
3.7278435725
 20
4.0919670799
 30
0.0
  0
SPLINE
  5
397
100
AcDbEntity
  8
0
100
AcDbSpline
 62
7
  6
CONTINUOUS
 70
0
 71
3
 72
23
 73
19
 74
0
 42
0.0000001
 43
0.0000001
 44
0.0000000001
 40
0.0
 40
0.0
 40
0.0
 40
0.0
 40
0.0722987539
 40
0.1416937986
 40
0.2083776469
 40
0.272592483
 40
0.3346362697
 40
0.3948675776
 40
0.4537078996
 40
0.5116400779
 40
0.5691934769
 40
0.6268848981
 40
0.6851976193
 40
0.7445760787
 40
0.8054192029
 40
0.8680773417
 40
0.9328523478
 40
1.0
 40
1.0
 40
1.0
 40
1.0
 10
3.6926627924
 20
4.0919230217
 30
0.0
 10
3.686749461
 20
4.0996486954
 30
0.0
 10
3.6755806207
 20
4.1151188388
 30
0.0
 10
3.6606136489
 20
4.1388539783
 30
0.0
 10
3.6478269022
 20
4.162607275
 30
0.0
 10
3.6372638001
 20
4.1863542129
 30
0.0
 10
3.6289681202
 20
4.2100710782
 30
0.0
 10
3.6229851934
 20
4.2337329169
 30
0.0
 10
3.6193612349
 20
4.2573129377
 30
0.0
 10
3.6181429521
 20
4.280781422
 30
0.0
 10
3.6193742251
 20
4.3040953164
 30
0.0
 10
3.6230160028
 20
4.3272059151
 30
0.0
 10
3.6290278422
 20
4.3500678853
 30
0.0
 10
3.6373682813
 20
4.3726365492
 30
0.0
 10
3.6479957137
 20
4.3948691653
 30
0.0
 10
3.6608694868
 20
4.4167248466
 30
0.0
 10
3.6759485723
 20
4.438162142
 30
0.0
 10
3.6872332032
 20
4.4518897549
 30
0.0
 10
3.6932059781
 20
4.4586700439
 30
0.0
  0
SPLINE
  5
398
100
AcDbEntity
  8
0
100
AcDbSpline
 62
7
  6
CONTINUOUS
 70
0
 71
3
 72
23
 73
19
 74
0
 42
0.0000001
 43
0.0000001
 44
0.0000000001
 40
0.0
 40
0.0
 40
0.0
 40
0.0
 40
0.0671476521
 40
0.131922658
 40
0.1945807968
 40
0.2554239209
 40
0.3148023802
 40
0.3731151014
 40
0.4308065226
 40
0.4883599216
 40
0.5462921
 40
0.605132422
 40
0.6653637301
 40
0.7274075168
 40
0.791622353
 40
0.8583062013
 40
0.9277012461
 40
1.0
 40
1.0
 40
1.0
 40
1.0
 10
4.8763818076
 20
4.4587115898
 30
0.0
 10
4.8823715461
 20
4.4519462819
 30
0.0
 10
4.8936905247
 20
4.4382469765
 30
0.0
 10
4.9088232562
 20
4.4168475166
 30
0.0
 10
4.92175173
 20
4.3950241485
 30
0.0
 10
4.9324348145
 20
4.3728182205
 30
0.0
 10
4.9408317543
 20
4.3502705176
 30
0.0
 10
4.9469008366
 20
4.3274236769
 30
0.0
 10
4.9506004873
 20
4.3043222722
 30
0.0
 10
4.9518901501
 20
4.2810115351
 30
0.0
 10
4.950730652
 20
4.257540073
 30
0.0
 10
4.947165765
 20
4.2339510495
 30
0.0
 10
4.9412421222
 20
4.2102742998
 30
0.0
 10
4.9330058714
 20
4.186536731
 30
0.0
 10
4.9225022808
 20
4.1627634106
 30
0.0
 10
4.9097750685
 20
4.1389781619
 30
0.0
 10
4.8948675925
 20
4.1152056095
 30
0.0
 10
4.883737535
 20
4.0997075404
 30
0.0
 10
4.8778435725
 20
4.0919670799
 30
0.0
  0
SPLINE
  5
399
100
AcDbEntity
  8
0
100
AcDbSpline
 62
7
  6
CONTINUOUS
 70
0
 71
3
 72
23
 73
19
 74
0
 42
0.0000001
 43
0.0000001
 44
0.0000000001
 40
0.0
 40
0.0
 40
0.0
 40
0.0
 40
0.0722987539
 40
0.1416937986
 40
0.2083776469
 40
0.272592483
 40
0.3346362697
 40
0.3948675776
 40
0.4537078996
 40
0.5116400779
 40
0.5691934769
 40
0.6268848981
 40
0.6851976193
 40
0.7445760787
 40
0.8054192029
 40
0.8680773417
 40
0.9328523478
 40
1.0
 40
1.0
 40
1.0
 40
1.0
 10
4.8426627924
 20
4.0919230217
 30
0.0
 10
4.836749461
 20
4.0996486954
 30
0.0
 10
4.8255806207
 20
4.1151188388
 30
0.0
 10
4.8106136489
 20
4.1388539783
 30
0.0
 10
4.7978269022
 20
4.162607275
 30
0.0
 10
4.7872638001
 20
4.1863542129
 30
0.0
 10
4.7789681202
 20
4.2100710782
 30
0.0
 10
4.7729851934
 20
4.2337329169
 30
0.0
 10
4.7693612349
 20
4.2573129377
 30
0.0
 10
4.7681429521
 20
4.280781422
 30
0.0
 10
4.7693742251
 20
4.3040953164
 30
0.0
 10
4.7730160028
 20
4.3272059151
 30
0.0
 10
4.7790278422
 20
4.3500678853
 30
0.0
 10
4.7873682813
 20
4.3726365492
 30
0.0
 10
4.7979957137
 20
4.3948691653
 30
0.0
 10
4.8108694868
 20
4.4167248466
 30
0.0
 10
4.8259485723
 20
4.438162142
 30
0.0
 10
4.8372332032
 20
4.4518897549
 30
0.0
 10
4.8432059781
 20
4.4586700439
 30
0.0
  0
SPLINE
  5
39A
100
AcDbEntity
  8
0
100
AcDbSpline
 62
7
  6
CONTINUOUS
 70
0
 71
3
 72
23
 73
19
 74
0
 42
0.0000001
 43
0.0000001
 44
0.0000000001
 40
0.0
 40
0.0
 40
0.0
 40
0.0
 40
0.0671476521
 40
0.131922658
 40
0.1945807968
 40
0.2554239209
 40
0.3148023802
 40
0.3731151014
 40
0.4308065226
 40
0.4883599216
 40
0.5462921
 40
0.605132422
 40
0.6653637301
 40
0.7274075168
 40
0.791622353
 40
0.8583062013
 40
0.9277012461
 40
1.0
 40
1.0
 40
1.0
 40
1.0
 10
6.0263818076
 20
4.4587115898
 30
0.0
 10
6.0323715461
 20
4.4519462819
 30
0.0
 10
6.0436905247
 20
4.4382469765
 30
0.0
 10
6.0588232562
 20
4.4168475166
 30
0.0
 10
6.07175173
 20
4.3950241485
 30
0.0
 10
6.0824348145
 20
4.3728182205
 30
0.0
 10
6.0908317543
 20
4.3502705176
 30
0.0
 10
6.0969008366
 20
4.3274236769
 30
0.0
 10
6.1006004873
 20
4.3043222722
 30
0.0
 10
6.1018901501
 20
4.2810115351
 30
0.0
 10
6.100730652
 20
4.257540073
 30
0.0
 10
6.097165765
 20
4.2339510495
 30
0.0
 10
6.0912421222
 20
4.2102742998
 30
0.0
 10
6.0830058714
 20
4.186536731
 30
0.0
 10
6.0725022808
 20
4.1627634106
 30
0.0
 10
6.0597750685
 20
4.1389781619
 30
0.0
 10
6.0448675925
 20
4.1152056095
 30
0.0
 10
6.033737535
 20
4.0997075404
 30
0.0
 10
6.0278435725
 20
4.0919670799
 30
0.0
  0
SPLINE
  5
39B
100
AcDbEntity
  8
0
100
AcDbSpline
 62
7
  6
CONTINUOUS
 70
0
 71
3
 72
23
 73
19
 74
0
 42
0.0000001
 43
0.0000001
 44
0.0000000001
 40
0.0
 40
0.0
 40
0.0
 40
0.0
 40
0.0722987539
 40
0.1416937986
 40
0.2083776469
 40
0.272592483
 40
0.3346362697
 40
0.3948675776
 40
0.4537078996
 40
0.5116400779
 40
0.5691934769
 40
0.6268848981
 40
0.6851976193
 40
0.7445760787
 40
0.8054192029
 40
0.8680773417
 40
0.9328523478
 40
1.0
 40
1.0
 40
1.0
 40
1.0
 10
5.9926627924
 20
4.0919230217
 30
0.0
 10
5.986749461
 20
4.0996486954
 30
0.0
 10
5.9755806207
 20
4.1151188388
 30
0.0
 10
5.9606136489
 20
4.1388539783
 30
0.0
 10
5.9478269022
 20
4.162607275
 30
0.0
 10
5.9372638001
 20
4.1863542129
 30
0.0
 10
5.9289681202
 20
4.2100710782
 30
0.0
 10
5.9229851934
 20
4.2337329169
 30
0.0
 10
5.9193612349
 20
4.2573129377
 30
0.0
 10
5.9181429521
 20
4.280781422
 30
0.0
 10
5.9193742251
 20
4.3040953164
 30
0.0
 10
5.9230160028
 20
4.3272059151
 30
0.0
 10
5.9290278422
 20
4.3500678853
 30
0.0
 10
5.9373682813
 20
4.3726365492
 30
0.0
 10
5.9479957137
 20
4.3948691653
 30
0.0
 10
5.9608694868
 20
4.4167248466
 30
0.0
 10
5.9759485723
 20
4.438162142
 30
0.0
 10
5.9872332032
 20
4.4518897549
 30
0.0
 10
5.9932059781
 20
4.4586700439
 30
0.0
  0
SPLINE
  5
39C
100
AcDbEntity
  8
0
100
AcDbSpline
 62
7
  6
CONTINUOUS
 70
0
 71
3
 72
23
 73
19
 74
0
 42
0.0000001
 43
0.0000001
 44
0.0000000001
 40
0.0
 40
0.0
 40
0.0
 40
0.0
 40
0.0671476521
 40
0.131922658
 40
0.1945807968
 40
0.2554239209
 40
0.3148023802
 40
0.3731151014
 40
0.4308065226
 40
0.4883599216
 40
0.5462921
 40
0.605132422
 40
0.6653637301
 40
0.7274075168
 40
0.791622353
 40
0.8583062013
 40
0.9277012461
 40
1.0
 40
1.0
 40
1.0
 40
1.0
 10
3.7263818076
 20
3.7087115898
 30
0.0
 10
3.7323715461
 20
3.7019462819
 30
0.0
 10
3.7436905247
 20
3.6882469765
 30
0.0
 10
3.7588232562
 20
3.6668475166
 30
0.0
 10
3.77175173
 20
3.6450241485
 30
0.0
 10
3.7824348145
 20
3.6228182205
 30
0.0
 10
3.7908317543
 20
3.6002705176
 30
0.0
 10
3.7969008366
 20
3.5774236769
 30
0.0
 10
3.8006004873
 20
3.5543222722
 30
0.0
 10
3.8018901501
 20
3.5310115351
 30
0.0
 10
3.800730652
 20
3.507540073
 30
0.0
 10
3.797165765
 20
3.4839510495
 30
0.0
 10
3.7912421222
 20
3.4602742998
 30
0.0
 10
3.7830058714
 20
3.436536731
 30
0.0
 10
3.7725022808
 20
3.4127634106
 30
0.0
 10
3.7597750685
 20
3.3889781619
 30
0.0
 10
3.7448675925
 20
3.3652056095
 30
0.0
 10
3.733737535
 20
3.3497075404
 30
0.0
 10
3.7278435725
 20
3.3419670799
 30
0.0
  0
SPLINE
  5
39D
100
AcDbEntity
  8
0
100
AcDbSpline
 62
7
  6
CONTINUOUS
 70
0
 71
3
 72
23
 73
19
 74
0
 42
0.0000001
 43
0.0000001
 44
0.0000000001
 40
0.0
 40
0.0
 40
0.0
 40
0.0
 40
0.0722987539
 40
0.1416937986
 40
0.2083776469
 40
0.272592483
 40
0.3346362697
 40
0.3948675776
 40
0.4537078996
 40
0.5116400779
 40
0.5691934769
 40
0.6268848981
 40
0.6851976193
 40
0.7445760787
 40
0.8054192029
 40
0.8680773417
 40
0.9328523478
 40
1.0
 40
1.0
 40
1.0
 40
1.0
 10
3.6926627924
 20
3.3419230217
 30
0.0
 10
3.686749461
 20
3.3496486954
 30
0.0
 10
3.6755806207
 20
3.3651188388
 30
0.0
 10
3.6606136489
 20
3.3888539783
 30
0.0
 10
3.6478269022
 20
3.412607275
 30
0.0
 10
3.6372638001
 20
3.4363542129
 30
0.0
 10
3.6289681202
 20
3.4600710782
 30
0.0
 10
3.6229851934
 20
3.4837329169
 30
0.0
 10
3.6193612349
 20
3.5073129377
 30
0.0
 10
3.6181429521
 20
3.530781422
 30
0.0
 10
3.6193742251
 20
3.5540953164
 30
0.0
 10
3.6230160028
 20
3.5772059151
 30
0.0
 10
3.6290278422
 20
3.6000678853
 30
0.0
 10
3.6373682813
 20
3.6226365492
 30
0.0
 10
3.6479957137
 20
3.6448691653
 30
0.0
 10
3.6608694868
 20
3.6667248466
 30
0.0
 10
3.6759485723
 20
3.688162142
 30
0.0
 10
3.6872332032
 20
3.7018897549
 30
0.0
 10
3.6932059781
 20
3.7086700439
 30
0.0
  0
SPLINE
  5
39E
100
AcDbEntity
  8
0
100
AcDbSpline
 62
7
  6
CONTINUOUS
 70
0
 71
3
 72
23
 73
19
 74
0
 42
0.0000001
 43
0.0000001
 44
0.0000000001
 40
0.0
 40
0.0
 40
0.0
 40
0.0
 40
0.0671476521
 40
0.131922658
 40
0.1945807968
 40
0.2554239209
 40
0.3148023802
 40
0.3731151014
 40
0.4308065226
 40
0.4883599216
 40
0.5462921
 40
0.605132422
 40
0.6653637301
 40
0.7274075168
 40
0.791622353
 40
0.8583062013
 40
0.9277012461
 40
1.0
 40
1.0
 40
1.0
 40
1.0
 10
4.8763818076
 20
3.7087115898
 30
0.0
 10
4.8823715461
 20
3.7019462819
 30
0.0
 10
4.8936905247
 20
3.6882469765
 30
0.0
 10
4.9088232562
 20
3.6668475166
 30
0.0
 10
4.92175173
 20
3.6450241485
 30
0.0
 10
4.9324348145
 20
3.6228182205
 30
0.0
 10
4.9408317543
 20
3.6002705176
 30
0.0
 10
4.9469008366
 20
3.5774236769
 30
0.0
 10
4.9506004873
 20
3.5543222722
 30
0.0
 10
4.9518901501
 20
3.5310115351
 30
0.0
 10
4.950730652
 20
3.507540073
 30
0.0
 10
4.947165765
 20
3.4839510495
 30
0.0
 10
4.9412421222
 20
3.4602742998
 30
0.0
 10
4.9330058714
 20
3.436536731
 30
0.0
 10
4.9225022808
 20
3.4127634106
 30
0.0
 10
4.9097750685
 20
3.3889781619
 30
0.0
 10
4.8948675925
 20
3.3652056095
 30
0.0
 10
4.883737535
 20
3.3497075404
 30
0.0
 10
4.8778435725
 20
3.3419670799
 30
0.0
  0
SPLINE
  5
39F
100
AcDbEntity
  8
0
100
AcDbSpline
 62
7
  6
CONTINUOUS
 70
0
 71
3
 72
23
 73
19
 74
0
 42
0.0000001
 43
0.0000001
 44
0.0000000001
 40
0.0
 40
0.0
 40
0.0
 40
0.0
 40
0.0722987539
 40
0.1416937986
 40
0.2083776469
 40
0.272592483
 40
0.3346362697
 40
0.3948675776
 40
0.4537078996
 40
0.5116400779
 40
0.5691934769
 40
0.6268848981
 40
0.6851976193
 40
0.7445760787
 40
0.8054192029
 40
0.8680773417
 40
0.9328523478
 40
1.0
 40
1.0
 40
1.0
 40
1.0
 10
4.8426627924
 20
3.3419230217
 30
0.0
 10
4.836749461
 20
3.3496486954
 30
0.0
 10
4.8255806207
 20
3.3651188388
 30
0.0
 10
4.8106136489
 20
3.3888539783
 30
0.0
 10
4.7978269022
 20
3.412607275
 30
0.0
 10
4.7872638001
 20
3.4363542129
 30
0.0
 10
4.7789681202
 20
3.4600710782
 30
0.0
 10
4.7729851934
 20
3.4837329169
 30
0.0
 10
4.7693612349
 20
3.5073129377
 30
0.0
 10
4.7681429521
 20
3.530781422
 30
0.0
 10
4.7693742251
 20
3.5540953164
 30
0.0
 10
4.7730160028
 20
3.5772059151
 30
0.0
 10
4.7790278422
 20
3.6000678853
 30
0.0
 10
4.7873682813
 20
3.6226365492
 30
0.0
 10
4.7979957137
 20
3.6448691653
 30
0.0
 10
4.8108694868
 20
3.6667248466
 30
0.0
 10
4.8259485723
 20
3.688162142
 30
0.0
 10
4.8372332032
 20
3.7018897549
 30
0.0
 10
4.8432059781
 20
3.7086700439
 30
0.0
  0
SPLINE
  5
3A0
100
AcDbEntity
  8
0
100
AcDbSpline
 62
7
  6
CONTINUOUS
 70
0
 71
3
 72
23
 73
19
 74
0
 42
0.0000001
 43
0.0000001
 44
0.0000000001
 40
0.0
 40
0.0
 40
0.0
 40
0.0
 40
0.0671476521
 40
0.131922658
 40
0.1945807968
 40
0.2554239209
 40
0.3148023802
 40
0.3731151014
 40
0.4308065226
 40
0.4883599216
 40
0.5462921
 40
0.605132422
 40
0.6653637301
 40
0.7274075168
 40
0.791622353
 40
0.8583062013
 40
0.9277012461
 40
1.0
 40
1.0
 40
1.0
 40
1.0
 10
6.0263818076
 20
3.7087115898
 30
0.0
 10
6.0323715461
 20
3.7019462819
 30
0.0
 10
6.0436905247
 20
3.6882469765
 30
0.0
 10
6.0588232562
 20
3.6668475166
 30
0.0
 10
6.07175173
 20
3.6450241485
 30
0.0
 10
6.0824348145
 20
3.6228182205
 30
0.0
 10
6.0908317543
 20
3.6002705176
 30
0.0
 10
6.0969008366
 20
3.5774236769
 30
0.0
 10
6.1006004873
 20
3.5543222722
 30
0.0
 10
6.1018901501
 20
3.5310115351
 30
0.0
 10
6.100730652
 20
3.507540073
 30
0.0
 10
6.097165765
 20
3.4839510495
 30
0.0
 10
6.0912421222
 20
3.4602742998
 30
0.0
 10
6.0830058714
 20
3.436536731
 30
0.0
 10
6.0725022808
 20
3.4127634106
 30
0.0
 10
6.0597750685
 20
3.3889781619
 30
0.0
 10
6.0448675925
 20
3.3652056095
 30
0.0
 10
6.033737535
 20
3.3497075404
 30
0.0
 10
6.0278435725
 20
3.3419670799
 30
0.0
  0
SPLINE
  5
3A1
100
AcDbEntity
  8
0
100
AcDbSpline
 62
7
  6
CONTINUOUS
 70
0
 71
3
 72
23
 73
19
 74
0
 42
0.0000001
 43
0.0000001
 44
0.0000000001
 40
0.0
 40
0.0
 40
0.0
 40
0.0
 40
0.0722987539
 40
0.1416937986
 40
0.2083776469
 40
0.272592483
 40
0.3346362697
 40
0.3948675776
 40
0.4537078996
 40
0.5116400779
 40
0.5691934769
 40
0.6268848981
 40
0.6851976193
 40
0.7445760787
 40
0.8054192029
 40
0.8680773417
 40
0.9328523478
 40
1.0
 40
1.0
 40
1.0
 40
1.0
 10
5.9926627924
 20
3.3419230217
 30
0.0
 10
5.986749461
 20
3.3496486954
 30
0.0
 10
5.9755806207
 20
3.3651188388
 30
0.0
 10
5.9606136489
 20
3.3888539783
 30
0.0
 10
5.9478269022
 20
3.412607275
 30
0.0
 10
5.9372638001
 20
3.4363542129
 30
0.0
 10
5.9289681202
 20
3.4600710782
 30
0.0
 10
5.9229851934
 20
3.4837329169
 30
0.0
 10
5.9193612349
 20
3.5073129377
 30
0.0
 10
5.9181429521
 20
3.530781422
 30
0.0
 10
5.9193742251
 20
3.5540953164
 30
0.0
 10
5.9230160028
 20
3.5772059151
 30
0.0
 10
5.9290278422
 20
3.6000678853
 30
0.0
 10
5.9373682813
 20
3.6226365492
 30
0.0
 10
5.9479957137
 20
3.6448691653
 30
0.0
 10
5.9608694868
 20
3.6667248466
 30
0.0
 10
5.9759485723
 20
3.688162142
 30
0.0
 10
5.9872332032
 20
3.7018897549
 30
0.0
 10
5.9932059781
 20
3.7086700439
 30
0.0
  0
SPLINE
  5
3A2
100
AcDbEntity
  8
0
100
AcDbSpline
 62
7
  6
CONTINUOUS
 70
0
 71
3
 72
24
 73
20
 74
0
 42
0.0000001
 43
0.0000001
 44
0.0000000001
 40
0.0
 40
0.0
 40
0.0
 40
0.0
 40
0.072297856
 40
0.1416920389
 40
0.208375059
 40
0.2407794518
 40
0.2726015167
 40
0.3346445329
 40
0.3948750928
 40
0.4537146841
 40
0.5116461428
 40
0.5691988271
 40
0.6268895317
 40
0.6852015288
 40
0.7445792508
 40
0.8054216193
 40
0.8680789801
 40
0.9328531816
 40
1.0
 40
1.0
 40
1.0
 40
1.0
 10
3.8030706375
 20
5.3730306072
 30
0.0
 10
3.8144316727
 20
5.3744834513
 30
0.0
 10
3.8367841863
 20
5.3767083125
 30
0.0
 10
3.8697952718
 20
5.3779138571
 30
0.0
 10
3.8964981967
 20
5.3770516024
 30
0.0
 10
3.9171592621
 20
5.3752019981
 30
0.0
 10
3.9370020943
 20
5.3726358872
 30
0.0
 10
3.9610078348
 20
5.3680285279
 30
0.0
 10
3.9886333137
 20
5.3601311641
 30
0.0
 10
4.0147817305
 20
5.3498804791
 30
0.0
 10
4.0393941968
 20
5.3372466461
 30
0.0
 10
4.0624012057
 20
5.3222104049
 30
0.0
 10
4.0837761887
 20
5.3048403163
 30
0.0
 10
4.1034969216
 20
5.2852043506
 30
0.0
 10
4.1215424267
 20
5.2633711322
 30
0.0
 10
4.1378937888
 20
5.2394082862
 30
0.0
 10
4.1525334153
 20
5.2133813713
 30
0.0
 10
4.1654433618
 20
5.1853566618
 30
0.0
 10
4.1727476118
 20
5.165752746
 30
0.0
 10
4.1761193499
 20
5.155663735
 30
0.0
  0
SPLINE
  5
3A3
100
AcDbEntity
  8
0
100
AcDbSpline
 62
7
  6
CONTINUOUS
 70
0
 71
3
 72
24
 73
20
 74
0
 42
0.0000001
 43
0.0000001
 44
0.0000000001
 40
0.0
 40
0.0
 40
0.0
 40
0.0
 40
0.0671468183
 40
0.1319210199
 40
0.1945783806
 40
0.2554207491
 40
0.314798471
 40
0.3731104681
 40
0.4308011728
 40
0.488353857
 40
0.5462853158
 40
0.6051249071
 40
0.665355467
 40
0.7273984832
 40
0.7592205481
 40
0.791624941
 40
0.8583079611
 40
0.927702144
 40
1.0
 40
1.0
 40
1.0
 40
1.0
 10
4.1565487273
 20
5.1218642476
 30
0.0
 10
4.14612023
 20
5.1197658664
 30
0.0
 10
4.1254819737
 20
5.116341256
 30
0.0
 10
4.0947498932
 20
5.1135862081
 30
0.0
 10
4.0648893647
 20
5.1133258293
 30
0.0
 10
4.0359667995
 20
5.11557755
 30
0.0
 10
4.008047813
 20
5.1203587497
 30
0.0
 10
3.9812004713
 20
5.1276866894
 30
0.0
 10
3.9554947341
 20
5.1375773389
 30
0.0
 10
3.9310006142
 20
5.1500452614
 30
0.0
 10
3.9077907991
 20
5.1651015464
 30
0.0
 10
3.8858831874
 20
5.1826763236
 30
0.0
 10
3.8652812278
 20
5.2027036722
 30
0.0
 10
3.8493346186
 20
5.2212295729
 30
0.0
 10
3.8372307512
 20
5.2371612805
 30
0.0
 10
3.8253409514
 20
5.2541593192
 30
0.0
 10
3.8112996405
 20
5.2768888433
 30
0.0
 10
3.7959112931
 20
5.3061186888
 30
0.0
 10
3.786713123
 20
5.3266120666
 30
0.0
 10
3.7823172821
 20
5.3371884771
 30
0.0
  0
SPLINE
  5
3A4
100
AcDbEntity
  8
0
100
AcDbSpline
 62
7
  6
CONTINUOUS
 70
0
 71
3
 72
24
 73
20
 74
0
 42
0.0000001
 43
0.0000001
 44
0.0000000001
 40
0.0
 40
0.0
 40
0.0
 40
0.0
 40
0.072297856
 40
0.1416920389
 40
0.208375059
 40
0.2407794518
 40
0.2726015167
 40
0.3346445329
 40
0.3948750928
 40
0.4537146841
 40
0.5116461428
 40
0.5691988271
 40
0.6268895317
 40
0.6852015288
 40
0.7445792508
 40
0.8054216193
 40
0.8680789801
 40
0.9328531816
 40
1.0
 40
1.0
 40
1.0
 40
1.0
 10
4.2628385305
 20
5.2033950081
 30
0.0
 10
4.2558770107
 20
5.2124901233
 30
0.0
 10
4.24272831
 20
5.2307026613
 30
0.0
 10
4.2251086949
 20
5.2586442838
 30
0.0
 10
4.2124450051
 20
5.2821691779
 30
0.0
 10
4.2036691716
 20
5.3009650659
 30
0.0
 10
4.1959238418
 20
5.3194131764
 30
0.0
 10
4.1878532458
 20
5.3424862954
 30
0.0
 10
4.1808100329
 20
5.3703417902
 30
0.0
 10
4.1765436352
 20
5.398101727
 30
0.0
 10
4.1751094176
 20
5.425730159
 30
0.0
 10
4.17655894
 20
5.4531766505
 30
0.0
 10
4.1808462549
 20
5.4803837967
 30
0.0
 10
4.1879237438
 20
5.5072982464
 30
0.0
 10
4.1977425968
 20
5.5338673979
 30
0.0
 10
4.2102538321
 20
5.5600409345
 30
0.0
 10
4.2254095911
 20
5.5857707214
 30
0.0
 10
4.2431615729
 20
5.6110079599
 30
0.0
 10
4.2564465007
 20
5.6271689089
 30
0.0
 10
4.2634780008
 20
5.6351510619
 30
0.0
  0
SPLINE
  5
3A5
100
AcDbEntity
  8
0
100
AcDbSpline
 62
7
  6
CONTINUOUS
 70
0
 71
3
 72
24
 73
20
 74
0
 42
0.0000001
 43
0.0000001
 44
0.0000000001
 40
0.0
 40
0.0
 40
0.0
 40
0.0
 40
0.0671468183
 40
0.1319210199
 40
0.1945783806
 40
0.2554207491
 40
0.314798471
 40
0.3731104681
 40
0.4308011728
 40
0.488353857
 40
0.5462853158
 40
0.6051249071
 40
0.665355467
 40
0.7273984832
 40
0.7592205481
 40
0.791624941
 40
0.8583079611
 40
0.927702144
 40
1.0
 40
1.0
 40
1.0
 40
1.0
 10
4.3025345268
 20
5.6351999734
 30
0.0
 10
4.3095859975
 20
5.627235457
 30
0.0
 10
4.3229113616
 20
5.6111078331
 30
0.0
 10
4.3407264987
 20
5.5859151368
 30
0.0
 10
4.3559466548
 20
5.5602233909
 30
0.0
 10
4.368523407
 20
5.534081273
 30
0.0
 10
4.3784087762
 20
5.5075367979
 30
0.0
 10
4.3855536548
 20
5.4806401594
 30
0.0
 10
4.3899091013
 20
5.4534438369
 30
0.0
 10
4.3914273637
 20
5.4260010622
 30
0.0
 10
4.3900623507
 20
5.3983691247
 30
0.0
 10
4.385865496
 20
5.370598589
 30
0.0
 10
4.3788920742
 20
5.3427255406
 30
0.0
 10
4.3708792941
 20
5.3196322798
 30
0.0
 10
4.3631801952
 20
5.3011648277
 30
0.0
 10
4.3544514669
 20
5.282347018
 30
0.0
 10
4.3418467389
 20
5.2587904794
 30
0.0
 10
4.3242971639
 20
5.2308048131
 30
0.0
 10
4.3111941209
 20
5.2125593991
 30
0.0
 10
4.3042554033
 20
5.2034468761
 30
0.0
  0
SPLINE
  5
3A6
100
AcDbEntity
  8
0
100
AcDbSpline
 62
7
  6
CONTINUOUS
 70
0
 71
3
 72
24
 73
20
 74
0
 42
0.0000001
 43
0.0000001
 44
0.0000000001
 40
0.0
 40
0.0
 40
0.0
 40
0.0
 40
0.0671468183
 40
0.1319210199
 40
0.1945783806
 40
0.2554207491
 40
0.314798471
 40
0.3731104681
 40
0.4308011728
 40
0.488353857
 40
0.5462853158
 40
0.6051249071
 40
0.665355467
 40
0.7273984832
 40
0.7592205481
 40
0.791624941
 40
0.8583079611
 40
0.927702144
 40
1.0
 40
1.0
 40
1.0
 40
1.0
 10
4.1761193496
 20
5.6854418369
 30
0.0
 10
4.1727476115
 20
5.675352826
 30
0.0
 10
4.1654433615
 20
5.6557489103
 30
0.0
 10
4.152533415
 20
5.6277242008
 30
0.0
 10
4.1378937885
 20
5.601697286
 30
0.0
 10
4.1215424264
 20
5.5777344401
 30
0.0
 10
4.1034969213
 20
5.5559012218
 30
0.0
 10
4.0837761883
 20
5.5362652561
 30
0.0
 10
4.0624012054
 20
5.5188951676
 30
0.0
 10
4.0393941965
 20
5.5038589264
 30
0.0
 10
4.0147817302
 20
5.4912250935
 30
0.0
 10
3.9886333135
 20
5.4809744085
 30
0.0
 10
3.9610078346
 20
5.4730770447
 30
0.0
 10
3.9370020941
 20
5.4684696855
 30
0.0
 10
3.9171592619
 20
5.4659035746
 30
0.0
 10
3.8964981965
 20
5.4640539703
 30
0.0
 10
3.8697952717
 20
5.4631917156
 30
0.0
 10
3.8367841862
 20
5.4643972602
 30
0.0
 10
3.8144316727
 20
5.4666221214
 30
0.0
 10
3.8030706375
 20
5.4680749655
 30
0.0
  0
SPLINE
  5
3A7
100
AcDbEntity
  8
0
100
AcDbSpline
 62
7
  6
CONTINUOUS
 70
0
 71
3
 72
24
 73
20
 74
0
 42
0.0000001
 43
0.0000001
 44
0.0000000001
 40
0.0
 40
0.0
 40
0.0
 40
0.0
 40
0.072297856
 40
0.1416920389
 40
0.208375059
 40
0.2407794518
 40
0.2726015167
 40
0.3346445329
 40
0.3948750928
 40
0.4537146841
 40
0.5116461428
 40
0.5691988271
 40
0.6268895317
 40
0.6852015288
 40
0.7445792508
 40
0.8054216193
 40
0.8680789801
 40
0.9328531816
 40
1.0
 40
1.0
 40
1.0
 40
1.0
 10
3.7823172821
 20
5.5039170956
 30
0.0
 10
3.786713123
 20
5.5144935061
 30
0.0
 10
3.7959112931
 20
5.534986884
 30
0.0
 10
3.8112996406
 20
5.5642167295
 30
0.0
 10
3.8253409515
 20
5.5869462536
 30
0.0
 10
3.8372307513
 20
5.6039442924
 30
0.0
 10
3.8493346188
 20
5.6198759999
 30
0.0
 10
3.8652812279
 20
5.6384019007
 30
0.0
 10
3.8858831876
 20
5.6584292493
 30
0.0
 10
3.9077907993
 20
5.6760040265
 30
0.0
 10
3.9310006145
 20
5.6910603114
 30
0.0
 10
3.9554947345
 20
5.7035282339
 30
0.0
 10
3.9812004717
 20
5.7134188834
 30
0.0
 10
4.0080478134
 20
5.7207468231
 30
0.0
 10
4.0359668
 20
5.7255280228
 30
0.0
 10
4.0648893653
 20
5.7277797434
 30
0.0
 10
4.0947498938
 20
5.7275193646
 30
0.0
 10
4.1254819744
 20
5.7247643166
 30
0.0
 10
4.1461202307
 20
5.7213397061
 30
0.0
 10
4.1565487281
 20
5.7192413249
 30
0.0
  0
SPLINE
  5
3A8
100
AcDbEntity
  8
0
100
AcDbSpline
 62
7
  6
CONTINUOUS
 70
0
 71
3
 72
24
 73
20
 74
0
 42
0.0000001
 43
0.0000001
 44
0.0000000001
 40
0.0
 40
0.0
 40
0.0
 40
0.0
 40
0.072297856
 40
0.1416920389
 40
0.208375059
 40
0.2407794518
 40
0.2726015167
 40
0.3346445329
 40
0.3948750928
 40
0.4537146841
 40
0.5116461428
 40
0.5691988271
 40
0.6268895317
 40
0.6852015288
 40
0.7445792508
 40
0.8054216193
 40
0.8680789801
 40
0.9328531816
 40
1.0
 40
1.0
 40
1.0
 40
1.0
 10
3.8030706375
 20
6.1230306072
 30
0.0
 10
3.8144316727
 20
6.1244834513
 30
0.0
 10
3.8367841863
 20
6.1267083125
 30
0.0
 10
3.8697952718
 20
6.1279138571
 30
0.0
 10
3.8964981967
 20
6.1270516024
 30
0.0
 10
3.9171592621
 20
6.1252019981
 30
0.0
 10
3.9370020943
 20
6.1226358872
 30
0.0
 10
3.9610078348
 20
6.1180285279
 30
0.0
 10
3.9886333137
 20
6.1101311641
 30
0.0
 10
4.0147817305
 20
6.0998804791
 30
0.0
 10
4.0393941968
 20
6.0872466461
 30
0.0
 10
4.0624012057
 20
6.0722104049
 30
0.0
 10
4.0837761887
 20
6.0548403163
 30
0.0
 10
4.1034969216
 20
6.0352043506
 30
0.0
 10
4.1215424267
 20
6.0133711322
 30
0.0
 10
4.1378937888
 20
5.9894082862
 30
0.0
 10
4.1525334153
 20
5.9633813713
 30
0.0
 10
4.1654433618
 20
5.9353566618
 30
0.0
 10
4.1727476118
 20
5.915752746
 30
0.0
 10
4.1761193499
 20
5.905663735
 30
0.0
  0
SPLINE
  5
3A9
100
AcDbEntity
  8
0
100
AcDbSpline
 62
7
  6
CONTINUOUS
 70
0
 71
3
 72
24
 73
20
 74
0
 42
0.0000001
 43
0.0000001
 44
0.0000000001
 40
0.0
 40
0.0
 40
0.0
 40
0.0
 40
0.0671468183
 40
0.1319210199
 40
0.1945783806
 40
0.2554207491
 40
0.314798471
 40
0.3731104681
 40
0.4308011728
 40
0.488353857
 40
0.5462853158
 40
0.6051249071
 40
0.665355467
 40
0.7273984832
 40
0.7592205481
 40
0.791624941
 40
0.8583079611
 40
0.927702144
 40
1.0
 40
1.0
 40
1.0
 40
1.0
 10
4.1565487273
 20
5.8718642476
 30
0.0
 10
4.14612023
 20
5.8697658664
 30
0.0
 10
4.1254819737
 20
5.866341256
 30
0.0
 10
4.0947498932
 20
5.8635862081
 30
0.0
 10
4.0648893647
 20
5.8633258293
 30
0.0
 10
4.0359667995
 20
5.86557755
 30
0.0
 10
4.008047813
 20
5.8703587497
 30
0.0
 10
3.9812004713
 20
5.8776866894
 30
0.0
 10
3.9554947341
 20
5.8875773389
 30
0.0
 10
3.9310006142
 20
5.9000452614
 30
0.0
 10
3.9077907991
 20
5.9151015464
 30
0.0
 10
3.8858831874
 20
5.9326763236
 30
0.0
 10
3.8652812277
 20
5.9527036722
 30
0.0
 10
3.8493346186
 20
5.9712295729
 30
0.0
 10
3.8372307512
 20
5.9871612805
 30
0.0
 10
3.8253409514
 20
6.0041593192
 30
0.0
 10
3.8112996405
 20
6.0268888433
 30
0.0
 10
3.7959112931
 20
6.0561186888
 30
0.0
 10
3.786713123
 20
6.0766120666
 30
0.0
 10
3.7823172821
 20
6.0871884771
 30
0.0
  0
SPLINE
  5
3AA
100
AcDbEntity
  8
0
100
AcDbSpline
 62
7
  6
CONTINUOUS
 70
0
 71
3
 72
24
 73
20
 74
0
 42
0.0000001
 43
0.0000001
 44
0.0000000001
 40
0.0
 40
0.0
 40
0.0
 40
0.0
 40
0.072297856
 40
0.1416920389
 40
0.208375059
 40
0.2407794518
 40
0.2726015167
 40
0.3346445329
 40
0.3948750928
 40
0.4537146841
 40
0.5116461428
 40
0.5691988271
 40
0.6268895317
 40
0.6852015288
 40
0.7445792508
 40
0.8054216193
 40
0.8680789801
 40
0.9328531816
 40
1.0
 40
1.0
 40
1.0
 40
1.0
 10
4.2628385305
 20
5.9533950081
 30
0.0
 10
4.2558770107
 20
5.9624901233
 30
0.0
 10
4.24272831
 20
5.9807026613
 30
0.0
 10
4.2251086949
 20
6.0086442838
 30
0.0
 10
4.2124450051
 20
6.0321691779
 30
0.0
 10
4.2036691716
 20
6.0509650659
 30
0.0
 10
4.1959238418
 20
6.0694131764
 30
0.0
 10
4.1878532458
 20
6.0924862954
 30
0.0
 10
4.1808100329
 20
6.1203417902
 30
0.0
 10
4.1765436352
 20
6.148101727
 30
0.0
 10
4.1751094176
 20
6.175730159
 30
0.0
 10
4.17655894
 20
6.2031766505
 30
0.0
 10
4.1808462549
 20
6.2303837967
 30
0.0
 10
4.1879237438
 20
6.2572982464
 30
0.0
 10
4.1977425968
 20
6.2838673979
 30
0.0
 10
4.2102538321
 20
6.3100409345
 30
0.0
 10
4.2254095911
 20
6.3357707214
 30
0.0
 10
4.2431615729
 20
6.3610079599
 30
0.0
 10
4.2564465007
 20
6.3771689089
 30
0.0
 10
4.2634780008
 20
6.3851510619
 30
0.0
  0
SPLINE
  5
3AB
100
AcDbEntity
  8
0
100
AcDbSpline
 62
7
  6
CONTINUOUS
 70
0
 71
3
 72
24
 73
20
 74
0
 42
0.0000001
 43
0.0000001
 44
0.0000000001
 40
0.0
 40
0.0
 40
0.0
 40
0.0
 40
0.0671468183
 40
0.1319210199
 40
0.1945783806
 40
0.2554207491
 40
0.314798471
 40
0.3731104681
 40
0.4308011728
 40
0.488353857
 40
0.5462853158
 40
0.6051249071
 40
0.665355467
 40
0.7273984832
 40
0.7592205481
 40
0.791624941
 40
0.8583079611
 40
0.927702144
 40
1.0
 40
1.0
 40
1.0
 40
1.0
 10
4.3025345268
 20
6.3851999734
 30
0.0
 10
4.3095859975
 20
6.377235457
 30
0.0
 10
4.3229113616
 20
6.3611078331
 30
0.0
 10
4.3407264987
 20
6.3359151368
 30
0.0
 10
4.3559466548
 20
6.3102233909
 30
0.0
 10
4.368523407
 20
6.284081273
 30
0.0
 10
4.3784087762
 20
6.2575367979
 30
0.0
 10
4.3855536548
 20
6.2306401594
 30
0.0
 10
4.3899091013
 20
6.2034438369
 30
0.0
 10
4.3914273637
 20
6.1760010622
 30
0.0
 10
4.3900623507
 20
6.1483691247
 30
0.0
 10
4.385865496
 20
6.120598589
 30
0.0
 10
4.3788920742
 20
6.0927255406
 30
0.0
 10
4.3708792941
 20
6.0696322798
 30
0.0
 10
4.3631801952
 20
6.0511648277
 30
0.0
 10
4.3544514669
 20
6.032347018
 30
0.0
 10
4.3418467389
 20
6.0087904794
 30
0.0
 10
4.3242971639
 20
5.9808048131
 30
0.0
 10
4.3111941209
 20
5.9625593991
 30
0.0
 10
4.3042554033
 20
5.9534468761
 30
0.0
  0
SPLINE
  5
3AC
100
AcDbEntity
  8
0
100
AcDbSpline
 62
7
  6
CONTINUOUS
 70
0
 71
3
 72
24
 73
20
 74
0
 42
0.0000001
 43
0.0000001
 44
0.0000000001
 40
0.0
 40
0.0
 40
0.0
 40
0.0
 40
0.0671468183
 40
0.1319210199
 40
0.1945783806
 40
0.2554207491
 40
0.314798471
 40
0.3731104681
 40
0.4308011728
 40
0.488353857
 40
0.5462853158
 40
0.6051249071
 40
0.665355467
 40
0.7273984832
 40
0.7592205481
 40
0.791624941
 40
0.8583079611
 40
0.927702144
 40
1.0
 40
1.0
 40
1.0
 40
1.0
 10
4.1761193496
 20
6.4354418369
 30
0.0
 10
4.1727476115
 20
6.425352826
 30
0.0
 10
4.1654433615
 20
6.4057489103
 30
0.0
 10
4.152533415
 20
6.3777242008
 30
0.0
 10
4.1378937885
 20
6.351697286
 30
0.0
 10
4.1215424264
 20
6.3277344401
 30
0.0
 10
4.1034969213
 20
6.3059012218
 30
0.0
 10
4.0837761883
 20
6.2862652561
 30
0.0
 10
4.0624012054
 20
6.2688951676
 30
0.0
 10
4.0393941965
 20
6.2538589264
 30
0.0
 10
4.0147817302
 20
6.2412250935
 30
0.0
 10
3.9886333135
 20
6.2309744085
 30
0.0
 10
3.9610078346
 20
6.2230770447
 30
0.0
 10
3.9370020941
 20
6.2184696855
 30
0.0
 10
3.9171592619
 20
6.2159035746
 30
0.0
 10
3.8964981965
 20
6.2140539703
 30
0.0
 10
3.8697952717
 20
6.2131917156
 30
0.0
 10
3.8367841862
 20
6.2143972602
 30
0.0
 10
3.8144316727
 20
6.2166221214
 30
0.0
 10
3.8030706375
 20
6.2180749655
 30
0.0
  0
SPLINE
  5
3AD
100
AcDbEntity
  8
0
100
AcDbSpline
 62
7
  6
CONTINUOUS
 70
0
 71
3
 72
24
 73
20
 74
0
 42
0.0000001
 43
0.0000001
 44
0.0000000001
 40
0.0
 40
0.0
 40
0.0
 40
0.0
 40
0.072297856
 40
0.1416920389
 40
0.208375059
 40
0.2407794518
 40
0.2726015167
 40
0.3346445329
 40
0.3948750928
 40
0.4537146841
 40
0.5116461428
 40
0.5691988271
 40
0.6268895317
 40
0.6852015288
 40
0.7445792508
 40
0.8054216193
 40
0.8680789801
 40
0.9328531816
 40
1.0
 40
1.0
 40
1.0
 40
1.0
 10
3.7823172821
 20
6.2539170956
 30
0.0
 10
3.786713123
 20
6.2644935061
 30
0.0
 10
3.7959112931
 20
6.284986884
 30
0.0
 10
3.8112996406
 20
6.3142167295
 30
0.0
 10
3.8253409515
 20
6.3369462536
 30
0.0
 10
3.8372307513
 20
6.3539442924
 30
0.0
 10
3.8493346188
 20
6.3698759999
 30
0.0
 10
3.8652812279
 20
6.3884019007
 30
0.0
 10
3.8858831876
 20
6.4084292493
 30
0.0
 10
3.9077907993
 20
6.4260040265
 30
0.0
 10
3.9310006145
 20
6.4410603114
 30
0.0
 10
3.9554947345
 20
6.4535282339
 30
0.0
 10
3.9812004717
 20
6.4634188834
 30
0.0
 10
4.0080478134
 20
6.4707468231
 30
0.0
 10
4.0359668
 20
6.4755280228
 30
0.0
 10
4.0648893653
 20
6.4777797434
 30
0.0
 10
4.0947498938
 20
6.4775193646
 30
0.0
 10
4.1254819744
 20
6.4747643166
 30
0.0
 10
4.1461202307
 20
6.4713397061
 30
0.0
 10
4.1565487281
 20
6.4692413249
 30
0.0
  0
SPLINE
  5
3AE
100
AcDbEntity
  8
0
100
AcDbSpline
 62
7
  6
CONTINUOUS
 70
0
 71
3
 72
24
 73
20
 74
0
 42
0.0000001
 43
0.0000001
 44
0.0000000001
 40
0.0
 40
0.0
 40
0.0
 40
0.0
 40
0.0671468183
 40
0.1319210199
 40
0.1945783806
 40
0.2554207491
 40
0.314798471
 40
0.3731104681
 40
0.4308011728
 40
0.488353857
 40
0.5462853158
 40
0.6051249071
 40
0.665355467
 40
0.7273984832
 40
0.7592205481
 40
0.791624941
 40
0.8583079611
 40
0.927702144
 40
1.0
 40
1.0
 40
1.0
 40
1.0
 10
4.1761193496
 20
4.9354418369
 30
0.0
 10
4.1727476115
 20
4.925352826
 30
0.0
 10
4.1654433615
 20
4.9057489103
 30
0.0
 10
4.152533415
 20
4.8777242008
 30
0.0
 10
4.1378937885
 20
4.851697286
 30
0.0
 10
4.1215424264
 20
4.8277344401
 30
0.0
 10
4.1034969213
 20
4.8059012218
 30
0.0
 10
4.0837761883
 20
4.7862652561
 30
0.0
 10
4.0624012054
 20
4.7688951676
 30
0.0
 10
4.0393941965
 20
4.7538589264
 30
0.0
 10
4.0147817302
 20
4.7412250935
 30
0.0
 10
3.9886333135
 20
4.7309744085
 30
0.0
 10
3.9610078346
 20
4.7230770447
 30
0.0
 10
3.9370020941
 20
4.7184696855
 30
0.0
 10
3.9171592619
 20
4.7159035746
 30
0.0
 10
3.8964981965
 20
4.7140539703
 30
0.0
 10
3.8697952717
 20
4.7131917156
 30
0.0
 10
3.8367841862
 20
4.7143972602
 30
0.0
 10
3.8144316727
 20
4.7166221214
 30
0.0
 10
3.8030706375
 20
4.7180749655
 30
0.0
  0
SPLINE
  5
3AF
100
AcDbEntity
  8
0
100
AcDbSpline
 62
7
  6
CONTINUOUS
 70
0
 71
3
 72
24
 73
20
 74
0
 42
0.0000001
 43
0.0000001
 44
0.0000000001
 40
0.0
 40
0.0
 40
0.0
 40
0.0
 40
0.072297856
 40
0.1416920389
 40
0.208375059
 40
0.2407794518
 40
0.2726015167
 40
0.3346445329
 40
0.3948750928
 40
0.4537146841
 40
0.5116461428
 40
0.5691988271
 40
0.6268895317
 40
0.6852015288
 40
0.7445792508
 40
0.8054216193
 40
0.8680789801
 40
0.9328531816
 40
1.0
 40
1.0
 40
1.0
 40
1.0
 10
3.7823172821
 20
4.7539170956
 30
0.0
 10
3.786713123
 20
4.7644935061
 30
0.0
 10
3.7959112931
 20
4.784986884
 30
0.0
 10
3.8112996406
 20
4.8142167295
 30
0.0
 10
3.8253409515
 20
4.8369462536
 30
0.0
 10
3.8372307513
 20
4.8539442924
 30
0.0
 10
3.8493346188
 20
4.8698759999
 30
0.0
 10
3.8652812279
 20
4.8884019007
 30
0.0
 10
3.8858831876
 20
4.9084292493
 30
0.0
 10
3.9077907993
 20
4.9260040265
 30
0.0
 10
3.9310006145
 20
4.9410603114
 30
0.0
 10
3.9554947345
 20
4.9535282339
 30
0.0
 10
3.9812004717
 20
4.9634188834
 30
0.0
 10
4.0080478134
 20
4.9707468231
 30
0.0
 10
4.0359668
 20
4.9755280228
 30
0.0
 10
4.0648893653
 20
4.9777797434
 30
0.0
 10
4.0947498938
 20
4.9775193646
 30
0.0
 10
4.1254819744
 20
4.9747643166
 30
0.0
 10
4.1461202307
 20
4.9713397061
 30
0.0
 10
4.1565487281
 20
4.9692413249
 30
0.0
  0
SPLINE
  5
3B0
100
AcDbEntity
  8
0
100
AcDbSpline
 62
7
  6
CONTINUOUS
 70
0
 71
3
 72
24
 73
20
 74
0
 42
0.0000001
 43
0.0000001
 44
0.0000000001
 40
0.0
 40
0.0
 40
0.0
 40
0.0
 40
0.0671468183
 40
0.1319210199
 40
0.1945783806
 40
0.2554207491
 40
0.314798471
 40
0.3731104681
 40
0.4308011728
 40
0.488353857
 40
0.5462853158
 40
0.6051249071
 40
0.665355467
 40
0.7273984832
 40
0.7592205481
 40
0.791624941
 40
0.8583079611
 40
0.927702144
 40
1.0
 40
1.0
 40
1.0
 40
1.0
 10
3.2592528456
 20
4.9690396809
 30
0.0
 10
3.2696760544
 20
4.9711641756
 30
0.0
 10
3.2903056685
 20
4.9746404673
 30
0.0
 10
3.321030752
 20
4.9774724805
 30
0.0
 10
3.3508905347
 20
4.9778076494
 30
0.0
 10
3.379818649
 20
4.9756283774
 30
0.0
 10
3.4077495233
 20
4.9709171207
 30
0.0
 10
3.4346151349
 20
4.9636564478
 30
0.0
 10
3.4603455643
 20
4.9538302139
 30
0.0
 10
3.4848708355
 20
4.9414236803
 30
0.0
 10
3.5081182889
 20
4.9264255757
 30
0.0
 10
3.5300698509
 20
4.908905725
 30
0.0
 10
3.550721908
 20
4.8889300404
 30
0.0
 10
3.5667148685
 20
4.8704441389
 30
0.0
 10
3.5788586017
 20
4.8545427976
 30
0.0
 10
3.5907909387
 20
4.8375745922
 30
0.0
 10
3.6048891356
 20
4.8148803083
 30
0.0
 10
3.6203506461
 20
4.7856890974
 30
0.0
 10
3.6296001166
 20
4.7652188222
 30
0.0
 10
3.6340224342
 20
4.7546534551
 30
0.0
  0
SPLINE
  5
3B1
100
AcDbEntity
  8
0
100
AcDbSpline
 62
7
  6
CONTINUOUS
 70
0
 71
3
 72
24
 73
20
 74
0
 42
0.0000001
 43
0.0000001
 44
0.0000000001
 40
0.0
 40
0.0
 40
0.0
 40
0.0
 40
0.072297856
 40
0.1416920389
 40
0.208375059
 40
0.2407794518
 40
0.2726015167
 40
0.3346445329
 40
0.3948750928
 40
0.4537146841
 40
0.5116461428
 40
0.5691988271
 40
0.6268895317
 40
0.6852015288
 40
0.7445792508
 40
0.8054216193
 40
0.8680789801
 40
0.9328531816
 40
1.0
 40
1.0
 40
1.0
 40
1.0
 10
3.6133589168
 20
4.7187594571
 30
0.0
 10
3.6020015561
 20
4.7172781617
 30
0.0
 10
3.5796546852
 20
4.7149973218
 30
0.0
 10
3.5466467227
 20
4.7137090989
 30
0.0
 10
3.5199417219
 20
4.7145044687
 30
0.0
 10
3.4992760887
 20
4.716302318
 30
0.0
 10
3.4794268915
 20
4.718818721
 30
0.0
 10
3.4554096862
 20
4.7233659392
 30
0.0
 10
3.4277645137
 20
4.7311940854
 30
0.0
 10
3.4015905043
 20
4.741379245
 30
0.0
 10
3.3769464715
 20
4.7539513921
 30
0.0
 10
3.3539018739
 20
4.768929961
 30
0.0
 10
3.3324834516
 20
4.7862464578
 30
0.0
 10
3.3127135988
 20
4.8058329679
 30
0.0
 10
3.2946134651
 20
4.8276209197
 30
0.0
 10
3.2782021352
 20
4.8515427356
 30
0.0
 10
3.2634973656
 20
4.8775329013
 30
0.0
 10
3.2505172669
 20
4.9055251878
 30
0.0
 10
3.2431639384
 20
4.9251107473
 30
0.0
 10
3.2397669411
 20
4.9351912815
 30
0.0
  0
SPLINE
  5
3B2
100
AcDbEntity
  8
0
100
AcDbSpline
 62
7
  6
CONTINUOUS
 70
0
 71
3
 72
24
 73
20
 74
0
 42
0.0000001
 43
0.0000001
 44
0.0000000001
 40
0.0
 40
0.0
 40
0.0
 40
0.0
 40
0.072297856
 40
0.1416920389
 40
0.208375059
 40
0.2407794518
 40
0.2726015167
 40
0.3346445329
 40
0.3948750928
 40
0.4537146841
 40
0.5116461428
 40
0.5691988271
 40
0.6268895317
 40
0.6852015288
 40
0.7445792508
 40
0.8054216193
 40
0.8680789801
 40
0.9328531816
 40
1.0
 40
1.0
 40
1.0
 40
1.0
 10
4.2628385305
 20
4.4533950081
 30
0.0
 10
4.2558770107
 20
4.4624901233
 30
0.0
 10
4.24272831
 20
4.4807026613
 30
0.0
 10
4.2251086949
 20
4.5086442838
 30
0.0
 10
4.2124450051
 20
4.5321691779
 30
0.0
 10
4.2036691716
 20
4.5509650659
 30
0.0
 10
4.1959238418
 20
4.5694131764
 30
0.0
 10
4.1878532458
 20
4.5924862954
 30
0.0
 10
4.1808100329
 20
4.6203417902
 30
0.0
 10
4.1765436352
 20
4.648101727
 30
0.0
 10
4.1751094176
 20
4.675730159
 30
0.0
 10
4.17655894
 20
4.7031766505
 30
0.0
 10
4.1808462549
 20
4.7303837967
 30
0.0
 10
4.1879237438
 20
4.7572982464
 30
0.0
 10
4.1977425968
 20
4.7838673979
 30
0.0
 10
4.2102538321
 20
4.8100409345
 30
0.0
 10
4.2254095911
 20
4.8357707214
 30
0.0
 10
4.2431615729
 20
4.8610079599
 30
0.0
 10
4.2564465007
 20
4.8771689089
 30
0.0
 10
4.2634780008
 20
4.8851510619
 30
0.0
  0
SPLINE
  5
3B3
100
AcDbEntity
  8
0
100
AcDbSpline
 62
7
  6
CONTINUOUS
 70
0
 71
3
 72
24
 73
20
 74
0
 42
0.0000001
 43
0.0000001
 44
0.0000000001
 40
0.0
 40
0.0
 40
0.0
 40
0.0
 40
0.0671468183
 40
0.1319210199
 40
0.1945783806
 40
0.2554207491
 40
0.314798471
 40
0.3731104681
 40
0.4308011728
 40
0.488353857
 40
0.5462853158
 40
0.6051249071
 40
0.665355467
 40
0.7273984832
 40
0.7592205481
 40
0.791624941
 40
0.8583079611
 40
0.927702144
 40
1.0
 40
1.0
 40
1.0
 40
1.0
 10
4.3025345268
 20
4.8851999734
 30
0.0
 10
4.3095859975
 20
4.877235457
 30
0.0
 10
4.3229113616
 20
4.8611078331
 30
0.0
 10
4.3407264987
 20
4.8359151368
 30
0.0
 10
4.3559466548
 20
4.8102233909
 30
0.0
 10
4.368523407
 20
4.784081273
 30
0.0
 10
4.3784087762
 20
4.7575367979
 30
0.0
 10
4.3855536548
 20
4.7306401594
 30
0.0
 10
4.3899091013
 20
4.7034438369
 30
0.0
 10
4.3914273637
 20
4.6760010622
 30
0.0
 10
4.3900623507
 20
4.6483691247
 30
0.0
 10
4.385865496
 20
4.620598589
 30
0.0
 10
4.3788920742
 20
4.5927255406
 30
0.0
 10
4.3708792941
 20
4.5696322798
 30
0.0
 10
4.3631801952
 20
4.5511648277
 30
0.0
 10
4.3544514669
 20
4.532347018
 30
0.0
 10
4.3418467389
 20
4.5087904794
 30
0.0
 10
4.3242971639
 20
4.4808048131
 30
0.0
 10
4.3111941209
 20
4.4625593991
 30
0.0
 10
4.3042554033
 20
4.4534468761
 30
0.0
  0
SPLINE
  5
3B4
100
AcDbEntity
  8
0
100
AcDbSpline
 62
7
  6
CONTINUOUS
 70
0
 71
3
 72
24
 73
20
 74
0
 42
0.0000001
 43
0.0000001
 44
0.0000000001
 40
0.0
 40
0.0
 40
0.0
 40
0.0
 40
0.072297856
 40
0.1416920389
 40
0.208375059
 40
0.2407794518
 40
0.2726015167
 40
0.3346445329
 40
0.3948750928
 40
0.4537146841
 40
0.5116461428
 40
0.5691988271
 40
0.6268895317
 40
0.6852015288
 40
0.7445792508
 40
0.8054216193
 40
0.8680789801
 40
0.9328531816
 40
1.0
 40
1.0
 40
1.0
 40
1.0
 10
3.8030706375
 20
3.1230306072
 30
0.0
 10
3.8144316727
 20
3.1244834513
 30
0.0
 10
3.8367841863
 20
3.1267083125
 30
0.0
 10
3.8697952718
 20
3.1279138571
 30
0.0
 10
3.8964981967
 20
3.1270516024
 30
0.0
 10
3.9171592621
 20
3.1252019981
 30
0.0
 10
3.9370020943
 20
3.1226358872
 30
0.0
 10
3.9610078348
 20
3.1180285279
 30
0.0
 10
3.9886333137
 20
3.1101311641
 30
0.0
 10
4.0147817305
 20
3.0998804791
 30
0.0
 10
4.0393941968
 20
3.0872466461
 30
0.0
 10
4.0624012057
 20
3.0722104049
 30
0.0
 10
4.0837761887
 20
3.0548403163
 30
0.0
 10
4.1034969216
 20
3.0352043506
 30
0.0
 10
4.1215424267
 20
3.0133711322
 30
0.0
 10
4.1378937888
 20
2.9894082862
 30
0.0
 10
4.1525334153
 20
2.9633813713
 30
0.0
 10
4.1654433618
 20
2.9353566618
 30
0.0
 10
4.1727476118
 20
2.915752746
 30
0.0
 10
4.1761193499
 20
2.905663735
 30
0.0
  0
SPLINE
  5
3B5
100
AcDbEntity
  8
0
100
AcDbSpline
 62
7
  6
CONTINUOUS
 70
0
 71
3
 72
24
 73
20
 74
0
 42
0.0000001
 43
0.0000001
 44
0.0000000001
 40
0.0
 40
0.0
 40
0.0
 40
0.0
 40
0.0671468183
 40
0.1319210199
 40
0.1945783806
 40
0.2554207491
 40
0.314798471
 40
0.3731104681
 40
0.4308011728
 40
0.488353857
 40
0.5462853158
 40
0.6051249071
 40
0.665355467
 40
0.7273984832
 40
0.7592205481
 40
0.791624941
 40
0.8583079611
 40
0.927702144
 40
1.0
 40
1.0
 40
1.0
 40
1.0
 10
4.1565487273
 20
2.8718642476
 30
0.0
 10
4.14612023
 20
2.8697658664
 30
0.0
 10
4.1254819737
 20
2.866341256
 30
0.0
 10
4.0947498932
 20
2.8635862081
 30
0.0
 10
4.0648893647
 20
2.8633258293
 30
0.0
 10
4.0359667995
 20
2.86557755
 30
0.0
 10
4.008047813
 20
2.8703587497
 30
0.0
 10
3.9812004713
 20
2.8776866894
 30
0.0
 10
3.9554947341
 20
2.8875773389
 30
0.0
 10
3.9310006142
 20
2.9000452614
 30
0.0
 10
3.9077907991
 20
2.9151015464
 30
0.0
 10
3.8858831874
 20
2.9326763236
 30
0.0
 10
3.8652812278
 20
2.9527036722
 30
0.0
 10
3.8493346186
 20
2.9712295729
 30
0.0
 10
3.8372307512
 20
2.9871612805
 30
0.0
 10
3.8253409514
 20
3.0041593192
 30
0.0
 10
3.8112996405
 20
3.0268888433
 30
0.0
 10
3.7959112931
 20
3.0561186888
 30
0.0
 10
3.786713123
 20
3.0766120666
 30
0.0
 10
3.7823172821
 20
3.0871884771
 30
0.0
  0
SPLINE
  5
3B6
100
AcDbEntity
  8
0
100
AcDbSpline
 62
7
  6
CONTINUOUS
 70
0
 71
3
 72
24
 73
20
 74
0
 42
0.0000001
 43
0.0000001
 44
0.0000000001
 40
0.0
 40
0.0
 40
0.0
 40
0.0
 40
0.072297856
 40
0.1416920389
 40
0.208375059
 40
0.2407794518
 40
0.2726015167
 40
0.3346445329
 40
0.3948750928
 40
0.4537146841
 40
0.5116461428
 40
0.5691988271
 40
0.6268895317
 40
0.6852015288
 40
0.7445792508
 40
0.8054216193
 40
0.8680789801
 40
0.9328531816
 40
1.0
 40
1.0
 40
1.0
 40
1.0
 10
4.2628385305
 20
2.9533950081
 30
0.0
 10
4.2558770107
 20
2.9624901233
 30
0.0
 10
4.24272831
 20
2.9807026613
 30
0.0
 10
4.2251086949
 20
3.0086442838
 30
0.0
 10
4.2124450051
 20
3.0321691779
 30
0.0
 10
4.2036691716
 20
3.0509650659
 30
0.0
 10
4.1959238418
 20
3.0694131764
 30
0.0
 10
4.1878532458
 20
3.0924862954
 30
0.0
 10
4.1808100329
 20
3.1203417902
 30
0.0
 10
4.1765436352
 20
3.148101727
 30
0.0
 10
4.1751094176
 20
3.175730159
 30
0.0
 10
4.17655894
 20
3.2031766505
 30
0.0
 10
4.1808462549
 20
3.2303837967
 30
0.0
 10
4.1879237438
 20
3.2572982464
 30
0.0
 10
4.1977425968
 20
3.2838673979
 30
0.0
 10
4.2102538321
 20
3.3100409345
 30
0.0
 10
4.2254095911
 20
3.3357707214
 30
0.0
 10
4.2431615729
 20
3.3610079599
 30
0.0
 10
4.2564465007
 20
3.3771689089
 30
0.0
 10
4.2634780008
 20
3.3851510619
 30
0.0
  0
SPLINE
  5
3B7
100
AcDbEntity
  8
0
100
AcDbSpline
 62
7
  6
CONTINUOUS
 70
0
 71
3
 72
24
 73
20
 74
0
 42
0.0000001
 43
0.0000001
 44
0.0000000001
 40
0.0
 40
0.0
 40
0.0
 40
0.0
 40
0.0671468183
 40
0.1319210199
 40
0.1945783806
 40
0.2554207491
 40
0.314798471
 40
0.3731104681
 40
0.4308011728
 40
0.488353857
 40
0.5462853158
 40
0.6051249071
 40
0.665355467
 40
0.7273984832
 40
0.7592205481
 40
0.791624941
 40
0.8583079611
 40
0.927702144
 40
1.0
 40
1.0
 40
1.0
 40
1.0
 10
4.3025345268
 20
3.3851999734
 30
0.0
 10
4.3095859975
 20
3.377235457
 30
0.0
 10
4.3229113616
 20
3.3611078331
 30
0.0
 10
4.3407264987
 20
3.3359151368
 30
0.0
 10
4.3559466548
 20
3.3102233909
 30
0.0
 10
4.368523407
 20
3.284081273
 30
0.0
 10
4.3784087762
 20
3.2575367979
 30
0.0
 10
4.3855536548
 20
3.2306401594
 30
0.0
 10
4.3899091013
 20
3.2034438369
 30
0.0
 10
4.3914273637
 20
3.1760010622
 30
0.0
 10
4.3900623507
 20
3.1483691247
 30
0.0
 10
4.385865496
 20
3.120598589
 30
0.0
 10
4.3788920742
 20
3.0927255406
 30
0.0
 10
4.3708792941
 20
3.0696322798
 30
0.0
 10
4.3631801952
 20
3.0511648277
 30
0.0
 10
4.3544514669
 20
3.032347018
 30
0.0
 10
4.3418467389
 20
3.0087904794
 30
0.0
 10
4.3242971639
 20
2.9808048131
 30
0.0
 10
4.3111941209
 20
2.9625593991
 30
0.0
 10
4.3042554033
 20
2.9534468761
 30
0.0
  0
SPLINE
  5
3B8
100
AcDbEntity
  8
0
100
AcDbSpline
 62
7
  6
CONTINUOUS
 70
0
 71
3
 72
24
 73
20
 74
0
 42
0.0000001
 43
0.0000001
 44
0.0000000001
 40
0.0
 40
0.0
 40
0.0
 40
0.0
 40
0.0671468183
 40
0.1319210199
 40
0.1945783806
 40
0.2554207491
 40
0.314798471
 40
0.3731104681
 40
0.4308011728
 40
0.488353857
 40
0.5462853158
 40
0.6051249071
 40
0.665355467
 40
0.7273984832
 40
0.7592205481
 40
0.791624941
 40
0.8583079611
 40
0.927702144
 40
1.0
 40
1.0
 40
1.0
 40
1.0
 10
4.1761193496
 20
3.4354418369
 30
0.0
 10
4.1727476115
 20
3.425352826
 30
0.0
 10
4.1654433615
 20
3.4057489103
 30
0.0
 10
4.152533415
 20
3.3777242008
 30
0.0
 10
4.1378937885
 20
3.351697286
 30
0.0
 10
4.1215424264
 20
3.3277344401
 30
0.0
 10
4.1034969213
 20
3.3059012218
 30
0.0
 10
4.0837761883
 20
3.2862652561
 30
0.0
 10
4.0624012054
 20
3.2688951676
 30
0.0
 10
4.0393941965
 20
3.2538589264
 30
0.0
 10
4.0147817302
 20
3.2412250935
 30
0.0
 10
3.9886333135
 20
3.2309744085
 30
0.0
 10
3.9610078346
 20
3.2230770447
 30
0.0
 10
3.9370020941
 20
3.2184696855
 30
0.0
 10
3.9171592619
 20
3.2159035746
 30
0.0
 10
3.8964981965
 20
3.2140539703
 30
0.0
 10
3.8697952717
 20
3.2131917156
 30
0.0
 10
3.8367841862
 20
3.2143972602
 30
0.0
 10
3.8144316727
 20
3.2166221214
 30
0.0
 10
3.8030706375
 20
3.2180749655
 30
0.0
  0
SPLINE
  5
3B9
100
AcDbEntity
  8
0
100
AcDbSpline
 62
7
  6
CONTINUOUS
 70
0
 71
3
 72
24
 73
20
 74
0
 42
0.0000001
 43
0.0000001
 44
0.0000000001
 40
0.0
 40
0.0
 40
0.0
 40
0.0
 40
0.072297856
 40
0.1416920389
 40
0.208375059
 40
0.2407794518
 40
0.2726015167
 40
0.3346445329
 40
0.3948750928
 40
0.4537146841
 40
0.5116461428
 40
0.5691988271
 40
0.6268895317
 40
0.6852015288
 40
0.7445792508
 40
0.8054216193
 40
0.8680789801
 40
0.9328531816
 40
1.0
 40
1.0
 40
1.0
 40
1.0
 10
3.7823172821
 20
3.2539170956
 30
0.0
 10
3.786713123
 20
3.2644935061
 30
0.0
 10
3.7959112931
 20
3.284986884
 30
0.0
 10
3.8112996406
 20
3.3142167295
 30
0.0
 10
3.8253409515
 20
3.3369462536
 30
0.0
 10
3.8372307513
 20
3.3539442924
 30
0.0
 10
3.8493346188
 20
3.3698759999
 30
0.0
 10
3.8652812279
 20
3.3884019007
 30
0.0
 10
3.8858831876
 20
3.4084292493
 30
0.0
 10
3.9077907993
 20
3.4260040265
 30
0.0
 10
3.9310006145
 20
3.4410603114
 30
0.0
 10
3.9554947345
 20
3.4535282339
 30
0.0
 10
3.9812004717
 20
3.4634188834
 30
0.0
 10
4.0080478134
 20
3.4707468231
 30
0.0
 10
4.0359668
 20
3.4755280228
 30
0.0
 10
4.0648893653
 20
3.4777797434
 30
0.0
 10
4.0947498938
 20
3.4775193646
 30
0.0
 10
4.1254819744
 20
3.4747643166
 30
0.0
 10
4.1461202307
 20
3.4713397061
 30
0.0
 10
4.1565487281
 20
3.4692413249
 30
0.0
  0
SPLINE
  5
3BA
100
AcDbEntity
  8
0
100
AcDbSpline
 62
7
  6
CONTINUOUS
 70
0
 71
3
 72
24
 73
20
 74
0
 42
0.0000001
 43
0.0000001
 44
0.0000000001
 40
0.0
 40
0.0
 40
0.0
 40
0.0
 40
0.072297856
 40
0.1416920389
 40
0.208375059
 40
0.2407794518
 40
0.2726015167
 40
0.3346445329
 40
0.3948750928
 40
0.4537146841
 40
0.5116461428
 40
0.5691988271
 40
0.6268895317
 40
0.6852015288
 40
0.7445792508
 40
0.8054216193
 40
0.8680789801
 40
0.9328531816
 40
1.0
 40
1.0
 40
1.0
 40
1.0
 10
3.8030706375
 20
3.8730306072
 30
0.0
 10
3.8144316727
 20
3.8744834513
 30
0.0
 10
3.8367841863
 20
3.8767083125
 30
0.0
 10
3.8697952718
 20
3.8779138571
 30
0.0
 10
3.8964981967
 20
3.8770516024
 30
0.0
 10
3.9171592621
 20
3.8752019981
 30
0.0
 10
3.9370020943
 20
3.8726358872
 30
0.0
 10
3.9610078348
 20
3.8680285279
 30
0.0
 10
3.9886333137
 20
3.8601311641
 30
0.0
 10
4.0147817305
 20
3.8498804791
 30
0.0
 10
4.0393941968
 20
3.8372466461
 30
0.0
 10
4.0624012057
 20
3.8222104049
 30
0.0
 10
4.0837761887
 20
3.8048403163
 30
0.0
 10
4.1034969216
 20
3.7852043506
 30
0.0
 10
4.1215424267
 20
3.7633711322
 30
0.0
 10
4.1378937888
 20
3.7394082862
 30
0.0
 10
4.1525334153
 20
3.7133813713
 30
0.0
 10
4.1654433618
 20
3.6853566618
 30
0.0
 10
4.1727476118
 20
3.665752746
 30
0.0
 10
4.1761193499
 20
3.655663735
 30
0.0
  0
SPLINE
  5
3BB
100
AcDbEntity
  8
0
100
AcDbSpline
 62
7
  6
CONTINUOUS
 70
0
 71
3
 72
24
 73
20
 74
0
 42
0.0000001
 43
0.0000001
 44
0.0000000001
 40
0.0
 40
0.0
 40
0.0
 40
0.0
 40
0.0671468183
 40
0.1319210199
 40
0.1945783806
 40
0.2554207491
 40
0.314798471
 40
0.3731104681
 40
0.4308011728
 40
0.488353857
 40
0.5462853158
 40
0.6051249071
 40
0.665355467
 40
0.7273984832
 40
0.7592205481
 40
0.791624941
 40
0.8583079611
 40
0.927702144
 40
1.0
 40
1.0
 40
1.0
 40
1.0
 10
4.1565487273
 20
3.6218642476
 30
0.0
 10
4.14612023
 20
3.6197658664
 30
0.0
 10
4.1254819737
 20
3.616341256
 30
0.0
 10
4.0947498932
 20
3.6135862081
 30
0.0
 10
4.0648893647
 20
3.6133258293
 30
0.0
 10
4.0359667995
 20
3.61557755
 30
0.0
 10
4.008047813
 20
3.6203587497
 30
0.0
 10
3.9812004713
 20
3.6276866894
 30
0.0
 10
3.9554947341
 20
3.6375773389
 30
0.0
 10
3.9310006142
 20
3.6500452614
 30
0.0
 10
3.9077907991
 20
3.6651015464
 30
0.0
 10
3.8858831874
 20
3.6826763236
 30
0.0
 10
3.8652812278
 20
3.7027036722
 30
0.0
 10
3.8493346186
 20
3.7212295729
 30
0.0
 10
3.8372307512
 20
3.7371612805
 30
0.0
 10
3.8253409514
 20
3.7541593192
 30
0.0
 10
3.8112996405
 20
3.7768888433
 30
0.0
 10
3.7959112931
 20
3.8061186888
 30
0.0
 10
3.786713123
 20
3.8266120666
 30
0.0
 10
3.7823172821
 20
3.8371884771
 30
0.0
  0
SPLINE
  5
3BC
100
AcDbEntity
  8
0
100
AcDbSpline
 62
7
  6
CONTINUOUS
 70
0
 71
3
 72
24
 73
20
 74
0
 42
0.0000001
 43
0.0000001
 44
0.0000000001
 40
0.0
 40
0.0
 40
0.0
 40
0.0
 40
0.072297856
 40
0.1416920389
 40
0.208375059
 40
0.2407794518
 40
0.2726015167
 40
0.3346445329
 40
0.3948750928
 40
0.4537146841
 40
0.5116461428
 40
0.5691988271
 40
0.6268895317
 40
0.6852015288
 40
0.7445792508
 40
0.8054216193
 40
0.8680789801
 40
0.9328531816
 40
1.0
 40
1.0
 40
1.0
 40
1.0
 10
4.2628385305
 20
3.7033950081
 30
0.0
 10
4.2558770107
 20
3.7124901233
 30
0.0
 10
4.24272831
 20
3.7307026613
 30
0.0
 10
4.2251086949
 20
3.7586442838
 30
0.0
 10
4.2124450051
 20
3.7821691779
 30
0.0
 10
4.2036691716
 20
3.8009650659
 30
0.0
 10
4.1959238418
 20
3.8194131764
 30
0.0
 10
4.1878532458
 20
3.8424862954
 30
0.0
 10
4.1808100329
 20
3.8703417902
 30
0.0
 10
4.1765436352
 20
3.898101727
 30
0.0
 10
4.1751094176
 20
3.925730159
 30
0.0
 10
4.17655894
 20
3.9531766505
 30
0.0
 10
4.1808462549
 20
3.9803837967
 30
0.0
 10
4.1879237438
 20
4.0072982464
 30
0.0
 10
4.1977425968
 20
4.0338673979
 30
0.0
 10
4.2102538321
 20
4.0600409345
 30
0.0
 10
4.2254095911
 20
4.0857707214
 30
0.0
 10
4.2431615729
 20
4.1110079599
 30
0.0
 10
4.2564465007
 20
4.1271689089
 30
0.0
 10
4.2634780008
 20
4.1351510619
 30
0.0
  0
SPLINE
  5
3BD
100
AcDbEntity
  8
0
100
AcDbSpline
 62
7
  6
CONTINUOUS
 70
0
 71
3
 72
24
 73
20
 74
0
 42
0.0000001
 43
0.0000001
 44
0.0000000001
 40
0.0
 40
0.0
 40
0.0
 40
0.0
 40
0.0671468183
 40
0.1319210199
 40
0.1945783806
 40
0.2554207491
 40
0.314798471
 40
0.3731104681
 40
0.4308011728
 40
0.488353857
 40
0.5462853158
 40
0.6051249071
 40
0.665355467
 40
0.7273984832
 40
0.7592205481
 40
0.791624941
 40
0.8583079611
 40
0.927702144
 40
1.0
 40
1.0
 40
1.0
 40
1.0
 10
4.3025345268
 20
4.1351999734
 30
0.0
 10
4.3095859975
 20
4.127235457
 30
0.0
 10
4.3229113616
 20
4.1111078331
 30
0.0
 10
4.3407264987
 20
4.0859151368
 30
0.0
 10
4.3559466548
 20
4.0602233909
 30
0.0
 10
4.368523407
 20
4.034081273
 30
0.0
 10
4.3784087762
 20
4.0075367979
 30
0.0
 10
4.3855536548
 20
3.9806401594
 30
0.0
 10
4.3899091013
 20
3.9534438369
 30
0.0
 10
4.3914273637
 20
3.9260010622
 30
0.0
 10
4.3900623507
 20
3.8983691247
 30
0.0
 10
4.385865496
 20
3.870598589
 30
0.0
 10
4.3788920742
 20
3.8427255406
 30
0.0
 10
4.3708792941
 20
3.8196322798
 30
0.0
 10
4.3631801952
 20
3.8011648277
 30
0.0
 10
4.3544514669
 20
3.782347018
 30
0.0
 10
4.3418467389
 20
3.7587904794
 30
0.0
 10
4.3242971639
 20
3.7308048131
 30
0.0
 10
4.3111941209
 20
3.7125593991
 30
0.0
 10
4.3042554033
 20
3.7034468761
 30
0.0
  0
SPLINE
  5
3BE
100
AcDbEntity
  8
0
100
AcDbSpline
 62
7
  6
CONTINUOUS
 70
0
 71
3
 72
24
 73
20
 74
0
 42
0.0000001
 43
0.0000001
 44
0.0000000001
 40
0.0
 40
0.0
 40
0.0
 40
0.0
 40
0.0671468183
 40
0.1319210199
 40
0.1945783806
 40
0.2554207491
 40
0.314798471
 40
0.3731104681
 40
0.4308011728
 40
0.488353857
 40
0.5462853158
 40
0.6051249071
 40
0.665355467
 40
0.7273984832
 40
0.7592205481
 40
0.791624941
 40
0.8583079611
 40
0.927702144
 40
1.0
 40
1.0
 40
1.0
 40
1.0
 10
4.1761193496
 20
4.1854418369
 30
0.0
 10
4.1727476115
 20
4.175352826
 30
0.0
 10
4.1654433615
 20
4.1557489103
 30
0.0
 10
4.152533415
 20
4.1277242008
 30
0.0
 10
4.1378937885
 20
4.101697286
 30
0.0
 10
4.1215424264
 20
4.0777344401
 30
0.0
 10
4.1034969213
 20
4.0559012218
 30
0.0
 10
4.0837761883
 20
4.0362652561
 30
0.0
 10
4.0624012054
 20
4.0188951676
 30
0.0
 10
4.0393941965
 20
4.0038589264
 30
0.0
 10
4.0147817302
 20
3.9912250935
 30
0.0
 10
3.9886333135
 20
3.9809744085
 30
0.0
 10
3.9610078346
 20
3.9730770447
 30
0.0
 10
3.9370020941
 20
3.9684696855
 30
0.0
 10
3.9171592619
 20
3.9659035746
 30
0.0
 10
3.8964981965
 20
3.9640539703
 30
0.0
 10
3.8697952717
 20
3.9631917156
 30
0.0
 10
3.8367841862
 20
3.9643972602
 30
0.0
 10
3.8144316727
 20
3.9666221214
 30
0.0
 10
3.8030706375
 20
3.9680749655
 30
0.0
  0
SPLINE
  5
3BF
100
AcDbEntity
  8
0
100
AcDbSpline
 62
7
  6
CONTINUOUS
 70
0
 71
3
 72
24
 73
20
 74
0
 42
0.0000001
 43
0.0000001
 44
0.0000000001
 40
0.0
 40
0.0
 40
0.0
 40
0.0
 40
0.072297856
 40
0.1416920389
 40
0.208375059
 40
0.2407794518
 40
0.2726015167
 40
0.3346445329
 40
0.3948750928
 40
0.4537146841
 40
0.5116461428
 40
0.5691988271
 40
0.6268895317
 40
0.6852015288
 40
0.7445792508
 40
0.8054216193
 40
0.8680789801
 40
0.9328531816
 40
1.0
 40
1.0
 40
1.0
 40
1.0
 10
3.7823172821
 20
4.0039170956
 30
0.0
 10
3.786713123
 20
4.0144935061
 30
0.0
 10
3.7959112931
 20
4.034986884
 30
0.0
 10
3.8112996406
 20
4.0642167295
 30
0.0
 10
3.8253409515
 20
4.0869462536
 30
0.0
 10
3.8372307513
 20
4.1039442924
 30
0.0
 10
3.8493346188
 20
4.1198759999
 30
0.0
 10
3.8652812279
 20
4.1384019007
 30
0.0
 10
3.8858831876
 20
4.1584292493
 30
0.0
 10
3.9077907993
 20
4.1760040265
 30
0.0
 10
3.9310006145
 20
4.1910603114
 30
0.0
 10
3.9554947345
 20
4.2035282339
 30
0.0
 10
3.9812004717
 20
4.2134188834
 30
0.0
 10
4.0080478134
 20
4.2207468231
 30
0.0
 10
4.0359668
 20
4.2255280228
 30
0.0
 10
4.0648893653
 20
4.2277797434
 30
0.0
 10
4.0947498938
 20
4.2275193646
 30
0.0
 10
4.1254819744
 20
4.2247643166
 30
0.0
 10
4.1461202307
 20
4.2213397061
 30
0.0
 10
4.1565487281
 20
4.2192413249
 30
0.0
  0
SPLINE
  5
3C0
100
AcDbEntity
  8
0
100
AcDbSpline
 62
7
  6
CONTINUOUS
 70
0
 71
3
 72
24
 73
20
 74
0
 42
0.0000001
 43
0.0000001
 44
0.0000000001
 40
0.0
 40
0.0
 40
0.0
 40
0.0
 40
0.072297856
 40
0.1416920389
 40
0.208375059
 40
0.2407794518
 40
0.2726015167
 40
0.3346445329
 40
0.3948750928
 40
0.4537146841
 40
0.5116461428
 40
0.5691988271
 40
0.6268895317
 40
0.6852015288
 40
0.7445792508
 40
0.8054216193
 40
0.8680789801
 40
0.9328531816
 40
1.0
 40
1.0
 40
1.0
 40
1.0
 10
3.8030706375
 20
4.6230306072
 30
0.0
 10
3.8144316727
 20
4.6244834513
 30
0.0
 10
3.8367841863
 20
4.6267083125
 30
0.0
 10
3.8697952718
 20
4.6279138571
 30
0.0
 10
3.8964981967
 20
4.6270516024
 30
0.0
 10
3.9171592621
 20
4.6252019981
 30
0.0
 10
3.9370020943
 20
4.6226358872
 30
0.0
 10
3.9610078348
 20
4.6180285279
 30
0.0
 10
3.9886333137
 20
4.6101311641
 30
0.0
 10
4.0147817305
 20
4.5998804791
 30
0.0
 10
4.0393941968
 20
4.5872466461
 30
0.0
 10
4.0624012057
 20
4.5722104049
 30
0.0
 10
4.0837761887
 20
4.5548403163
 30
0.0
 10
4.1034969216
 20
4.5352043506
 30
0.0
 10
4.1215424267
 20
4.5133711322
 30
0.0
 10
4.1378937888
 20
4.4894082862
 30
0.0
 10
4.1525334153
 20
4.4633813713
 30
0.0
 10
4.1654433618
 20
4.4353566618
 30
0.0
 10
4.1727476118
 20
4.415752746
 30
0.0
 10
4.1761193499
 20
4.405663735
 30
0.0
  0
SPLINE
  5
3C1
100
AcDbEntity
  8
0
100
AcDbSpline
 62
7
  6
CONTINUOUS
 70
0
 71
3
 72
24
 73
20
 74
0
 42
0.0000001
 43
0.0000001
 44
0.0000000001
 40
0.0
 40
0.0
 40
0.0
 40
0.0
 40
0.0671468183
 40
0.1319210199
 40
0.1945783806
 40
0.2554207491
 40
0.314798471
 40
0.3731104681
 40
0.4308011728
 40
0.488353857
 40
0.5462853158
 40
0.6051249071
 40
0.665355467
 40
0.7273984832
 40
0.7592205481
 40
0.791624941
 40
0.8583079611
 40
0.927702144
 40
1.0
 40
1.0
 40
1.0
 40
1.0
 10
4.1565487273
 20
4.3718642476
 30
0.0
 10
4.14612023
 20
4.3697658664
 30
0.0
 10
4.1254819737
 20
4.366341256
 30
0.0
 10
4.0947498932
 20
4.3635862081
 30
0.0
 10
4.0648893647
 20
4.3633258293
 30
0.0
 10
4.0359667995
 20
4.36557755
 30
0.0
 10
4.008047813
 20
4.3703587497
 30
0.0
 10
3.9812004713
 20
4.3776866894
 30
0.0
 10
3.9554947341
 20
4.3875773389
 30
0.0
 10
3.9310006142
 20
4.4000452614
 30
0.0
 10
3.9077907991
 20
4.4151015464
 30
0.0
 10
3.8858831874
 20
4.4326763236
 30
0.0
 10
3.8652812278
 20
4.4527036722
 30
0.0
 10
3.8493346186
 20
4.4712295729
 30
0.0
 10
3.8372307512
 20
4.4871612805
 30
0.0
 10
3.8253409514
 20
4.5041593192
 30
0.0
 10
3.8112996405
 20
4.5268888433
 30
0.0
 10
3.7959112931
 20
4.5561186888
 30
0.0
 10
3.786713123
 20
4.5766120666
 30
0.0
 10
3.7823172821
 20
4.5871884771
 30
0.0
  0
SPLINE
  5
3C2
100
AcDbEntity
  8
0
100
AcDbSpline
 62
7
  6
CONTINUOUS
 70
0
 71
3
 72
24
 73
20
 74
0
 42
0.0000001
 43
0.0000001
 44
0.0000000001
 40
0.0
 40
0.0
 40
0.0
 40
0.0
 40
0.072297856
 40
0.1416920389
 40
0.208375059
 40
0.2407794518
 40
0.2726015167
 40
0.3346445329
 40
0.3948750928
 40
0.4537146841
 40
0.5116461428
 40
0.5691988271
 40
0.6268895317
 40
0.6852015288
 40
0.7445792508
 40
0.8054216193
 40
0.8680789801
 40
0.9328531816
 40
1.0
 40
1.0
 40
1.0
 40
1.0
 10
3.1128385305
 20
3.7033950081
 30
0.0
 10
3.1058770107
 20
3.7124901233
 30
0.0
 10
3.09272831
 20
3.7307026613
 30
0.0
 10
3.0751086949
 20
3.7586442838
 30
0.0
 10
3.0624450051
 20
3.7821691779
 30
0.0
 10
3.0536691716
 20
3.8009650659
 30
0.0
 10
3.0459238418
 20
3.8194131764
 30
0.0
 10
3.0378532458
 20
3.8424862954
 30
0.0
 10
3.0308100329
 20
3.8703417902
 30
0.0
 10
3.0265436352
 20
3.898101727
 30
0.0
 10
3.0251094176
 20
3.925730159
 30
0.0
 10
3.02655894
 20
3.9531766505
 30
0.0
 10
3.0308462549
 20
3.9803837967
 30
0.0
 10
3.0379237438
 20
4.0072982464
 30
0.0
 10
3.0477425968
 20
4.0338673979
 30
0.0
 10
3.0602538321
 20
4.0600409345
 30
0.0
 10
3.0754095911
 20
4.0857707214
 30
0.0
 10
3.0931615729
 20
4.1110079599
 30
0.0
 10
3.1064465007
 20
4.1271689089
 30
0.0
 10
3.1134780008
 20
4.1351510619
 30
0.0
  0
SPLINE
  5
3C3
100
AcDbEntity
  8
0
100
AcDbSpline
 62
7
  6
CONTINUOUS
 70
0
 71
3
 72
24
 73
20
 74
0
 42
0.0000001
 43
0.0000001
 44
0.0000000001
 40
0.0
 40
0.0
 40
0.0
 40
0.0
 40
0.0671468183
 40
0.1319210199
 40
0.1945783806
 40
0.2554207491
 40
0.314798471
 40
0.3731104681
 40
0.4308011728
 40
0.488353857
 40
0.5462853158
 40
0.6051249071
 40
0.665355467
 40
0.7273984832
 40
0.7592205481
 40
0.791624941
 40
0.8583079611
 40
0.927702144
 40
1.0
 40
1.0
 40
1.0
 40
1.0
 10
3.1525345268
 20
4.1351999734
 30
0.0
 10
3.1595859975
 20
4.127235457
 30
0.0
 10
3.1729113616
 20
4.1111078331
 30
0.0
 10
3.1907264987
 20
4.0859151368
 30
0.0
 10
3.2059466548
 20
4.0602233909
 30
0.0
 10
3.218523407
 20
4.034081273
 30
0.0
 10
3.2284087762
 20
4.0075367979
 30
0.0
 10
3.2355536548
 20
3.9806401594
 30
0.0
 10
3.2399091013
 20
3.9534438369
 30
0.0
 10
3.2414273637
 20
3.9260010622
 30
0.0
 10
3.2400623507
 20
3.8983691247
 30
0.0
 10
3.235865496
 20
3.870598589
 30
0.0
 10
3.2288920742
 20
3.8427255406
 30
0.0
 10
3.2208792941
 20
3.8196322798
 30
0.0
 10
3.2131801952
 20
3.8011648277
 30
0.0
 10
3.2044514669
 20
3.782347018
 30
0.0
 10
3.1918467389
 20
3.7587904794
 30
0.0
 10
3.1742971639
 20
3.7308048131
 30
0.0
 10
3.1611941209
 20
3.7125593991
 30
0.0
 10
3.1542554033
 20
3.7034468761
 30
0.0
  0
SPLINE
  5
3C4
100
AcDbEntity
  8
0
100
AcDbSpline
 62
7
  6
CONTINUOUS
 70
0
 71
3
 72
24
 73
20
 74
0
 42
0.0000001
 43
0.0000001
 44
0.0000000001
 40
0.0
 40
0.0
 40
0.0
 40
0.0
 40
0.0671468183
 40
0.1319210199
 40
0.1945783806
 40
0.2554207491
 40
0.314798471
 40
0.3731104681
 40
0.4308011728
 40
0.488353857
 40
0.5462853158
 40
0.6051249071
 40
0.665355467
 40
0.7273984832
 40
0.7592205481
 40
0.791624941
 40
0.8583079611
 40
0.927702144
 40
1.0
 40
1.0
 40
1.0
 40
1.0
 10
3.2397669414
 20
4.405914292
 30
0.0
 10
3.2431639386
 20
4.4159948261
 30
0.0
 10
3.2505172672
 20
4.4355803856
 30
0.0
 10
3.2634973659
 20
4.463572672
 30
0.0
 10
3.2782021355
 20
4.4895628376
 30
0.0
 10
3.2946134654
 20
4.5134846535
 30
0.0
 10
3.3127135991
 20
4.5352726052
 30
0.0
 10
3.3324834519
 20
4.5548591152
 30
0.0
 10
3.3539018742
 20
4.5721756119
 30
0.0
 10
3.3769464718
 20
4.5871541808
 30
0.0
 10
3.4015905046
 20
4.5997263278
 30
0.0
 10
3.4277645139
 20
4.6099114874
 30
0.0
 10
3.4554096865
 20
4.6177396336
 30
0.0
 10
3.4794268917
 20
4.6222868518
 30
0.0
 10
3.4992760889
 20
4.6248032547
 30
0.0
 10
3.5199417221
 20
4.626601104
 30
0.0
 10
3.5466467229
 20
4.6273964739
 30
0.0
 10
3.5796546853
 20
4.6261082509
 30
0.0
 10
3.6020015562
 20
4.623827411
 30
0.0
 10
3.6133589168
 20
4.6223461157
 30
0.0
  0
SPLINE
  5
3C5
100
AcDbEntity
  8
0
100
AcDbSpline
 62
7
  6
CONTINUOUS
 70
0
 71
3
 72
24
 73
20
 74
0
 42
0.0000001
 43
0.0000001
 44
0.0000000001
 40
0.0
 40
0.0
 40
0.0
 40
0.0
 40
0.072297856
 40
0.1416920389
 40
0.208375059
 40
0.2407794518
 40
0.2726015167
 40
0.3346445329
 40
0.3948750928
 40
0.4537146841
 40
0.5116461428
 40
0.5691988271
 40
0.6268895317
 40
0.6852015288
 40
0.7445792508
 40
0.8054216193
 40
0.8680789801
 40
0.9328531816
 40
1.0
 40
1.0
 40
1.0
 40
1.0
 10
3.6340224342
 20
4.5864521176
 30
0.0
 10
3.6296001166
 20
4.5758867504
 30
0.0
 10
3.6203506461
 20
4.5554164753
 30
0.0
 10
3.6048891356
 20
4.5262252643
 30
0.0
 10
3.5907909386
 20
4.5035309803
 30
0.0
 10
3.5788586016
 20
4.486562775
 30
0.0
 10
3.5667148683
 20
4.4706614337
 30
0.0
 10
3.5507219079
 20
4.4521755321
 30
0.0
 10
3.5300698508
 20
4.4321998475
 30
0.0
 10
3.5081182887
 20
4.4146799969
 30
0.0
 10
3.4848708352
 20
4.3996818922
 30
0.0
 10
3.4603455639
 20
4.3872753587
 30
0.0
 10
3.4346151345
 20
4.3774491248
 30
0.0
 10
3.4077495229
 20
4.3701884519
 30
0.0
 10
3.3798186485
 20
4.3654771953
 30
0.0
 10
3.3508905341
 20
4.3632979233
 30
0.0
 10
3.3210307514
 20
4.3636330923
 30
0.0
 10
3.2903056677
 20
4.3664651055
 30
0.0
 10
3.2696760537
 20
4.3699413973
 30
0.0
 10
3.2592528448
 20
4.3720658919
 30
0.0
  0
SPLINE
  5
3C6
100
AcDbEntity
  8
0
100
AcDbSpline
 62
7
  6
CONTINUOUS
 70
0
 71
3
 72
24
 73
20
 74
0
 42
0.0000001
 43
0.0000001
 44
0.0000000001
 40
0.0
 40
0.0
 40
0.0
 40
0.0
 40
0.072297856
 40
0.1416920389
 40
0.208375059
 40
0.2407794518
 40
0.2726015167
 40
0.3346445329
 40
0.3948750928
 40
0.4537146841
 40
0.5116461428
 40
0.5691988271
 40
0.6268895317
 40
0.6852015288
 40
0.7445792508
 40
0.8054216193
 40
0.8680789801
 40
0.9328531816
 40
1.0
 40
1.0
 40
1.0
 40
1.0
 10
3.1128385305
 20
4.4533950081
 30
0.0
 10
3.1058770107
 20
4.4624901233
 30
0.0
 10
3.09272831
 20
4.4807026613
 30
0.0
 10
3.0751086949
 20
4.5086442838
 30
0.0
 10
3.0624450051
 20
4.5321691779
 30
0.0
 10
3.0536691716
 20
4.5509650659
 30
0.0
 10
3.0459238418
 20
4.5694131764
 30
0.0
 10
3.0378532458
 20
4.5924862954
 30
0.0
 10
3.0308100329
 20
4.6203417902
 30
0.0
 10
3.0265436352
 20
4.648101727
 30
0.0
 10
3.0251094176
 20
4.675730159
 30
0.0
 10
3.02655894
 20
4.7031766505
 30
0.0
 10
3.0308462549
 20
4.7303837967
 30
0.0
 10
3.0379237438
 20
4.7572982464
 30
0.0
 10
3.0477425968
 20
4.7838673979
 30
0.0
 10
3.0602538321
 20
4.8100409345
 30
0.0
 10
3.0754095911
 20
4.8357707214
 30
0.0
 10
3.0931615729
 20
4.8610079599
 30
0.0
 10
3.1064465007
 20
4.8771689089
 30
0.0
 10
3.1134780008
 20
4.8851510619
 30
0.0
  0
SPLINE
  5
3C7
100
AcDbEntity
  8
0
100
AcDbSpline
 62
7
  6
CONTINUOUS
 70
0
 71
3
 72
24
 73
20
 74
0
 42
0.0000001
 43
0.0000001
 44
0.0000000001
 40
0.0
 40
0.0
 40
0.0
 40
0.0
 40
0.0671468183
 40
0.1319210199
 40
0.1945783806
 40
0.2554207491
 40
0.314798471
 40
0.3731104681
 40
0.4308011728
 40
0.488353857
 40
0.5462853158
 40
0.6051249071
 40
0.665355467
 40
0.7273984832
 40
0.7592205481
 40
0.791624941
 40
0.8583079611
 40
0.927702144
 40
1.0
 40
1.0
 40
1.0
 40
1.0
 10
3.1525345268
 20
4.8851999734
 30
0.0
 10
3.1595859975
 20
4.877235457
 30
0.0
 10
3.1729113616
 20
4.8611078331
 30
0.0
 10
3.1907264987
 20
4.8359151368
 30
0.0
 10
3.2059466548
 20
4.8102233909
 30
0.0
 10
3.218523407
 20
4.784081273
 30
0.0
 10
3.2284087762
 20
4.7575367979
 30
0.0
 10
3.2355536548
 20
4.7306401594
 30
0.0
 10
3.2399091013
 20
4.7034438369
 30
0.0
 10
3.2414273637
 20
4.6760010622
 30
0.0
 10
3.2400623507
 20
4.6483691247
 30
0.0
 10
3.235865496
 20
4.620598589
 30
0.0
 10
3.2288920742
 20
4.5927255406
 30
0.0
 10
3.2208792941
 20
4.5696322798
 30
0.0
 10
3.2131801952
 20
4.5511648277
 30
0.0
 10
3.2044514669
 20
4.532347018
 30
0.0
 10
3.1918467389
 20
4.5087904794
 30
0.0
 10
3.1742971639
 20
4.4808048131
 30
0.0
 10
3.1611941209
 20
4.4625593991
 30
0.0
 10
3.1542554033
 20
4.4534468761
 30
0.0
  0
SPLINE
  5
3C8
100
AcDbEntity
  8
0
100
AcDbSpline
 62
7
  6
CONTINUOUS
 70
0
 71
3
 72
24
 73
20
 74
0
 42
0.0000001
 43
0.0000001
 44
0.0000000001
 40
0.0
 40
0.0
 40
0.0
 40
0.0
 40
0.072297856
 40
0.1416920389
 40
0.208375059
 40
0.2407794518
 40
0.2726015167
 40
0.3346445329
 40
0.3948750928
 40
0.4537146841
 40
0.5116461428
 40
0.5691988271
 40
0.6268895317
 40
0.6852015288
 40
0.7445792508
 40
0.8054216193
 40
0.8680789801
 40
0.9328531816
 40
1.0
 40
1.0
 40
1.0
 40
1.0
 10
3.1128385305
 20
5.2033950081
 30
0.0
 10
3.1058770107
 20
5.2124901233
 30
0.0
 10
3.09272831
 20
5.2307026613
 30
0.0
 10
3.0751086949
 20
5.2586442838
 30
0.0
 10
3.0624450051
 20
5.2821691779
 30
0.0
 10
3.0536691716
 20
5.3009650659
 30
0.0
 10
3.0459238418
 20
5.3194131764
 30
0.0
 10
3.0378532458
 20
5.3424862954
 30
0.0
 10
3.0308100329
 20
5.3703417902
 30
0.0
 10
3.0265436352
 20
5.398101727
 30
0.0
 10
3.0251094176
 20
5.425730159
 30
0.0
 10
3.02655894
 20
5.4531766505
 30
0.0
 10
3.0308462549
 20
5.4803837967
 30
0.0
 10
3.0379237438
 20
5.5072982464
 30
0.0
 10
3.0477425968
 20
5.5338673979
 30
0.0
 10
3.0602538321
 20
5.5600409345
 30
0.0
 10
3.0754095911
 20
5.5857707214
 30
0.0
 10
3.0931615729
 20
5.6110079599
 30
0.0
 10
3.1064465007
 20
5.6271689089
 30
0.0
 10
3.1134780008
 20
5.6351510619
 30
0.0
  0
SPLINE
  5
3C9
100
AcDbEntity
  8
0
100
AcDbSpline
 62
7
  6
CONTINUOUS
 70
0
 71
3
 72
24
 73
20
 74
0
 42
0.0000001
 43
0.0000001
 44
0.0000000001
 40
0.0
 40
0.0
 40
0.0
 40
0.0
 40
0.0671468183
 40
0.1319210199
 40
0.1945783806
 40
0.2554207491
 40
0.314798471
 40
0.3731104681
 40
0.4308011728
 40
0.488353857
 40
0.5462853158
 40
0.6051249071
 40
0.665355467
 40
0.7273984832
 40
0.7592205481
 40
0.791624941
 40
0.8583079611
 40
0.927702144
 40
1.0
 40
1.0
 40
1.0
 40
1.0
 10
3.1525345268
 20
5.6351999734
 30
0.0
 10
3.1595859975
 20
5.627235457
 30
0.0
 10
3.1729113616
 20
5.6111078331
 30
0.0
 10
3.1907264987
 20
5.5859151368
 30
0.0
 10
3.2059466548
 20
5.5602233909
 30
0.0
 10
3.218523407
 20
5.534081273
 30
0.0
 10
3.2284087762
 20
5.5075367979
 30
0.0
 10
3.2355536548
 20
5.4806401594
 30
0.0
 10
3.2399091013
 20
5.4534438369
 30
0.0
 10
3.2414273637
 20
5.4260010622
 30
0.0
 10
3.2400623507
 20
5.3983691247
 30
0.0
 10
3.235865496
 20
5.370598589
 30
0.0
 10
3.2288920742
 20
5.3427255406
 30
0.0
 10
3.2208792941
 20
5.3196322798
 30
0.0
 10
3.2131801952
 20
5.3011648277
 30
0.0
 10
3.2044514669
 20
5.282347018
 30
0.0
 10
3.1918467389
 20
5.2587904794
 30
0.0
 10
3.1742971639
 20
5.2308048131
 30
0.0
 10
3.1611941209
 20
5.2125593991
 30
0.0
 10
3.1542554033
 20
5.2034468761
 30
0.0
  0
SPLINE
  5
3CA
100
AcDbEntity
  8
0
100
AcDbSpline
 62
7
  6
CONTINUOUS
 70
0
 71
3
 72
24
 73
20
 74
0
 42
0.0000001
 43
0.0000001
 44
0.0000000001
 40
0.0
 40
0.0
 40
0.0
 40
0.0
 40
0.0671468183
 40
0.1319210199
 40
0.1945783806
 40
0.2554207491
 40
0.314798471
 40
0.3731104681
 40
0.4308011728
 40
0.488353857
 40
0.5462853158
 40
0.6051249071
 40
0.665355467
 40
0.7273984832
 40
0.7592205481
 40
0.791624941
 40
0.8583079611
 40
0.927702144
 40
1.0
 40
1.0
 40
1.0
 40
1.0
 10
3.2397669414
 20
5.155914292
 30
0.0
 10
3.2431639386
 20
5.1659948261
 30
0.0
 10
3.2505172672
 20
5.1855803856
 30
0.0
 10
3.2634973659
 20
5.213572672
 30
0.0
 10
3.2782021355
 20
5.2395628376
 30
0.0
 10
3.2946134654
 20
5.2634846535
 30
0.0
 10
3.3127135991
 20
5.2852726052
 30
0.0
 10
3.3324834519
 20
5.3048591152
 30
0.0
 10
3.3539018742
 20
5.3221756119
 30
0.0
 10
3.3769464718
 20
5.3371541808
 30
0.0
 10
3.4015905046
 20
5.3497263278
 30
0.0
 10
3.4277645139
 20
5.3599114874
 30
0.0
 10
3.4554096865
 20
5.3677396336
 30
0.0
 10
3.4794268917
 20
5.3722868518
 30
0.0
 10
3.4992760889
 20
5.3748032547
 30
0.0
 10
3.5199417221
 20
5.376601104
 30
0.0
 10
3.5466467229
 20
5.3773964739
 30
0.0
 10
3.5796546853
 20
5.3761082509
 30
0.0
 10
3.6020015562
 20
5.373827411
 30
0.0
 10
3.6133589168
 20
5.3723461157
 30
0.0
  0
SPLINE
  5
3CB
100
AcDbEntity
  8
0
100
AcDbSpline
 62
7
  6
CONTINUOUS
 70
0
 71
3
 72
24
 73
20
 74
0
 42
0.0000001
 43
0.0000001
 44
0.0000000001
 40
0.0
 40
0.0
 40
0.0
 40
0.0
 40
0.072297856
 40
0.1416920389
 40
0.208375059
 40
0.2407794518
 40
0.2726015167
 40
0.3346445329
 40
0.3948750928
 40
0.4537146841
 40
0.5116461428
 40
0.5691988271
 40
0.6268895317
 40
0.6852015288
 40
0.7445792508
 40
0.8054216193
 40
0.8680789801
 40
0.9328531816
 40
1.0
 40
1.0
 40
1.0
 40
1.0
 10
3.6340224342
 20
5.3364521176
 30
0.0
 10
3.6296001166
 20
5.3258867504
 30
0.0
 10
3.6203506461
 20
5.3054164753
 30
0.0
 10
3.6048891356
 20
5.2762252643
 30
0.0
 10
3.5907909386
 20
5.2535309803
 30
0.0
 10
3.5788586016
 20
5.236562775
 30
0.0
 10
3.5667148683
 20
5.2206614337
 30
0.0
 10
3.5507219079
 20
5.2021755321
 30
0.0
 10
3.5300698508
 20
5.1821998475
 30
0.0
 10
3.5081182887
 20
5.1646799969
 30
0.0
 10
3.4848708352
 20
5.1496818922
 30
0.0
 10
3.4603455639
 20
5.1372753587
 30
0.0
 10
3.4346151345
 20
5.1274491248
 30
0.0
 10
3.4077495229
 20
5.1201884519
 30
0.0
 10
3.3798186485
 20
5.1154771953
 30
0.0
 10
3.3508905341
 20
5.1132979233
 30
0.0
 10
3.3210307514
 20
5.1136330923
 30
0.0
 10
3.2903056677
 20
5.1164651055
 30
0.0
 10
3.2696760537
 20
5.1199413973
 30
0.0
 10
3.2592528448
 20
5.1220658919
 30
0.0
  0
SPLINE
  5
3CC
100
AcDbEntity
  8
0
100
AcDbSpline
 62
7
  6
CONTINUOUS
 70
0
 71
3
 72
24
 73
20
 74
0
 42
0.0000001
 43
0.0000001
 44
0.0000000001
 40
0.0
 40
0.0
 40
0.0
 40
0.0
 40
0.0671468183
 40
0.1319210199
 40
0.1945783806
 40
0.2554207491
 40
0.314798471
 40
0.3731104681
 40
0.4308011728
 40
0.488353857
 40
0.5462853158
 40
0.6051249071
 40
0.665355467
 40
0.7273984832
 40
0.7592205481
 40
0.791624941
 40
0.8583079611
 40
0.927702144
 40
1.0
 40
1.0
 40
1.0
 40
1.0
 10
3.2592528456
 20
5.7190396809
 30
0.0
 10
3.2696760544
 20
5.7211641756
 30
0.0
 10
3.2903056685
 20
5.7246404673
 30
0.0
 10
3.321030752
 20
5.7274724805
 30
0.0
 10
3.3508905347
 20
5.7278076494
 30
0.0
 10
3.379818649
 20
5.7256283774
 30
0.0
 10
3.4077495233
 20
5.7209171207
 30
0.0
 10
3.4346151349
 20
5.7136564478
 30
0.0
 10
3.4603455643
 20
5.7038302139
 30
0.0
 10
3.4848708355
 20
5.6914236803
 30
0.0
 10
3.5081182889
 20
5.6764255757
 30
0.0
 10
3.5300698509
 20
5.658905725
 30
0.0
 10
3.550721908
 20
5.6389300404
 30
0.0
 10
3.5667148685
 20
5.6204441389
 30
0.0
 10
3.5788586017
 20
5.6045427976
 30
0.0
 10
3.5907909387
 20
5.5875745922
 30
0.0
 10
3.6048891356
 20
5.5648803083
 30
0.0
 10
3.6203506461
 20
5.5356890974
 30
0.0
 10
3.6296001166
 20
5.5152188222
 30
0.0
 10
3.6340224342
 20
5.5046534551
 30
0.0
  0
SPLINE
  5
3CD
100
AcDbEntity
  8
0
100
AcDbSpline
 62
7
  6
CONTINUOUS
 70
0
 71
3
 72
24
 73
20
 74
0
 42
0.0000001
 43
0.0000001
 44
0.0000000001
 40
0.0
 40
0.0
 40
0.0
 40
0.0
 40
0.072297856
 40
0.1416920389
 40
0.208375059
 40
0.2407794518
 40
0.2726015167
 40
0.3346445329
 40
0.3948750928
 40
0.4537146841
 40
0.5116461428
 40
0.5691988271
 40
0.6268895317
 40
0.6852015288
 40
0.7445792508
 40
0.8054216193
 40
0.8680789801
 40
0.9328531816
 40
1.0
 40
1.0
 40
1.0
 40
1.0
 10
3.6133589168
 20
5.4687594571
 30
0.0
 10
3.6020015561
 20
5.4672781617
 30
0.0
 10
3.5796546852
 20
5.4649973218
 30
0.0
 10
3.5466467227
 20
5.4637090989
 30
0.0
 10
3.5199417219
 20
5.4645044687
 30
0.0
 10
3.4992760887
 20
5.466302318
 30
0.0
 10
3.4794268915
 20
5.468818721
 30
0.0
 10
3.4554096862
 20
5.4733659392
 30
0.0
 10
3.4277645137
 20
5.4811940854
 30
0.0
 10
3.4015905043
 20
5.491379245
 30
0.0
 10
3.3769464715
 20
5.5039513921
 30
0.0
 10
3.3539018739
 20
5.518929961
 30
0.0
 10
3.3324834516
 20
5.5362464578
 30
0.0
 10
3.3127135988
 20
5.5558329679
 30
0.0
 10
3.2946134651
 20
5.5776209197
 30
0.0
 10
3.2782021352
 20
5.6015427356
 30
0.0
 10
3.2634973656
 20
5.6275329013
 30
0.0
 10
3.2505172669
 20
5.6555251878
 30
0.0
 10
3.2431639384
 20
5.6751107473
 30
0.0
 10
3.2397669411
 20
5.6851912815
 30
0.0
  0
SPLINE
  5
3CE
100
AcDbEntity
  8
0
100
AcDbSpline
 62
7
  6
CONTINUOUS
 70
0
 71
3
 72
24
 73
20
 74
0
 42
0.0000001
 43
0.0000001
 44
0.0000000001
 40
0.0
 40
0.0
 40
0.0
 40
0.0
 40
0.072297856
 40
0.1416920389
 40
0.208375059
 40
0.2407794519
 40
0.2726015168
 40
0.334644533
 40
0.3948750929
 40
0.4537146842
 40
0.511646143
 40
0.5691988272
 40
0.6268895319
 40
0.685201529
 40
0.7445792509
 40
0.8054216194
 40
0.8680789802
 40
0.9328531817
 40
1.0
 40
1.0
 40
1.0
 40
1.0
 10
3.6133589168
 20
6.1223461157
 30
0.0
 10
3.6020015562
 20
6.123827411
 30
0.0
 10
3.5796546853
 20
6.1261082509
 30
0.0
 10
3.5466467229
 20
6.1273964739
 30
0.0
 10
3.5199417221
 20
6.126601104
 30
0.0
 10
3.4992760889
 20
6.1248032547
 30
0.0
 10
3.4794268917
 20
6.1222868518
 30
0.0
 10
3.4554096865
 20
6.1177396336
 30
0.0
 10
3.427764514
 20
6.1099114874
 30
0.0
 10
3.4015905046
 20
6.0997263278
 30
0.0
 10
3.3769464718
 20
6.0871541808
 30
0.0
 10
3.3539018742
 20
6.0721756119
 30
0.0
 10
3.3324834519
 20
6.0548591152
 30
0.0
 10
3.3127135991
 20
6.0352726052
 30
0.0
 10
3.2946134654
 20
6.0134846535
 30
0.0
 10
3.2782021355
 20
5.9895628376
 30
0.0
 10
3.2634973659
 20
5.963572672
 30
0.0
 10
3.2505172672
 20
5.9355803856
 30
0.0
 10
3.2431639386
 20
5.9159948262
 30
0.0
 10
3.2397669414
 20
5.905914292
 30
0.0
  0
SPLINE
  5
3CF
100
AcDbEntity
  8
0
100
AcDbSpline
 62
7
  6
CONTINUOUS
 70
0
 71
3
 72
24
 73
20
 74
0
 42
0.0000001
 43
0.0000001
 44
0.0000000001
 40
0.0
 40
0.0
 40
0.0
 40
0.0
 40
0.0671468184
 40
0.1319210199
 40
0.1945783807
 40
0.2554207492
 40
0.3147984712
 40
0.3731104683
 40
0.4308011729
 40
0.4883538572
 40
0.5462853159
 40
0.6051249072
 40
0.6653554671
 40
0.7273984833
 40
0.7592205482
 40
0.791624941
 40
0.8583079611
 40
0.927702144
 40
1.0
 40
1.0
 40
1.0
 40
1.0
 10
3.2592528448
 20
5.8720658919
 30
0.0
 10
3.2696760537
 20
5.8699413973
 30
0.0
 10
3.2903056678
 20
5.8664651055
 30
0.0
 10
3.3210307514
 20
5.8636330923
 30
0.0
 10
3.3508905341
 20
5.8632979233
 30
0.0
 10
3.3798186485
 20
5.8654771953
 30
0.0
 10
3.4077495229
 20
5.8701884519
 30
0.0
 10
3.4346151345
 20
5.8774491248
 30
0.0
 10
3.4603455639
 20
5.8872753587
 30
0.0
 10
3.4848708352
 20
5.8996818922
 30
0.0
 10
3.5081182887
 20
5.9146799969
 30
0.0
 10
3.5300698508
 20
5.9321998475
 30
0.0
 10
3.5507219079
 20
5.9521755321
 30
0.0
 10
3.5667148683
 20
5.9706614337
 30
0.0
 10
3.5788586016
 20
5.986562775
 30
0.0
 10
3.5907909386
 20
6.0035309803
 30
0.0
 10
3.6048891356
 20
6.0262252643
 30
0.0
 10
3.6203506461
 20
6.0554164753
 30
0.0
 10
3.6296001166
 20
6.0758867504
 30
0.0
 10
3.6340224342
 20
6.0864521176
 30
0.0
  0
SPLINE
  5
3D0
100
AcDbEntity
  8
0
100
AcDbSpline
 62
7
  6
CONTINUOUS
 70
0
 71
3
 72
24
 73
20
 74
0
 42
0.0000001
 43
0.0000001
 44
0.0000000001
 40
0.0
 40
0.0
 40
0.0
 40
0.0
 40
0.072297856
 40
0.1416920389
 40
0.208375059
 40
0.2407794518
 40
0.2726015167
 40
0.3346445329
 40
0.3948750928
 40
0.4537146841
 40
0.5116461428
 40
0.5691988271
 40
0.6268895317
 40
0.6852015288
 40
0.7445792508
 40
0.8054216193
 40
0.8680789801
 40
0.9328531816
 40
1.0
 40
1.0
 40
1.0
 40
1.0
 10
3.6133589168
 20
6.2187594571
 30
0.0
 10
3.6020015561
 20
6.2172781617
 30
0.0
 10
3.5796546852
 20
6.2149973218
 30
0.0
 10
3.5466467227
 20
6.2137090989
 30
0.0
 10
3.5199417219
 20
6.2145044687
 30
0.0
 10
3.4992760887
 20
6.216302318
 30
0.0
 10
3.4794268915
 20
6.218818721
 30
0.0
 10
3.4554096862
 20
6.2233659392
 30
0.0
 10
3.4277645137
 20
6.2311940854
 30
0.0
 10
3.4015905043
 20
6.241379245
 30
0.0
 10
3.3769464715
 20
6.2539513921
 30
0.0
 10
3.3539018739
 20
6.268929961
 30
0.0
 10
3.3324834516
 20
6.2862464578
 30
0.0
 10
3.3127135988
 20
6.3058329679
 30
0.0
 10
3.2946134651
 20
6.3276209197
 30
0.0
 10
3.2782021352
 20
6.3515427356
 30
0.0
 10
3.2634973656
 20
6.3775329013
 30
0.0
 10
3.2505172669
 20
6.4055251878
 30
0.0
 10
3.2431639384
 20
6.4251107473
 30
0.0
 10
3.2397669411
 20
6.4351912815
 30
0.0
  0
SPLINE
  5
3D1
100
AcDbEntity
  8
0
100
AcDbSpline
 62
7
  6
CONTINUOUS
 70
0
 71
3
 72
24
 73
20
 74
0
 42
0.0000001
 43
0.0000001
 44
0.0000000001
 40
0.0
 40
0.0
 40
0.0
 40
0.0
 40
0.0671468183
 40
0.1319210198
 40
0.1945783806
 40
0.2554207491
 40
0.314798471
 40
0.3731104681
 40
0.4308011728
 40
0.488353857
 40
0.5462853158
 40
0.6051249071
 40
0.665355467
 40
0.7273984832
 40
0.7592205481
 40
0.791624941
 40
0.8583079611
 40
0.927702144
 40
1.0
 40
1.0
 40
1.0
 40
1.0
 10
3.2592528456
 20
6.4690396809
 30
0.0
 10
3.2696760544
 20
6.4711641756
 30
0.0
 10
3.2903056685
 20
6.4746404673
 30
0.0
 10
3.321030752
 20
6.4774724805
 30
0.0
 10
3.3508905347
 20
6.4778076494
 30
0.0
 10
3.379818649
 20
6.4756283774
 30
0.0
 10
3.4077495233
 20
6.4709171207
 30
0.0
 10
3.4346151349
 20
6.4636564478
 30
0.0
 10
3.4603455643
 20
6.4538302139
 30
0.0
 10
3.4848708355
 20
6.4414236803
 30
0.0
 10
3.5081182889
 20
6.4264255756
 30
0.0
 10
3.530069851
 20
6.408905725
 30
0.0
 10
3.550721908
 20
6.3889300404
 30
0.0
 10
3.5667148685
 20
6.3704441389
 30
0.0
 10
3.5788586017
 20
6.3545427976
 30
0.0
 10
3.5907909387
 20
6.3375745922
 30
0.0
 10
3.6048891357
 20
6.3148803083
 30
0.0
 10
3.6203506461
 20
6.2856890974
 30
0.0
 10
3.6296001166
 20
6.2652188222
 30
0.0
 10
3.6340224342
 20
6.2546534551
 30
0.0
  0
SPLINE
  5
3D2
100
AcDbEntity
  8
0
100
AcDbSpline
 62
7
  6
CONTINUOUS
 70
0
 71
3
 72
24
 73
20
 74
0
 42
0.0000001
 43
0.0000001
 44
0.0000000001
 40
0.0
 40
0.0
 40
0.0
 40
0.0
 40
0.072297856
 40
0.1416920389
 40
0.208375059
 40
0.2407794518
 40
0.2726015167
 40
0.3346445329
 40
0.3948750928
 40
0.4537146841
 40
0.5116461428
 40
0.5691988271
 40
0.6268895317
 40
0.6852015288
 40
0.7445792508
 40
0.8054216193
 40
0.8680789801
 40
0.9328531816
 40
1.0
 40
1.0
 40
1.0
 40
1.0
 10
3.1128385305
 20
5.9533950081
 30
0.0
 10
3.1058770107
 20
5.9624901233
 30
0.0
 10
3.09272831
 20
5.9807026613
 30
0.0
 10
3.0751086949
 20
6.0086442838
 30
0.0
 10
3.0624450051
 20
6.0321691779
 30
0.0
 10
3.0536691716
 20
6.0509650659
 30
0.0
 10
3.0459238418
 20
6.0694131764
 30
0.0
 10
3.0378532458
 20
6.0924862954
 30
0.0
 10
3.0308100329
 20
6.1203417902
 30
0.0
 10
3.0265436352
 20
6.148101727
 30
0.0
 10
3.0251094176
 20
6.175730159
 30
0.0
 10
3.02655894
 20
6.2031766505
 30
0.0
 10
3.0308462549
 20
6.2303837967
 30
0.0
 10
3.0379237438
 20
6.2572982464
 30
0.0
 10
3.0477425968
 20
6.2838673979
 30
0.0
 10
3.0602538321
 20
6.3100409345
 30
0.0
 10
3.0754095911
 20
6.3357707214
 30
0.0
 10
3.0931615729
 20
6.3610079599
 30
0.0
 10
3.1064465007
 20
6.3771689089
 30
0.0
 10
3.1134780008
 20
6.3851510619
 30
0.0
  0
SPLINE
  5
3D3
100
AcDbEntity
  8
0
100
AcDbSpline
 62
7
  6
CONTINUOUS
 70
0
 71
3
 72
24
 73
20
 74
0
 42
0.0000001
 43
0.0000001
 44
0.0000000001
 40
0.0
 40
0.0
 40
0.0
 40
0.0
 40
0.0671468183
 40
0.1319210198
 40
0.1945783806
 40
0.2554207491
 40
0.314798471
 40
0.3731104681
 40
0.4308011728
 40
0.488353857
 40
0.5462853158
 40
0.6051249071
 40
0.665355467
 40
0.7273984832
 40
0.7592205481
 40
0.791624941
 40
0.8583079611
 40
0.927702144
 40
1.0
 40
1.0
 40
1.0
 40
1.0
 10
3.1525345268
 20
6.3851999733
 30
0.0
 10
3.1595859975
 20
6.377235457
 30
0.0
 10
3.1729113616
 20
6.3611078331
 30
0.0
 10
3.1907264987
 20
6.3359151368
 30
0.0
 10
3.2059466548
 20
6.3102233909
 30
0.0
 10
3.218523407
 20
6.284081273
 30
0.0
 10
3.2284087762
 20
6.2575367979
 30
0.0
 10
3.2355536548
 20
6.2306401594
 30
0.0
 10
3.2399091013
 20
6.2034438369
 30
0.0
 10
3.2414273637
 20
6.1760010622
 30
0.0
 10
3.2400623507
 20
6.1483691247
 30
0.0
 10
3.235865496
 20
6.120598589
 30
0.0
 10
3.2288920742
 20
6.0927255406
 30
0.0
 10
3.2208792941
 20
6.0696322798
 30
0.0
 10
3.2131801952
 20
6.0511648277
 30
0.0
 10
3.2044514669
 20
6.032347018
 30
0.0
 10
3.1918467389
 20
6.0087904794
 30
0.0
 10
3.1742971639
 20
5.9808048131
 30
0.0
 10
3.1611941209
 20
5.9625593991
 30
0.0
 10
3.1542554033
 20
5.9534468761
 30
0.0
  0
SPLINE
  5
3D4
100
AcDbEntity
  8
0
100
AcDbSpline
 62
7
  6
CONTINUOUS
 70
0
 71
3
 72
24
 73
20
 74
0
 42
0.0000001
 43
0.0000001
 44
0.0000000001
 40
0.0
 40
0.0
 40
0.0
 40
0.0
 40
0.0671468183
 40
0.1319210199
 40
0.1945783806
 40
0.2554207491
 40
0.314798471
 40
0.3731104681
 40
0.4308011728
 40
0.488353857
 40
0.5462853158
 40
0.6051249071
 40
0.665355467
 40
0.7273984832
 40
0.7592205481
 40
0.791624941
 40
0.8583079611
 40
0.927702144
 40
1.0
 40
1.0
 40
1.0
 40
1.0
 10
3.2592528456
 20
4.2190396809
 30
0.0
 10
3.2696760544
 20
4.2211641756
 30
0.0
 10
3.2903056685
 20
4.2246404673
 30
0.0
 10
3.321030752
 20
4.2274724805
 30
0.0
 10
3.3508905347
 20
4.2278076494
 30
0.0
 10
3.379818649
 20
4.2256283774
 30
0.0
 10
3.4077495233
 20
4.2209171207
 30
0.0
 10
3.4346151349
 20
4.2136564478
 30
0.0
 10
3.4603455643
 20
4.2038302139
 30
0.0
 10
3.4848708355
 20
4.1914236803
 30
0.0
 10
3.5081182889
 20
4.1764255757
 30
0.0
 10
3.5300698509
 20
4.158905725
 30
0.0
 10
3.550721908
 20
4.1389300404
 30
0.0
 10
3.5667148685
 20
4.1204441389
 30
0.0
 10
3.5788586017
 20
4.1045427976
 30
0.0
 10
3.5907909387
 20
4.0875745922
 30
0.0
 10
3.6048891356
 20
4.0648803083
 30
0.0
 10
3.6203506461
 20
4.0356890974
 30
0.0
 10
3.6296001166
 20
4.0152188222
 30
0.0
 10
3.6340224342
 20
4.0046534551
 30
0.0
  0
SPLINE
  5
3D5
100
AcDbEntity
  8
0
100
AcDbSpline
 62
7
  6
CONTINUOUS
 70
0
 71
3
 72
24
 73
20
 74
0
 42
0.0000001
 43
0.0000001
 44
0.0000000001
 40
0.0
 40
0.0
 40
0.0
 40
0.0
 40
0.072297856
 40
0.1416920389
 40
0.208375059
 40
0.2407794518
 40
0.2726015167
 40
0.3346445329
 40
0.3948750928
 40
0.4537146841
 40
0.5116461428
 40
0.5691988271
 40
0.6268895317
 40
0.6852015288
 40
0.7445792508
 40
0.8054216193
 40
0.8680789801
 40
0.9328531816
 40
1.0
 40
1.0
 40
1.0
 40
1.0
 10
3.6133589168
 20
3.9687594571
 30
0.0
 10
3.6020015561
 20
3.9672781617
 30
0.0
 10
3.5796546852
 20
3.9649973218
 30
0.0
 10
3.5466467227
 20
3.9637090989
 30
0.0
 10
3.5199417219
 20
3.9645044687
 30
0.0
 10
3.4992760887
 20
3.966302318
 30
0.0
 10
3.4794268915
 20
3.968818721
 30
0.0
 10
3.4554096862
 20
3.9733659392
 30
0.0
 10
3.4277645137
 20
3.9811940854
 30
0.0
 10
3.4015905043
 20
3.991379245
 30
0.0
 10
3.3769464715
 20
4.0039513921
 30
0.0
 10
3.3539018739
 20
4.018929961
 30
0.0
 10
3.3324834516
 20
4.0362464578
 30
0.0
 10
3.3127135988
 20
4.0558329679
 30
0.0
 10
3.2946134651
 20
4.0776209197
 30
0.0
 10
3.2782021352
 20
4.1015427356
 30
0.0
 10
3.2634973656
 20
4.1275329013
 30
0.0
 10
3.2505172669
 20
4.1555251878
 30
0.0
 10
3.2431639384
 20
4.1751107473
 30
0.0
 10
3.2397669411
 20
4.1851912815
 30
0.0
  0
SPLINE
  5
3D6
100
AcDbEntity
  8
0
100
AcDbSpline
 62
7
  6
CONTINUOUS
 70
0
 71
3
 72
24
 73
20
 74
0
 42
0.0000001
 43
0.0000001
 44
0.0000000001
 40
0.0
 40
0.0
 40
0.0
 40
0.0
 40
0.0671468183
 40
0.1319210199
 40
0.1945783806
 40
0.2554207491
 40
0.314798471
 40
0.3731104681
 40
0.4308011728
 40
0.488353857
 40
0.5462853158
 40
0.6051249071
 40
0.665355467
 40
0.7273984832
 40
0.7592205481
 40
0.791624941
 40
0.8583079611
 40
0.927702144
 40
1.0
 40
1.0
 40
1.0
 40
1.0
 10
3.2397669414
 20
3.655914292
 30
0.0
 10
3.2431639386
 20
3.6659948261
 30
0.0
 10
3.2505172672
 20
3.6855803856
 30
0.0
 10
3.2634973659
 20
3.713572672
 30
0.0
 10
3.2782021355
 20
3.7395628376
 30
0.0
 10
3.2946134654
 20
3.7634846535
 30
0.0
 10
3.3127135991
 20
3.7852726052
 30
0.0
 10
3.3324834519
 20
3.8048591152
 30
0.0
 10
3.3539018742
 20
3.8221756119
 30
0.0
 10
3.3769464718
 20
3.8371541808
 30
0.0
 10
3.4015905046
 20
3.8497263278
 30
0.0
 10
3.4277645139
 20
3.8599114874
 30
0.0
 10
3.4554096865
 20
3.8677396336
 30
0.0
 10
3.4794268917
 20
3.8722868518
 30
0.0
 10
3.4992760889
 20
3.8748032547
 30
0.0
 10
3.5199417221
 20
3.876601104
 30
0.0
 10
3.5466467229
 20
3.8773964739
 30
0.0
 10
3.5796546853
 20
3.8761082509
 30
0.0
 10
3.6020015562
 20
3.873827411
 30
0.0
 10
3.6133589168
 20
3.8723461157
 30
0.0
  0
SPLINE
  5
3D7
100
AcDbEntity
  8
0
100
AcDbSpline
 62
7
  6
CONTINUOUS
 70
0
 71
3
 72
24
 73
20
 74
0
 42
0.0000001
 43
0.0000001
 44
0.0000000001
 40
0.0
 40
0.0
 40
0.0
 40
0.0
 40
0.072297856
 40
0.1416920389
 40
0.208375059
 40
0.2407794518
 40
0.2726015167
 40
0.3346445329
 40
0.3948750928
 40
0.4537146841
 40
0.5116461428
 40
0.5691988271
 40
0.6268895317
 40
0.6852015288
 40
0.7445792508
 40
0.8054216193
 40
0.8680789801
 40
0.9328531816
 40
1.0
 40
1.0
 40
1.0
 40
1.0
 10
3.6340224342
 20
3.8364521176
 30
0.0
 10
3.6296001166
 20
3.8258867504
 30
0.0
 10
3.6203506461
 20
3.8054164753
 30
0.0
 10
3.6048891356
 20
3.7762252643
 30
0.0
 10
3.5907909386
 20
3.7535309803
 30
0.0
 10
3.5788586016
 20
3.736562775
 30
0.0
 10
3.5667148683
 20
3.7206614337
 30
0.0
 10
3.5507219079
 20
3.7021755321
 30
0.0
 10
3.5300698508
 20
3.6821998475
 30
0.0
 10
3.5081182887
 20
3.6646799969
 30
0.0
 10
3.4848708352
 20
3.6496818922
 30
0.0
 10
3.4603455639
 20
3.6372753587
 30
0.0
 10
3.4346151345
 20
3.6274491248
 30
0.0
 10
3.4077495229
 20
3.6201884519
 30
0.0
 10
3.3798186485
 20
3.6154771953
 30
0.0
 10
3.3508905341
 20
3.6132979233
 30
0.0
 10
3.3210307514
 20
3.6136330923
 30
0.0
 10
3.2903056677
 20
3.6164651055
 30
0.0
 10
3.2696760537
 20
3.6199413973
 30
0.0
 10
3.2592528448
 20
3.6220658919
 30
0.0
  0
SPLINE
  5
3D8
100
AcDbEntity
  8
0
100
AcDbSpline
 62
7
  6
CONTINUOUS
 70
0
 71
3
 72
24
 73
20
 74
0
 42
0.0000001
 43
0.0000001
 44
0.0000000001
 40
0.0
 40
0.0
 40
0.0
 40
0.0
 40
0.0671468183
 40
0.1319210199
 40
0.1945783806
 40
0.2554207491
 40
0.314798471
 40
0.3731104681
 40
0.4308011728
 40
0.488353857
 40
0.5462853158
 40
0.6051249071
 40
0.665355467
 40
0.7273984832
 40
0.7592205481
 40
0.791624941
 40
0.8583079611
 40
0.927702144
 40
1.0
 40
1.0
 40
1.0
 40
1.0
 10
3.2592528456
 20
3.4690396809
 30
0.0
 10
3.2696760544
 20
3.4711641756
 30
0.0
 10
3.2903056685
 20
3.4746404673
 30
0.0
 10
3.321030752
 20
3.4774724805
 30
0.0
 10
3.3508905347
 20
3.4778076494
 30
0.0
 10
3.379818649
 20
3.4756283774
 30
0.0
 10
3.4077495233
 20
3.4709171207
 30
0.0
 10
3.4346151349
 20
3.4636564478
 30
0.0
 10
3.4603455643
 20
3.4538302139
 30
0.0
 10
3.4848708355
 20
3.4414236803
 30
0.0
 10
3.5081182889
 20
3.4264255757
 30
0.0
 10
3.5300698509
 20
3.408905725
 30
0.0
 10
3.550721908
 20
3.3889300404
 30
0.0
 10
3.5667148685
 20
3.3704441389
 30
0.0
 10
3.5788586017
 20
3.3545427976
 30
0.0
 10
3.5907909387
 20
3.3375745922
 30
0.0
 10
3.6048891356
 20
3.3148803083
 30
0.0
 10
3.6203506461
 20
3.2856890974
 30
0.0
 10
3.6296001166
 20
3.2652188222
 30
0.0
 10
3.6340224342
 20
3.2546534551
 30
0.0
  0
SPLINE
  5
3D9
100
AcDbEntity
  8
0
100
AcDbSpline
 62
7
  6
CONTINUOUS
 70
0
 71
3
 72
24
 73
20
 74
0
 42
0.0000001
 43
0.0000001
 44
0.0000000001
 40
0.0
 40
0.0
 40
0.0
 40
0.0
 40
0.072297856
 40
0.1416920389
 40
0.208375059
 40
0.2407794518
 40
0.2726015167
 40
0.3346445329
 40
0.3948750928
 40
0.4537146841
 40
0.5116461428
 40
0.5691988271
 40
0.6268895317
 40
0.6852015288
 40
0.7445792508
 40
0.8054216193
 40
0.8680789801
 40
0.9328531816
 40
1.0
 40
1.0
 40
1.0
 40
1.0
 10
3.6133589168
 20
3.2187594571
 30
0.0
 10
3.6020015561
 20
3.2172781617
 30
0.0
 10
3.5796546852
 20
3.2149973218
 30
0.0
 10
3.5466467227
 20
3.2137090989
 30
0.0
 10
3.5199417219
 20
3.2145044687
 30
0.0
 10
3.4992760887
 20
3.216302318
 30
0.0
 10
3.4794268915
 20
3.218818721
 30
0.0
 10
3.4554096862
 20
3.2233659392
 30
0.0
 10
3.4277645137
 20
3.2311940854
 30
0.0
 10
3.4015905043
 20
3.241379245
 30
0.0
 10
3.3769464715
 20
3.2539513921
 30
0.0
 10
3.3539018739
 20
3.268929961
 30
0.0
 10
3.3324834516
 20
3.2862464578
 30
0.0
 10
3.3127135988
 20
3.3058329679
 30
0.0
 10
3.2946134651
 20
3.3276209197
 30
0.0
 10
3.2782021352
 20
3.3515427356
 30
0.0
 10
3.2634973656
 20
3.3775329013
 30
0.0
 10
3.2505172669
 20
3.4055251878
 30
0.0
 10
3.2431639384
 20
3.4251107473
 30
0.0
 10
3.2397669411
 20
3.4351912815
 30
0.0
  0
SPLINE
  5
3DA
100
AcDbEntity
  8
0
100
AcDbSpline
 62
7
  6
CONTINUOUS
 70
0
 71
3
 72
24
 73
20
 74
0
 42
0.0000001
 43
0.0000001
 44
0.0000000001
 40
0.0
 40
0.0
 40
0.0
 40
0.0
 40
0.0671468183
 40
0.1319210199
 40
0.1945783806
 40
0.2554207491
 40
0.314798471
 40
0.3731104681
 40
0.4308011728
 40
0.488353857
 40
0.5462853158
 40
0.6051249071
 40
0.665355467
 40
0.7273984832
 40
0.7592205481
 40
0.791624941
 40
0.8583079611
 40
0.927702144
 40
1.0
 40
1.0
 40
1.0
 40
1.0
 10
3.2397669414
 20
2.905914292
 30
0.0
 10
3.2431639386
 20
2.9159948261
 30
0.0
 10
3.2505172672
 20
2.9355803856
 30
0.0
 10
3.2634973659
 20
2.963572672
 30
0.0
 10
3.2782021355
 20
2.9895628376
 30
0.0
 10
3.2946134654
 20
3.0134846535
 30
0.0
 10
3.3127135991
 20
3.0352726052
 30
0.0
 10
3.3324834519
 20
3.0548591152
 30
0.0
 10
3.3539018742
 20
3.0721756119
 30
0.0
 10
3.3769464718
 20
3.0871541808
 30
0.0
 10
3.4015905046
 20
3.0997263278
 30
0.0
 10
3.4277645139
 20
3.1099114874
 30
0.0
 10
3.4554096865
 20
3.1177396336
 30
0.0
 10
3.4794268917
 20
3.1222868518
 30
0.0
 10
3.4992760889
 20
3.1248032547
 30
0.0
 10
3.5199417221
 20
3.126601104
 30
0.0
 10
3.5466467229
 20
3.1273964739
 30
0.0
 10
3.5796546853
 20
3.1261082509
 30
0.0
 10
3.6020015562
 20
3.123827411
 30
0.0
 10
3.6133589168
 20
3.1223461157
 30
0.0
  0
SPLINE
  5
3DB
100
AcDbEntity
  8
0
100
AcDbSpline
 62
7
  6
CONTINUOUS
 70
0
 71
3
 72
24
 73
20
 74
0
 42
0.0000001
 43
0.0000001
 44
0.0000000001
 40
0.0
 40
0.0
 40
0.0
 40
0.0
 40
0.072297856
 40
0.1416920389
 40
0.208375059
 40
0.2407794518
 40
0.2726015167
 40
0.3346445329
 40
0.3948750928
 40
0.4537146841
 40
0.5116461428
 40
0.5691988271
 40
0.6268895317
 40
0.6852015288
 40
0.7445792508
 40
0.8054216193
 40
0.8680789801
 40
0.9328531816
 40
1.0
 40
1.0
 40
1.0
 40
1.0
 10
3.6340224342
 20
3.0864521176
 30
0.0
 10
3.6296001166
 20
3.0758867504
 30
0.0
 10
3.6203506461
 20
3.0554164753
 30
0.0
 10
3.6048891356
 20
3.0262252643
 30
0.0
 10
3.5907909386
 20
3.0035309803
 30
0.0
 10
3.5788586016
 20
2.986562775
 30
0.0
 10
3.5667148683
 20
2.9706614337
 30
0.0
 10
3.5507219079
 20
2.9521755321
 30
0.0
 10
3.5300698508
 20
2.9321998475
 30
0.0
 10
3.5081182887
 20
2.9146799969
 30
0.0
 10
3.4848708352
 20
2.8996818922
 30
0.0
 10
3.4603455639
 20
2.8872753587
 30
0.0
 10
3.4346151345
 20
2.8774491248
 30
0.0
 10
3.4077495229
 20
2.8701884519
 30
0.0
 10
3.3798186485
 20
2.8654771953
 30
0.0
 10
3.3508905341
 20
2.8632979233
 30
0.0
 10
3.3210307514
 20
2.8636330923
 30
0.0
 10
3.2903056677
 20
2.8664651055
 30
0.0
 10
3.2696760537
 20
2.8699413973
 30
0.0
 10
3.2592528448
 20
2.8720658919
 30
0.0
  0
SPLINE
  5
3DC
100
AcDbEntity
  8
0
100
AcDbSpline
 62
7
  6
CONTINUOUS
 70
0
 71
3
 72
24
 73
20
 74
0
 42
0.0000001
 43
0.0000001
 44
0.0000000001
 40
0.0
 40
0.0
 40
0.0
 40
0.0
 40
0.072297856
 40
0.1416920389
 40
0.208375059
 40
0.2407794518
 40
0.2726015167
 40
0.3346445329
 40
0.3948750928
 40
0.4537146841
 40
0.5116461428
 40
0.5691988271
 40
0.6268895317
 40
0.6852015288
 40
0.7445792508
 40
0.8054216193
 40
0.8680789801
 40
0.9328531816
 40
1.0
 40
1.0
 40
1.0
 40
1.0
 10
3.1128385305
 20
2.9533950081
 30
0.0
 10
3.1058770107
 20
2.9624901233
 30
0.0
 10
3.09272831
 20
2.9807026613
 30
0.0
 10
3.0751086949
 20
3.0086442838
 30
0.0
 10
3.0624450051
 20
3.0321691779
 30
0.0
 10
3.0536691716
 20
3.0509650659
 30
0.0
 10
3.0459238418
 20
3.0694131764
 30
0.0
 10
3.0378532458
 20
3.0924862954
 30
0.0
 10
3.0308100329
 20
3.1203417902
 30
0.0
 10
3.0265436352
 20
3.148101727
 30
0.0
 10
3.0251094176
 20
3.175730159
 30
0.0
 10
3.02655894
 20
3.2031766505
 30
0.0
 10
3.0308462549
 20
3.2303837967
 30
0.0
 10
3.0379237438
 20
3.2572982464
 30
0.0
 10
3.0477425968
 20
3.2838673979
 30
0.0
 10
3.0602538321
 20
3.3100409345
 30
0.0
 10
3.0754095911
 20
3.3357707214
 30
0.0
 10
3.0931615729
 20
3.3610079599
 30
0.0
 10
3.1064465007
 20
3.3771689089
 30
0.0
 10
3.1134780008
 20
3.3851510619
 30
0.0
  0
SPLINE
  5
3DD
100
AcDbEntity
  8
0
100
AcDbSpline
 62
7
  6
CONTINUOUS
 70
0
 71
3
 72
24
 73
20
 74
0
 42
0.0000001
 43
0.0000001
 44
0.0000000001
 40
0.0
 40
0.0
 40
0.0
 40
0.0
 40
0.0671468183
 40
0.1319210199
 40
0.1945783806
 40
0.2554207491
 40
0.314798471
 40
0.3731104681
 40
0.4308011728
 40
0.488353857
 40
0.5462853158
 40
0.6051249071
 40
0.665355467
 40
0.7273984832
 40
0.7592205481
 40
0.791624941
 40
0.8583079611
 40
0.927702144
 40
1.0
 40
1.0
 40
1.0
 40
1.0
 10
3.1525345268
 20
3.3851999734
 30
0.0
 10
3.1595859975
 20
3.377235457
 30
0.0
 10
3.1729113616
 20
3.3611078331
 30
0.0
 10
3.1907264987
 20
3.3359151368
 30
0.0
 10
3.2059466548
 20
3.3102233909
 30
0.0
 10
3.218523407
 20
3.284081273
 30
0.0
 10
3.2284087762
 20
3.2575367979
 30
0.0
 10
3.2355536548
 20
3.2306401594
 30
0.0
 10
3.2399091013
 20
3.2034438369
 30
0.0
 10
3.2414273637
 20
3.1760010622
 30
0.0
 10
3.2400623507
 20
3.1483691247
 30
0.0
 10
3.235865496
 20
3.120598589
 30
0.0
 10
3.2288920742
 20
3.0927255406
 30
0.0
 10
3.2208792941
 20
3.0696322798
 30
0.0
 10
3.2131801952
 20
3.0511648277
 30
0.0
 10
3.2044514669
 20
3.032347018
 30
0.0
 10
3.1918467389
 20
3.0087904794
 30
0.0
 10
3.1742971639
 20
2.9808048131
 30
0.0
 10
3.1611941209
 20
2.9625593991
 30
0.0
 10
3.1542554033
 20
2.9534468761
 30
0.0
  0
SPLINE
  5
3DE
100
AcDbEntity
  8
0
100
AcDbSpline
 62
7
  6
CONTINUOUS
 70
0
 71
3
 72
24
 73
20
 74
0
 42
0.0000001
 43
0.0000001
 44
0.0000000001
 40
0.0
 40
0.0
 40
0.0
 40
0.0
 40
0.072297856
 40
0.1416920389
 40
0.208375059
 40
0.2407794518
 40
0.2726015167
 40
0.3346445329
 40
0.3948750928
 40
0.4537146841
 40
0.5116461428
 40
0.5691988271
 40
0.6268895317
 40
0.6852015288
 40
0.7445792508
 40
0.8054216193
 40
0.8680789801
 40
0.9328531816
 40
1.0
 40
1.0
 40
1.0
 40
1.0
 10
6.1030706375
 20
5.3730306072
 30
0.0
 10
6.1144316727
 20
5.3744834513
 30
0.0
 10
6.1367841863
 20
5.3767083125
 30
0.0
 10
6.1697952718
 20
5.3779138571
 30
0.0
 10
6.1964981967
 20
5.3770516024
 30
0.0
 10
6.2171592621
 20
5.3752019981
 30
0.0
 10
6.2370020943
 20
5.3726358872
 30
0.0
 10
6.2610078348
 20
5.3680285279
 30
0.0
 10
6.2886333137
 20
5.3601311641
 30
0.0
 10
6.3147817305
 20
5.3498804791
 30
0.0
 10
6.3393941968
 20
5.3372466461
 30
0.0
 10
6.3624012057
 20
5.3222104049
 30
0.0
 10
6.3837761887
 20
5.3048403163
 30
0.0
 10
6.4034969216
 20
5.2852043506
 30
0.0
 10
6.4215424267
 20
5.2633711322
 30
0.0
 10
6.4378937888
 20
5.2394082862
 30
0.0
 10
6.4525334153
 20
5.2133813713
 30
0.0
 10
6.4654433618
 20
5.1853566618
 30
0.0
 10
6.4727476118
 20
5.165752746
 30
0.0
 10
6.4761193499
 20
5.155663735
 30
0.0
  0
SPLINE
  5
3DF
100
AcDbEntity
  8
0
100
AcDbSpline
 62
7
  6
CONTINUOUS
 70
0
 71
3
 72
24
 73
20
 74
0
 42
0.0000001
 43
0.0000001
 44
0.0000000001
 40
0.0
 40
0.0
 40
0.0
 40
0.0
 40
0.0671468183
 40
0.1319210199
 40
0.1945783806
 40
0.2554207491
 40
0.314798471
 40
0.3731104681
 40
0.4308011728
 40
0.488353857
 40
0.5462853158
 40
0.6051249071
 40
0.665355467
 40
0.7273984832
 40
0.7592205481
 40
0.791624941
 40
0.8583079611
 40
0.927702144
 40
1.0
 40
1.0
 40
1.0
 40
1.0
 10
6.4565487273
 20
5.1218642476
 30
0.0
 10
6.44612023
 20
5.1197658664
 30
0.0
 10
6.4254819737
 20
5.116341256
 30
0.0
 10
6.3947498932
 20
5.1135862081
 30
0.0
 10
6.3648893647
 20
5.1133258293
 30
0.0
 10
6.3359667995
 20
5.11557755
 30
0.0
 10
6.308047813
 20
5.1203587497
 30
0.0
 10
6.2812004713
 20
5.1276866894
 30
0.0
 10
6.2554947341
 20
5.1375773389
 30
0.0
 10
6.2310006142
 20
5.1500452614
 30
0.0
 10
6.2077907991
 20
5.1651015464
 30
0.0
 10
6.1858831874
 20
5.1826763236
 30
0.0
 10
6.1652812278
 20
5.2027036722
 30
0.0
 10
6.1493346186
 20
5.2212295729
 30
0.0
 10
6.1372307512
 20
5.2371612805
 30
0.0
 10
6.1253409514
 20
5.2541593192
 30
0.0
 10
6.1112996405
 20
5.2768888433
 30
0.0
 10
6.0959112931
 20
5.3061186888
 30
0.0
 10
6.086713123
 20
5.3266120666
 30
0.0
 10
6.0823172821
 20
5.3371884771
 30
0.0
  0
SPLINE
  5
3E0
100
AcDbEntity
  8
0
100
AcDbSpline
 62
7
  6
CONTINUOUS
 70
0
 71
3
 72
24
 73
20
 74
0
 42
0.0000001
 43
0.0000001
 44
0.0000000001
 40
0.0
 40
0.0
 40
0.0
 40
0.0
 40
0.0671468183
 40
0.1319210199
 40
0.1945783806
 40
0.2554207491
 40
0.314798471
 40
0.3731104681
 40
0.4308011728
 40
0.488353857
 40
0.5462853158
 40
0.6051249071
 40
0.665355467
 40
0.7273984832
 40
0.7592205481
 40
0.791624941
 40
0.8583079611
 40
0.927702144
 40
1.0
 40
1.0
 40
1.0
 40
1.0
 10
6.4761193496
 20
5.6854418369
 30
0.0
 10
6.4727476115
 20
5.675352826
 30
0.0
 10
6.4654433615
 20
5.6557489103
 30
0.0
 10
6.452533415
 20
5.6277242008
 30
0.0
 10
6.4378937885
 20
5.601697286
 30
0.0
 10
6.4215424264
 20
5.5777344401
 30
0.0
 10
6.4034969213
 20
5.5559012218
 30
0.0
 10
6.3837761883
 20
5.5362652561
 30
0.0
 10
6.3624012054
 20
5.5188951676
 30
0.0
 10
6.3393941965
 20
5.5038589264
 30
0.0
 10
6.3147817302
 20
5.4912250935
 30
0.0
 10
6.2886333135
 20
5.4809744085
 30
0.0
 10
6.2610078346
 20
5.4730770447
 30
0.0
 10
6.2370020941
 20
5.4684696855
 30
0.0
 10
6.2171592619
 20
5.4659035746
 30
0.0
 10
6.1964981965
 20
5.4640539703
 30
0.0
 10
6.1697952717
 20
5.4631917156
 30
0.0
 10
6.1367841862
 20
5.4643972602
 30
0.0
 10
6.1144316727
 20
5.4666221214
 30
0.0
 10
6.1030706375
 20
5.4680749655
 30
0.0
  0
SPLINE
  5
3E1
100
AcDbEntity
  8
0
100
AcDbSpline
 62
7
  6
CONTINUOUS
 70
0
 71
3
 72
24
 73
20
 74
0
 42
0.0000001
 43
0.0000001
 44
0.0000000001
 40
0.0
 40
0.0
 40
0.0
 40
0.0
 40
0.072297856
 40
0.1416920389
 40
0.208375059
 40
0.2407794518
 40
0.2726015167
 40
0.3346445329
 40
0.3948750928
 40
0.4537146841
 40
0.5116461428
 40
0.5691988271
 40
0.6268895317
 40
0.6852015288
 40
0.7445792508
 40
0.8054216193
 40
0.8680789801
 40
0.9328531816
 40
1.0
 40
1.0
 40
1.0
 40
1.0
 10
6.0823172821
 20
5.5039170956
 30
0.0
 10
6.086713123
 20
5.5144935061
 30
0.0
 10
6.0959112931
 20
5.534986884
 30
0.0
 10
6.1112996406
 20
5.5642167295
 30
0.0
 10
6.1253409515
 20
5.5869462536
 30
0.0
 10
6.1372307513
 20
5.6039442924
 30
0.0
 10
6.1493346188
 20
5.6198759999
 30
0.0
 10
6.1652812279
 20
5.6384019007
 30
0.0
 10
6.1858831876
 20
5.6584292493
 30
0.0
 10
6.2077907993
 20
5.6760040265
 30
0.0
 10
6.2310006145
 20
5.6910603114
 30
0.0
 10
6.2554947345
 20
5.7035282339
 30
0.0
 10
6.2812004717
 20
5.7134188834
 30
0.0
 10
6.3080478134
 20
5.7207468231
 30
0.0
 10
6.3359668
 20
5.7255280228
 30
0.0
 10
6.3648893653
 20
5.7277797434
 30
0.0
 10
6.3947498938
 20
5.7275193646
 30
0.0
 10
6.4254819744
 20
5.7247643166
 30
0.0
 10
6.4461202307
 20
5.7213397061
 30
0.0
 10
6.4565487281
 20
5.7192413249
 30
0.0
  0
SPLINE
  5
3E2
100
AcDbEntity
  8
0
100
AcDbSpline
 62
7
  6
CONTINUOUS
 70
0
 71
3
 72
24
 73
20
 74
0
 42
0.0000001
 43
0.0000001
 44
0.0000000001
 40
0.0
 40
0.0
 40
0.0
 40
0.0
 40
0.0671468183
 40
0.1319210199
 40
0.1945783806
 40
0.2554207491
 40
0.314798471
 40
0.3731104681
 40
0.4308011728
 40
0.488353857
 40
0.5462853158
 40
0.6051249071
 40
0.665355467
 40
0.7273984832
 40
0.7592205481
 40
0.791624941
 40
0.8583079611
 40
0.927702144
 40
1.0
 40
1.0
 40
1.0
 40
1.0
 10
5.5592528456
 20
4.9690396809
 30
0.0
 10
5.5696760544
 20
4.9711641756
 30
0.0
 10
5.5903056685
 20
4.9746404673
 30
0.0
 10
5.621030752
 20
4.9774724805
 30
0.0
 10
5.6508905347
 20
4.9778076494
 30
0.0
 10
5.679818649
 20
4.9756283774
 30
0.0
 10
5.7077495233
 20
4.9709171207
 30
0.0
 10
5.7346151349
 20
4.9636564478
 30
0.0
 10
5.7603455643
 20
4.9538302139
 30
0.0
 10
5.7848708355
 20
4.9414236803
 30
0.0
 10
5.8081182889
 20
4.9264255757
 30
0.0
 10
5.8300698509
 20
4.908905725
 30
0.0
 10
5.850721908
 20
4.8889300404
 30
0.0
 10
5.8667148685
 20
4.8704441389
 30
0.0
 10
5.8788586017
 20
4.8545427976
 30
0.0
 10
5.8907909387
 20
4.8375745922
 30
0.0
 10
5.9048891356
 20
4.8148803083
 30
0.0
 10
5.9203506461
 20
4.7856890974
 30
0.0
 10
5.9296001166
 20
4.7652188222
 30
0.0
 10
5.9340224342
 20
4.7546534551
 30
0.0
  0
SPLINE
  5
3E3
100
AcDbEntity
  8
0
100
AcDbSpline
 62
7
  6
CONTINUOUS
 70
0
 71
3
 72
24
 73
20
 74
0
 42
0.0000001
 43
0.0000001
 44
0.0000000001
 40
0.0
 40
0.0
 40
0.0
 40
0.0
 40
0.072297856
 40
0.1416920389
 40
0.208375059
 40
0.2407794518
 40
0.2726015167
 40
0.3346445329
 40
0.3948750928
 40
0.4537146841
 40
0.5116461428
 40
0.5691988271
 40
0.6268895317
 40
0.6852015288
 40
0.7445792508
 40
0.8054216193
 40
0.8680789801
 40
0.9328531816
 40
1.0
 40
1.0
 40
1.0
 40
1.0
 10
5.9133589168
 20
4.7187594571
 30
0.0
 10
5.9020015561
 20
4.7172781617
 30
0.0
 10
5.8796546852
 20
4.7149973218
 30
0.0
 10
5.8466467227
 20
4.7137090989
 30
0.0
 10
5.8199417219
 20
4.7145044687
 30
0.0
 10
5.7992760887
 20
4.716302318
 30
0.0
 10
5.7794268915
 20
4.718818721
 30
0.0
 10
5.7554096862
 20
4.7233659392
 30
0.0
 10
5.7277645137
 20
4.7311940854
 30
0.0
 10
5.7015905043
 20
4.741379245
 30
0.0
 10
5.6769464715
 20
4.7539513921
 30
0.0
 10
5.6539018739
 20
4.768929961
 30
0.0
 10
5.6324834516
 20
4.7862464578
 30
0.0
 10
5.6127135988
 20
4.8058329679
 30
0.0
 10
5.5946134651
 20
4.8276209197
 30
0.0
 10
5.5782021352
 20
4.8515427356
 30
0.0
 10
5.5634973656
 20
4.8775329013
 30
0.0
 10
5.5505172669
 20
4.9055251878
 30
0.0
 10
5.5431639384
 20
4.9251107473
 30
0.0
 10
5.5397669411
 20
4.9351912815
 30
0.0
  0
SPLINE
  5
3E4
100
AcDbEntity
  8
0
100
AcDbSpline
 62
7
  6
CONTINUOUS
 70
0
 71
3
 72
24
 73
20
 74
0
 42
0.0000001
 43
0.0000001
 44
0.0000000001
 40
0.0
 40
0.0
 40
0.0
 40
0.0
 40
0.0671468183
 40
0.1319210199
 40
0.1945783806
 40
0.2554207491
 40
0.314798471
 40
0.3731104681
 40
0.4308011728
 40
0.488353857
 40
0.5462853158
 40
0.6051249071
 40
0.665355467
 40
0.7273984832
 40
0.7592205481
 40
0.791624941
 40
0.8583079611
 40
0.927702144
 40
1.0
 40
1.0
 40
1.0
 40
1.0
 10
5.5397669414
 20
4.405914292
 30
0.0
 10
5.5431639386
 20
4.4159948261
 30
0.0
 10
5.5505172672
 20
4.4355803856
 30
0.0
 10
5.5634973659
 20
4.463572672
 30
0.0
 10
5.5782021355
 20
4.4895628376
 30
0.0
 10
5.5946134654
 20
4.5134846535
 30
0.0
 10
5.6127135991
 20
4.5352726052
 30
0.0
 10
5.6324834519
 20
4.5548591152
 30
0.0
 10
5.6539018742
 20
4.5721756119
 30
0.0
 10
5.6769464718
 20
4.5871541808
 30
0.0
 10
5.7015905046
 20
4.5997263278
 30
0.0
 10
5.7277645139
 20
4.6099114874
 30
0.0
 10
5.7554096865
 20
4.6177396336
 30
0.0
 10
5.7794268917
 20
4.6222868518
 30
0.0
 10
5.7992760889
 20
4.6248032547
 30
0.0
 10
5.8199417221
 20
4.626601104
 30
0.0
 10
5.8466467229
 20
4.6273964739
 30
0.0
 10
5.8796546853
 20
4.6261082509
 30
0.0
 10
5.9020015562
 20
4.623827411
 30
0.0
 10
5.9133589168
 20
4.6223461157
 30
0.0
  0
SPLINE
  5
3E5
100
AcDbEntity
  8
0
100
AcDbSpline
 62
7
  6
CONTINUOUS
 70
0
 71
3
 72
24
 73
20
 74
0
 42
0.0000001
 43
0.0000001
 44
0.0000000001
 40
0.0
 40
0.0
 40
0.0
 40
0.0
 40
0.072297856
 40
0.1416920389
 40
0.208375059
 40
0.2407794518
 40
0.2726015167
 40
0.3346445329
 40
0.3948750928
 40
0.4537146841
 40
0.5116461428
 40
0.5691988271
 40
0.6268895317
 40
0.6852015288
 40
0.7445792508
 40
0.8054216193
 40
0.8680789801
 40
0.9328531816
 40
1.0
 40
1.0
 40
1.0
 40
1.0
 10
5.9340224342
 20
4.5864521176
 30
0.0
 10
5.9296001166
 20
4.5758867504
 30
0.0
 10
5.9203506461
 20
4.5554164753
 30
0.0
 10
5.9048891356
 20
4.5262252643
 30
0.0
 10
5.8907909386
 20
4.5035309803
 30
0.0
 10
5.8788586016
 20
4.486562775
 30
0.0
 10
5.8667148683
 20
4.4706614337
 30
0.0
 10
5.8507219079
 20
4.4521755321
 30
0.0
 10
5.8300698508
 20
4.4321998475
 30
0.0
 10
5.8081182887
 20
4.4146799969
 30
0.0
 10
5.7848708352
 20
4.3996818922
 30
0.0
 10
5.7603455639
 20
4.3872753587
 30
0.0
 10
5.7346151345
 20
4.3774491248
 30
0.0
 10
5.7077495229
 20
4.3701884519
 30
0.0
 10
5.6798186485
 20
4.3654771953
 30
0.0
 10
5.6508905341
 20
4.3632979233
 30
0.0
 10
5.6210307514
 20
4.3636330923
 30
0.0
 10
5.5903056677
 20
4.3664651055
 30
0.0
 10
5.5696760537
 20
4.3699413973
 30
0.0
 10
5.5592528448
 20
4.3720658919
 30
0.0
  0
SPLINE
  5
3E6
100
AcDbEntity
  8
0
100
AcDbSpline
 62
7
  6
CONTINUOUS
 70
0
 71
3
 72
24
 73
20
 74
0
 42
0.0000001
 43
0.0000001
 44
0.0000000001
 40
0.0
 40
0.0
 40
0.0
 40
0.0
 40
0.072297856
 40
0.1416920389
 40
0.208375059
 40
0.2407794518
 40
0.2726015167
 40
0.3346445329
 40
0.3948750928
 40
0.4537146841
 40
0.5116461428
 40
0.5691988271
 40
0.6268895317
 40
0.6852015288
 40
0.7445792508
 40
0.8054216193
 40
0.8680789801
 40
0.9328531816
 40
1.0
 40
1.0
 40
1.0
 40
1.0
 10
6.1030706375
 20
4.6230306072
 30
0.0
 10
6.1144316727
 20
4.6244834513
 30
0.0
 10
6.1367841863
 20
4.6267083125
 30
0.0
 10
6.1697952718
 20
4.6279138571
 30
0.0
 10
6.1964981967
 20
4.6270516024
 30
0.0
 10
6.2171592621
 20
4.6252019981
 30
0.0
 10
6.2370020943
 20
4.6226358872
 30
0.0
 10
6.2610078348
 20
4.6180285279
 30
0.0
 10
6.2886333137
 20
4.6101311641
 30
0.0
 10
6.3147817305
 20
4.5998804791
 30
0.0
 10
6.3393941968
 20
4.5872466461
 30
0.0
 10
6.3624012057
 20
4.5722104049
 30
0.0
 10
6.3837761887
 20
4.5548403163
 30
0.0
 10
6.4034969216
 20
4.5352043506
 30
0.0
 10
6.4215424267
 20
4.5133711322
 30
0.0
 10
6.4378937888
 20
4.4894082862
 30
0.0
 10
6.4525334153
 20
4.4633813713
 30
0.0
 10
6.4654433618
 20
4.4353566618
 30
0.0
 10
6.4727476118
 20
4.415752746
 30
0.0
 10
6.4761193499
 20
4.405663735
 30
0.0
  0
SPLINE
  5
3E7
100
AcDbEntity
  8
0
100
AcDbSpline
 62
7
  6
CONTINUOUS
 70
0
 71
3
 72
24
 73
20
 74
0
 42
0.0000001
 43
0.0000001
 44
0.0000000001
 40
0.0
 40
0.0
 40
0.0
 40
0.0
 40
0.0671468183
 40
0.1319210199
 40
0.1945783806
 40
0.2554207491
 40
0.314798471
 40
0.3731104681
 40
0.4308011728
 40
0.488353857
 40
0.5462853158
 40
0.6051249071
 40
0.665355467
 40
0.7273984832
 40
0.7592205481
 40
0.791624941
 40
0.8583079611
 40
0.927702144
 40
1.0
 40
1.0
 40
1.0
 40
1.0
 10
6.4565487273
 20
4.3718642476
 30
0.0
 10
6.44612023
 20
4.3697658664
 30
0.0
 10
6.4254819737
 20
4.366341256
 30
0.0
 10
6.3947498932
 20
4.3635862081
 30
0.0
 10
6.3648893647
 20
4.3633258293
 30
0.0
 10
6.3359667995
 20
4.36557755
 30
0.0
 10
6.308047813
 20
4.3703587497
 30
0.0
 10
6.2812004713
 20
4.3776866894
 30
0.0
 10
6.2554947341
 20
4.3875773389
 30
0.0
 10
6.2310006142
 20
4.4000452614
 30
0.0
 10
6.2077907991
 20
4.4151015464
 30
0.0
 10
6.1858831874
 20
4.4326763236
 30
0.0
 10
6.1652812278
 20
4.4527036722
 30
0.0
 10
6.1493346186
 20
4.4712295729
 30
0.0
 10
6.1372307512
 20
4.4871612805
 30
0.0
 10
6.1253409514
 20
4.5041593192
 30
0.0
 10
6.1112996405
 20
4.5268888433
 30
0.0
 10
6.0959112931
 20
4.5561186888
 30
0.0
 10
6.086713123
 20
4.5766120666
 30
0.0
 10
6.0823172821
 20
4.5871884771
 30
0.0
  0
SPLINE
  5
3E8
100
AcDbEntity
  8
0
100
AcDbSpline
 62
7
  6
CONTINUOUS
 70
0
 71
3
 72
24
 73
20
 74
0
 42
0.0000001
 43
0.0000001
 44
0.0000000001
 40
0.0
 40
0.0
 40
0.0
 40
0.0
 40
0.0671468183
 40
0.1319210199
 40
0.1945783806
 40
0.2554207491
 40
0.314798471
 40
0.3731104681
 40
0.4308011728
 40
0.488353857
 40
0.5462853158
 40
0.6051249071
 40
0.665355467
 40
0.7273984832
 40
0.7592205481
 40
0.791624941
 40
0.8583079611
 40
0.927702144
 40
1.0
 40
1.0
 40
1.0
 40
1.0
 10
6.4761193496
 20
4.9354418369
 30
0.0
 10
6.4727476115
 20
4.925352826
 30
0.0
 10
6.4654433615
 20
4.9057489103
 30
0.0
 10
6.452533415
 20
4.8777242008
 30
0.0
 10
6.4378937885
 20
4.851697286
 30
0.0
 10
6.4215424264
 20
4.8277344401
 30
0.0
 10
6.4034969213
 20
4.8059012218
 30
0.0
 10
6.3837761883
 20
4.7862652561
 30
0.0
 10
6.3624012054
 20
4.7688951676
 30
0.0
 10
6.3393941965
 20
4.7538589264
 30
0.0
 10
6.3147817302
 20
4.7412250935
 30
0.0
 10
6.2886333135
 20
4.7309744085
 30
0.0
 10
6.2610078346
 20
4.7230770447
 30
0.0
 10
6.2370020941
 20
4.7184696855
 30
0.0
 10
6.2171592619
 20
4.7159035746
 30
0.0
 10
6.1964981965
 20
4.7140539703
 30
0.0
 10
6.1697952717
 20
4.7131917156
 30
0.0
 10
6.1367841862
 20
4.7143972602
 30
0.0
 10
6.1144316727
 20
4.7166221214
 30
0.0
 10
6.1030706375
 20
4.7180749655
 30
0.0
  0
SPLINE
  5
3E9
100
AcDbEntity
  8
0
100
AcDbSpline
 62
7
  6
CONTINUOUS
 70
0
 71
3
 72
24
 73
20
 74
0
 42
0.0000001
 43
0.0000001
 44
0.0000000001
 40
0.0
 40
0.0
 40
0.0
 40
0.0
 40
0.072297856
 40
0.1416920389
 40
0.208375059
 40
0.2407794518
 40
0.2726015167
 40
0.3346445329
 40
0.3948750928
 40
0.4537146841
 40
0.5116461428
 40
0.5691988271
 40
0.6268895317
 40
0.6852015288
 40
0.7445792508
 40
0.8054216193
 40
0.8680789801
 40
0.9328531816
 40
1.0
 40
1.0
 40
1.0
 40
1.0
 10
6.0823172821
 20
4.7539170956
 30
0.0
 10
6.086713123
 20
4.7644935061
 30
0.0
 10
6.0959112931
 20
4.784986884
 30
0.0
 10
6.1112996406
 20
4.8142167295
 30
0.0
 10
6.1253409515
 20
4.8369462536
 30
0.0
 10
6.1372307513
 20
4.8539442924
 30
0.0
 10
6.1493346188
 20
4.8698759999
 30
0.0
 10
6.1652812279
 20
4.8884019007
 30
0.0
 10
6.1858831876
 20
4.9084292493
 30
0.0
 10
6.2077907993
 20
4.9260040265
 30
0.0
 10
6.2310006145
 20
4.9410603114
 30
0.0
 10
6.2554947345
 20
4.9535282339
 30
0.0
 10
6.2812004717
 20
4.9634188834
 30
0.0
 10
6.3080478134
 20
4.9707468231
 30
0.0
 10
6.3359668
 20
4.9755280228
 30
0.0
 10
6.3648893653
 20
4.9777797434
 30
0.0
 10
6.3947498938
 20
4.9775193646
 30
0.0
 10
6.4254819744
 20
4.9747643166
 30
0.0
 10
6.4461202307
 20
4.9713397061
 30
0.0
 10
6.4565487281
 20
4.9692413249
 30
0.0
  0
SPLINE
  5
3EA
100
AcDbEntity
  8
0
100
AcDbSpline
 62
7
  6
CONTINUOUS
 70
0
 71
3
 72
24
 73
20
 74
0
 42
0.0000001
 43
0.0000001
 44
0.0000000001
 40
0.0
 40
0.0
 40
0.0
 40
0.0
 40
0.0671468183
 40
0.1319210199
 40
0.1945783806
 40
0.2554207491
 40
0.314798471
 40
0.3731104681
 40
0.4308011728
 40
0.488353857
 40
0.5462853158
 40
0.6051249071
 40
0.665355467
 40
0.7273984832
 40
0.7592205481
 40
0.791624941
 40
0.8583079611
 40
0.927702144
 40
1.0
 40
1.0
 40
1.0
 40
1.0
 10
6.4761193496
 20
4.1854418369
 30
0.0
 10
6.4727476115
 20
4.175352826
 30
0.0
 10
6.4654433615
 20
4.1557489103
 30
0.0
 10
6.452533415
 20
4.1277242008
 30
0.0
 10
6.4378937885
 20
4.101697286
 30
0.0
 10
6.4215424264
 20
4.0777344401
 30
0.0
 10
6.4034969213
 20
4.0559012218
 30
0.0
 10
6.3837761883
 20
4.0362652561
 30
0.0
 10
6.3624012054
 20
4.0188951676
 30
0.0
 10
6.3393941965
 20
4.0038589264
 30
0.0
 10
6.3147817302
 20
3.9912250935
 30
0.0
 10
6.2886333135
 20
3.9809744085
 30
0.0
 10
6.2610078346
 20
3.9730770447
 30
0.0
 10
6.2370020941
 20
3.9684696855
 30
0.0
 10
6.2171592619
 20
3.9659035746
 30
0.0
 10
6.1964981965
 20
3.9640539703
 30
0.0
 10
6.1697952717
 20
3.9631917156
 30
0.0
 10
6.1367841862
 20
3.9643972602
 30
0.0
 10
6.1144316727
 20
3.9666221214
 30
0.0
 10
6.1030706375
 20
3.9680749655
 30
0.0
  0
SPLINE
  5
3EB
100
AcDbEntity
  8
0
100
AcDbSpline
 62
7
  6
CONTINUOUS
 70
0
 71
3
 72
24
 73
20
 74
0
 42
0.0000001
 43
0.0000001
 44
0.0000000001
 40
0.0
 40
0.0
 40
0.0
 40
0.0
 40
0.072297856
 40
0.1416920389
 40
0.208375059
 40
0.2407794518
 40
0.2726015167
 40
0.3346445329
 40
0.3948750928
 40
0.4537146841
 40
0.5116461428
 40
0.5691988271
 40
0.6268895317
 40
0.6852015288
 40
0.7445792508
 40
0.8054216193
 40
0.8680789801
 40
0.9328531816
 40
1.0
 40
1.0
 40
1.0
 40
1.0
 10
6.0823172821
 20
4.0039170956
 30
0.0
 10
6.086713123
 20
4.0144935061
 30
0.0
 10
6.0959112931
 20
4.034986884
 30
0.0
 10
6.1112996406
 20
4.0642167295
 30
0.0
 10
6.1253409515
 20
4.0869462536
 30
0.0
 10
6.1372307513
 20
4.1039442924
 30
0.0
 10
6.1493346188
 20
4.1198759999
 30
0.0
 10
6.1652812279
 20
4.1384019007
 30
0.0
 10
6.1858831876
 20
4.1584292493
 30
0.0
 10
6.2077907993
 20
4.1760040265
 30
0.0
 10
6.2310006145
 20
4.1910603114
 30
0.0
 10
6.2554947345
 20
4.2035282339
 30
0.0
 10
6.2812004717
 20
4.2134188834
 30
0.0
 10
6.3080478134
 20
4.2207468231
 30
0.0
 10
6.3359668
 20
4.2255280228
 30
0.0
 10
6.3648893653
 20
4.2277797434
 30
0.0
 10
6.3947498938
 20
4.2275193646
 30
0.0
 10
6.4254819744
 20
4.2247643166
 30
0.0
 10
6.4461202307
 20
4.2213397061
 30
0.0
 10
6.4565487281
 20
4.2192413249
 30
0.0
  0
SPLINE
  5
3EC
100
AcDbEntity
  8
0
100
AcDbSpline
 62
7
  6
CONTINUOUS
 70
0
 71
3
 72
24
 73
20
 74
0
 42
0.0000001
 43
0.0000001
 44
0.0000000001
 40
0.0
 40
0.0
 40
0.0
 40
0.0
 40
0.0671468183
 40
0.1319210199
 40
0.1945783806
 40
0.2554207491
 40
0.314798471
 40
0.3731104681
 40
0.4308011728
 40
0.488353857
 40
0.5462853158
 40
0.6051249071
 40
0.665355467
 40
0.7273984832
 40
0.7592205481
 40
0.791624941
 40
0.8583079611
 40
0.927702144
 40
1.0
 40
1.0
 40
1.0
 40
1.0
 10
5.5592528456
 20
4.2190396809
 30
0.0
 10
5.5696760544
 20
4.2211641756
 30
0.0
 10
5.5903056685
 20
4.2246404673
 30
0.0
 10
5.621030752
 20
4.2274724805
 30
0.0
 10
5.6508905347
 20
4.2278076494
 30
0.0
 10
5.679818649
 20
4.2256283774
 30
0.0
 10
5.7077495233
 20
4.2209171207
 30
0.0
 10
5.7346151349
 20
4.2136564478
 30
0.0
 10
5.7603455643
 20
4.2038302139
 30
0.0
 10
5.7848708355
 20
4.1914236803
 30
0.0
 10
5.8081182889
 20
4.1764255757
 30
0.0
 10
5.8300698509
 20
4.158905725
 30
0.0
 10
5.850721908
 20
4.1389300404
 30
0.0
 10
5.8667148685
 20
4.1204441389
 30
0.0
 10
5.8788586017
 20
4.1045427976
 30
0.0
 10
5.8907909387
 20
4.0875745922
 30
0.0
 10
5.9048891356
 20
4.0648803083
 30
0.0
 10
5.9203506461
 20
4.0356890974
 30
0.0
 10
5.9296001166
 20
4.0152188222
 30
0.0
 10
5.9340224342
 20
4.0046534551
 30
0.0
  0
SPLINE
  5
3ED
100
AcDbEntity
  8
0
100
AcDbSpline
 62
7
  6
CONTINUOUS
 70
0
 71
3
 72
24
 73
20
 74
0
 42
0.0000001
 43
0.0000001
 44
0.0000000001
 40
0.0
 40
0.0
 40
0.0
 40
0.0
 40
0.072297856
 40
0.1416920389
 40
0.208375059
 40
0.2407794518
 40
0.2726015167
 40
0.3346445329
 40
0.3948750928
 40
0.4537146841
 40
0.5116461428
 40
0.5691988271
 40
0.6268895317
 40
0.6852015288
 40
0.7445792508
 40
0.8054216193
 40
0.8680789801
 40
0.9328531816
 40
1.0
 40
1.0
 40
1.0
 40
1.0
 10
5.9133589168
 20
3.9687594571
 30
0.0
 10
5.9020015561
 20
3.9672781617
 30
0.0
 10
5.8796546852
 20
3.9649973218
 30
0.0
 10
5.8466467227
 20
3.9637090989
 30
0.0
 10
5.8199417219
 20
3.9645044687
 30
0.0
 10
5.7992760887
 20
3.966302318
 30
0.0
 10
5.7794268915
 20
3.968818721
 30
0.0
 10
5.7554096862
 20
3.9733659392
 30
0.0
 10
5.7277645137
 20
3.9811940854
 30
0.0
 10
5.7015905043
 20
3.991379245
 30
0.0
 10
5.6769464715
 20
4.0039513921
 30
0.0
 10
5.6539018739
 20
4.018929961
 30
0.0
 10
5.6324834516
 20
4.0362464578
 30
0.0
 10
5.6127135988
 20
4.0558329679
 30
0.0
 10
5.5946134651
 20
4.0776209197
 30
0.0
 10
5.5782021352
 20
4.1015427356
 30
0.0
 10
5.5634973656
 20
4.1275329013
 30
0.0
 10
5.5505172669
 20
4.1555251878
 30
0.0
 10
5.5431639384
 20
4.1751107473
 30
0.0
 10
5.5397669411
 20
4.1851912815
 30
0.0
  0
SPLINE
  5
3EE
100
AcDbEntity
  8
0
100
AcDbSpline
 62
7
  6
CONTINUOUS
 70
0
 71
3
 72
24
 73
20
 74
0
 42
0.0000001
 43
0.0000001
 44
0.0000000001
 40
0.0
 40
0.0
 40
0.0
 40
0.0
 40
0.0671468183
 40
0.1319210199
 40
0.1945783806
 40
0.2554207491
 40
0.314798471
 40
0.3731104681
 40
0.4308011728
 40
0.488353857
 40
0.5462853158
 40
0.6051249071
 40
0.665355467
 40
0.7273984832
 40
0.7592205481
 40
0.791624941
 40
0.8583079611
 40
0.927702144
 40
1.0
 40
1.0
 40
1.0
 40
1.0
 10
5.5397669414
 20
3.655914292
 30
0.0
 10
5.5431639386
 20
3.6659948261
 30
0.0
 10
5.5505172672
 20
3.6855803856
 30
0.0
 10
5.5634973659
 20
3.713572672
 30
0.0
 10
5.5782021355
 20
3.7395628376
 30
0.0
 10
5.5946134654
 20
3.7634846535
 30
0.0
 10
5.6127135991
 20
3.7852726052
 30
0.0
 10
5.6324834519
 20
3.8048591152
 30
0.0
 10
5.6539018742
 20
3.8221756119
 30
0.0
 10
5.6769464718
 20
3.8371541808
 30
0.0
 10
5.7015905046
 20
3.8497263278
 30
0.0
 10
5.7277645139
 20
3.8599114874
 30
0.0
 10
5.7554096865
 20
3.8677396336
 30
0.0
 10
5.7794268917
 20
3.8722868518
 30
0.0
 10
5.7992760889
 20
3.8748032547
 30
0.0
 10
5.8199417221
 20
3.876601104
 30
0.0
 10
5.8466467229
 20
3.8773964739
 30
0.0
 10
5.8796546853
 20
3.8761082509
 30
0.0
 10
5.9020015562
 20
3.873827411
 30
0.0
 10
5.9133589168
 20
3.8723461157
 30
0.0
  0
SPLINE
  5
3EF
100
AcDbEntity
  8
0
100
AcDbSpline
 62
7
  6
CONTINUOUS
 70
0
 71
3
 72
24
 73
20
 74
0
 42
0.0000001
 43
0.0000001
 44
0.0000000001
 40
0.0
 40
0.0
 40
0.0
 40
0.0
 40
0.072297856
 40
0.1416920389
 40
0.208375059
 40
0.2407794518
 40
0.2726015167
 40
0.3346445329
 40
0.3948750928
 40
0.4537146841
 40
0.5116461428
 40
0.5691988271
 40
0.6268895317
 40
0.6852015288
 40
0.7445792508
 40
0.8054216193
 40
0.8680789801
 40
0.9328531816
 40
1.0
 40
1.0
 40
1.0
 40
1.0
 10
5.9340224342
 20
3.8364521176
 30
0.0
 10
5.9296001166
 20
3.8258867504
 30
0.0
 10
5.9203506461
 20
3.8054164753
 30
0.0
 10
5.9048891356
 20
3.7762252643
 30
0.0
 10
5.8907909386
 20
3.7535309803
 30
0.0
 10
5.8788586016
 20
3.736562775
 30
0.0
 10
5.8667148683
 20
3.7206614337
 30
0.0
 10
5.8507219079
 20
3.7021755321
 30
0.0
 10
5.8300698508
 20
3.6821998475
 30
0.0
 10
5.8081182887
 20
3.6646799969
 30
0.0
 10
5.7848708352
 20
3.6496818922
 30
0.0
 10
5.7603455639
 20
3.6372753587
 30
0.0
 10
5.7346151345
 20
3.6274491248
 30
0.0
 10
5.7077495229
 20
3.6201884519
 30
0.0
 10
5.6798186485
 20
3.6154771953
 30
0.0
 10
5.6508905341
 20
3.6132979233
 30
0.0
 10
5.6210307514
 20
3.6136330923
 30
0.0
 10
5.5903056677
 20
3.6164651055
 30
0.0
 10
5.5696760537
 20
3.6199413973
 30
0.0
 10
5.5592528448
 20
3.6220658919
 30
0.0
  0
SPLINE
  5
3F0
100
AcDbEntity
  8
0
100
AcDbSpline
 62
7
  6
CONTINUOUS
 70
0
 71
3
 72
24
 73
20
 74
0
 42
0.0000001
 43
0.0000001
 44
0.0000000001
 40
0.0
 40
0.0
 40
0.0
 40
0.0
 40
0.072297856
 40
0.1416920389
 40
0.208375059
 40
0.2407794518
 40
0.2726015167
 40
0.3346445329
 40
0.3948750928
 40
0.4537146841
 40
0.5116461428
 40
0.5691988271
 40
0.6268895317
 40
0.6852015288
 40
0.7445792508
 40
0.8054216193
 40
0.8680789801
 40
0.9328531816
 40
1.0
 40
1.0
 40
1.0
 40
1.0
 10
6.1030706375
 20
3.8730306072
 30
0.0
 10
6.1144316727
 20
3.8744834513
 30
0.0
 10
6.1367841863
 20
3.8767083125
 30
0.0
 10
6.1697952718
 20
3.8779138571
 30
0.0
 10
6.1964981967
 20
3.8770516024
 30
0.0
 10
6.2171592621
 20
3.8752019981
 30
0.0
 10
6.2370020943
 20
3.8726358872
 30
0.0
 10
6.2610078348
 20
3.8680285279
 30
0.0
 10
6.2886333137
 20
3.8601311641
 30
0.0
 10
6.3147817305
 20
3.8498804791
 30
0.0
 10
6.3393941968
 20
3.8372466461
 30
0.0
 10
6.3624012057
 20
3.8222104049
 30
0.0
 10
6.3837761887
 20
3.8048403163
 30
0.0
 10
6.4034969216
 20
3.7852043506
 30
0.0
 10
6.4215424267
 20
3.7633711322
 30
0.0
 10
6.4378937888
 20
3.7394082862
 30
0.0
 10
6.4525334153
 20
3.7133813713
 30
0.0
 10
6.4654433618
 20
3.6853566618
 30
0.0
 10
6.4727476118
 20
3.665752746
 30
0.0
 10
6.4761193499
 20
3.655663735
 30
0.0
  0
SPLINE
  5
3F1
100
AcDbEntity
  8
0
100
AcDbSpline
 62
7
  6
CONTINUOUS
 70
0
 71
3
 72
24
 73
20
 74
0
 42
0.0000001
 43
0.0000001
 44
0.0000000001
 40
0.0
 40
0.0
 40
0.0
 40
0.0
 40
0.0671468183
 40
0.1319210199
 40
0.1945783806
 40
0.2554207491
 40
0.314798471
 40
0.3731104681
 40
0.4308011728
 40
0.488353857
 40
0.5462853158
 40
0.6051249071
 40
0.665355467
 40
0.7273984832
 40
0.7592205481
 40
0.791624941
 40
0.8583079611
 40
0.927702144
 40
1.0
 40
1.0
 40
1.0
 40
1.0
 10
6.4565487273
 20
3.6218642476
 30
0.0
 10
6.44612023
 20
3.6197658664
 30
0.0
 10
6.4254819737
 20
3.616341256
 30
0.0
 10
6.3947498932
 20
3.6135862081
 30
0.0
 10
6.3648893647
 20
3.6133258293
 30
0.0
 10
6.3359667995
 20
3.61557755
 30
0.0
 10
6.308047813
 20
3.6203587497
 30
0.0
 10
6.2812004713
 20
3.6276866894
 30
0.0
 10
6.2554947341
 20
3.6375773389
 30
0.0
 10
6.2310006142
 20
3.6500452614
 30
0.0
 10
6.2077907991
 20
3.6651015464
 30
0.0
 10
6.1858831874
 20
3.6826763236
 30
0.0
 10
6.1652812278
 20
3.7027036722
 30
0.0
 10
6.1493346186
 20
3.7212295729
 30
0.0
 10
6.1372307512
 20
3.7371612805
 30
0.0
 10
6.1253409514
 20
3.7541593192
 30
0.0
 10
6.1112996405
 20
3.7768888433
 30
0.0
 10
6.0959112931
 20
3.8061186888
 30
0.0
 10
6.086713123
 20
3.8266120666
 30
0.0
 10
6.0823172821
 20
3.8371884771
 30
0.0
  0
SPLINE
  5
3F2
100
AcDbEntity
  8
0
100
AcDbSpline
 62
7
  6
CONTINUOUS
 70
0
 71
3
 72
24
 73
20
 74
0
 42
0.0000001
 43
0.0000001
 44
0.0000000001
 40
0.0
 40
0.0
 40
0.0
 40
0.0
 40
0.0671468183
 40
0.1319210199
 40
0.1945783806
 40
0.2554207491
 40
0.314798471
 40
0.3731104681
 40
0.4308011728
 40
0.488353857
 40
0.5462853158
 40
0.6051249071
 40
0.665355467
 40
0.7273984832
 40
0.7592205481
 40
0.791624941
 40
0.8583079611
 40
0.927702144
 40
1.0
 40
1.0
 40
1.0
 40
1.0
 10
5.5592528456
 20
3.4690396809
 30
0.0
 10
5.5696760544
 20
3.4711641756
 30
0.0
 10
5.5903056685
 20
3.4746404673
 30
0.0
 10
5.621030752
 20
3.4774724805
 30
0.0
 10
5.6508905347
 20
3.4778076494
 30
0.0
 10
5.679818649
 20
3.4756283774
 30
0.0
 10
5.7077495233
 20
3.4709171207
 30
0.0
 10
5.7346151349
 20
3.4636564478
 30
0.0
 10
5.7603455643
 20
3.4538302139
 30
0.0
 10
5.7848708355
 20
3.4414236803
 30
0.0
 10
5.8081182889
 20
3.4264255757
 30
0.0
 10
5.8300698509
 20
3.408905725
 30
0.0
 10
5.850721908
 20
3.3889300404
 30
0.0
 10
5.8667148685
 20
3.3704441389
 30
0.0
 10
5.8788586017
 20
3.3545427976
 30
0.0
 10
5.8907909387
 20
3.3375745922
 30
0.0
 10
5.9048891356
 20
3.3148803083
 30
0.0
 10
5.9203506461
 20
3.2856890974
 30
0.0
 10
5.9296001166
 20
3.2652188222
 30
0.0
 10
5.9340224342
 20
3.2546534551
 30
0.0
  0
SPLINE
  5
3F3
100
AcDbEntity
  8
0
100
AcDbSpline
 62
7
  6
CONTINUOUS
 70
0
 71
3
 72
24
 73
20
 74
0
 42
0.0000001
 43
0.0000001
 44
0.0000000001
 40
0.0
 40
0.0
 40
0.0
 40
0.0
 40
0.072297856
 40
0.1416920389
 40
0.208375059
 40
0.2407794518
 40
0.2726015167
 40
0.3346445329
 40
0.3948750928
 40
0.4537146841
 40
0.5116461428
 40
0.5691988271
 40
0.6268895317
 40
0.6852015288
 40
0.7445792508
 40
0.8054216193
 40
0.8680789801
 40
0.9328531816
 40
1.0
 40
1.0
 40
1.0
 40
1.0
 10
5.9133589168
 20
3.2187594571
 30
0.0
 10
5.9020015561
 20
3.2172781617
 30
0.0
 10
5.8796546852
 20
3.2149973218
 30
0.0
 10
5.8466467227
 20
3.2137090989
 30
0.0
 10
5.8199417219
 20
3.2145044687
 30
0.0
 10
5.7992760887
 20
3.216302318
 30
0.0
 10
5.7794268915
 20
3.218818721
 30
0.0
 10
5.7554096862
 20
3.2233659392
 30
0.0
 10
5.7277645137
 20
3.2311940854
 30
0.0
 10
5.7015905043
 20
3.241379245
 30
0.0
 10
5.6769464715
 20
3.2539513921
 30
0.0
 10
5.6539018739
 20
3.268929961
 30
0.0
 10
5.6324834516
 20
3.2862464578
 30
0.0
 10
5.6127135988
 20
3.3058329679
 30
0.0
 10
5.5946134651
 20
3.3276209197
 30
0.0
 10
5.5782021352
 20
3.3515427356
 30
0.0
 10
5.5634973656
 20
3.3775329013
 30
0.0
 10
5.5505172669
 20
3.4055251878
 30
0.0
 10
5.5431639384
 20
3.4251107473
 30
0.0
 10
5.5397669411
 20
3.4351912815
 30
0.0
  0
SPLINE
  5
3F4
100
AcDbEntity
  8
0
100
AcDbSpline
 62
7
  6
CONTINUOUS
 70
0
 71
3
 72
24
 73
20
 74
0
 42
0.0000001
 43
0.0000001
 44
0.0000000001
 40
0.0
 40
0.0
 40
0.0
 40
0.0
 40
0.0671468183
 40
0.1319210199
 40
0.1945783806
 40
0.2554207491
 40
0.314798471
 40
0.3731104681
 40
0.4308011728
 40
0.488353857
 40
0.5462853158
 40
0.6051249071
 40
0.665355467
 40
0.7273984832
 40
0.7592205481
 40
0.791624941
 40
0.8583079611
 40
0.927702144
 40
1.0
 40
1.0
 40
1.0
 40
1.0
 10
5.5397669414
 20
5.155914292
 30
0.0
 10
5.5431639386
 20
5.1659948261
 30
0.0
 10
5.5505172672
 20
5.1855803856
 30
0.0
 10
5.5634973659
 20
5.213572672
 30
0.0
 10
5.5782021355
 20
5.2395628376
 30
0.0
 10
5.5946134654
 20
5.2634846535
 30
0.0
 10
5.6127135991
 20
5.2852726052
 30
0.0
 10
5.6324834519
 20
5.3048591152
 30
0.0
 10
5.6539018742
 20
5.3221756119
 30
0.0
 10
5.6769464718
 20
5.3371541808
 30
0.0
 10
5.7015905046
 20
5.3497263278
 30
0.0
 10
5.7277645139
 20
5.3599114874
 30
0.0
 10
5.7554096865
 20
5.3677396336
 30
0.0
 10
5.7794268917
 20
5.3722868518
 30
0.0
 10
5.7992760889
 20
5.3748032547
 30
0.0
 10
5.8199417221
 20
5.376601104
 30
0.0
 10
5.8466467229
 20
5.3773964739
 30
0.0
 10
5.8796546853
 20
5.3761082509
 30
0.0
 10
5.9020015562
 20
5.373827411
 30
0.0
 10
5.9133589168
 20
5.3723461157
 30
0.0
  0
SPLINE
  5
3F5
100
AcDbEntity
  8
0
100
AcDbSpline
 62
7
  6
CONTINUOUS
 70
0
 71
3
 72
24
 73
20
 74
0
 42
0.0000001
 43
0.0000001
 44
0.0000000001
 40
0.0
 40
0.0
 40
0.0
 40
0.0
 40
0.072297856
 40
0.1416920389
 40
0.208375059
 40
0.2407794518
 40
0.2726015167
 40
0.3346445329
 40
0.3948750928
 40
0.4537146841
 40
0.5116461428
 40
0.5691988271
 40
0.6268895317
 40
0.6852015288
 40
0.7445792508
 40
0.8054216193
 40
0.8680789801
 40
0.9328531816
 40
1.0
 40
1.0
 40
1.0
 40
1.0
 10
5.9340224342
 20
5.3364521176
 30
0.0
 10
5.9296001166
 20
5.3258867504
 30
0.0
 10
5.9203506461
 20
5.3054164753
 30
0.0
 10
5.9048891356
 20
5.2762252643
 30
0.0
 10
5.8907909386
 20
5.2535309803
 30
0.0
 10
5.8788586016
 20
5.236562775
 30
0.0
 10
5.8667148683
 20
5.2206614337
 30
0.0
 10
5.8507219079
 20
5.2021755321
 30
0.0
 10
5.8300698508
 20
5.1821998475
 30
0.0
 10
5.8081182887
 20
5.1646799969
 30
0.0
 10
5.7848708352
 20
5.1496818922
 30
0.0
 10
5.7603455639
 20
5.1372753587
 30
0.0
 10
5.7346151345
 20
5.1274491248
 30
0.0
 10
5.7077495229
 20
5.1201884519
 30
0.0
 10
5.6798186485
 20
5.1154771953
 30
0.0
 10
5.6508905341
 20
5.1132979233
 30
0.0
 10
5.6210307514
 20
5.1136330923
 30
0.0
 10
5.5903056677
 20
5.1164651055
 30
0.0
 10
5.5696760537
 20
5.1199413973
 30
0.0
 10
5.5592528448
 20
5.1220658919
 30
0.0
  0
SPLINE
  5
3F6
100
AcDbEntity
  8
0
100
AcDbSpline
 62
7
  6
CONTINUOUS
 70
0
 71
3
 72
24
 73
20
 74
0
 42
0.0000001
 43
0.0000001
 44
0.0000000001
 40
0.0
 40
0.0
 40
0.0
 40
0.0
 40
0.0671468183
 40
0.1319210199
 40
0.1945783806
 40
0.2554207491
 40
0.314798471
 40
0.3731104681
 40
0.4308011728
 40
0.488353857
 40
0.5462853158
 40
0.6051249071
 40
0.665355467
 40
0.7273984832
 40
0.7592205481
 40
0.791624941
 40
0.8583079611
 40
0.927702144
 40
1.0
 40
1.0
 40
1.0
 40
1.0
 10
5.5592528456
 20
5.7190396809
 30
0.0
 10
5.5696760544
 20
5.7211641756
 30
0.0
 10
5.5903056685
 20
5.7246404673
 30
0.0
 10
5.621030752
 20
5.7274724805
 30
0.0
 10
5.6508905347
 20
5.7278076494
 30
0.0
 10
5.679818649
 20
5.7256283774
 30
0.0
 10
5.7077495233
 20
5.7209171207
 30
0.0
 10
5.7346151349
 20
5.7136564478
 30
0.0
 10
5.7603455643
 20
5.7038302139
 30
0.0
 10
5.7848708355
 20
5.6914236803
 30
0.0
 10
5.8081182889
 20
5.6764255757
 30
0.0
 10
5.8300698509
 20
5.658905725
 30
0.0
 10
5.850721908
 20
5.6389300404
 30
0.0
 10
5.8667148685
 20
5.6204441389
 30
0.0
 10
5.8788586017
 20
5.6045427976
 30
0.0
 10
5.8907909387
 20
5.5875745922
 30
0.0
 10
5.9048891356
 20
5.5648803083
 30
0.0
 10
5.9203506461
 20
5.5356890974
 30
0.0
 10
5.9296001166
 20
5.5152188222
 30
0.0
 10
5.9340224342
 20
5.5046534551
 30
0.0
  0
SPLINE
  5
3F7
100
AcDbEntity
  8
0
100
AcDbSpline
 62
7
  6
CONTINUOUS
 70
0
 71
3
 72
24
 73
20
 74
0
 42
0.0000001
 43
0.0000001
 44
0.0000000001
 40
0.0
 40
0.0
 40
0.0
 40
0.0
 40
0.072297856
 40
0.1416920389
 40
0.208375059
 40
0.2407794518
 40
0.2726015167
 40
0.3346445329
 40
0.3948750928
 40
0.4537146841
 40
0.5116461428
 40
0.5691988271
 40
0.6268895317
 40
0.6852015288
 40
0.7445792508
 40
0.8054216193
 40
0.8680789801
 40
0.9328531816
 40
1.0
 40
1.0
 40
1.0
 40
1.0
 10
5.9133589168
 20
5.4687594571
 30
0.0
 10
5.9020015561
 20
5.4672781617
 30
0.0
 10
5.8796546852
 20
5.4649973218
 30
0.0
 10
5.8466467227
 20
5.4637090989
 30
0.0
 10
5.8199417219
 20
5.4645044687
 30
0.0
 10
5.7992760887
 20
5.466302318
 30
0.0
 10
5.7794268915
 20
5.468818721
 30
0.0
 10
5.7554096862
 20
5.4733659392
 30
0.0
 10
5.7277645137
 20
5.4811940854
 30
0.0
 10
5.7015905043
 20
5.491379245
 30
0.0
 10
5.6769464715
 20
5.5039513921
 30
0.0
 10
5.6539018739
 20
5.518929961
 30
0.0
 10
5.6324834516
 20
5.5362464578
 30
0.0
 10
5.6127135988
 20
5.5558329679
 30
0.0
 10
5.5946134651
 20
5.5776209197
 30
0.0
 10
5.5782021352
 20
5.6015427356
 30
0.0
 10
5.5634973656
 20
5.6275329013
 30
0.0
 10
5.5505172669
 20
5.6555251878
 30
0.0
 10
5.5431639384
 20
5.6751107473
 30
0.0
 10
5.5397669411
 20
5.6851912815
 30
0.0
  0
SPLINE
  5
3F8
100
AcDbEntity
  8
0
100
AcDbSpline
 62
7
  6
CONTINUOUS
 70
0
 71
3
 72
24
 73
20
 74
0
 42
0.0000001
 43
0.0000001
 44
0.0000000001
 40
0.0
 40
0.0
 40
0.0
 40
0.0
 40
0.0671468183
 40
0.1319210199
 40
0.1945783806
 40
0.2554207491
 40
0.314798471
 40
0.3731104681
 40
0.4308011728
 40
0.488353857
 40
0.5462853158
 40
0.6051249071
 40
0.665355467
 40
0.7273984832
 40
0.7592205481
 40
0.791624941
 40
0.8583079611
 40
0.927702144
 40
1.0
 40
1.0
 40
1.0
 40
1.0
 10
5.5397669414
 20
5.905914292
 30
0.0
 10
5.5431639386
 20
5.9159948261
 30
0.0
 10
5.5505172672
 20
5.9355803856
 30
0.0
 10
5.5634973659
 20
5.963572672
 30
0.0
 10
5.5782021355
 20
5.9895628376
 30
0.0
 10
5.5946134654
 20
6.0134846535
 30
0.0
 10
5.6127135991
 20
6.0352726052
 30
0.0
 10
5.6324834519
 20
6.0548591152
 30
0.0
 10
5.6539018742
 20
6.0721756119
 30
0.0
 10
5.6769464718
 20
6.0871541808
 30
0.0
 10
5.7015905046
 20
6.0997263278
 30
0.0
 10
5.7277645139
 20
6.1099114874
 30
0.0
 10
5.7554096865
 20
6.1177396336
 30
0.0
 10
5.7794268917
 20
6.1222868518
 30
0.0
 10
5.7992760889
 20
6.1248032547
 30
0.0
 10
5.8199417221
 20
6.126601104
 30
0.0
 10
5.8466467229
 20
6.1273964739
 30
0.0
 10
5.8796546853
 20
6.1261082509
 30
0.0
 10
5.9020015562
 20
6.123827411
 30
0.0
 10
5.9133589168
 20
6.1223461157
 30
0.0
  0
SPLINE
  5
3F9
100
AcDbEntity
  8
0
100
AcDbSpline
 62
7
  6
CONTINUOUS
 70
0
 71
3
 72
24
 73
20
 74
0
 42
0.0000001
 43
0.0000001
 44
0.0000000001
 40
0.0
 40
0.0
 40
0.0
 40
0.0
 40
0.072297856
 40
0.1416920389
 40
0.208375059
 40
0.2407794518
 40
0.2726015167
 40
0.3346445329
 40
0.3948750928
 40
0.4537146841
 40
0.5116461428
 40
0.5691988271
 40
0.6268895317
 40
0.6852015288
 40
0.7445792508
 40
0.8054216193
 40
0.8680789801
 40
0.9328531816
 40
1.0
 40
1.0
 40
1.0
 40
1.0
 10
5.9340224342
 20
6.0864521176
 30
0.0
 10
5.9296001166
 20
6.0758867504
 30
0.0
 10
5.9203506461
 20
6.0554164753
 30
0.0
 10
5.9048891356
 20
6.0262252643
 30
0.0
 10
5.8907909386
 20
6.0035309803
 30
0.0
 10
5.8788586016
 20
5.986562775
 30
0.0
 10
5.8667148683
 20
5.9706614337
 30
0.0
 10
5.8507219079
 20
5.9521755321
 30
0.0
 10
5.8300698508
 20
5.9321998475
 30
0.0
 10
5.8081182887
 20
5.9146799969
 30
0.0
 10
5.7848708352
 20
5.8996818922
 30
0.0
 10
5.7603455639
 20
5.8872753587
 30
0.0
 10
5.7346151345
 20
5.8774491248
 30
0.0
 10
5.7077495229
 20
5.8701884519
 30
0.0
 10
5.6798186485
 20
5.8654771953
 30
0.0
 10
5.6508905341
 20
5.8632979233
 30
0.0
 10
5.6210307514
 20
5.8636330923
 30
0.0
 10
5.5903056677
 20
5.8664651055
 30
0.0
 10
5.5696760537
 20
5.8699413973
 30
0.0
 10
5.5592528448
 20
5.8720658919
 30
0.0
  0
SPLINE
  5
3FA
100
AcDbEntity
  8
0
100
AcDbSpline
 62
7
  6
CONTINUOUS
 70
0
 71
3
 72
24
 73
20
 74
0
 42
0.0000001
 43
0.0000001
 44
0.0000000001
 40
0.0
 40
0.0
 40
0.0
 40
0.0
 40
0.0671468183
 40
0.1319210199
 40
0.1945783806
 40
0.2554207491
 40
0.314798471
 40
0.3731104681
 40
0.4308011728
 40
0.488353857
 40
0.5462853158
 40
0.6051249071
 40
0.665355467
 40
0.7273984832
 40
0.7592205481
 40
0.791624941
 40
0.8583079611
 40
0.927702144
 40
1.0
 40
1.0
 40
1.0
 40
1.0
 10
5.5592528456
 20
6.4690396809
 30
0.0
 10
5.5696760544
 20
6.4711641756
 30
0.0
 10
5.5903056685
 20
6.4746404673
 30
0.0
 10
5.621030752
 20
6.4774724805
 30
0.0
 10
5.6508905347
 20
6.4778076494
 30
0.0
 10
5.679818649
 20
6.4756283774
 30
0.0
 10
5.7077495233
 20
6.4709171207
 30
0.0
 10
5.7346151349
 20
6.4636564478
 30
0.0
 10
5.7603455643
 20
6.4538302139
 30
0.0
 10
5.7848708355
 20
6.4414236803
 30
0.0
 10
5.8081182889
 20
6.4264255757
 30
0.0
 10
5.8300698509
 20
6.408905725
 30
0.0
 10
5.850721908
 20
6.3889300404
 30
0.0
 10
5.8667148685
 20
6.3704441389
 30
0.0
 10
5.8788586017
 20
6.3545427976
 30
0.0
 10
5.8907909387
 20
6.3375745922
 30
0.0
 10
5.9048891356
 20
6.3148803083
 30
0.0
 10
5.9203506461
 20
6.2856890974
 30
0.0
 10
5.9296001166
 20
6.2652188222
 30
0.0
 10
5.9340224342
 20
6.2546534551
 30
0.0
  0
SPLINE
  5
3FB
100
AcDbEntity
  8
0
100
AcDbSpline
 62
7
  6
CONTINUOUS
 70
0
 71
3
 72
24
 73
20
 74
0
 42
0.0000001
 43
0.0000001
 44
0.0000000001
 40
0.0
 40
0.0
 40
0.0
 40
0.0
 40
0.072297856
 40
0.1416920389
 40
0.208375059
 40
0.2407794518
 40
0.2726015167
 40
0.3346445329
 40
0.3948750928
 40
0.4537146841
 40
0.5116461428
 40
0.5691988271
 40
0.6268895317
 40
0.6852015288
 40
0.7445792508
 40
0.8054216193
 40
0.8680789801
 40
0.9328531816
 40
1.0
 40
1.0
 40
1.0
 40
1.0
 10
5.9133589168
 20
6.2187594571
 30
0.0
 10
5.9020015561
 20
6.2172781617
 30
0.0
 10
5.8796546852
 20
6.2149973218
 30
0.0
 10
5.8466467227
 20
6.2137090989
 30
0.0
 10
5.8199417219
 20
6.2145044687
 30
0.0
 10
5.7992760887
 20
6.216302318
 30
0.0
 10
5.7794268915
 20
6.218818721
 30
0.0
 10
5.7554096862
 20
6.2233659392
 30
0.0
 10
5.7277645137
 20
6.2311940854
 30
0.0
 10
5.7015905043
 20
6.241379245
 30
0.0
 10
5.6769464715
 20
6.2539513921
 30
0.0
 10
5.6539018739
 20
6.268929961
 30
0.0
 10
5.6324834516
 20
6.2862464578
 30
0.0
 10
5.6127135988
 20
6.3058329679
 30
0.0
 10
5.5946134651
 20
6.3276209197
 30
0.0
 10
5.5782021352
 20
6.3515427356
 30
0.0
 10
5.5634973656
 20
6.3775329013
 30
0.0
 10
5.5505172669
 20
6.4055251878
 30
0.0
 10
5.5431639384
 20
6.4251107473
 30
0.0
 10
5.5397669411
 20
6.4351912815
 30
0.0
  0
SPLINE
  5
3FC
100
AcDbEntity
  8
0
100
AcDbSpline
 62
7
  6
CONTINUOUS
 70
0
 71
3
 72
24
 73
20
 74
0
 42
0.0000001
 43
0.0000001
 44
0.0000000001
 40
0.0
 40
0.0
 40
0.0
 40
0.0
 40
0.072297856
 40
0.1416920389
 40
0.208375059
 40
0.2407794518
 40
0.2726015167
 40
0.3346445329
 40
0.3948750928
 40
0.4537146841
 40
0.5116461428
 40
0.5691988271
 40
0.6268895317
 40
0.6852015288
 40
0.7445792508
 40
0.8054216193
 40
0.8680789801
 40
0.9328531816
 40
1.0
 40
1.0
 40
1.0
 40
1.0
 10
6.1030706375
 20
6.1230306072
 30
0.0
 10
6.1144316727
 20
6.1244834513
 30
0.0
 10
6.1367841863
 20
6.1267083125
 30
0.0
 10
6.1697952718
 20
6.1279138571
 30
0.0
 10
6.1964981967
 20
6.1270516024
 30
0.0
 10
6.2171592621
 20
6.1252019981
 30
0.0
 10
6.2370020943
 20
6.1226358872
 30
0.0
 10
6.2610078348
 20
6.1180285279
 30
0.0
 10
6.2886333137
 20
6.1101311641
 30
0.0
 10
6.3147817305
 20
6.0998804791
 30
0.0
 10
6.3393941968
 20
6.0872466461
 30
0.0
 10
6.3624012057
 20
6.0722104049
 30
0.0
 10
6.3837761887
 20
6.0548403163
 30
0.0
 10
6.4034969216
 20
6.0352043506
 30
0.0
 10
6.4215424267
 20
6.0133711322
 30
0.0
 10
6.4378937888
 20
5.9894082862
 30
0.0
 10
6.4525334153
 20
5.9633813713
 30
0.0
 10
6.4654433618
 20
5.9353566618
 30
0.0
 10
6.4727476118
 20
5.915752746
 30
0.0
 10
6.4761193499
 20
5.905663735
 30
0.0
  0
SPLINE
  5
3FD
100
AcDbEntity
  8
0
100
AcDbSpline
 62
7
  6
CONTINUOUS
 70
0
 71
3
 72
24
 73
20
 74
0
 42
0.0000001
 43
0.0000001
 44
0.0000000001
 40
0.0
 40
0.0
 40
0.0
 40
0.0
 40
0.0671468183
 40
0.1319210199
 40
0.1945783806
 40
0.2554207491
 40
0.314798471
 40
0.3731104681
 40
0.4308011728
 40
0.488353857
 40
0.5462853158
 40
0.6051249071
 40
0.665355467
 40
0.7273984832
 40
0.7592205481
 40
0.791624941
 40
0.8583079611
 40
0.927702144
 40
1.0
 40
1.0
 40
1.0
 40
1.0
 10
6.4565487273
 20
5.8718642476
 30
0.0
 10
6.44612023
 20
5.8697658664
 30
0.0
 10
6.4254819737
 20
5.866341256
 30
0.0
 10
6.3947498932
 20
5.8635862081
 30
0.0
 10
6.3648893647
 20
5.8633258293
 30
0.0
 10
6.3359667995
 20
5.86557755
 30
0.0
 10
6.308047813
 20
5.8703587497
 30
0.0
 10
6.2812004713
 20
5.8776866894
 30
0.0
 10
6.2554947341
 20
5.8875773389
 30
0.0
 10
6.2310006142
 20
5.9000452614
 30
0.0
 10
6.2077907991
 20
5.9151015464
 30
0.0
 10
6.1858831874
 20
5.9326763236
 30
0.0
 10
6.1652812277
 20
5.9527036722
 30
0.0
 10
6.1493346186
 20
5.9712295729
 30
0.0
 10
6.1372307512
 20
5.9871612805
 30
0.0
 10
6.1253409514
 20
6.0041593192
 30
0.0
 10
6.1112996405
 20
6.0268888433
 30
0.0
 10
6.0959112931
 20
6.0561186888
 30
0.0
 10
6.086713123
 20
6.0766120666
 30
0.0
 10
6.0823172821
 20
6.0871884771
 30
0.0
  0
SPLINE
  5
3FE
100
AcDbEntity
  8
0
100
AcDbSpline
 62
7
  6
CONTINUOUS
 70
0
 71
3
 72
24
 73
20
 74
0
 42
0.0000001
 43
0.0000001
 44
0.0000000001
 40
0.0
 40
0.0
 40
0.0
 40
0.0
 40
0.0671468183
 40
0.1319210199
 40
0.1945783806
 40
0.2554207491
 40
0.314798471
 40
0.3731104681
 40
0.4308011728
 40
0.488353857
 40
0.5462853158
 40
0.6051249071
 40
0.665355467
 40
0.7273984832
 40
0.7592205481
 40
0.791624941
 40
0.8583079611
 40
0.927702144
 40
1.0
 40
1.0
 40
1.0
 40
1.0
 10
6.4761193496
 20
6.4354418369
 30
0.0
 10
6.4727476115
 20
6.425352826
 30
0.0
 10
6.4654433615
 20
6.4057489103
 30
0.0
 10
6.452533415
 20
6.3777242008
 30
0.0
 10
6.4378937885
 20
6.351697286
 30
0.0
 10
6.4215424264
 20
6.3277344401
 30
0.0
 10
6.4034969213
 20
6.3059012218
 30
0.0
 10
6.3837761883
 20
6.2862652561
 30
0.0
 10
6.3624012054
 20
6.2688951676
 30
0.0
 10
6.3393941965
 20
6.2538589264
 30
0.0
 10
6.3147817302
 20
6.2412250935
 30
0.0
 10
6.2886333135
 20
6.2309744085
 30
0.0
 10
6.2610078346
 20
6.2230770447
 30
0.0
 10
6.2370020941
 20
6.2184696855
 30
0.0
 10
6.2171592619
 20
6.2159035746
 30
0.0
 10
6.1964981965
 20
6.2140539703
 30
0.0
 10
6.1697952717
 20
6.2131917156
 30
0.0
 10
6.1367841862
 20
6.2143972602
 30
0.0
 10
6.1144316727
 20
6.2166221214
 30
0.0
 10
6.1030706375
 20
6.2180749655
 30
0.0
  0
SPLINE
  5
3FF
100
AcDbEntity
  8
0
100
AcDbSpline
 62
7
  6
CONTINUOUS
 70
0
 71
3
 72
24
 73
20
 74
0
 42
0.0000001
 43
0.0000001
 44
0.0000000001
 40
0.0
 40
0.0
 40
0.0
 40
0.0
 40
0.072297856
 40
0.1416920389
 40
0.208375059
 40
0.2407794518
 40
0.2726015167
 40
0.3346445329
 40
0.3948750928
 40
0.4537146841
 40
0.5116461428
 40
0.5691988271
 40
0.6268895317
 40
0.6852015288
 40
0.7445792508
 40
0.8054216193
 40
0.8680789801
 40
0.9328531816
 40
1.0
 40
1.0
 40
1.0
 40
1.0
 10
6.0823172821
 20
6.2539170956
 30
0.0
 10
6.086713123
 20
6.2644935061
 30
0.0
 10
6.0959112931
 20
6.284986884
 30
0.0
 10
6.1112996406
 20
6.3142167295
 30
0.0
 10
6.1253409515
 20
6.3369462536
 30
0.0
 10
6.1372307513
 20
6.3539442924
 30
0.0
 10
6.1493346188
 20
6.3698759999
 30
0.0
 10
6.1652812279
 20
6.3884019007
 30
0.0
 10
6.1858831876
 20
6.4084292493
 30
0.0
 10
6.2077907993
 20
6.4260040265
 30
0.0
 10
6.2310006145
 20
6.4410603114
 30
0.0
 10
6.2554947345
 20
6.4535282339
 30
0.0
 10
6.2812004717
 20
6.4634188834
 30
0.0
 10
6.3080478134
 20
6.4707468231
 30
0.0
 10
6.3359668
 20
6.4755280228
 30
0.0
 10
6.3648893653
 20
6.4777797434
 30
0.0
 10
6.3947498938
 20
6.4775193646
 30
0.0
 10
6.4254819744
 20
6.4747643166
 30
0.0
 10
6.4461202307
 20
6.4713397061
 30
0.0
 10
6.4565487281
 20
6.4692413249
 30
0.0
  0
SPLINE
  5
400
100
AcDbEntity
  8
0
100
AcDbSpline
 62
7
  6
CONTINUOUS
 70
0
 71
3
 72
24
 73
20
 74
0
 42
0.0000001
 43
0.0000001
 44
0.0000000001
 40
0.0
 40
0.0
 40
0.0
 40
0.0
 40
0.072297856
 40
0.1416920389
 40
0.208375059
 40
0.2407794518
 40
0.2726015167
 40
0.3346445329
 40
0.3948750928
 40
0.4537146841
 40
0.5116461428
 40
0.5691988271
 40
0.6268895317
 40
0.6852015288
 40
0.7445792508
 40
0.8054216193
 40
0.8680789801
 40
0.9328531816
 40
1.0
 40
1.0
 40
1.0
 40
1.0
 10
6.5628385305
 20
4.4533950081
 30
0.0
 10
6.5558770107
 20
4.4624901233
 30
0.0
 10
6.54272831
 20
4.4807026613
 30
0.0
 10
6.5251086949
 20
4.5086442838
 30
0.0
 10
6.5124450051
 20
4.5321691779
 30
0.0
 10
6.5036691716
 20
4.5509650659
 30
0.0
 10
6.4959238418
 20
4.5694131764
 30
0.0
 10
6.4878532458
 20
4.5924862954
 30
0.0
 10
6.4808100329
 20
4.6203417902
 30
0.0
 10
6.4765436352
 20
4.648101727
 30
0.0
 10
6.4751094176
 20
4.675730159
 30
0.0
 10
6.47655894
 20
4.7031766505
 30
0.0
 10
6.4808462549
 20
4.7303837967
 30
0.0
 10
6.4879237438
 20
4.7572982464
 30
0.0
 10
6.4977425968
 20
4.7838673979
 30
0.0
 10
6.5102538321
 20
4.8100409345
 30
0.0
 10
6.5254095911
 20
4.8357707214
 30
0.0
 10
6.5431615729
 20
4.8610079599
 30
0.0
 10
6.5564465007
 20
4.8771689089
 30
0.0
 10
6.5634780008
 20
4.8851510619
 30
0.0
  0
SPLINE
  5
401
100
AcDbEntity
  8
0
100
AcDbSpline
 62
7
  6
CONTINUOUS
 70
0
 71
3
 72
24
 73
20
 74
0
 42
0.0000001
 43
0.0000001
 44
0.0000000001
 40
0.0
 40
0.0
 40
0.0
 40
0.0
 40
0.0671468183
 40
0.1319210199
 40
0.1945783806
 40
0.2554207491
 40
0.314798471
 40
0.3731104681
 40
0.4308011728
 40
0.488353857
 40
0.5462853158
 40
0.6051249071
 40
0.665355467
 40
0.7273984832
 40
0.7592205481
 40
0.791624941
 40
0.8583079611
 40
0.927702144
 40
1.0
 40
1.0
 40
1.0
 40
1.0
 10
6.6025345268
 20
4.8851999734
 30
0.0
 10
6.6095859975
 20
4.877235457
 30
0.0
 10
6.6229113616
 20
4.8611078331
 30
0.0
 10
6.6407264987
 20
4.8359151368
 30
0.0
 10
6.6559466548
 20
4.8102233909
 30
0.0
 10
6.668523407
 20
4.784081273
 30
0.0
 10
6.6784087762
 20
4.7575367979
 30
0.0
 10
6.6855536548
 20
4.7306401594
 30
0.0
 10
6.6899091013
 20
4.7034438369
 30
0.0
 10
6.6914273637
 20
4.6760010622
 30
0.0
 10
6.6900623507
 20
4.6483691247
 30
0.0
 10
6.685865496
 20
4.620598589
 30
0.0
 10
6.6788920742
 20
4.5927255406
 30
0.0
 10
6.6708792941
 20
4.5696322798
 30
0.0
 10
6.6631801952
 20
4.5511648277
 30
0.0
 10
6.6544514669
 20
4.532347018
 30
0.0
 10
6.6418467389
 20
4.5087904794
 30
0.0
 10
6.6242971639
 20
4.4808048131
 30
0.0
 10
6.6111941209
 20
4.4625593991
 30
0.0
 10
6.6042554033
 20
4.4534468761
 30
0.0
  0
SPLINE
  5
402
100
AcDbEntity
  8
0
100
AcDbSpline
 62
7
  6
CONTINUOUS
 70
0
 71
3
 72
24
 73
20
 74
0
 42
0.0000001
 43
0.0000001
 44
0.0000000001
 40
0.0
 40
0.0
 40
0.0
 40
0.0
 40
0.072297856
 40
0.1416920389
 40
0.208375059
 40
0.2407794518
 40
0.2726015167
 40
0.3346445329
 40
0.3948750928
 40
0.4537146841
 40
0.5116461428
 40
0.5691988271
 40
0.6268895317
 40
0.6852015288
 40
0.7445792508
 40
0.8054216193
 40
0.8680789801
 40
0.9328531816
 40
1.0
 40
1.0
 40
1.0
 40
1.0
 10
6.5628385305
 20
5.2033950081
 30
0.0
 10
6.5558770107
 20
5.2124901233
 30
0.0
 10
6.54272831
 20
5.2307026613
 30
0.0
 10
6.5251086949
 20
5.2586442838
 30
0.0
 10
6.5124450051
 20
5.2821691779
 30
0.0
 10
6.5036691716
 20
5.3009650659
 30
0.0
 10
6.4959238418
 20
5.3194131764
 30
0.0
 10
6.4878532458
 20
5.3424862954
 30
0.0
 10
6.4808100329
 20
5.3703417902
 30
0.0
 10
6.4765436352
 20
5.398101727
 30
0.0
 10
6.4751094176
 20
5.425730159
 30
0.0
 10
6.47655894
 20
5.4531766505
 30
0.0
 10
6.4808462549
 20
5.4803837967
 30
0.0
 10
6.4879237438
 20
5.5072982464
 30
0.0
 10
6.4977425968
 20
5.5338673979
 30
0.0
 10
6.5102538321
 20
5.5600409345
 30
0.0
 10
6.5254095911
 20
5.5857707214
 30
0.0
 10
6.5431615729
 20
5.6110079599
 30
0.0
 10
6.5564465007
 20
5.6271689089
 30
0.0
 10
6.5634780008
 20
5.6351510619
 30
0.0
  0
SPLINE
  5
403
100
AcDbEntity
  8
0
100
AcDbSpline
 62
7
  6
CONTINUOUS
 70
0
 71
3
 72
24
 73
20
 74
0
 42
0.0000001
 43
0.0000001
 44
0.0000000001
 40
0.0
 40
0.0
 40
0.0
 40
0.0
 40
0.0671468183
 40
0.1319210199
 40
0.1945783806
 40
0.2554207491
 40
0.314798471
 40
0.3731104681
 40
0.4308011728
 40
0.488353857
 40
0.5462853158
 40
0.6051249071
 40
0.665355467
 40
0.7273984832
 40
0.7592205481
 40
0.791624941
 40
0.8583079611
 40
0.927702144
 40
1.0
 40
1.0
 40
1.0
 40
1.0
 10
6.6025345268
 20
5.6351999734
 30
0.0
 10
6.6095859975
 20
5.627235457
 30
0.0
 10
6.6229113616
 20
5.6111078331
 30
0.0
 10
6.6407264987
 20
5.5859151368
 30
0.0
 10
6.6559466548
 20
5.5602233909
 30
0.0
 10
6.668523407
 20
5.534081273
 30
0.0
 10
6.6784087762
 20
5.5075367979
 30
0.0
 10
6.6855536548
 20
5.4806401594
 30
0.0
 10
6.6899091013
 20
5.4534438369
 30
0.0
 10
6.6914273637
 20
5.4260010622
 30
0.0
 10
6.6900623507
 20
5.3983691247
 30
0.0
 10
6.685865496
 20
5.370598589
 30
0.0
 10
6.6788920742
 20
5.3427255406
 30
0.0
 10
6.6708792941
 20
5.3196322798
 30
0.0
 10
6.6631801952
 20
5.3011648277
 30
0.0
 10
6.6544514669
 20
5.282347018
 30
0.0
 10
6.6418467389
 20
5.2587904794
 30
0.0
 10
6.6242971639
 20
5.2308048131
 30
0.0
 10
6.6111941209
 20
5.2125593991
 30
0.0
 10
6.6042554033
 20
5.2034468761
 30
0.0
  0
SPLINE
  5
404
100
AcDbEntity
  8
0
100
AcDbSpline
 62
7
  6
CONTINUOUS
 70
0
 71
3
 72
24
 73
20
 74
0
 42
0.0000001
 43
0.0000001
 44
0.0000000001
 40
0.0
 40
0.0
 40
0.0
 40
0.0
 40
0.072297856
 40
0.1416920389
 40
0.208375059
 40
0.2407794518
 40
0.2726015167
 40
0.3346445329
 40
0.3948750928
 40
0.4537146841
 40
0.5116461428
 40
0.5691988271
 40
0.6268895317
 40
0.6852015288
 40
0.7445792508
 40
0.8054216193
 40
0.8680789801
 40
0.9328531816
 40
1.0
 40
1.0
 40
1.0
 40
1.0
 10
6.5628385305
 20
5.9533950081
 30
0.0
 10
6.5558770107
 20
5.9624901233
 30
0.0
 10
6.54272831
 20
5.9807026613
 30
0.0
 10
6.5251086949
 20
6.0086442838
 30
0.0
 10
6.5124450051
 20
6.0321691779
 30
0.0
 10
6.5036691716
 20
6.0509650659
 30
0.0
 10
6.4959238418
 20
6.0694131764
 30
0.0
 10
6.4878532458
 20
6.0924862954
 30
0.0
 10
6.4808100329
 20
6.1203417902
 30
0.0
 10
6.4765436352
 20
6.148101727
 30
0.0
 10
6.4751094176
 20
6.175730159
 30
0.0
 10
6.47655894
 20
6.2031766505
 30
0.0
 10
6.4808462549
 20
6.2303837967
 30
0.0
 10
6.4879237438
 20
6.2572982464
 30
0.0
 10
6.4977425968
 20
6.2838673979
 30
0.0
 10
6.5102538321
 20
6.3100409345
 30
0.0
 10
6.5254095911
 20
6.3357707214
 30
0.0
 10
6.5431615729
 20
6.3610079599
 30
0.0
 10
6.5564465007
 20
6.3771689089
 30
0.0
 10
6.5634780008
 20
6.3851510619
 30
0.0
  0
SPLINE
  5
405
100
AcDbEntity
  8
0
100
AcDbSpline
 62
7
  6
CONTINUOUS
 70
0
 71
3
 72
24
 73
20
 74
0
 42
0.0000001
 43
0.0000001
 44
0.0000000001
 40
0.0
 40
0.0
 40
0.0
 40
0.0
 40
0.0671468183
 40
0.1319210199
 40
0.1945783806
 40
0.2554207491
 40
0.314798471
 40
0.3731104681
 40
0.4308011728
 40
0.488353857
 40
0.5462853158
 40
0.6051249071
 40
0.665355467
 40
0.7273984832
 40
0.7592205481
 40
0.791624941
 40
0.8583079611
 40
0.927702144
 40
1.0
 40
1.0
 40
1.0
 40
1.0
 10
6.6025345268
 20
6.3851999734
 30
0.0
 10
6.6095859975
 20
6.377235457
 30
0.0
 10
6.6229113616
 20
6.3611078331
 30
0.0
 10
6.6407264987
 20
6.3359151368
 30
0.0
 10
6.6559466548
 20
6.3102233909
 30
0.0
 10
6.668523407
 20
6.284081273
 30
0.0
 10
6.6784087762
 20
6.2575367979
 30
0.0
 10
6.6855536548
 20
6.2306401594
 30
0.0
 10
6.6899091013
 20
6.2034438369
 30
0.0
 10
6.6914273637
 20
6.1760010622
 30
0.0
 10
6.6900623507
 20
6.1483691247
 30
0.0
 10
6.685865496
 20
6.120598589
 30
0.0
 10
6.6788920742
 20
6.0927255406
 30
0.0
 10
6.6708792941
 20
6.0696322798
 30
0.0
 10
6.6631801952
 20
6.0511648277
 30
0.0
 10
6.6544514669
 20
6.032347018
 30
0.0
 10
6.6418467389
 20
6.0087904794
 30
0.0
 10
6.6242971639
 20
5.9808048131
 30
0.0
 10
6.6111941209
 20
5.9625593991
 30
0.0
 10
6.6042554033
 20
5.9534468761
 30
0.0
  0
SPLINE
  5
406
100
AcDbEntity
  8
0
100
AcDbSpline
 62
7
  6
CONTINUOUS
 70
0
 71
3
 72
24
 73
20
 74
0
 42
0.0000001
 43
0.0000001
 44
0.0000000001
 40
0.0
 40
0.0
 40
0.0
 40
0.0
 40
0.0671468183
 40
0.1319210199
 40
0.1945783806
 40
0.2554207491
 40
0.314798471
 40
0.3731104681
 40
0.4308011728
 40
0.488353857
 40
0.5462853158
 40
0.6051249071
 40
0.665355467
 40
0.7273984832
 40
0.7592205481
 40
0.791624941
 40
0.8583079611
 40
0.927702144
 40
1.0
 40
1.0
 40
1.0
 40
1.0
 10
5.5397669414
 20
2.905914292
 30
0.0
 10
5.5431639386
 20
2.9159948261
 30
0.0
 10
5.5505172672
 20
2.9355803856
 30
0.0
 10
5.5634973659
 20
2.963572672
 30
0.0
 10
5.5782021355
 20
2.9895628376
 30
0.0
 10
5.5946134654
 20
3.0134846535
 30
0.0
 10
5.6127135991
 20
3.0352726052
 30
0.0
 10
5.6324834519
 20
3.0548591152
 30
0.0
 10
5.6539018742
 20
3.0721756119
 30
0.0
 10
5.6769464718
 20
3.0871541808
 30
0.0
 10
5.7015905046
 20
3.0997263278
 30
0.0
 10
5.7277645139
 20
3.1099114874
 30
0.0
 10
5.7554096865
 20
3.1177396336
 30
0.0
 10
5.7794268917
 20
3.1222868518
 30
0.0
 10
5.7992760889
 20
3.1248032547
 30
0.0
 10
5.8199417221
 20
3.126601104
 30
0.0
 10
5.8466467229
 20
3.1273964739
 30
0.0
 10
5.8796546853
 20
3.1261082509
 30
0.0
 10
5.9020015562
 20
3.123827411
 30
0.0
 10
5.9133589168
 20
3.1223461157
 30
0.0
  0
SPLINE
  5
407
100
AcDbEntity
  8
0
100
AcDbSpline
 62
7
  6
CONTINUOUS
 70
0
 71
3
 72
24
 73
20
 74
0
 42
0.0000001
 43
0.0000001
 44
0.0000000001
 40
0.0
 40
0.0
 40
0.0
 40
0.0
 40
0.072297856
 40
0.1416920389
 40
0.208375059
 40
0.2407794518
 40
0.2726015167
 40
0.3346445329
 40
0.3948750928
 40
0.4537146841
 40
0.5116461428
 40
0.5691988271
 40
0.6268895317
 40
0.6852015288
 40
0.7445792508
 40
0.8054216193
 40
0.8680789801
 40
0.9328531816
 40
1.0
 40
1.0
 40
1.0
 40
1.0
 10
5.9340224342
 20
3.0864521176
 30
0.0
 10
5.9296001166
 20
3.0758867504
 30
0.0
 10
5.9203506461
 20
3.0554164753
 30
0.0
 10
5.9048891356
 20
3.0262252643
 30
0.0
 10
5.8907909386
 20
3.0035309803
 30
0.0
 10
5.8788586016
 20
2.986562775
 30
0.0
 10
5.8667148683
 20
2.9706614337
 30
0.0
 10
5.8507219079
 20
2.9521755321
 30
0.0
 10
5.8300698508
 20
2.9321998475
 30
0.0
 10
5.8081182887
 20
2.9146799969
 30
0.0
 10
5.7848708352
 20
2.8996818922
 30
0.0
 10
5.7603455639
 20
2.8872753587
 30
0.0
 10
5.7346151345
 20
2.8774491248
 30
0.0
 10
5.7077495229
 20
2.8701884519
 30
0.0
 10
5.6798186485
 20
2.8654771953
 30
0.0
 10
5.6508905341
 20
2.8632979233
 30
0.0
 10
5.6210307514
 20
2.8636330923
 30
0.0
 10
5.5903056677
 20
2.8664651055
 30
0.0
 10
5.5696760537
 20
2.8699413973
 30
0.0
 10
5.5592528448
 20
2.8720658919
 30
0.0
  0
SPLINE
  5
408
100
AcDbEntity
  8
0
100
AcDbSpline
 62
7
  6
CONTINUOUS
 70
0
 71
3
 72
24
 73
20
 74
0
 42
0.0000001
 43
0.0000001
 44
0.0000000001
 40
0.0
 40
0.0
 40
0.0
 40
0.0
 40
0.072297856
 40
0.1416920389
 40
0.208375059
 40
0.2407794518
 40
0.2726015167
 40
0.3346445329
 40
0.3948750928
 40
0.4537146841
 40
0.5116461428
 40
0.5691988271
 40
0.6268895317
 40
0.6852015288
 40
0.7445792508
 40
0.8054216193
 40
0.8680789801
 40
0.9328531816
 40
1.0
 40
1.0
 40
1.0
 40
1.0
 10
6.1030706375
 20
3.1230306072
 30
0.0
 10
6.1144316727
 20
3.1244834513
 30
0.0
 10
6.1367841863
 20
3.1267083125
 30
0.0
 10
6.1697952718
 20
3.1279138571
 30
0.0
 10
6.1964981967
 20
3.1270516024
 30
0.0
 10
6.2171592621
 20
3.1252019981
 30
0.0
 10
6.2370020943
 20
3.1226358872
 30
0.0
 10
6.2610078348
 20
3.1180285279
 30
0.0
 10
6.2886333137
 20
3.1101311641
 30
0.0
 10
6.3147817305
 20
3.0998804791
 30
0.0
 10
6.3393941968
 20
3.0872466461
 30
0.0
 10
6.3624012057
 20
3.0722104049
 30
0.0
 10
6.3837761887
 20
3.0548403163
 30
0.0
 10
6.4034969216
 20
3.0352043506
 30
0.0
 10
6.4215424267
 20
3.0133711322
 30
0.0
 10
6.4378937888
 20
2.9894082862
 30
0.0
 10
6.4525334153
 20
2.9633813713
 30
0.0
 10
6.4654433618
 20
2.9353566618
 30
0.0
 10
6.4727476118
 20
2.915752746
 30
0.0
 10
6.4761193499
 20
2.905663735
 30
0.0
  0
SPLINE
  5
409
100
AcDbEntity
  8
0
100
AcDbSpline
 62
7
  6
CONTINUOUS
 70
0
 71
3
 72
24
 73
20
 74
0
 42
0.0000001
 43
0.0000001
 44
0.0000000001
 40
0.0
 40
0.0
 40
0.0
 40
0.0
 40
0.0671468183
 40
0.1319210199
 40
0.1945783806
 40
0.2554207491
 40
0.314798471
 40
0.3731104681
 40
0.4308011728
 40
0.488353857
 40
0.5462853158
 40
0.6051249071
 40
0.665355467
 40
0.7273984832
 40
0.7592205481
 40
0.791624941
 40
0.8583079611
 40
0.927702144
 40
1.0
 40
1.0
 40
1.0
 40
1.0
 10
6.4565487273
 20
2.8718642476
 30
0.0
 10
6.44612023
 20
2.8697658664
 30
0.0
 10
6.4254819737
 20
2.866341256
 30
0.0
 10
6.3947498932
 20
2.8635862081
 30
0.0
 10
6.3648893647
 20
2.8633258293
 30
0.0
 10
6.3359667995
 20
2.86557755
 30
0.0
 10
6.308047813
 20
2.8703587497
 30
0.0
 10
6.2812004713
 20
2.8776866894
 30
0.0
 10
6.2554947341
 20
2.8875773389
 30
0.0
 10
6.2310006142
 20
2.9000452614
 30
0.0
 10
6.2077907991
 20
2.9151015464
 30
0.0
 10
6.1858831874
 20
2.9326763236
 30
0.0
 10
6.1652812278
 20
2.9527036722
 30
0.0
 10
6.1493346186
 20
2.9712295729
 30
0.0
 10
6.1372307512
 20
2.9871612805
 30
0.0
 10
6.1253409514
 20
3.0041593192
 30
0.0
 10
6.1112996405
 20
3.0268888433
 30
0.0
 10
6.0959112931
 20
3.0561186888
 30
0.0
 10
6.086713123
 20
3.0766120666
 30
0.0
 10
6.0823172821
 20
3.0871884771
 30
0.0
  0
SPLINE
  5
40A
100
AcDbEntity
  8
0
100
AcDbSpline
 62
7
  6
CONTINUOUS
 70
0
 71
3
 72
24
 73
20
 74
0
 42
0.0000001
 43
0.0000001
 44
0.0000000001
 40
0.0
 40
0.0
 40
0.0
 40
0.0
 40
0.0671468183
 40
0.1319210199
 40
0.1945783806
 40
0.2554207491
 40
0.314798471
 40
0.3731104681
 40
0.4308011728
 40
0.488353857
 40
0.5462853158
 40
0.6051249071
 40
0.665355467
 40
0.7273984832
 40
0.7592205481
 40
0.791624941
 40
0.8583079611
 40
0.927702144
 40
1.0
 40
1.0
 40
1.0
 40
1.0
 10
6.4761193496
 20
3.4354418369
 30
0.0
 10
6.4727476115
 20
3.425352826
 30
0.0
 10
6.4654433615
 20
3.4057489103
 30
0.0
 10
6.452533415
 20
3.3777242008
 30
0.0
 10
6.4378937885
 20
3.351697286
 30
0.0
 10
6.4215424264
 20
3.3277344401
 30
0.0
 10
6.4034969213
 20
3.3059012218
 30
0.0
 10
6.3837761883
 20
3.2862652561
 30
0.0
 10
6.3624012054
 20
3.2688951676
 30
0.0
 10
6.3393941965
 20
3.2538589264
 30
0.0
 10
6.3147817302
 20
3.2412250935
 30
0.0
 10
6.2886333135
 20
3.2309744085
 30
0.0
 10
6.2610078346
 20
3.2230770447
 30
0.0
 10
6.2370020941
 20
3.2184696855
 30
0.0
 10
6.2171592619
 20
3.2159035746
 30
0.0
 10
6.1964981965
 20
3.2140539703
 30
0.0
 10
6.1697952717
 20
3.2131917156
 30
0.0
 10
6.1367841862
 20
3.2143972602
 30
0.0
 10
6.1144316727
 20
3.2166221214
 30
0.0
 10
6.1030706375
 20
3.2180749655
 30
0.0
  0
SPLINE
  5
40B
100
AcDbEntity
  8
0
100
AcDbSpline
 62
7
  6
CONTINUOUS
 70
0
 71
3
 72
24
 73
20
 74
0
 42
0.0000001
 43
0.0000001
 44
0.0000000001
 40
0.0
 40
0.0
 40
0.0
 40
0.0
 40
0.072297856
 40
0.1416920389
 40
0.208375059
 40
0.2407794518
 40
0.2726015167
 40
0.3346445329
 40
0.3948750928
 40
0.4537146841
 40
0.5116461428
 40
0.5691988271
 40
0.6268895317
 40
0.6852015288
 40
0.7445792508
 40
0.8054216193
 40
0.8680789801
 40
0.9328531816
 40
1.0
 40
1.0
 40
1.0
 40
1.0
 10
6.0823172821
 20
3.2539170956
 30
0.0
 10
6.086713123
 20
3.2644935061
 30
0.0
 10
6.0959112931
 20
3.284986884
 30
0.0
 10
6.1112996406
 20
3.3142167295
 30
0.0
 10
6.1253409515
 20
3.3369462536
 30
0.0
 10
6.1372307513
 20
3.3539442924
 30
0.0
 10
6.1493346188
 20
3.3698759999
 30
0.0
 10
6.1652812279
 20
3.3884019007
 30
0.0
 10
6.1858831876
 20
3.4084292493
 30
0.0
 10
6.2077907993
 20
3.4260040265
 30
0.0
 10
6.2310006145
 20
3.4410603114
 30
0.0
 10
6.2554947345
 20
3.4535282339
 30
0.0
 10
6.2812004717
 20
3.4634188834
 30
0.0
 10
6.3080478134
 20
3.4707468231
 30
0.0
 10
6.3359668
 20
3.4755280228
 30
0.0
 10
6.3648893653
 20
3.4777797434
 30
0.0
 10
6.3947498938
 20
3.4775193646
 30
0.0
 10
6.4254819744
 20
3.4747643166
 30
0.0
 10
6.4461202307
 20
3.4713397061
 30
0.0
 10
6.4565487281
 20
3.4692413249
 30
0.0
  0
SPLINE
  5
40C
100
AcDbEntity
  8
0
100
AcDbSpline
 62
7
  6
CONTINUOUS
 70
0
 71
3
 72
24
 73
20
 74
0
 42
0.0000001
 43
0.0000001
 44
0.0000000001
 40
0.0
 40
0.0
 40
0.0
 40
0.0
 40
0.072297856
 40
0.1416920389
 40
0.208375059
 40
0.2407794518
 40
0.2726015167
 40
0.3346445329
 40
0.3948750928
 40
0.4537146841
 40
0.5116461428
 40
0.5691988271
 40
0.6268895317
 40
0.6852015288
 40
0.7445792508
 40
0.8054216193
 40
0.8680789801
 40
0.9328531816
 40
1.0
 40
1.0
 40
1.0
 40
1.0
 10
6.5628385305
 20
2.9533950081
 30
0.0
 10
6.5558770107
 20
2.9624901233
 30
0.0
 10
6.54272831
 20
2.9807026613
 30
0.0
 10
6.5251086949
 20
3.0086442838
 30
0.0
 10
6.5124450051
 20
3.0321691779
 30
0.0
 10
6.5036691716
 20
3.0509650659
 30
0.0
 10
6.4959238418
 20
3.0694131764
 30
0.0
 10
6.4878532458
 20
3.0924862954
 30
0.0
 10
6.4808100329
 20
3.1203417902
 30
0.0
 10
6.4765436352
 20
3.148101727
 30
0.0
 10
6.4751094176
 20
3.175730159
 30
0.0
 10
6.47655894
 20
3.2031766505
 30
0.0
 10
6.4808462549
 20
3.2303837967
 30
0.0
 10
6.4879237438
 20
3.2572982464
 30
0.0
 10
6.4977425968
 20
3.2838673979
 30
0.0
 10
6.5102538321
 20
3.3100409345
 30
0.0
 10
6.5254095911
 20
3.3357707214
 30
0.0
 10
6.5431615729
 20
3.3610079599
 30
0.0
 10
6.5564465007
 20
3.3771689089
 30
0.0
 10
6.5634780008
 20
3.3851510619
 30
0.0
  0
SPLINE
  5
40D
100
AcDbEntity
  8
0
100
AcDbSpline
 62
7
  6
CONTINUOUS
 70
0
 71
3
 72
24
 73
20
 74
0
 42
0.0000001
 43
0.0000001
 44
0.0000000001
 40
0.0
 40
0.0
 40
0.0
 40
0.0
 40
0.0671468183
 40
0.1319210199
 40
0.1945783806
 40
0.2554207491
 40
0.314798471
 40
0.3731104681
 40
0.4308011728
 40
0.488353857
 40
0.5462853158
 40
0.6051249071
 40
0.665355467
 40
0.7273984832
 40
0.7592205481
 40
0.791624941
 40
0.8583079611
 40
0.927702144
 40
1.0
 40
1.0
 40
1.0
 40
1.0
 10
6.6025345268
 20
3.3851999734
 30
0.0
 10
6.6095859975
 20
3.377235457
 30
0.0
 10
6.6229113616
 20
3.3611078331
 30
0.0
 10
6.6407264987
 20
3.3359151368
 30
0.0
 10
6.6559466548
 20
3.3102233909
 30
0.0
 10
6.668523407
 20
3.284081273
 30
0.0
 10
6.6784087762
 20
3.2575367979
 30
0.0
 10
6.6855536548
 20
3.2306401594
 30
0.0
 10
6.6899091013
 20
3.2034438369
 30
0.0
 10
6.6914273637
 20
3.1760010622
 30
0.0
 10
6.6900623507
 20
3.1483691247
 30
0.0
 10
6.685865496
 20
3.120598589
 30
0.0
 10
6.6788920742
 20
3.0927255406
 30
0.0
 10
6.6708792941
 20
3.0696322798
 30
0.0
 10
6.6631801952
 20
3.0511648277
 30
0.0
 10
6.6544514669
 20
3.032347018
 30
0.0
 10
6.6418467389
 20
3.0087904794
 30
0.0
 10
6.6242971639
 20
2.9808048131
 30
0.0
 10
6.6111941209
 20
2.9625593991
 30
0.0
 10
6.6042554033
 20
2.9534468761
 30
0.0
  0
SPLINE
  5
40E
100
AcDbEntity
  8
0
100
AcDbSpline
 62
7
  6
CONTINUOUS
 70
0
 71
3
 72
24
 73
20
 74
0
 42
0.0000001
 43
0.0000001
 44
0.0000000001
 40
0.0
 40
0.0
 40
0.0
 40
0.0
 40
0.072297856
 40
0.1416920389
 40
0.208375059
 40
0.2407794518
 40
0.2726015167
 40
0.3346445329
 40
0.3948750928
 40
0.4537146841
 40
0.5116461428
 40
0.5691988271
 40
0.6268895317
 40
0.6852015288
 40
0.7445792508
 40
0.8054216193
 40
0.8680789801
 40
0.9328531816
 40
1.0
 40
1.0
 40
1.0
 40
1.0
 10
6.5628385305
 20
3.7033950081
 30
0.0
 10
6.5558770107
 20
3.7124901233
 30
0.0
 10
6.54272831
 20
3.7307026613
 30
0.0
 10
6.5251086949
 20
3.7586442838
 30
0.0
 10
6.5124450051
 20
3.7821691779
 30
0.0
 10
6.5036691716
 20
3.8009650659
 30
0.0
 10
6.4959238418
 20
3.8194131764
 30
0.0
 10
6.4878532458
 20
3.8424862954
 30
0.0
 10
6.4808100329
 20
3.8703417902
 30
0.0
 10
6.4765436352
 20
3.898101727
 30
0.0
 10
6.4751094176
 20
3.925730159
 30
0.0
 10
6.47655894
 20
3.9531766505
 30
0.0
 10
6.4808462549
 20
3.9803837967
 30
0.0
 10
6.4879237438
 20
4.0072982464
 30
0.0
 10
6.4977425968
 20
4.0338673979
 30
0.0
 10
6.5102538321
 20
4.0600409345
 30
0.0
 10
6.5254095911
 20
4.0857707214
 30
0.0
 10
6.5431615729
 20
4.1110079599
 30
0.0
 10
6.5564465007
 20
4.1271689089
 30
0.0
 10
6.5634780008
 20
4.1351510619
 30
0.0
  0
SPLINE
  5
40F
100
AcDbEntity
  8
0
100
AcDbSpline
 62
7
  6
CONTINUOUS
 70
0
 71
3
 72
24
 73
20
 74
0
 42
0.0000001
 43
0.0000001
 44
0.0000000001
 40
0.0
 40
0.0
 40
0.0
 40
0.0
 40
0.0671468183
 40
0.1319210199
 40
0.1945783806
 40
0.2554207491
 40
0.314798471
 40
0.3731104681
 40
0.4308011728
 40
0.488353857
 40
0.5462853158
 40
0.6051249071
 40
0.665355467
 40
0.7273984832
 40
0.7592205481
 40
0.791624941
 40
0.8583079611
 40
0.927702144
 40
1.0
 40
1.0
 40
1.0
 40
1.0
 10
6.6025345268
 20
4.1351999734
 30
0.0
 10
6.6095859975
 20
4.127235457
 30
0.0
 10
6.6229113616
 20
4.1111078331
 30
0.0
 10
6.6407264987
 20
4.0859151368
 30
0.0
 10
6.6559466548
 20
4.0602233909
 30
0.0
 10
6.668523407
 20
4.034081273
 30
0.0
 10
6.6784087762
 20
4.0075367979
 30
0.0
 10
6.6855536548
 20
3.9806401594
 30
0.0
 10
6.6899091013
 20
3.9534438369
 30
0.0
 10
6.6914273637
 20
3.9260010622
 30
0.0
 10
6.6900623507
 20
3.8983691247
 30
0.0
 10
6.685865496
 20
3.870598589
 30
0.0
 10
6.6788920742
 20
3.8427255406
 30
0.0
 10
6.6708792941
 20
3.8196322798
 30
0.0
 10
6.6631801952
 20
3.8011648277
 30
0.0
 10
6.6544514669
 20
3.782347018
 30
0.0
 10
6.6418467389
 20
3.7587904794
 30
0.0
 10
6.6242971639
 20
3.7308048131
 30
0.0
 10
6.6111941209
 20
3.7125593991
 30
0.0
 10
6.6042554033
 20
3.7034468761
 30
0.0
  0
SPLINE
  5
410
100
AcDbEntity
  8
0
100
AcDbSpline
 62
7
  6
CONTINUOUS
 70
0
 71
3
 72
24
 73
20
 74
0
 42
0.0000001
 43
0.0000001
 44
0.0000000001
 40
0.0
 40
0.0
 40
0.0
 40
0.0
 40
0.072297856
 40
0.1416920389
 40
0.208375059
 40
0.2407794518
 40
0.2726015167
 40
0.3346445329
 40
0.3948750928
 40
0.4537146841
 40
0.5116461428
 40
0.5691988271
 40
0.6268895317
 40
0.6852015288
 40
0.7445792508
 40
0.8054216193
 40
0.8680789801
 40
0.9328531816
 40
1.0
 40
1.0
 40
1.0
 40
1.0
 10
5.4128385305
 20
3.7033950081
 30
0.0
 10
5.4058770107
 20
3.7124901233
 30
0.0
 10
5.39272831
 20
3.7307026613
 30
0.0
 10
5.3751086949
 20
3.7586442838
 30
0.0
 10
5.3624450051
 20
3.7821691779
 30
0.0
 10
5.3536691716
 20
3.8009650659
 30
0.0
 10
5.3459238418
 20
3.8194131764
 30
0.0
 10
5.3378532458
 20
3.8424862954
 30
0.0
 10
5.3308100329
 20
3.8703417902
 30
0.0
 10
5.3265436352
 20
3.898101727
 30
0.0
 10
5.3251094176
 20
3.925730159
 30
0.0
 10
5.32655894
 20
3.9531766505
 30
0.0
 10
5.3308462549
 20
3.9803837967
 30
0.0
 10
5.3379237438
 20
4.0072982464
 30
0.0
 10
5.3477425968
 20
4.0338673979
 30
0.0
 10
5.3602538321
 20
4.0600409345
 30
0.0
 10
5.3754095911
 20
4.0857707214
 30
0.0
 10
5.3931615729
 20
4.1110079599
 30
0.0
 10
5.4064465007
 20
4.1271689089
 30
0.0
 10
5.4134780008
 20
4.1351510619
 30
0.0
  0
SPLINE
  5
411
100
AcDbEntity
  8
0
100
AcDbSpline
 62
7
  6
CONTINUOUS
 70
0
 71
3
 72
24
 73
20
 74
0
 42
0.0000001
 43
0.0000001
 44
0.0000000001
 40
0.0
 40
0.0
 40
0.0
 40
0.0
 40
0.0671468183
 40
0.1319210199
 40
0.1945783806
 40
0.2554207491
 40
0.314798471
 40
0.3731104681
 40
0.4308011728
 40
0.488353857
 40
0.5462853158
 40
0.6051249071
 40
0.665355467
 40
0.7273984832
 40
0.7592205481
 40
0.791624941
 40
0.8583079611
 40
0.927702144
 40
1.0
 40
1.0
 40
1.0
 40
1.0
 10
5.4525345268
 20
4.1351999734
 30
0.0
 10
5.4595859975
 20
4.127235457
 30
0.0
 10
5.4729113616
 20
4.1111078331
 30
0.0
 10
5.4907264987
 20
4.0859151368
 30
0.0
 10
5.5059466548
 20
4.0602233909
 30
0.0
 10
5.518523407
 20
4.034081273
 30
0.0
 10
5.5284087762
 20
4.0075367979
 30
0.0
 10
5.5355536548
 20
3.9806401594
 30
0.0
 10
5.5399091013
 20
3.9534438369
 30
0.0
 10
5.5414273637
 20
3.9260010622
 30
0.0
 10
5.5400623507
 20
3.8983691247
 30
0.0
 10
5.535865496
 20
3.870598589
 30
0.0
 10
5.5288920742
 20
3.8427255406
 30
0.0
 10
5.5208792941
 20
3.8196322798
 30
0.0
 10
5.5131801952
 20
3.8011648277
 30
0.0
 10
5.5044514669
 20
3.782347018
 30
0.0
 10
5.4918467389
 20
3.7587904794
 30
0.0
 10
5.4742971639
 20
3.7308048131
 30
0.0
 10
5.4611941209
 20
3.7125593991
 30
0.0
 10
5.4542554033
 20
3.7034468761
 30
0.0
  0
SPLINE
  5
412
100
AcDbEntity
  8
0
100
AcDbSpline
 62
7
  6
CONTINUOUS
 70
0
 71
3
 72
24
 73
20
 74
0
 42
0.0000001
 43
0.0000001
 44
0.0000000001
 40
0.0
 40
0.0
 40
0.0
 40
0.0
 40
0.0671468183
 40
0.1319210199
 40
0.1945783806
 40
0.2554207491
 40
0.314798471
 40
0.3731104681
 40
0.4308011728
 40
0.488353857
 40
0.5462853158
 40
0.6051249071
 40
0.665355467
 40
0.7273984832
 40
0.7592205481
 40
0.791624941
 40
0.8583079611
 40
0.927702144
 40
1.0
 40
1.0
 40
1.0
 40
1.0
 10
4.3897669414
 20
3.655914292
 30
0.0
 10
4.3931639386
 20
3.6659948261
 30
0.0
 10
4.4005172672
 20
3.6855803856
 30
0.0
 10
4.4134973659
 20
3.713572672
 30
0.0
 10
4.4282021355
 20
3.7395628376
 30
0.0
 10
4.4446134654
 20
3.7634846535
 30
0.0
 10
4.4627135991
 20
3.7852726052
 30
0.0
 10
4.4824834519
 20
3.8048591152
 30
0.0
 10
4.5039018742
 20
3.8221756119
 30
0.0
 10
4.5269464718
 20
3.8371541808
 30
0.0
 10
4.5515905046
 20
3.8497263278
 30
0.0
 10
4.5777645139
 20
3.8599114874
 30
0.0
 10
4.6054096865
 20
3.8677396336
 30
0.0
 10
4.6294268917
 20
3.8722868518
 30
0.0
 10
4.6492760889
 20
3.8748032547
 30
0.0
 10
4.6699417221
 20
3.876601104
 30
0.0
 10
4.6966467229
 20
3.8773964739
 30
0.0
 10
4.7296546853
 20
3.8761082509
 30
0.0
 10
4.7520015562
 20
3.873827411
 30
0.0
 10
4.7633589168
 20
3.8723461157
 30
0.0
  0
SPLINE
  5
413
100
AcDbEntity
  8
0
100
AcDbSpline
 62
7
  6
CONTINUOUS
 70
0
 71
3
 72
24
 73
20
 74
0
 42
0.0000001
 43
0.0000001
 44
0.0000000001
 40
0.0
 40
0.0
 40
0.0
 40
0.0
 40
0.072297856
 40
0.1416920389
 40
0.208375059
 40
0.2407794518
 40
0.2726015167
 40
0.3346445329
 40
0.3948750928
 40
0.4537146841
 40
0.5116461428
 40
0.5691988271
 40
0.6268895317
 40
0.6852015288
 40
0.7445792508
 40
0.8054216193
 40
0.8680789801
 40
0.9328531816
 40
1.0
 40
1.0
 40
1.0
 40
1.0
 10
4.7840224342
 20
3.8364521176
 30
0.0
 10
4.7796001166
 20
3.8258867504
 30
0.0
 10
4.7703506461
 20
3.8054164753
 30
0.0
 10
4.7548891356
 20
3.7762252643
 30
0.0
 10
4.7407909386
 20
3.7535309803
 30
0.0
 10
4.7288586016
 20
3.736562775
 30
0.0
 10
4.7167148683
 20
3.7206614337
 30
0.0
 10
4.7007219079
 20
3.7021755321
 30
0.0
 10
4.6800698508
 20
3.6821998475
 30
0.0
 10
4.6581182887
 20
3.6646799969
 30
0.0
 10
4.6348708352
 20
3.6496818922
 30
0.0
 10
4.6103455639
 20
3.6372753587
 30
0.0
 10
4.5846151345
 20
3.6274491248
 30
0.0
 10
4.5577495229
 20
3.6201884519
 30
0.0
 10
4.5298186485
 20
3.6154771953
 30
0.0
 10
4.5008905341
 20
3.6132979233
 30
0.0
 10
4.4710307514
 20
3.6136330923
 30
0.0
 10
4.4403056677
 20
3.6164651055
 30
0.0
 10
4.4196760537
 20
3.6199413973
 30
0.0
 10
4.4092528448
 20
3.6220658919
 30
0.0
  0
SPLINE
  5
414
100
AcDbEntity
  8
0
100
AcDbSpline
 62
7
  6
CONTINUOUS
 70
0
 71
3
 72
24
 73
20
 74
0
 42
0.0000001
 43
0.0000001
 44
0.0000000001
 40
0.0
 40
0.0
 40
0.0
 40
0.0
 40
0.072297856
 40
0.1416920389
 40
0.208375059
 40
0.2407794518
 40
0.2726015167
 40
0.3346445329
 40
0.3948750928
 40
0.4537146841
 40
0.5116461428
 40
0.5691988271
 40
0.6268895317
 40
0.6852015288
 40
0.7445792508
 40
0.8054216193
 40
0.8680789801
 40
0.9328531816
 40
1.0
 40
1.0
 40
1.0
 40
1.0
 10
4.9530706375
 20
3.8730306072
 30
0.0
 10
4.9644316727
 20
3.8744834513
 30
0.0
 10
4.9867841863
 20
3.8767083125
 30
0.0
 10
5.0197952718
 20
3.8779138571
 30
0.0
 10
5.0464981967
 20
3.8770516024
 30
0.0
 10
5.0671592621
 20
3.8752019981
 30
0.0
 10
5.0870020943
 20
3.8726358872
 30
0.0
 10
5.1110078348
 20
3.8680285279
 30
0.0
 10
5.1386333137
 20
3.8601311641
 30
0.0
 10
5.1647817305
 20
3.8498804791
 30
0.0
 10
5.1893941968
 20
3.8372466461
 30
0.0
 10
5.2124012057
 20
3.8222104049
 30
0.0
 10
5.2337761887
 20
3.8048403163
 30
0.0
 10
5.2534969216
 20
3.7852043506
 30
0.0
 10
5.2715424267
 20
3.7633711322
 30
0.0
 10
5.2878937888
 20
3.7394082862
 30
0.0
 10
5.3025334153
 20
3.7133813713
 30
0.0
 10
5.3154433618
 20
3.6853566618
 30
0.0
 10
5.3227476118
 20
3.665752746
 30
0.0
 10
5.3261193499
 20
3.655663735
 30
0.0
  0
SPLINE
  5
415
100
AcDbEntity
  8
0
100
AcDbSpline
 62
7
  6
CONTINUOUS
 70
0
 71
3
 72
24
 73
20
 74
0
 42
0.0000001
 43
0.0000001
 44
0.0000000001
 40
0.0
 40
0.0
 40
0.0
 40
0.0
 40
0.0671468183
 40
0.1319210199
 40
0.1945783806
 40
0.2554207491
 40
0.314798471
 40
0.3731104681
 40
0.4308011728
 40
0.488353857
 40
0.5462853158
 40
0.6051249071
 40
0.665355467
 40
0.7273984832
 40
0.7592205481
 40
0.791624941
 40
0.8583079611
 40
0.927702144
 40
1.0
 40
1.0
 40
1.0
 40
1.0
 10
5.3065487273
 20
3.6218642476
 30
0.0
 10
5.29612023
 20
3.6197658664
 30
0.0
 10
5.2754819737
 20
3.616341256
 30
0.0
 10
5.2447498932
 20
3.6135862081
 30
0.0
 10
5.2148893647
 20
3.6133258293
 30
0.0
 10
5.1859667995
 20
3.61557755
 30
0.0
 10
5.158047813
 20
3.6203587497
 30
0.0
 10
5.1312004713
 20
3.6276866894
 30
0.0
 10
5.1054947341
 20
3.6375773389
 30
0.0
 10
5.0810006142
 20
3.6500452614
 30
0.0
 10
5.0577907991
 20
3.6651015464
 30
0.0
 10
5.0358831874
 20
3.6826763236
 30
0.0
 10
5.0152812278
 20
3.7027036722
 30
0.0
 10
4.9993346186
 20
3.7212295729
 30
0.0
 10
4.9872307512
 20
3.7371612805
 30
0.0
 10
4.9753409514
 20
3.7541593192
 30
0.0
 10
4.9612996405
 20
3.7768888433
 30
0.0
 10
4.9459112931
 20
3.8061186888
 30
0.0
 10
4.936713123
 20
3.8266120666
 30
0.0
 10
4.9323172821
 20
3.8371884771
 30
0.0
  0
SPLINE
  5
416
100
AcDbEntity
  8
0
100
AcDbSpline
 62
7
  6
CONTINUOUS
 70
0
 71
3
 72
24
 73
20
 74
0
 42
0.0000001
 43
0.0000001
 44
0.0000000001
 40
0.0
 40
0.0
 40
0.0
 40
0.0
 40
0.0671468183
 40
0.1319210199
 40
0.1945783806
 40
0.2554207491
 40
0.314798471
 40
0.3731104681
 40
0.4308011728
 40
0.488353857
 40
0.5462853158
 40
0.6051249071
 40
0.665355467
 40
0.7273984832
 40
0.7592205481
 40
0.791624941
 40
0.8583079611
 40
0.927702144
 40
1.0
 40
1.0
 40
1.0
 40
1.0
 10
5.3261193496
 20
4.1854418369
 30
0.0
 10
5.3227476115
 20
4.175352826
 30
0.0
 10
5.3154433615
 20
4.1557489103
 30
0.0
 10
5.302533415
 20
4.1277242008
 30
0.0
 10
5.2878937885
 20
4.101697286
 30
0.0
 10
5.2715424264
 20
4.0777344401
 30
0.0
 10
5.2534969213
 20
4.0559012218
 30
0.0
 10
5.2337761883
 20
4.0362652561
 30
0.0
 10
5.2124012054
 20
4.0188951676
 30
0.0
 10
5.1893941965
 20
4.0038589264
 30
0.0
 10
5.1647817302
 20
3.9912250935
 30
0.0
 10
5.1386333135
 20
3.9809744085
 30
0.0
 10
5.1110078346
 20
3.9730770447
 30
0.0
 10
5.0870020941
 20
3.9684696855
 30
0.0
 10
5.0671592619
 20
3.9659035746
 30
0.0
 10
5.0464981965
 20
3.9640539703
 30
0.0
 10
5.0197952717
 20
3.9631917156
 30
0.0
 10
4.9867841862
 20
3.9643972602
 30
0.0
 10
4.9644316727
 20
3.9666221214
 30
0.0
 10
4.9530706375
 20
3.9680749655
 30
0.0
  0
SPLINE
  5
417
100
AcDbEntity
  8
0
100
AcDbSpline
 62
7
  6
CONTINUOUS
 70
0
 71
3
 72
24
 73
20
 74
0
 42
0.0000001
 43
0.0000001
 44
0.0000000001
 40
0.0
 40
0.0
 40
0.0
 40
0.0
 40
0.072297856
 40
0.1416920389
 40
0.208375059
 40
0.2407794518
 40
0.2726015167
 40
0.3346445329
 40
0.3948750928
 40
0.4537146841
 40
0.5116461428
 40
0.5691988271
 40
0.6268895317
 40
0.6852015288
 40
0.7445792508
 40
0.8054216193
 40
0.8680789801
 40
0.9328531816
 40
1.0
 40
1.0
 40
1.0
 40
1.0
 10
4.9323172821
 20
4.0039170956
 30
0.0
 10
4.936713123
 20
4.0144935061
 30
0.0
 10
4.9459112931
 20
4.034986884
 30
0.0
 10
4.9612996406
 20
4.0642167295
 30
0.0
 10
4.9753409515
 20
4.0869462536
 30
0.0
 10
4.9872307513
 20
4.1039442924
 30
0.0
 10
4.9993346188
 20
4.1198759999
 30
0.0
 10
5.0152812279
 20
4.1384019007
 30
0.0
 10
5.0358831876
 20
4.1584292493
 30
0.0
 10
5.0577907993
 20
4.1760040265
 30
0.0
 10
5.0810006145
 20
4.1910603114
 30
0.0
 10
5.1054947345
 20
4.2035282339
 30
0.0
 10
5.1312004717
 20
4.2134188834
 30
0.0
 10
5.1580478134
 20
4.2207468231
 30
0.0
 10
5.1859668
 20
4.2255280228
 30
0.0
 10
5.2148893653
 20
4.2277797434
 30
0.0
 10
5.2447498938
 20
4.2275193646
 30
0.0
 10
5.2754819744
 20
4.2247643166
 30
0.0
 10
5.2961202307
 20
4.2213397061
 30
0.0
 10
5.3065487281
 20
4.2192413249
 30
0.0
  0
SPLINE
  5
418
100
AcDbEntity
  8
0
100
AcDbSpline
 62
7
  6
CONTINUOUS
 70
0
 71
3
 72
24
 73
20
 74
0
 42
0.0000001
 43
0.0000001
 44
0.0000000001
 40
0.0
 40
0.0
 40
0.0
 40
0.0
 40
0.0671468183
 40
0.1319210199
 40
0.1945783806
 40
0.2554207491
 40
0.314798471
 40
0.3731104681
 40
0.4308011728
 40
0.488353857
 40
0.5462853158
 40
0.6051249071
 40
0.665355467
 40
0.7273984832
 40
0.7592205481
 40
0.791624941
 40
0.8583079611
 40
0.927702144
 40
1.0
 40
1.0
 40
1.0
 40
1.0
 10
4.4092528456
 20
4.2190396809
 30
0.0
 10
4.4196760544
 20
4.2211641756
 30
0.0
 10
4.4403056685
 20
4.2246404673
 30
0.0
 10
4.471030752
 20
4.2274724805
 30
0.0
 10
4.5008905347
 20
4.2278076494
 30
0.0
 10
4.529818649
 20
4.2256283774
 30
0.0
 10
4.5577495233
 20
4.2209171207
 30
0.0
 10
4.5846151349
 20
4.2136564478
 30
0.0
 10
4.6103455643
 20
4.2038302139
 30
0.0
 10
4.6348708355
 20
4.1914236803
 30
0.0
 10
4.6581182889
 20
4.1764255757
 30
0.0
 10
4.6800698509
 20
4.158905725
 30
0.0
 10
4.700721908
 20
4.1389300404
 30
0.0
 10
4.7167148685
 20
4.1204441389
 30
0.0
 10
4.7288586017
 20
4.1045427976
 30
0.0
 10
4.7407909387
 20
4.0875745922
 30
0.0
 10
4.7548891356
 20
4.0648803083
 30
0.0
 10
4.7703506461
 20
4.0356890974
 30
0.0
 10
4.7796001166
 20
4.0152188222
 30
0.0
 10
4.7840224342
 20
4.0046534551
 30
0.0
  0
SPLINE
  5
419
100
AcDbEntity
  8
0
100
AcDbSpline
 62
7
  6
CONTINUOUS
 70
0
 71
3
 72
24
 73
20
 74
0
 42
0.0000001
 43
0.0000001
 44
0.0000000001
 40
0.0
 40
0.0
 40
0.0
 40
0.0
 40
0.072297856
 40
0.1416920389
 40
0.208375059
 40
0.2407794518
 40
0.2726015167
 40
0.3346445329
 40
0.3948750928
 40
0.4537146841
 40
0.5116461428
 40
0.5691988271
 40
0.6268895317
 40
0.6852015288
 40
0.7445792508
 40
0.8054216193
 40
0.8680789801
 40
0.9328531816
 40
1.0
 40
1.0
 40
1.0
 40
1.0
 10
4.7633589168
 20
3.9687594571
 30
0.0
 10
4.7520015561
 20
3.9672781617
 30
0.0
 10
4.7296546852
 20
3.9649973218
 30
0.0
 10
4.6966467227
 20
3.9637090989
 30
0.0
 10
4.6699417219
 20
3.9645044687
 30
0.0
 10
4.6492760887
 20
3.966302318
 30
0.0
 10
4.6294268915
 20
3.968818721
 30
0.0
 10
4.6054096862
 20
3.9733659392
 30
0.0
 10
4.5777645137
 20
3.9811940854
 30
0.0
 10
4.5515905043
 20
3.991379245
 30
0.0
 10
4.5269464715
 20
4.0039513921
 30
0.0
 10
4.5039018739
 20
4.018929961
 30
0.0
 10
4.4824834516
 20
4.0362464578
 30
0.0
 10
4.4627135988
 20
4.0558329679
 30
0.0
 10
4.4446134651
 20
4.0776209197
 30
0.0
 10
4.4282021352
 20
4.1015427356
 30
0.0
 10
4.4134973656
 20
4.1275329013
 30
0.0
 10
4.4005172669
 20
4.1555251878
 30
0.0
 10
4.3931639384
 20
4.1751107473
 30
0.0
 10
4.3897669411
 20
4.1851912815
 30
0.0
  0
SPLINE
  5
41A
100
AcDbEntity
  8
0
100
AcDbSpline
 62
7
  6
CONTINUOUS
 70
0
 71
3
 72
24
 73
20
 74
0
 42
0.0000001
 43
0.0000001
 44
0.0000000001
 40
0.0
 40
0.0
 40
0.0
 40
0.0
 40
0.0671468183
 40
0.1319210199
 40
0.1945783806
 40
0.2554207491
 40
0.314798471
 40
0.3731104681
 40
0.4308011728
 40
0.488353857
 40
0.5462853158
 40
0.6051249071
 40
0.665355467
 40
0.7273984832
 40
0.7592205481
 40
0.791624941
 40
0.8583079611
 40
0.927702144
 40
1.0
 40
1.0
 40
1.0
 40
1.0
 10
4.3897669414
 20
4.405914292
 30
0.0
 10
4.3931639386
 20
4.4159948261
 30
0.0
 10
4.4005172672
 20
4.4355803856
 30
0.0
 10
4.4134973659
 20
4.463572672
 30
0.0
 10
4.4282021355
 20
4.4895628376
 30
0.0
 10
4.4446134654
 20
4.5134846535
 30
0.0
 10
4.4627135991
 20
4.5352726052
 30
0.0
 10
4.4824834519
 20
4.5548591152
 30
0.0
 10
4.5039018742
 20
4.5721756119
 30
0.0
 10
4.5269464718
 20
4.5871541808
 30
0.0
 10
4.5515905046
 20
4.5997263278
 30
0.0
 10
4.5777645139
 20
4.6099114874
 30
0.0
 10
4.6054096865
 20
4.6177396336
 30
0.0
 10
4.6294268917
 20
4.6222868518
 30
0.0
 10
4.6492760889
 20
4.6248032547
 30
0.0
 10
4.6699417221
 20
4.626601104
 30
0.0
 10
4.6966467229
 20
4.6273964739
 30
0.0
 10
4.7296546853
 20
4.6261082509
 30
0.0
 10
4.7520015562
 20
4.623827411
 30
0.0
 10
4.7633589168
 20
4.6223461157
 30
0.0
  0
SPLINE
  5
41B
100
AcDbEntity
  8
0
100
AcDbSpline
 62
7
  6
CONTINUOUS
 70
0
 71
3
 72
24
 73
20
 74
0
 42
0.0000001
 43
0.0000001
 44
0.0000000001
 40
0.0
 40
0.0
 40
0.0
 40
0.0
 40
0.072297856
 40
0.1416920389
 40
0.208375059
 40
0.2407794518
 40
0.2726015167
 40
0.3346445329
 40
0.3948750928
 40
0.4537146841
 40
0.5116461428
 40
0.5691988271
 40
0.6268895317
 40
0.6852015288
 40
0.7445792508
 40
0.8054216193
 40
0.8680789801
 40
0.9328531816
 40
1.0
 40
1.0
 40
1.0
 40
1.0
 10
4.7840224342
 20
4.5864521176
 30
0.0
 10
4.7796001166
 20
4.5758867504
 30
0.0
 10
4.7703506461
 20
4.5554164753
 30
0.0
 10
4.7548891356
 20
4.5262252643
 30
0.0
 10
4.7407909386
 20
4.5035309803
 30
0.0
 10
4.7288586016
 20
4.486562775
 30
0.0
 10
4.7167148683
 20
4.4706614337
 30
0.0
 10
4.7007219079
 20
4.4521755321
 30
0.0
 10
4.6800698508
 20
4.4321998475
 30
0.0
 10
4.6581182887
 20
4.4146799969
 30
0.0
 10
4.6348708352
 20
4.3996818922
 30
0.0
 10
4.6103455639
 20
4.3872753587
 30
0.0
 10
4.5846151345
 20
4.3774491248
 30
0.0
 10
4.5577495229
 20
4.3701884519
 30
0.0
 10
4.5298186485
 20
4.3654771953
 30
0.0
 10
4.5008905341
 20
4.3632979233
 30
0.0
 10
4.4710307514
 20
4.3636330923
 30
0.0
 10
4.4403056677
 20
4.3664651055
 30
0.0
 10
4.4196760537
 20
4.3699413973
 30
0.0
 10
4.4092528448
 20
4.3720658919
 30
0.0
  0
SPLINE
  5
41C
100
AcDbEntity
  8
0
100
AcDbSpline
 62
7
  6
CONTINUOUS
 70
0
 71
3
 72
24
 73
20
 74
0
 42
0.0000001
 43
0.0000001
 44
0.0000000001
 40
0.0
 40
0.0
 40
0.0
 40
0.0
 40
0.072297856
 40
0.1416920389
 40
0.208375059
 40
0.2407794518
 40
0.2726015167
 40
0.3346445329
 40
0.3948750928
 40
0.4537146841
 40
0.5116461428
 40
0.5691988271
 40
0.6268895317
 40
0.6852015288
 40
0.7445792508
 40
0.8054216193
 40
0.8680789801
 40
0.9328531816
 40
1.0
 40
1.0
 40
1.0
 40
1.0
 10
4.9530706375
 20
4.6230306072
 30
0.0
 10
4.9644316727
 20
4.6244834513
 30
0.0
 10
4.9867841863
 20
4.6267083125
 30
0.0
 10
5.0197952718
 20
4.6279138571
 30
0.0
 10
5.0464981967
 20
4.6270516024
 30
0.0
 10
5.0671592621
 20
4.6252019981
 30
0.0
 10
5.0870020943
 20
4.6226358872
 30
0.0
 10
5.1110078348
 20
4.6180285279
 30
0.0
 10
5.1386333137
 20
4.6101311641
 30
0.0
 10
5.1647817305
 20
4.5998804791
 30
0.0
 10
5.1893941968
 20
4.5872466461
 30
0.0
 10
5.2124012057
 20
4.5722104049
 30
0.0
 10
5.2337761887
 20
4.5548403163
 30
0.0
 10
5.2534969216
 20
4.5352043506
 30
0.0
 10
5.2715424267
 20
4.5133711322
 30
0.0
 10
5.2878937888
 20
4.4894082862
 30
0.0
 10
5.3025334153
 20
4.4633813713
 30
0.0
 10
5.3154433618
 20
4.4353566618
 30
0.0
 10
5.3227476118
 20
4.415752746
 30
0.0
 10
5.3261193499
 20
4.405663735
 30
0.0
  0
SPLINE
  5
41D
100
AcDbEntity
  8
0
100
AcDbSpline
 62
7
  6
CONTINUOUS
 70
0
 71
3
 72
24
 73
20
 74
0
 42
0.0000001
 43
0.0000001
 44
0.0000000001
 40
0.0
 40
0.0
 40
0.0
 40
0.0
 40
0.0671468183
 40
0.1319210199
 40
0.1945783806
 40
0.2554207491
 40
0.314798471
 40
0.3731104681
 40
0.4308011728
 40
0.488353857
 40
0.5462853158
 40
0.6051249071
 40
0.665355467
 40
0.7273984832
 40
0.7592205481
 40
0.791624941
 40
0.8583079611
 40
0.927702144
 40
1.0
 40
1.0
 40
1.0
 40
1.0
 10
5.3065487273
 20
4.3718642476
 30
0.0
 10
5.29612023
 20
4.3697658664
 30
0.0
 10
5.2754819737
 20
4.366341256
 30
0.0
 10
5.2447498932
 20
4.3635862081
 30
0.0
 10
5.2148893647
 20
4.3633258293
 30
0.0
 10
5.1859667995
 20
4.36557755
 30
0.0
 10
5.158047813
 20
4.3703587497
 30
0.0
 10
5.1312004713
 20
4.3776866894
 30
0.0
 10
5.1054947341
 20
4.3875773389
 30
0.0
 10
5.0810006142
 20
4.4000452614
 30
0.0
 10
5.0577907991
 20
4.4151015464
 30
0.0
 10
5.0358831874
 20
4.4326763236
 30
0.0
 10
5.0152812278
 20
4.4527036722
 30
0.0
 10
4.9993346186
 20
4.4712295729
 30
0.0
 10
4.9872307512
 20
4.4871612805
 30
0.0
 10
4.9753409514
 20
4.5041593192
 30
0.0
 10
4.9612996405
 20
4.5268888433
 30
0.0
 10
4.9459112931
 20
4.5561186888
 30
0.0
 10
4.936713123
 20
4.5766120666
 30
0.0
 10
4.9323172821
 20
4.5871884771
 30
0.0
  0
SPLINE
  5
41E
100
AcDbEntity
  8
0
100
AcDbSpline
 62
7
  6
CONTINUOUS
 70
0
 71
3
 72
24
 73
20
 74
0
 42
0.0000001
 43
0.0000001
 44
0.0000000001
 40
0.0
 40
0.0
 40
0.0
 40
0.0
 40
0.0671468183
 40
0.1319210199
 40
0.1945783806
 40
0.2554207491
 40
0.314798471
 40
0.3731104681
 40
0.4308011728
 40
0.488353857
 40
0.5462853158
 40
0.6051249071
 40
0.665355467
 40
0.7273984832
 40
0.7592205481
 40
0.791624941
 40
0.8583079611
 40
0.927702144
 40
1.0
 40
1.0
 40
1.0
 40
1.0
 10
5.3261193496
 20
4.9354418369
 30
0.0
 10
5.3227476115
 20
4.925352826
 30
0.0
 10
5.3154433615
 20
4.9057489103
 30
0.0
 10
5.302533415
 20
4.8777242008
 30
0.0
 10
5.2878937885
 20
4.851697286
 30
0.0
 10
5.2715424264
 20
4.8277344401
 30
0.0
 10
5.2534969213
 20
4.8059012218
 30
0.0
 10
5.2337761883
 20
4.7862652561
 30
0.0
 10
5.2124012054
 20
4.7688951676
 30
0.0
 10
5.1893941965
 20
4.7538589264
 30
0.0
 10
5.1647817302
 20
4.7412250935
 30
0.0
 10
5.1386333135
 20
4.7309744085
 30
0.0
 10
5.1110078346
 20
4.7230770447
 30
0.0
 10
5.0870020941
 20
4.7184696855
 30
0.0
 10
5.0671592619
 20
4.7159035746
 30
0.0
 10
5.0464981965
 20
4.7140539703
 30
0.0
 10
5.0197952717
 20
4.7131917156
 30
0.0
 10
4.9867841862
 20
4.7143972602
 30
0.0
 10
4.9644316727
 20
4.7166221214
 30
0.0
 10
4.9530706375
 20
4.7180749655
 30
0.0
  0
SPLINE
  5
41F
100
AcDbEntity
  8
0
100
AcDbSpline
 62
7
  6
CONTINUOUS
 70
0
 71
3
 72
24
 73
20
 74
0
 42
0.0000001
 43
0.0000001
 44
0.0000000001
 40
0.0
 40
0.0
 40
0.0
 40
0.0
 40
0.072297856
 40
0.1416920389
 40
0.208375059
 40
0.2407794518
 40
0.2726015167
 40
0.3346445329
 40
0.3948750928
 40
0.4537146841
 40
0.5116461428
 40
0.5691988271
 40
0.6268895317
 40
0.6852015288
 40
0.7445792508
 40
0.8054216193
 40
0.8680789801
 40
0.9328531816
 40
1.0
 40
1.0
 40
1.0
 40
1.0
 10
4.9323172821
 20
4.7539170956
 30
0.0
 10
4.936713123
 20
4.7644935061
 30
0.0
 10
4.9459112931
 20
4.784986884
 30
0.0
 10
4.9612996406
 20
4.8142167295
 30
0.0
 10
4.9753409515
 20
4.8369462536
 30
0.0
 10
4.9872307513
 20
4.8539442924
 30
0.0
 10
4.9993346188
 20
4.8698759999
 30
0.0
 10
5.0152812279
 20
4.8884019007
 30
0.0
 10
5.0358831876
 20
4.9084292493
 30
0.0
 10
5.0577907993
 20
4.9260040265
 30
0.0
 10
5.0810006145
 20
4.9410603114
 30
0.0
 10
5.1054947345
 20
4.9535282339
 30
0.0
 10
5.1312004717
 20
4.9634188834
 30
0.0
 10
5.1580478134
 20
4.9707468231
 30
0.0
 10
5.1859668
 20
4.9755280228
 30
0.0
 10
5.2148893653
 20
4.9777797434
 30
0.0
 10
5.2447498938
 20
4.9775193646
 30
0.0
 10
5.2754819744
 20
4.9747643166
 30
0.0
 10
5.2961202307
 20
4.9713397061
 30
0.0
 10
5.3065487281
 20
4.9692413249
 30
0.0
  0
SPLINE
  5
420
100
AcDbEntity
  8
0
100
AcDbSpline
 62
7
  6
CONTINUOUS
 70
0
 71
3
 72
24
 73
20
 74
0
 42
0.0000001
 43
0.0000001
 44
0.0000000001
 40
0.0
 40
0.0
 40
0.0
 40
0.0
 40
0.0671468183
 40
0.1319210199
 40
0.1945783806
 40
0.2554207491
 40
0.314798471
 40
0.3731104681
 40
0.4308011728
 40
0.488353857
 40
0.5462853158
 40
0.6051249071
 40
0.665355467
 40
0.7273984832
 40
0.7592205481
 40
0.791624941
 40
0.8583079611
 40
0.927702144
 40
1.0
 40
1.0
 40
1.0
 40
1.0
 10
4.4092528456
 20
4.9690396809
 30
0.0
 10
4.4196760544
 20
4.9711641756
 30
0.0
 10
4.4403056685
 20
4.9746404673
 30
0.0
 10
4.471030752
 20
4.9774724805
 30
0.0
 10
4.5008905347
 20
4.9778076494
 30
0.0
 10
4.529818649
 20
4.9756283774
 30
0.0
 10
4.5577495233
 20
4.9709171207
 30
0.0
 10
4.5846151349
 20
4.9636564478
 30
0.0
 10
4.6103455643
 20
4.9538302139
 30
0.0
 10
4.6348708355
 20
4.9414236803
 30
0.0
 10
4.6581182889
 20
4.9264255757
 30
0.0
 10
4.6800698509
 20
4.908905725
 30
0.0
 10
4.700721908
 20
4.8889300404
 30
0.0
 10
4.7167148685
 20
4.8704441389
 30
0.0
 10
4.7288586017
 20
4.8545427976
 30
0.0
 10
4.7407909387
 20
4.8375745922
 30
0.0
 10
4.7548891356
 20
4.8148803083
 30
0.0
 10
4.7703506461
 20
4.7856890974
 30
0.0
 10
4.7796001166
 20
4.7652188222
 30
0.0
 10
4.7840224342
 20
4.7546534551
 30
0.0
  0
SPLINE
  5
421
100
AcDbEntity
  8
0
100
AcDbSpline
 62
7
  6
CONTINUOUS
 70
0
 71
3
 72
24
 73
20
 74
0
 42
0.0000001
 43
0.0000001
 44
0.0000000001
 40
0.0
 40
0.0
 40
0.0
 40
0.0
 40
0.072297856
 40
0.1416920389
 40
0.208375059
 40
0.2407794518
 40
0.2726015167
 40
0.3346445329
 40
0.3948750928
 40
0.4537146841
 40
0.5116461428
 40
0.5691988271
 40
0.6268895317
 40
0.6852015288
 40
0.7445792508
 40
0.8054216193
 40
0.8680789801
 40
0.9328531816
 40
1.0
 40
1.0
 40
1.0
 40
1.0
 10
4.7633589168
 20
4.7187594571
 30
0.0
 10
4.7520015561
 20
4.7172781617
 30
0.0
 10
4.7296546852
 20
4.7149973218
 30
0.0
 10
4.6966467227
 20
4.7137090989
 30
0.0
 10
4.6699417219
 20
4.7145044687
 30
0.0
 10
4.6492760887
 20
4.716302318
 30
0.0
 10
4.6294268915
 20
4.718818721
 30
0.0
 10
4.6054096862
 20
4.7233659392
 30
0.0
 10
4.5777645137
 20
4.7311940854
 30
0.0
 10
4.5515905043
 20
4.741379245
 30
0.0
 10
4.5269464715
 20
4.7539513921
 30
0.0
 10
4.5039018739
 20
4.768929961
 30
0.0
 10
4.4824834516
 20
4.7862464578
 30
0.0
 10
4.4627135988
 20
4.8058329679
 30
0.0
 10
4.4446134651
 20
4.8276209197
 30
0.0
 10
4.4282021352
 20
4.8515427356
 30
0.0
 10
4.4134973656
 20
4.8775329013
 30
0.0
 10
4.4005172669
 20
4.9055251878
 30
0.0
 10
4.3931639384
 20
4.9251107473
 30
0.0
 10
4.3897669411
 20
4.9351912815
 30
0.0
  0
SPLINE
  5
422
100
AcDbEntity
  8
0
100
AcDbSpline
 62
7
  6
CONTINUOUS
 70
0
 71
3
 72
24
 73
20
 74
0
 42
0.0000001
 43
0.0000001
 44
0.0000000001
 40
0.0
 40
0.0
 40
0.0
 40
0.0
 40
0.072297856
 40
0.1416920389
 40
0.208375059
 40
0.2407794518
 40
0.2726015167
 40
0.3346445329
 40
0.3948750928
 40
0.4537146841
 40
0.5116461428
 40
0.5691988271
 40
0.6268895317
 40
0.6852015288
 40
0.7445792508
 40
0.8054216193
 40
0.8680789801
 40
0.9328531816
 40
1.0
 40
1.0
 40
1.0
 40
1.0
 10
4.9530706375
 20
5.3730306072
 30
0.0
 10
4.9644316727
 20
5.3744834513
 30
0.0
 10
4.9867841863
 20
5.3767083125
 30
0.0
 10
5.0197952718
 20
5.3779138571
 30
0.0
 10
5.0464981967
 20
5.3770516024
 30
0.0
 10
5.0671592621
 20
5.3752019981
 30
0.0
 10
5.0870020943
 20
5.3726358872
 30
0.0
 10
5.1110078348
 20
5.3680285279
 30
0.0
 10
5.1386333137
 20
5.3601311641
 30
0.0
 10
5.1647817305
 20
5.3498804791
 30
0.0
 10
5.1893941968
 20
5.3372466461
 30
0.0
 10
5.2124012057
 20
5.3222104049
 30
0.0
 10
5.2337761887
 20
5.3048403163
 30
0.0
 10
5.2534969216
 20
5.2852043506
 30
0.0
 10
5.2715424267
 20
5.2633711322
 30
0.0
 10
5.2878937888
 20
5.2394082862
 30
0.0
 10
5.3025334153
 20
5.2133813713
 30
0.0
 10
5.3154433618
 20
5.1853566618
 30
0.0
 10
5.3227476118
 20
5.165752746
 30
0.0
 10
5.3261193499
 20
5.155663735
 30
0.0
  0
SPLINE
  5
423
100
AcDbEntity
  8
0
100
AcDbSpline
 62
7
  6
CONTINUOUS
 70
0
 71
3
 72
24
 73
20
 74
0
 42
0.0000001
 43
0.0000001
 44
0.0000000001
 40
0.0
 40
0.0
 40
0.0
 40
0.0
 40
0.0671468183
 40
0.1319210199
 40
0.1945783806
 40
0.2554207491
 40
0.314798471
 40
0.3731104681
 40
0.4308011728
 40
0.488353857
 40
0.5462853158
 40
0.6051249071
 40
0.665355467
 40
0.7273984832
 40
0.7592205481
 40
0.791624941
 40
0.8583079611
 40
0.927702144
 40
1.0
 40
1.0
 40
1.0
 40
1.0
 10
5.3065487273
 20
5.1218642476
 30
0.0
 10
5.29612023
 20
5.1197658664
 30
0.0
 10
5.2754819737
 20
5.116341256
 30
0.0
 10
5.2447498932
 20
5.1135862081
 30
0.0
 10
5.2148893647
 20
5.1133258293
 30
0.0
 10
5.1859667995
 20
5.11557755
 30
0.0
 10
5.158047813
 20
5.1203587497
 30
0.0
 10
5.1312004713
 20
5.1276866894
 30
0.0
 10
5.1054947341
 20
5.1375773389
 30
0.0
 10
5.0810006142
 20
5.1500452614
 30
0.0
 10
5.0577907991
 20
5.1651015464
 30
0.0
 10
5.0358831874
 20
5.1826763236
 30
0.0
 10
5.0152812278
 20
5.2027036722
 30
0.0
 10
4.9993346186
 20
5.2212295729
 30
0.0
 10
4.9872307512
 20
5.2371612805
 30
0.0
 10
4.9753409514
 20
5.2541593192
 30
0.0
 10
4.9612996405
 20
5.2768888433
 30
0.0
 10
4.9459112931
 20
5.3061186888
 30
0.0
 10
4.936713123
 20
5.3266120666
 30
0.0
 10
4.9323172821
 20
5.3371884771
 30
0.0
  0
SPLINE
  5
424
100
AcDbEntity
  8
0
100
AcDbSpline
 62
7
  6
CONTINUOUS
 70
0
 71
3
 72
24
 73
20
 74
0
 42
0.0000001
 43
0.0000001
 44
0.0000000001
 40
0.0
 40
0.0
 40
0.0
 40
0.0
 40
0.0671468183
 40
0.1319210199
 40
0.1945783806
 40
0.2554207491
 40
0.314798471
 40
0.3731104681
 40
0.4308011728
 40
0.488353857
 40
0.5462853158
 40
0.6051249071
 40
0.665355467
 40
0.7273984832
 40
0.7592205481
 40
0.791624941
 40
0.8583079611
 40
0.927702144
 40
1.0
 40
1.0
 40
1.0
 40
1.0
 10
4.3897669414
 20
5.155914292
 30
0.0
 10
4.3931639386
 20
5.1659948261
 30
0.0
 10
4.4005172672
 20
5.1855803856
 30
0.0
 10
4.4134973659
 20
5.213572672
 30
0.0
 10
4.4282021355
 20
5.2395628376
 30
0.0
 10
4.4446134654
 20
5.2634846535
 30
0.0
 10
4.4627135991
 20
5.2852726052
 30
0.0
 10
4.4824834519
 20
5.3048591152
 30
0.0
 10
4.5039018742
 20
5.3221756119
 30
0.0
 10
4.5269464718
 20
5.3371541808
 30
0.0
 10
4.5515905046
 20
5.3497263278
 30
0.0
 10
4.5777645139
 20
5.3599114874
 30
0.0
 10
4.6054096865
 20
5.3677396336
 30
0.0
 10
4.6294268917
 20
5.3722868518
 30
0.0
 10
4.6492760889
 20
5.3748032547
 30
0.0
 10
4.6699417221
 20
5.376601104
 30
0.0
 10
4.6966467229
 20
5.3773964739
 30
0.0
 10
4.7296546853
 20
5.3761082509
 30
0.0
 10
4.7520015562
 20
5.373827411
 30
0.0
 10
4.7633589168
 20
5.3723461157
 30
0.0
  0
SPLINE
  5
425
100
AcDbEntity
  8
0
100
AcDbSpline
 62
7
  6
CONTINUOUS
 70
0
 71
3
 72
24
 73
20
 74
0
 42
0.0000001
 43
0.0000001
 44
0.0000000001
 40
0.0
 40
0.0
 40
0.0
 40
0.0
 40
0.072297856
 40
0.1416920389
 40
0.208375059
 40
0.2407794518
 40
0.2726015167
 40
0.3346445329
 40
0.3948750928
 40
0.4537146841
 40
0.5116461428
 40
0.5691988271
 40
0.6268895317
 40
0.6852015288
 40
0.7445792508
 40
0.8054216193
 40
0.8680789801
 40
0.9328531816
 40
1.0
 40
1.0
 40
1.0
 40
1.0
 10
4.7840224342
 20
5.3364521176
 30
0.0
 10
4.7796001166
 20
5.3258867504
 30
0.0
 10
4.7703506461
 20
5.3054164753
 30
0.0
 10
4.7548891356
 20
5.2762252643
 30
0.0
 10
4.7407909386
 20
5.2535309803
 30
0.0
 10
4.7288586016
 20
5.236562775
 30
0.0
 10
4.7167148683
 20
5.2206614337
 30
0.0
 10
4.7007219079
 20
5.2021755321
 30
0.0
 10
4.6800698508
 20
5.1821998475
 30
0.0
 10
4.6581182887
 20
5.1646799969
 30
0.0
 10
4.6348708352
 20
5.1496818922
 30
0.0
 10
4.6103455639
 20
5.1372753587
 30
0.0
 10
4.5846151345
 20
5.1274491248
 30
0.0
 10
4.5577495229
 20
5.1201884519
 30
0.0
 10
4.5298186485
 20
5.1154771953
 30
0.0
 10
4.5008905341
 20
5.1132979233
 30
0.0
 10
4.4710307514
 20
5.1136330923
 30
0.0
 10
4.4403056677
 20
5.1164651055
 30
0.0
 10
4.4196760537
 20
5.1199413973
 30
0.0
 10
4.4092528448
 20
5.1220658919
 30
0.0
  0
SPLINE
  5
426
100
AcDbEntity
  8
0
100
AcDbSpline
 62
7
  6
CONTINUOUS
 70
0
 71
3
 72
24
 73
20
 74
0
 42
0.0000001
 43
0.0000001
 44
0.0000000001
 40
0.0
 40
0.0
 40
0.0
 40
0.0
 40
0.0671468183
 40
0.1319210199
 40
0.1945783806
 40
0.2554207491
 40
0.314798471
 40
0.3731104681
 40
0.4308011728
 40
0.488353857
 40
0.5462853158
 40
0.6051249071
 40
0.665355467
 40
0.7273984832
 40
0.7592205481
 40
0.791624941
 40
0.8583079611
 40
0.927702144
 40
1.0
 40
1.0
 40
1.0
 40
1.0
 10
4.3897669414
 20
2.905914292
 30
0.0
 10
4.3931639386
 20
2.9159948261
 30
0.0
 10
4.4005172672
 20
2.9355803856
 30
0.0
 10
4.4134973659
 20
2.963572672
 30
0.0
 10
4.4282021355
 20
2.9895628376
 30
0.0
 10
4.4446134654
 20
3.0134846535
 30
0.0
 10
4.4627135991
 20
3.0352726052
 30
0.0
 10
4.4824834519
 20
3.0548591152
 30
0.0
 10
4.5039018742
 20
3.0721756119
 30
0.0
 10
4.5269464718
 20
3.0871541808
 30
0.0
 10
4.5515905046
 20
3.0997263278
 30
0.0
 10
4.5777645139
 20
3.1099114874
 30
0.0
 10
4.6054096865
 20
3.1177396336
 30
0.0
 10
4.6294268917
 20
3.1222868518
 30
0.0
 10
4.6492760889
 20
3.1248032547
 30
0.0
 10
4.6699417221
 20
3.126601104
 30
0.0
 10
4.6966467229
 20
3.1273964739
 30
0.0
 10
4.7296546853
 20
3.1261082509
 30
0.0
 10
4.7520015562
 20
3.123827411
 30
0.0
 10
4.7633589168
 20
3.1223461157
 30
0.0
  0
SPLINE
  5
427
100
AcDbEntity
  8
0
100
AcDbSpline
 62
7
  6
CONTINUOUS
 70
0
 71
3
 72
24
 73
20
 74
0
 42
0.0000001
 43
0.0000001
 44
0.0000000001
 40
0.0
 40
0.0
 40
0.0
 40
0.0
 40
0.072297856
 40
0.1416920389
 40
0.208375059
 40
0.2407794518
 40
0.2726015167
 40
0.3346445329
 40
0.3948750928
 40
0.4537146841
 40
0.5116461428
 40
0.5691988271
 40
0.6268895317
 40
0.6852015288
 40
0.7445792508
 40
0.8054216193
 40
0.8680789801
 40
0.9328531816
 40
1.0
 40
1.0
 40
1.0
 40
1.0
 10
4.7840224342
 20
3.0864521176
 30
0.0
 10
4.7796001166
 20
3.0758867504
 30
0.0
 10
4.7703506461
 20
3.0554164753
 30
0.0
 10
4.7548891356
 20
3.0262252643
 30
0.0
 10
4.7407909386
 20
3.0035309803
 30
0.0
 10
4.7288586016
 20
2.986562775
 30
0.0
 10
4.7167148683
 20
2.9706614337
 30
0.0
 10
4.7007219079
 20
2.9521755321
 30
0.0
 10
4.6800698508
 20
2.9321998475
 30
0.0
 10
4.6581182887
 20
2.9146799969
 30
0.0
 10
4.6348708352
 20
2.8996818922
 30
0.0
 10
4.6103455639
 20
2.8872753587
 30
0.0
 10
4.5846151345
 20
2.8774491248
 30
0.0
 10
4.5577495229
 20
2.8701884519
 30
0.0
 10
4.5298186485
 20
2.8654771953
 30
0.0
 10
4.5008905341
 20
2.8632979233
 30
0.0
 10
4.4710307514
 20
2.8636330923
 30
0.0
 10
4.4403056677
 20
2.8664651055
 30
0.0
 10
4.4196760537
 20
2.8699413973
 30
0.0
 10
4.4092528448
 20
2.8720658919
 30
0.0
  0
SPLINE
  5
428
100
AcDbEntity
  8
0
100
AcDbSpline
 62
7
  6
CONTINUOUS
 70
0
 71
3
 72
24
 73
20
 74
0
 42
0.0000001
 43
0.0000001
 44
0.0000000001
 40
0.0
 40
0.0
 40
0.0
 40
0.0
 40
0.072297856
 40
0.1416920389
 40
0.208375059
 40
0.2407794518
 40
0.2726015167
 40
0.3346445329
 40
0.3948750928
 40
0.4537146841
 40
0.5116461428
 40
0.5691988271
 40
0.6268895317
 40
0.6852015288
 40
0.7445792508
 40
0.8054216193
 40
0.8680789801
 40
0.9328531816
 40
1.0
 40
1.0
 40
1.0
 40
1.0
 10
4.9530706375
 20
3.1230306072
 30
0.0
 10
4.9644316727
 20
3.1244834513
 30
0.0
 10
4.9867841863
 20
3.1267083125
 30
0.0
 10
5.0197952718
 20
3.1279138571
 30
0.0
 10
5.0464981967
 20
3.1270516024
 30
0.0
 10
5.0671592621
 20
3.1252019981
 30
0.0
 10
5.0870020943
 20
3.1226358872
 30
0.0
 10
5.1110078348
 20
3.1180285279
 30
0.0
 10
5.1386333137
 20
3.1101311641
 30
0.0
 10
5.1647817305
 20
3.0998804791
 30
0.0
 10
5.1893941968
 20
3.0872466461
 30
0.0
 10
5.2124012057
 20
3.0722104049
 30
0.0
 10
5.2337761887
 20
3.0548403163
 30
0.0
 10
5.2534969216
 20
3.0352043506
 30
0.0
 10
5.2715424267
 20
3.0133711322
 30
0.0
 10
5.2878937888
 20
2.9894082862
 30
0.0
 10
5.3025334153
 20
2.9633813713
 30
0.0
 10
5.3154433618
 20
2.9353566618
 30
0.0
 10
5.3227476118
 20
2.915752746
 30
0.0
 10
5.3261193499
 20
2.905663735
 30
0.0
  0
SPLINE
  5
429
100
AcDbEntity
  8
0
100
AcDbSpline
 62
7
  6
CONTINUOUS
 70
0
 71
3
 72
24
 73
20
 74
0
 42
0.0000001
 43
0.0000001
 44
0.0000000001
 40
0.0
 40
0.0
 40
0.0
 40
0.0
 40
0.0671468183
 40
0.1319210199
 40
0.1945783806
 40
0.2554207491
 40
0.314798471
 40
0.3731104681
 40
0.4308011728
 40
0.488353857
 40
0.5462853158
 40
0.6051249071
 40
0.665355467
 40
0.7273984832
 40
0.7592205481
 40
0.791624941
 40
0.8583079611
 40
0.927702144
 40
1.0
 40
1.0
 40
1.0
 40
1.0
 10
5.3065487273
 20
2.8718642476
 30
0.0
 10
5.29612023
 20
2.8697658664
 30
0.0
 10
5.2754819737
 20
2.866341256
 30
0.0
 10
5.2447498932
 20
2.8635862081
 30
0.0
 10
5.2148893647
 20
2.8633258293
 30
0.0
 10
5.1859667995
 20
2.86557755
 30
0.0
 10
5.158047813
 20
2.8703587497
 30
0.0
 10
5.1312004713
 20
2.8776866894
 30
0.0
 10
5.1054947341
 20
2.8875773389
 30
0.0
 10
5.0810006142
 20
2.9000452614
 30
0.0
 10
5.0577907991
 20
2.9151015464
 30
0.0
 10
5.0358831874
 20
2.9326763236
 30
0.0
 10
5.0152812278
 20
2.9527036722
 30
0.0
 10
4.9993346186
 20
2.9712295729
 30
0.0
 10
4.9872307512
 20
2.9871612805
 30
0.0
 10
4.9753409514
 20
3.0041593192
 30
0.0
 10
4.9612996405
 20
3.0268888433
 30
0.0
 10
4.9459112931
 20
3.0561186888
 30
0.0
 10
4.936713123
 20
3.0766120666
 30
0.0
 10
4.9323172821
 20
3.0871884771
 30
0.0
  0
SPLINE
  5
42A
100
AcDbEntity
  8
0
100
AcDbSpline
 62
7
  6
CONTINUOUS
 70
0
 71
3
 72
24
 73
20
 74
0
 42
0.0000001
 43
0.0000001
 44
0.0000000001
 40
0.0
 40
0.0
 40
0.0
 40
0.0
 40
0.0671468183
 40
0.1319210199
 40
0.1945783806
 40
0.2554207491
 40
0.314798471
 40
0.3731104681
 40
0.4308011728
 40
0.488353857
 40
0.5462853158
 40
0.6051249071
 40
0.665355467
 40
0.7273984832
 40
0.7592205481
 40
0.791624941
 40
0.8583079611
 40
0.927702144
 40
1.0
 40
1.0
 40
1.0
 40
1.0
 10
4.4092528456
 20
3.4690396809
 30
0.0
 10
4.4196760544
 20
3.4711641756
 30
0.0
 10
4.4403056685
 20
3.4746404673
 30
0.0
 10
4.471030752
 20
3.4774724805
 30
0.0
 10
4.5008905347
 20
3.4778076494
 30
0.0
 10
4.529818649
 20
3.4756283774
 30
0.0
 10
4.5577495233
 20
3.4709171207
 30
0.0
 10
4.5846151349
 20
3.4636564478
 30
0.0
 10
4.6103455643
 20
3.4538302139
 30
0.0
 10
4.6348708355
 20
3.4414236803
 30
0.0
 10
4.6581182889
 20
3.4264255757
 30
0.0
 10
4.6800698509
 20
3.408905725
 30
0.0
 10
4.700721908
 20
3.3889300404
 30
0.0
 10
4.7167148685
 20
3.3704441389
 30
0.0
 10
4.7288586017
 20
3.3545427976
 30
0.0
 10
4.7407909387
 20
3.3375745922
 30
0.0
 10
4.7548891356
 20
3.3148803083
 30
0.0
 10
4.7703506461
 20
3.2856890974
 30
0.0
 10
4.7796001166
 20
3.2652188222
 30
0.0
 10
4.7840224342
 20
3.2546534551
 30
0.0
  0
SPLINE
  5
42B
100
AcDbEntity
  8
0
100
AcDbSpline
 62
7
  6
CONTINUOUS
 70
0
 71
3
 72
24
 73
20
 74
0
 42
0.0000001
 43
0.0000001
 44
0.0000000001
 40
0.0
 40
0.0
 40
0.0
 40
0.0
 40
0.072297856
 40
0.1416920389
 40
0.208375059
 40
0.2407794518
 40
0.2726015167
 40
0.3346445329
 40
0.3948750928
 40
0.4537146841
 40
0.5116461428
 40
0.5691988271
 40
0.6268895317
 40
0.6852015288
 40
0.7445792508
 40
0.8054216193
 40
0.8680789801
 40
0.9328531816
 40
1.0
 40
1.0
 40
1.0
 40
1.0
 10
4.7633589168
 20
3.2187594571
 30
0.0
 10
4.7520015561
 20
3.2172781617
 30
0.0
 10
4.7296546852
 20
3.2149973218
 30
0.0
 10
4.6966467227
 20
3.2137090989
 30
0.0
 10
4.6699417219
 20
3.2145044687
 30
0.0
 10
4.6492760887
 20
3.216302318
 30
0.0
 10
4.6294268915
 20
3.218818721
 30
0.0
 10
4.6054096862
 20
3.2233659392
 30
0.0
 10
4.5777645137
 20
3.2311940854
 30
0.0
 10
4.5515905043
 20
3.241379245
 30
0.0
 10
4.5269464715
 20
3.2539513921
 30
0.0
 10
4.5039018739
 20
3.268929961
 30
0.0
 10
4.4824834516
 20
3.2862464578
 30
0.0
 10
4.4627135988
 20
3.3058329679
 30
0.0
 10
4.4446134651
 20
3.3276209197
 30
0.0
 10
4.4282021352
 20
3.3515427356
 30
0.0
 10
4.4134973656
 20
3.3775329013
 30
0.0
 10
4.4005172669
 20
3.4055251878
 30
0.0
 10
4.3931639384
 20
3.4251107473
 30
0.0
 10
4.3897669411
 20
3.4351912815
 30
0.0
  0
SPLINE
  5
42C
100
AcDbEntity
  8
0
100
AcDbSpline
 62
7
  6
CONTINUOUS
 70
0
 71
3
 72
24
 73
20
 74
0
 42
0.0000001
 43
0.0000001
 44
0.0000000001
 40
0.0
 40
0.0
 40
0.0
 40
0.0
 40
0.0671468183
 40
0.1319210199
 40
0.1945783806
 40
0.2554207491
 40
0.314798471
 40
0.3731104681
 40
0.4308011728
 40
0.488353857
 40
0.5462853158
 40
0.6051249071
 40
0.665355467
 40
0.7273984832
 40
0.7592205481
 40
0.791624941
 40
0.8583079611
 40
0.927702144
 40
1.0
 40
1.0
 40
1.0
 40
1.0
 10
5.3261193496
 20
3.4354418369
 30
0.0
 10
5.3227476115
 20
3.425352826
 30
0.0
 10
5.3154433615
 20
3.4057489103
 30
0.0
 10
5.302533415
 20
3.3777242008
 30
0.0
 10
5.2878937885
 20
3.351697286
 30
0.0
 10
5.2715424264
 20
3.3277344401
 30
0.0
 10
5.2534969213
 20
3.3059012218
 30
0.0
 10
5.2337761883
 20
3.2862652561
 30
0.0
 10
5.2124012054
 20
3.2688951676
 30
0.0
 10
5.1893941965
 20
3.2538589264
 30
0.0
 10
5.1647817302
 20
3.2412250935
 30
0.0
 10
5.1386333135
 20
3.2309744085
 30
0.0
 10
5.1110078346
 20
3.2230770447
 30
0.0
 10
5.0870020941
 20
3.2184696855
 30
0.0
 10
5.0671592619
 20
3.2159035746
 30
0.0
 10
5.0464981965
 20
3.2140539703
 30
0.0
 10
5.0197952717
 20
3.2131917156
 30
0.0
 10
4.9867841862
 20
3.2143972602
 30
0.0
 10
4.9644316727
 20
3.2166221214
 30
0.0
 10
4.9530706375
 20
3.2180749655
 30
0.0
  0
SPLINE
  5
42D
100
AcDbEntity
  8
0
100
AcDbSpline
 62
7
  6
CONTINUOUS
 70
0
 71
3
 72
24
 73
20
 74
0
 42
0.0000001
 43
0.0000001
 44
0.0000000001
 40
0.0
 40
0.0
 40
0.0
 40
0.0
 40
0.072297856
 40
0.1416920389
 40
0.208375059
 40
0.2407794518
 40
0.2726015167
 40
0.3346445329
 40
0.3948750928
 40
0.4537146841
 40
0.5116461428
 40
0.5691988271
 40
0.6268895317
 40
0.6852015288
 40
0.7445792508
 40
0.8054216193
 40
0.8680789801
 40
0.9328531816
 40
1.0
 40
1.0
 40
1.0
 40
1.0
 10
4.9323172821
 20
3.2539170956
 30
0.0
 10
4.936713123
 20
3.2644935061
 30
0.0
 10
4.9459112931
 20
3.284986884
 30
0.0
 10
4.9612996406
 20
3.3142167295
 30
0.0
 10
4.9753409515
 20
3.3369462536
 30
0.0
 10
4.9872307513
 20
3.3539442924
 30
0.0
 10
4.9993346188
 20
3.3698759999
 30
0.0
 10
5.0152812279
 20
3.3884019007
 30
0.0
 10
5.0358831876
 20
3.4084292493
 30
0.0
 10
5.0577907993
 20
3.4260040265
 30
0.0
 10
5.0810006145
 20
3.4410603114
 30
0.0
 10
5.1054947345
 20
3.4535282339
 30
0.0
 10
5.1312004717
 20
3.4634188834
 30
0.0
 10
5.1580478134
 20
3.4707468231
 30
0.0
 10
5.1859668
 20
3.4755280228
 30
0.0
 10
5.2148893653
 20
3.4777797434
 30
0.0
 10
5.2447498938
 20
3.4775193646
 30
0.0
 10
5.2754819744
 20
3.4747643166
 30
0.0
 10
5.2961202307
 20
3.4713397061
 30
0.0
 10
5.3065487281
 20
3.4692413249
 30
0.0
  0
SPLINE
  5
42E
100
AcDbEntity
  8
0
100
AcDbSpline
 62
7
  6
CONTINUOUS
 70
0
 71
3
 72
24
 73
20
 74
0
 42
0.0000001
 43
0.0000001
 44
0.0000000001
 40
0.0
 40
0.0
 40
0.0
 40
0.0
 40
0.072297856
 40
0.1416920389
 40
0.208375059
 40
0.2407794518
 40
0.2726015167
 40
0.3346445329
 40
0.3948750928
 40
0.4537146841
 40
0.5116461428
 40
0.5691988271
 40
0.6268895317
 40
0.6852015288
 40
0.7445792508
 40
0.8054216193
 40
0.8680789801
 40
0.9328531816
 40
1.0
 40
1.0
 40
1.0
 40
1.0
 10
5.4128385305
 20
2.9533950081
 30
0.0
 10
5.4058770107
 20
2.9624901233
 30
0.0
 10
5.39272831
 20
2.9807026613
 30
0.0
 10
5.3751086949
 20
3.0086442838
 30
0.0
 10
5.3624450051
 20
3.0321691779
 30
0.0
 10
5.3536691716
 20
3.0509650659
 30
0.0
 10
5.3459238418
 20
3.0694131764
 30
0.0
 10
5.3378532458
 20
3.0924862954
 30
0.0
 10
5.3308100329
 20
3.1203417902
 30
0.0
 10
5.3265436352
 20
3.148101727
 30
0.0
 10
5.3251094176
 20
3.175730159
 30
0.0
 10
5.32655894
 20
3.2031766505
 30
0.0
 10
5.3308462549
 20
3.2303837967
 30
0.0
 10
5.3379237438
 20
3.2572982464
 30
0.0
 10
5.3477425968
 20
3.2838673979
 30
0.0
 10
5.3602538321
 20
3.3100409345
 30
0.0
 10
5.3754095911
 20
3.3357707214
 30
0.0
 10
5.3931615729
 20
3.3610079599
 30
0.0
 10
5.4064465007
 20
3.3771689089
 30
0.0
 10
5.4134780008
 20
3.3851510619
 30
0.0
  0
SPLINE
  5
42F
100
AcDbEntity
  8
0
100
AcDbSpline
 62
7
  6
CONTINUOUS
 70
0
 71
3
 72
24
 73
20
 74
0
 42
0.0000001
 43
0.0000001
 44
0.0000000001
 40
0.0
 40
0.0
 40
0.0
 40
0.0
 40
0.0671468183
 40
0.1319210199
 40
0.1945783806
 40
0.2554207491
 40
0.314798471
 40
0.3731104681
 40
0.4308011728
 40
0.488353857
 40
0.5462853158
 40
0.6051249071
 40
0.665355467
 40
0.7273984832
 40
0.7592205481
 40
0.791624941
 40
0.8583079611
 40
0.927702144
 40
1.0
 40
1.0
 40
1.0
 40
1.0
 10
5.4525345268
 20
3.3851999734
 30
0.0
 10
5.4595859975
 20
3.377235457
 30
0.0
 10
5.4729113616
 20
3.3611078331
 30
0.0
 10
5.4907264987
 20
3.3359151368
 30
0.0
 10
5.5059466548
 20
3.3102233909
 30
0.0
 10
5.518523407
 20
3.284081273
 30
0.0
 10
5.5284087762
 20
3.2575367979
 30
0.0
 10
5.5355536548
 20
3.2306401594
 30
0.0
 10
5.5399091013
 20
3.2034438369
 30
0.0
 10
5.5414273637
 20
3.1760010622
 30
0.0
 10
5.5400623507
 20
3.1483691247
 30
0.0
 10
5.535865496
 20
3.120598589
 30
0.0
 10
5.5288920742
 20
3.0927255406
 30
0.0
 10
5.5208792941
 20
3.0696322798
 30
0.0
 10
5.5131801952
 20
3.0511648277
 30
0.0
 10
5.5044514669
 20
3.032347018
 30
0.0
 10
5.4918467389
 20
3.0087904794
 30
0.0
 10
5.4742971639
 20
2.9808048131
 30
0.0
 10
5.4611941209
 20
2.9625593991
 30
0.0
 10
5.4542554033
 20
2.9534468761
 30
0.0
  0
SPLINE
  5
430
100
AcDbEntity
  8
0
100
AcDbSpline
 62
7
  6
CONTINUOUS
 70
0
 71
3
 72
24
 73
20
 74
0
 42
0.0000001
 43
0.0000001
 44
0.0000000001
 40
0.0
 40
0.0
 40
0.0
 40
0.0
 40
0.072297856
 40
0.1416920389
 40
0.208375059
 40
0.2407794518
 40
0.2726015167
 40
0.3346445329
 40
0.3948750928
 40
0.4537146841
 40
0.5116461428
 40
0.5691988271
 40
0.6268895317
 40
0.6852015288
 40
0.7445792508
 40
0.8054216193
 40
0.8680789801
 40
0.9328531816
 40
1.0
 40
1.0
 40
1.0
 40
1.0
 10
4.9530706375
 20
6.1230306072
 30
0.0
 10
4.9644316727
 20
6.1244834513
 30
0.0
 10
4.9867841863
 20
6.1267083125
 30
0.0
 10
5.0197952718
 20
6.1279138571
 30
0.0
 10
5.0464981967
 20
6.1270516024
 30
0.0
 10
5.0671592621
 20
6.1252019981
 30
0.0
 10
5.0870020943
 20
6.1226358872
 30
0.0
 10
5.1110078348
 20
6.1180285279
 30
0.0
 10
5.1386333137
 20
6.1101311641
 30
0.0
 10
5.1647817305
 20
6.0998804791
 30
0.0
 10
5.1893941968
 20
6.0872466461
 30
0.0
 10
5.2124012057
 20
6.0722104049
 30
0.0
 10
5.2337761887
 20
6.0548403163
 30
0.0
 10
5.2534969216
 20
6.0352043506
 30
0.0
 10
5.2715424267
 20
6.0133711322
 30
0.0
 10
5.2878937888
 20
5.9894082862
 30
0.0
 10
5.3025334153
 20
5.9633813713
 30
0.0
 10
5.3154433618
 20
5.9353566618
 30
0.0
 10
5.3227476118
 20
5.915752746
 30
0.0
 10
5.3261193499
 20
5.905663735
 30
0.0
  0
SPLINE
  5
431
100
AcDbEntity
  8
0
100
AcDbSpline
 62
7
  6
CONTINUOUS
 70
0
 71
3
 72
24
 73
20
 74
0
 42
0.0000001
 43
0.0000001
 44
0.0000000001
 40
0.0
 40
0.0
 40
0.0
 40
0.0
 40
0.0671468183
 40
0.1319210199
 40
0.1945783806
 40
0.2554207491
 40
0.314798471
 40
0.3731104681
 40
0.4308011728
 40
0.488353857
 40
0.5462853158
 40
0.6051249071
 40
0.665355467
 40
0.7273984832
 40
0.7592205481
 40
0.791624941
 40
0.8583079611
 40
0.927702144
 40
1.0
 40
1.0
 40
1.0
 40
1.0
 10
5.3065487273
 20
5.8718642476
 30
0.0
 10
5.29612023
 20
5.8697658664
 30
0.0
 10
5.2754819737
 20
5.866341256
 30
0.0
 10
5.2447498932
 20
5.8635862081
 30
0.0
 10
5.2148893647
 20
5.8633258293
 30
0.0
 10
5.1859667995
 20
5.86557755
 30
0.0
 10
5.158047813
 20
5.8703587497
 30
0.0
 10
5.1312004713
 20
5.8776866894
 30
0.0
 10
5.1054947341
 20
5.8875773389
 30
0.0
 10
5.0810006142
 20
5.9000452614
 30
0.0
 10
5.0577907991
 20
5.9151015464
 30
0.0
 10
5.0358831874
 20
5.9326763236
 30
0.0
 10
5.0152812277
 20
5.9527036722
 30
0.0
 10
4.9993346186
 20
5.9712295729
 30
0.0
 10
4.9872307512
 20
5.9871612805
 30
0.0
 10
4.9753409514
 20
6.0041593192
 30
0.0
 10
4.9612996405
 20
6.0268888433
 30
0.0
 10
4.9459112931
 20
6.0561186888
 30
0.0
 10
4.936713123
 20
6.0766120666
 30
0.0
 10
4.9323172821
 20
6.0871884771
 30
0.0
  0
SPLINE
  5
432
100
AcDbEntity
  8
0
100
AcDbSpline
 62
7
  6
CONTINUOUS
 70
0
 71
3
 72
24
 73
20
 74
0
 42
0.0000001
 43
0.0000001
 44
0.0000000001
 40
0.0
 40
0.0
 40
0.0
 40
0.0
 40
0.0671468183
 40
0.1319210199
 40
0.1945783806
 40
0.2554207491
 40
0.314798471
 40
0.3731104681
 40
0.4308011728
 40
0.488353857
 40
0.5462853158
 40
0.6051249071
 40
0.665355467
 40
0.7273984832
 40
0.7592205481
 40
0.791624941
 40
0.8583079611
 40
0.927702144
 40
1.0
 40
1.0
 40
1.0
 40
1.0
 10
5.3261193496
 20
5.6854418369
 30
0.0
 10
5.3227476115
 20
5.675352826
 30
0.0
 10
5.3154433615
 20
5.6557489103
 30
0.0
 10
5.302533415
 20
5.6277242008
 30
0.0
 10
5.2878937885
 20
5.601697286
 30
0.0
 10
5.2715424264
 20
5.5777344401
 30
0.0
 10
5.2534969213
 20
5.5559012218
 30
0.0
 10
5.2337761883
 20
5.5362652561
 30
0.0
 10
5.2124012054
 20
5.5188951676
 30
0.0
 10
5.1893941965
 20
5.5038589264
 30
0.0
 10
5.1647817302
 20
5.4912250935
 30
0.0
 10
5.1386333135
 20
5.4809744085
 30
0.0
 10
5.1110078346
 20
5.4730770447
 30
0.0
 10
5.0870020941
 20
5.4684696855
 30
0.0
 10
5.0671592619
 20
5.4659035746
 30
0.0
 10
5.0464981965
 20
5.4640539703
 30
0.0
 10
5.0197952717
 20
5.4631917156
 30
0.0
 10
4.9867841862
 20
5.4643972602
 30
0.0
 10
4.9644316727
 20
5.4666221214
 30
0.0
 10
4.9530706375
 20
5.4680749655
 30
0.0
  0
SPLINE
  5
433
100
AcDbEntity
  8
0
100
AcDbSpline
 62
7
  6
CONTINUOUS
 70
0
 71
3
 72
24
 73
20
 74
0
 42
0.0000001
 43
0.0000001
 44
0.0000000001
 40
0.0
 40
0.0
 40
0.0
 40
0.0
 40
0.072297856
 40
0.1416920389
 40
0.208375059
 40
0.2407794518
 40
0.2726015167
 40
0.3346445329
 40
0.3948750928
 40
0.4537146841
 40
0.5116461428
 40
0.5691988271
 40
0.6268895317
 40
0.6852015288
 40
0.7445792508
 40
0.8054216193
 40
0.8680789801
 40
0.9328531816
 40
1.0
 40
1.0
 40
1.0
 40
1.0
 10
4.9323172821
 20
5.5039170956
 30
0.0
 10
4.936713123
 20
5.5144935061
 30
0.0
 10
4.9459112931
 20
5.534986884
 30
0.0
 10
4.9612996406
 20
5.5642167295
 30
0.0
 10
4.9753409515
 20
5.5869462536
 30
0.0
 10
4.9872307513
 20
5.6039442924
 30
0.0
 10
4.9993346188
 20
5.6198759999
 30
0.0
 10
5.0152812279
 20
5.6384019007
 30
0.0
 10
5.0358831876
 20
5.6584292493
 30
0.0
 10
5.0577907993
 20
5.6760040265
 30
0.0
 10
5.0810006145
 20
5.6910603114
 30
0.0
 10
5.1054947345
 20
5.7035282339
 30
0.0
 10
5.1312004717
 20
5.7134188834
 30
0.0
 10
5.1580478134
 20
5.7207468231
 30
0.0
 10
5.1859668
 20
5.7255280228
 30
0.0
 10
5.2148893653
 20
5.7277797434
 30
0.0
 10
5.2447498938
 20
5.7275193646
 30
0.0
 10
5.2754819744
 20
5.7247643166
 30
0.0
 10
5.2961202307
 20
5.7213397061
 30
0.0
 10
5.3065487281
 20
5.7192413249
 30
0.0
  0
SPLINE
  5
434
100
AcDbEntity
  8
0
100
AcDbSpline
 62
7
  6
CONTINUOUS
 70
0
 71
3
 72
24
 73
20
 74
0
 42
0.0000001
 43
0.0000001
 44
0.0000000001
 40
0.0
 40
0.0
 40
0.0
 40
0.0
 40
0.072297856
 40
0.1416920389
 40
0.208375059
 40
0.2407794518
 40
0.2726015167
 40
0.3346445329
 40
0.3948750928
 40
0.4537146841
 40
0.5116461428
 40
0.5691988271
 40
0.6268895317
 40
0.6852015288
 40
0.7445792508
 40
0.8054216193
 40
0.8680789801
 40
0.9328531816
 40
1.0
 40
1.0
 40
1.0
 40
1.0
 10
5.4128385305
 20
5.2033950081
 30
0.0
 10
5.4058770107
 20
5.2124901233
 30
0.0
 10
5.39272831
 20
5.2307026613
 30
0.0
 10
5.3751086949
 20
5.2586442838
 30
0.0
 10
5.3624450051
 20
5.2821691779
 30
0.0
 10
5.3536691716
 20
5.3009650659
 30
0.0
 10
5.3459238418
 20
5.3194131764
 30
0.0
 10
5.3378532458
 20
5.3424862954
 30
0.0
 10
5.3308100329
 20
5.3703417902
 30
0.0
 10
5.3265436352
 20
5.398101727
 30
0.0
 10
5.3251094176
 20
5.425730159
 30
0.0
 10
5.32655894
 20
5.4531766505
 30
0.0
 10
5.3308462549
 20
5.4803837967
 30
0.0
 10
5.3379237438
 20
5.5072982464
 30
0.0
 10
5.3477425968
 20
5.5338673979
 30
0.0
 10
5.3602538321
 20
5.5600409345
 30
0.0
 10
5.3754095911
 20
5.5857707214
 30
0.0
 10
5.3931615729
 20
5.6110079599
 30
0.0
 10
5.4064465007
 20
5.6271689089
 30
0.0
 10
5.4134780008
 20
5.6351510619
 30
0.0
  0
SPLINE
  5
435
100
AcDbEntity
  8
0
100
AcDbSpline
 62
7
  6
CONTINUOUS
 70
0
 71
3
 72
24
 73
20
 74
0
 42
0.0000001
 43
0.0000001
 44
0.0000000001
 40
0.0
 40
0.0
 40
0.0
 40
0.0
 40
0.0671468183
 40
0.1319210199
 40
0.1945783806
 40
0.2554207491
 40
0.314798471
 40
0.3731104681
 40
0.4308011728
 40
0.488353857
 40
0.5462853158
 40
0.6051249071
 40
0.665355467
 40
0.7273984832
 40
0.7592205481
 40
0.791624941
 40
0.8583079611
 40
0.927702144
 40
1.0
 40
1.0
 40
1.0
 40
1.0
 10
5.4525345268
 20
5.6351999734
 30
0.0
 10
5.4595859975
 20
5.627235457
 30
0.0
 10
5.4729113616
 20
5.6111078331
 30
0.0
 10
5.4907264987
 20
5.5859151368
 30
0.0
 10
5.5059466548
 20
5.5602233909
 30
0.0
 10
5.518523407
 20
5.534081273
 30
0.0
 10
5.5284087762
 20
5.5075367979
 30
0.0
 10
5.5355536548
 20
5.4806401594
 30
0.0
 10
5.5399091013
 20
5.4534438369
 30
0.0
 10
5.5414273637
 20
5.4260010622
 30
0.0
 10
5.5400623507
 20
5.3983691247
 30
0.0
 10
5.535865496
 20
5.370598589
 30
0.0
 10
5.5288920742
 20
5.3427255406
 30
0.0
 10
5.5208792941
 20
5.3196322798
 30
0.0
 10
5.5131801952
 20
5.3011648277
 30
0.0
 10
5.5044514669
 20
5.282347018
 30
0.0
 10
5.4918467389
 20
5.2587904794
 30
0.0
 10
5.4742971639
 20
5.2308048131
 30
0.0
 10
5.4611941209
 20
5.2125593991
 30
0.0
 10
5.4542554033
 20
5.2034468761
 30
0.0
  0
SPLINE
  5
436
100
AcDbEntity
  8
0
100
AcDbSpline
 62
7
  6
CONTINUOUS
 70
0
 71
3
 72
24
 73
20
 74
0
 42
0.0000001
 43
0.0000001
 44
0.0000000001
 40
0.0
 40
0.0
 40
0.0
 40
0.0
 40
0.072297856
 40
0.1416920389
 40
0.208375059
 40
0.2407794518
 40
0.2726015167
 40
0.3346445329
 40
0.3948750928
 40
0.4537146841
 40
0.5116461428
 40
0.5691988271
 40
0.6268895317
 40
0.6852015288
 40
0.7445792508
 40
0.8054216193
 40
0.8680789801
 40
0.9328531816
 40
1.0
 40
1.0
 40
1.0
 40
1.0
 10
5.4128385305
 20
4.4533950081
 30
0.0
 10
5.4058770107
 20
4.4624901233
 30
0.0
 10
5.39272831
 20
4.4807026613
 30
0.0
 10
5.3751086949
 20
4.5086442838
 30
0.0
 10
5.3624450051
 20
4.5321691779
 30
0.0
 10
5.3536691716
 20
4.5509650659
 30
0.0
 10
5.3459238418
 20
4.5694131764
 30
0.0
 10
5.3378532458
 20
4.5924862954
 30
0.0
 10
5.3308100329
 20
4.6203417902
 30
0.0
 10
5.3265436352
 20
4.648101727
 30
0.0
 10
5.3251094176
 20
4.675730159
 30
0.0
 10
5.32655894
 20
4.7031766505
 30
0.0
 10
5.3308462549
 20
4.7303837967
 30
0.0
 10
5.3379237438
 20
4.7572982464
 30
0.0
 10
5.3477425968
 20
4.7838673979
 30
0.0
 10
5.3602538321
 20
4.8100409345
 30
0.0
 10
5.3754095911
 20
4.8357707214
 30
0.0
 10
5.3931615729
 20
4.8610079599
 30
0.0
 10
5.4064465007
 20
4.8771689089
 30
0.0
 10
5.4134780008
 20
4.8851510619
 30
0.0
  0
SPLINE
  5
437
100
AcDbEntity
  8
0
100
AcDbSpline
 62
7
  6
CONTINUOUS
 70
0
 71
3
 72
24
 73
20
 74
0
 42
0.0000001
 43
0.0000001
 44
0.0000000001
 40
0.0
 40
0.0
 40
0.0
 40
0.0
 40
0.0671468183
 40
0.1319210199
 40
0.1945783806
 40
0.2554207491
 40
0.314798471
 40
0.3731104681
 40
0.4308011728
 40
0.488353857
 40
0.5462853158
 40
0.6051249071
 40
0.665355467
 40
0.7273984832
 40
0.7592205481
 40
0.791624941
 40
0.8583079611
 40
0.927702144
 40
1.0
 40
1.0
 40
1.0
 40
1.0
 10
5.4525345268
 20
4.8851999734
 30
0.0
 10
5.4595859975
 20
4.877235457
 30
0.0
 10
5.4729113616
 20
4.8611078331
 30
0.0
 10
5.4907264987
 20
4.8359151368
 30
0.0
 10
5.5059466548
 20
4.8102233909
 30
0.0
 10
5.518523407
 20
4.784081273
 30
0.0
 10
5.5284087762
 20
4.7575367979
 30
0.0
 10
5.5355536548
 20
4.7306401594
 30
0.0
 10
5.5399091013
 20
4.7034438369
 30
0.0
 10
5.5414273637
 20
4.6760010622
 30
0.0
 10
5.5400623507
 20
4.6483691247
 30
0.0
 10
5.535865496
 20
4.620598589
 30
0.0
 10
5.5288920742
 20
4.5927255406
 30
0.0
 10
5.5208792941
 20
4.5696322798
 30
0.0
 10
5.5131801952
 20
4.5511648277
 30
0.0
 10
5.5044514669
 20
4.532347018
 30
0.0
 10
5.4918467389
 20
4.5087904794
 30
0.0
 10
5.4742971639
 20
4.4808048131
 30
0.0
 10
5.4611941209
 20
4.4625593991
 30
0.0
 10
5.4542554033
 20
4.4534468761
 30
0.0
  0
SPLINE
  5
438
100
AcDbEntity
  8
0
100
AcDbSpline
 62
7
  6
CONTINUOUS
 70
0
 71
3
 72
24
 73
20
 74
0
 42
0.0000001
 43
0.0000001
 44
0.0000000001
 40
0.0
 40
0.0
 40
0.0
 40
0.0
 40
0.072297856
 40
0.1416920389
 40
0.208375059
 40
0.2407794518
 40
0.2726015167
 40
0.3346445329
 40
0.3948750928
 40
0.4537146841
 40
0.5116461428
 40
0.5691988271
 40
0.6268895317
 40
0.6852015288
 40
0.7445792508
 40
0.8054216193
 40
0.8680789801
 40
0.9328531816
 40
1.0
 40
1.0
 40
1.0
 40
1.0
 10
5.4128385305
 20
5.9533950081
 30
0.0
 10
5.4058770107
 20
5.9624901233
 30
0.0
 10
5.39272831
 20
5.9807026613
 30
0.0
 10
5.3751086949
 20
6.0086442838
 30
0.0
 10
5.3624450051
 20
6.0321691779
 30
0.0
 10
5.3536691716
 20
6.0509650659
 30
0.0
 10
5.3459238418
 20
6.0694131764
 30
0.0
 10
5.3378532458
 20
6.0924862954
 30
0.0
 10
5.3308100329
 20
6.1203417902
 30
0.0
 10
5.3265436352
 20
6.148101727
 30
0.0
 10
5.3251094176
 20
6.175730159
 30
0.0
 10
5.32655894
 20
6.2031766505
 30
0.0
 10
5.3308462549
 20
6.2303837967
 30
0.0
 10
5.3379237438
 20
6.2572982464
 30
0.0
 10
5.3477425968
 20
6.2838673979
 30
0.0
 10
5.3602538321
 20
6.3100409345
 30
0.0
 10
5.3754095911
 20
6.3357707214
 30
0.0
 10
5.3931615729
 20
6.3610079599
 30
0.0
 10
5.4064465007
 20
6.3771689089
 30
0.0
 10
5.4134780008
 20
6.3851510619
 30
0.0
  0
SPLINE
  5
439
100
AcDbEntity
  8
0
100
AcDbSpline
 62
7
  6
CONTINUOUS
 70
0
 71
3
 72
24
 73
20
 74
0
 42
0.0000001
 43
0.0000001
 44
0.0000000001
 40
0.0
 40
0.0
 40
0.0
 40
0.0
 40
0.0671468183
 40
0.1319210199
 40
0.1945783806
 40
0.2554207491
 40
0.314798471
 40
0.3731104681
 40
0.4308011728
 40
0.488353857
 40
0.5462853158
 40
0.6051249071
 40
0.665355467
 40
0.7273984832
 40
0.7592205481
 40
0.791624941
 40
0.8583079611
 40
0.927702144
 40
1.0
 40
1.0
 40
1.0
 40
1.0
 10
5.4525345268
 20
6.3851999734
 30
0.0
 10
5.4595859975
 20
6.377235457
 30
0.0
 10
5.4729113616
 20
6.3611078331
 30
0.0
 10
5.4907264987
 20
6.3359151368
 30
0.0
 10
5.5059466548
 20
6.3102233909
 30
0.0
 10
5.518523407
 20
6.284081273
 30
0.0
 10
5.5284087762
 20
6.2575367979
 30
0.0
 10
5.5355536548
 20
6.2306401594
 30
0.0
 10
5.5399091013
 20
6.2034438369
 30
0.0
 10
5.5414273637
 20
6.1760010622
 30
0.0
 10
5.5400623507
 20
6.1483691247
 30
0.0
 10
5.535865496
 20
6.120598589
 30
0.0
 10
5.5288920742
 20
6.0927255406
 30
0.0
 10
5.5208792941
 20
6.0696322798
 30
0.0
 10
5.5131801952
 20
6.0511648277
 30
0.0
 10
5.5044514669
 20
6.032347018
 30
0.0
 10
5.4918467389
 20
6.0087904794
 30
0.0
 10
5.4742971639
 20
5.9808048131
 30
0.0
 10
5.4611941209
 20
5.9625593991
 30
0.0
 10
5.4542554033
 20
5.9534468761
 30
0.0
  0
SPLINE
  5
43A
100
AcDbEntity
  8
0
100
AcDbSpline
 62
7
  6
CONTINUOUS
 70
0
 71
3
 72
24
 73
20
 74
0
 42
0.0000001
 43
0.0000001
 44
0.0000000001
 40
0.0
 40
0.0
 40
0.0
 40
0.0
 40
0.0671468183
 40
0.1319210199
 40
0.1945783806
 40
0.2554207491
 40
0.314798471
 40
0.3731104681
 40
0.4308011728
 40
0.488353857
 40
0.5462853158
 40
0.6051249071
 40
0.665355467
 40
0.7273984832
 40
0.7592205481
 40
0.791624941
 40
0.8583079611
 40
0.927702144
 40
1.0
 40
1.0
 40
1.0
 40
1.0
 10
4.4092528456
 20
5.7190396809
 30
0.0
 10
4.4196760544
 20
5.7211641756
 30
0.0
 10
4.4403056685
 20
5.7246404673
 30
0.0
 10
4.471030752
 20
5.7274724805
 30
0.0
 10
4.5008905347
 20
5.7278076494
 30
0.0
 10
4.529818649
 20
5.7256283774
 30
0.0
 10
4.5577495233
 20
5.7209171207
 30
0.0
 10
4.5846151349
 20
5.7136564478
 30
0.0
 10
4.6103455643
 20
5.7038302139
 30
0.0
 10
4.6348708355
 20
5.6914236803
 30
0.0
 10
4.6581182889
 20
5.6764255757
 30
0.0
 10
4.6800698509
 20
5.658905725
 30
0.0
 10
4.700721908
 20
5.6389300404
 30
0.0
 10
4.7167148685
 20
5.6204441389
 30
0.0
 10
4.7288586017
 20
5.6045427976
 30
0.0
 10
4.7407909387
 20
5.5875745922
 30
0.0
 10
4.7548891356
 20
5.5648803083
 30
0.0
 10
4.7703506461
 20
5.5356890974
 30
0.0
 10
4.7796001166
 20
5.5152188222
 30
0.0
 10
4.7840224342
 20
5.5046534551
 30
0.0
  0
SPLINE
  5
43B
100
AcDbEntity
  8
0
100
AcDbSpline
 62
7
  6
CONTINUOUS
 70
0
 71
3
 72
24
 73
20
 74
0
 42
0.0000001
 43
0.0000001
 44
0.0000000001
 40
0.0
 40
0.0
 40
0.0
 40
0.0
 40
0.072297856
 40
0.1416920389
 40
0.208375059
 40
0.2407794518
 40
0.2726015167
 40
0.3346445329
 40
0.3948750928
 40
0.4537146841
 40
0.5116461428
 40
0.5691988271
 40
0.6268895317
 40
0.6852015288
 40
0.7445792508
 40
0.8054216193
 40
0.8680789801
 40
0.9328531816
 40
1.0
 40
1.0
 40
1.0
 40
1.0
 10
4.7633589168
 20
5.4687594571
 30
0.0
 10
4.7520015561
 20
5.4672781617
 30
0.0
 10
4.7296546852
 20
5.4649973218
 30
0.0
 10
4.6966467227
 20
5.4637090989
 30
0.0
 10
4.6699417219
 20
5.4645044687
 30
0.0
 10
4.6492760887
 20
5.466302318
 30
0.0
 10
4.6294268915
 20
5.468818721
 30
0.0
 10
4.6054096862
 20
5.4733659392
 30
0.0
 10
4.5777645137
 20
5.4811940854
 30
0.0
 10
4.5515905043
 20
5.491379245
 30
0.0
 10
4.5269464715
 20
5.5039513921
 30
0.0
 10
4.5039018739
 20
5.518929961
 30
0.0
 10
4.4824834516
 20
5.5362464578
 30
0.0
 10
4.4627135988
 20
5.5558329679
 30
0.0
 10
4.4446134651
 20
5.5776209197
 30
0.0
 10
4.4282021352
 20
5.6015427356
 30
0.0
 10
4.4134973656
 20
5.6275329013
 30
0.0
 10
4.4005172669
 20
5.6555251878
 30
0.0
 10
4.3931639384
 20
5.6751107473
 30
0.0
 10
4.3897669411
 20
5.6851912815
 30
0.0
  0
SPLINE
  5
43C
100
AcDbEntity
  8
0
100
AcDbSpline
 62
7
  6
CONTINUOUS
 70
0
 71
3
 72
24
 73
20
 74
0
 42
0.0000001
 43
0.0000001
 44
0.0000000001
 40
0.0
 40
0.0
 40
0.0
 40
0.0
 40
0.0671468183
 40
0.1319210199
 40
0.1945783806
 40
0.2554207491
 40
0.314798471
 40
0.3731104681
 40
0.4308011728
 40
0.488353857
 40
0.5462853158
 40
0.6051249071
 40
0.665355467
 40
0.7273984832
 40
0.7592205481
 40
0.791624941
 40
0.8583079611
 40
0.927702144
 40
1.0
 40
1.0
 40
1.0
 40
1.0
 10
4.3897669414
 20
5.905914292
 30
0.0
 10
4.3931639386
 20
5.9159948261
 30
0.0
 10
4.4005172672
 20
5.9355803856
 30
0.0
 10
4.4134973659
 20
5.963572672
 30
0.0
 10
4.4282021355
 20
5.9895628376
 30
0.0
 10
4.4446134654
 20
6.0134846535
 30
0.0
 10
4.4627135991
 20
6.0352726052
 30
0.0
 10
4.4824834519
 20
6.0548591152
 30
0.0
 10
4.5039018742
 20
6.0721756119
 30
0.0
 10
4.5269464718
 20
6.0871541808
 30
0.0
 10
4.5515905046
 20
6.0997263278
 30
0.0
 10
4.5777645139
 20
6.1099114874
 30
0.0
 10
4.6054096865
 20
6.1177396336
 30
0.0
 10
4.6294268917
 20
6.1222868518
 30
0.0
 10
4.6492760889
 20
6.1248032547
 30
0.0
 10
4.6699417221
 20
6.126601104
 30
0.0
 10
4.6966467229
 20
6.1273964739
 30
0.0
 10
4.7296546853
 20
6.1261082509
 30
0.0
 10
4.7520015562
 20
6.123827411
 30
0.0
 10
4.7633589168
 20
6.1223461157
 30
0.0
  0
SPLINE
  5
43D
100
AcDbEntity
  8
0
100
AcDbSpline
 62
7
  6
CONTINUOUS
 70
0
 71
3
 72
24
 73
20
 74
0
 42
0.0000001
 43
0.0000001
 44
0.0000000001
 40
0.0
 40
0.0
 40
0.0
 40
0.0
 40
0.072297856
 40
0.1416920389
 40
0.208375059
 40
0.2407794518
 40
0.2726015167
 40
0.3346445329
 40
0.3948750928
 40
0.4537146841
 40
0.5116461428
 40
0.5691988271
 40
0.6268895317
 40
0.6852015288
 40
0.7445792508
 40
0.8054216193
 40
0.8680789801
 40
0.9328531816
 40
1.0
 40
1.0
 40
1.0
 40
1.0
 10
4.7840224342
 20
6.0864521176
 30
0.0
 10
4.7796001166
 20
6.0758867504
 30
0.0
 10
4.7703506461
 20
6.0554164753
 30
0.0
 10
4.7548891356
 20
6.0262252643
 30
0.0
 10
4.7407909386
 20
6.0035309803
 30
0.0
 10
4.7288586016
 20
5.986562775
 30
0.0
 10
4.7167148683
 20
5.9706614337
 30
0.0
 10
4.7007219079
 20
5.9521755321
 30
0.0
 10
4.6800698508
 20
5.9321998475
 30
0.0
 10
4.6581182887
 20
5.9146799969
 30
0.0
 10
4.6348708352
 20
5.8996818922
 30
0.0
 10
4.6103455639
 20
5.8872753587
 30
0.0
 10
4.5846151345
 20
5.8774491248
 30
0.0
 10
4.5577495229
 20
5.8701884519
 30
0.0
 10
4.5298186485
 20
5.8654771953
 30
0.0
 10
4.5008905341
 20
5.8632979233
 30
0.0
 10
4.4710307514
 20
5.8636330923
 30
0.0
 10
4.4403056677
 20
5.8664651055
 30
0.0
 10
4.4196760537
 20
5.8699413973
 30
0.0
 10
4.4092528448
 20
5.8720658919
 30
0.0
  0
SPLINE
  5
43E
100
AcDbEntity
  8
0
100
AcDbSpline
 62
7
  6
CONTINUOUS
 70
0
 71
3
 72
24
 73
20
 74
0
 42
0.0000001
 43
0.0000001
 44
0.0000000001
 40
0.0
 40
0.0
 40
0.0
 40
0.0
 40
0.0671468183
 40
0.1319210199
 40
0.1945783806
 40
0.2554207491
 40
0.314798471
 40
0.3731104681
 40
0.4308011728
 40
0.488353857
 40
0.5462853158
 40
0.6051249071
 40
0.665355467
 40
0.7273984832
 40
0.7592205481
 40
0.791624941
 40
0.8583079611
 40
0.927702144
 40
1.0
 40
1.0
 40
1.0
 40
1.0
 10
5.3261193496
 20
6.4354418369
 30
0.0
 10
5.3227476115
 20
6.425352826
 30
0.0
 10
5.3154433615
 20
6.4057489103
 30
0.0
 10
5.302533415
 20
6.3777242008
 30
0.0
 10
5.2878937885
 20
6.351697286
 30
0.0
 10
5.2715424264
 20
6.3277344401
 30
0.0
 10
5.2534969213
 20
6.3059012218
 30
0.0
 10
5.2337761883
 20
6.2862652561
 30
0.0
 10
5.2124012054
 20
6.2688951676
 30
0.0
 10
5.1893941965
 20
6.2538589264
 30
0.0
 10
5.1647817302
 20
6.2412250935
 30
0.0
 10
5.1386333135
 20
6.2309744085
 30
0.0
 10
5.1110078346
 20
6.2230770447
 30
0.0
 10
5.0870020941
 20
6.2184696855
 30
0.0
 10
5.0671592619
 20
6.2159035746
 30
0.0
 10
5.0464981965
 20
6.2140539703
 30
0.0
 10
5.0197952717
 20
6.2131917156
 30
0.0
 10
4.9867841862
 20
6.2143972602
 30
0.0
 10
4.9644316727
 20
6.2166221214
 30
0.0
 10
4.9530706375
 20
6.2180749655
 30
0.0
  0
SPLINE
  5
43F
100
AcDbEntity
  8
0
100
AcDbSpline
 62
7
  6
CONTINUOUS
 70
0
 71
3
 72
24
 73
20
 74
0
 42
0.0000001
 43
0.0000001
 44
0.0000000001
 40
0.0
 40
0.0
 40
0.0
 40
0.0
 40
0.072297856
 40
0.1416920389
 40
0.208375059
 40
0.2407794518
 40
0.2726015167
 40
0.3346445329
 40
0.3948750928
 40
0.4537146841
 40
0.5116461428
 40
0.5691988271
 40
0.6268895317
 40
0.6852015288
 40
0.7445792508
 40
0.8054216193
 40
0.8680789801
 40
0.9328531816
 40
1.0
 40
1.0
 40
1.0
 40
1.0
 10
4.9323172821
 20
6.2539170956
 30
0.0
 10
4.936713123
 20
6.2644935061
 30
0.0
 10
4.9459112931
 20
6.284986884
 30
0.0
 10
4.9612996406
 20
6.3142167295
 30
0.0
 10
4.9753409515
 20
6.3369462536
 30
0.0
 10
4.9872307513
 20
6.3539442924
 30
0.0
 10
4.9993346188
 20
6.3698759999
 30
0.0
 10
5.0152812279
 20
6.3884019007
 30
0.0
 10
5.0358831876
 20
6.4084292493
 30
0.0
 10
5.0577907993
 20
6.4260040265
 30
0.0
 10
5.0810006145
 20
6.4410603114
 30
0.0
 10
5.1054947345
 20
6.4535282339
 30
0.0
 10
5.1312004717
 20
6.4634188834
 30
0.0
 10
5.1580478134
 20
6.4707468231
 30
0.0
 10
5.1859668
 20
6.4755280228
 30
0.0
 10
5.2148893653
 20
6.4777797434
 30
0.0
 10
5.2447498938
 20
6.4775193646
 30
0.0
 10
5.2754819744
 20
6.4747643166
 30
0.0
 10
5.2961202307
 20
6.4713397061
 30
0.0
 10
5.3065487281
 20
6.4692413249
 30
0.0
  0
SPLINE
  5
440
100
AcDbEntity
  8
0
100
AcDbSpline
 62
7
  6
CONTINUOUS
 70
0
 71
3
 72
24
 73
20
 74
0
 42
0.0000001
 43
0.0000001
 44
0.0000000001
 40
0.0
 40
0.0
 40
0.0
 40
0.0
 40
0.072297856
 40
0.1416920389
 40
0.208375059
 40
0.2407794518
 40
0.2726015167
 40
0.3346445329
 40
0.3948750928
 40
0.4537146841
 40
0.5116461428
 40
0.5691988271
 40
0.6268895317
 40
0.6852015288
 40
0.7445792508
 40
0.8054216193
 40
0.8680789801
 40
0.9328531816
 40
1.0
 40
1.0
 40
1.0
 40
1.0
 10
4.7633589168
 20
6.2187594571
 30
0.0
 10
4.7520015561
 20
6.2172781617
 30
0.0
 10
4.7296546852
 20
6.2149973218
 30
0.0
 10
4.6966467227
 20
6.2137090989
 30
0.0
 10
4.6699417219
 20
6.2145044687
 30
0.0
 10
4.6492760887
 20
6.216302318
 30
0.0
 10
4.6294268915
 20
6.218818721
 30
0.0
 10
4.6054096862
 20
6.2233659392
 30
0.0
 10
4.5777645137
 20
6.2311940854
 30
0.0
 10
4.5515905043
 20
6.241379245
 30
0.0
 10
4.5269464715
 20
6.2539513921
 30
0.0
 10
4.5039018739
 20
6.268929961
 30
0.0
 10
4.4824834516
 20
6.2862464578
 30
0.0
 10
4.4627135988
 20
6.3058329679
 30
0.0
 10
4.4446134651
 20
6.3276209197
 30
0.0
 10
4.4282021352
 20
6.3515427356
 30
0.0
 10
4.4134973656
 20
6.3775329013
 30
0.0
 10
4.4005172669
 20
6.4055251878
 30
0.0
 10
4.3931639384
 20
6.4251107473
 30
0.0
 10
4.3897669411
 20
6.4351912815
 30
0.0
  0
SPLINE
  5
441
100
AcDbEntity
  8
0
100
AcDbSpline
 62
7
  6
CONTINUOUS
 70
0
 71
3
 72
24
 73
20
 74
0
 42
0.0000001
 43
0.0000001
 44
0.0000000001
 40
0.0
 40
0.0
 40
0.0
 40
0.0
 40
0.0671468183
 40
0.1319210199
 40
0.1945783806
 40
0.2554207491
 40
0.314798471
 40
0.3731104681
 40
0.4308011728
 40
0.488353857
 40
0.5462853158
 40
0.6051249071
 40
0.665355467
 40
0.7273984832
 40
0.7592205481
 40
0.791624941
 40
0.8583079611
 40
0.927702144
 40
1.0
 40
1.0
 40
1.0
 40
1.0
 10
4.4092528456
 20
6.4690396809
 30
0.0
 10
4.4196760544
 20
6.4711641756
 30
0.0
 10
4.4403056685
 20
6.4746404673
 30
0.0
 10
4.471030752
 20
6.4774724805
 30
0.0
 10
4.5008905347
 20
6.4778076494
 30
0.0
 10
4.529818649
 20
6.4756283774
 30
0.0
 10
4.5577495233
 20
6.4709171207
 30
0.0
 10
4.5846151349
 20
6.4636564478
 30
0.0
 10
4.6103455643
 20
6.4538302139
 30
0.0
 10
4.6348708355
 20
6.4414236803
 30
0.0
 10
4.6581182889
 20
6.4264255757
 30
0.0
 10
4.6800698509
 20
6.408905725
 30
0.0
 10
4.700721908
 20
6.3889300404
 30
0.0
 10
4.7167148685
 20
6.3704441389
 30
0.0
 10
4.7288586017
 20
6.3545427976
 30
0.0
 10
4.7407909387
 20
6.3375745922
 30
0.0
 10
4.7548891356
 20
6.3148803083
 30
0.0
 10
4.7703506461
 20
6.2856890974
 30
0.0
 10
4.7796001166
 20
6.2652188222
 30
0.0
 10
4.7840224342
 20
6.2546534551
 30
0.0
  0
ELLIPSE
  5
442
100
AcDbEntity
  8
0
100
AcDbEllipse
 62
7
  6
CONTINUOUS
 10
5.4330165536
 20
6.3769588859
 30
0.0
 11
-0.0000252646
 21
0.0201739126
 31
0.0
 40
0.9913785554
 41
-0.8430822023
 42
0.8430822023
  0
ELLIPSE
  5
443
100
AcDbEntity
  8
0
100
AcDbEllipse
 62
7
  6
CONTINUOUS
 10
5.3092233719
 20
6.4482243539
 30
0.0
 11
0.0174584885
 21
0.0101088361
 31
0.0
 40
0.9913785554
 41
-0.8430822023
 42
0.8430822023
  0
ELLIPSE
  5
444
100
AcDbEntity
  8
0
100
AcDbEllipse
 62
7
  6
CONTINUOUS
 10
4.40663085
 20
5.6980160765
 30
0.0
 11
0.0174837531
 21
-0.0100650765
 31
0.0
 40
0.9913785554
 41
2.2985104513
 42
3.9846748559
  0
ELLIPSE
  5
445
100
AcDbEntity
  8
0
100
AcDbEllipse
 62
7
  6
CONTINUOUS
 10
4.40663085
 20
5.8930894962
 30
0.0
 11
0.0174837531
 21
0.0100650765
 31
0.0
 40
0.9913785554
 41
2.2985104513
 42
3.9846748559
  0
ELLIPSE
  5
446
100
AcDbEntity
  8
0
100
AcDbEllipse
 62
7
  6
CONTINUOUS
 10
4.40663085
 20
6.4480160765
 30
0.0
 11
0.0174837531
 21
-0.0100650765
 31
0.0
 40
0.9913785554
 41
2.2985104513
 42
3.9846748559
  0
ELLIPSE
  5
447
100
AcDbEntity
  8
0
100
AcDbEllipse
 62
7
  6
CONTINUOUS
 10
4.7685257878
 20
6.2396797874
 30
0.0
 11
0.0175122449
 21
-0.0100814787
 31
0.0
 40
0.9897656159
 41
-0.9137876305
 42
0.9137876305
  0
ELLIPSE
  5
448
100
AcDbEntity
  8
0
100
AcDbEllipse
 62
7
  6
CONTINUOUS
 10
4.9478513841
 20
6.2389822889
 30
0.0
 11
0.0174869392
 21
0.0101253096
 31
0.0
 40
0.9897656159
 41
2.2278050231
 42
4.0553802841
  0
ELLIPSE
  5
449
100
AcDbEntity
  8
0
100
AcDbEllipse
 62
7
  6
CONTINUOUS
 10
4.9478513841
 20
6.1021232838
 30
0.0
 11
0.0174869392
 21
-0.0101253096
 31
0.0
 40
0.9897656159
 41
2.2278050231
 42
4.0553802841
  0
ELLIPSE
  5
44A
100
AcDbEntity
  8
0
100
AcDbEllipse
 62
7
  6
CONTINUOUS
 10
4.7685257878
 20
6.1014257853
 30
0.0
 11
0.0175122449
 21
0.0100814787
 31
0.0
 40
0.9897656159
 41
-0.9137876305
 42
0.9137876305
  0
ELLIPSE
  5
44B
100
AcDbEntity
  8
0
100
AcDbEllipse
 62
7
  6
CONTINUOUS
 10
4.9478513841
 20
5.4889822889
 30
0.0
 11
0.0174869392
 21
0.0101253096
 31
0.0
 40
0.9897656159
 41
2.2278050231
 42
4.0553802841
  0
ELLIPSE
  5
44C
100
AcDbEntity
  8
0
100
AcDbEllipse
 62
7
  6
CONTINUOUS
 10
4.7685257878
 20
5.4896797874
 30
0.0
 11
0.0175122449
 21
-0.0100814787
 31
0.0
 40
0.9897656159
 41
-0.9137876305
 42
0.9137876305
  0
ELLIPSE
  5
44D
100
AcDbEntity
  8
0
100
AcDbEllipse
 62
7
  6
CONTINUOUS
 10
5.4335395034
 20
5.9593805318
 30
0.0
 11
-0.0000253058
 21
0.0202067884
 31
0.0
 40
0.9897656159
 41
-4.0553802841
 42
-2.2278050231
  0
ELLIPSE
  5
44E
100
AcDbEntity
  8
0
100
AcDbEllipse
 62
7
  6
CONTINUOUS
 10
5.4330165536
 20
4.1269588859
 30
0.0
 11
-0.0000252646
 21
0.0201739126
 31
0.0
 40
0.9913785554
 41
-0.8430822023
 42
0.8430822023
  0
ELLIPSE
  5
44F
100
AcDbEntity
  8
0
100
AcDbEllipse
 62
7
  6
CONTINUOUS
 10
5.3092233719
 20
4.1982243539
 30
0.0
 11
0.0174584885
 21
0.0101088361
 31
0.0
 40
0.9913785554
 41
-0.8430822023
 42
0.8430822023
  0
ELLIPSE
  5
450
100
AcDbEntity
  8
0
100
AcDbEllipse
 62
7
  6
CONTINUOUS
 10
5.3092233719
 20
4.3928812188
 30
0.0
 11
0.0174584885
 21
-0.0101088361
 31
0.0
 40
0.9913785554
 41
-0.8430822023
 42
0.8430822023
  0
ELLIPSE
  5
451
100
AcDbEntity
  8
0
100
AcDbEllipse
 62
7
  6
CONTINUOUS
 10
5.4335395034
 20
4.4593805318
 30
0.0
 11
-0.0000253058
 21
0.0202067884
 31
0.0
 40
0.9897656159
 41
-4.0553802841
 42
-2.2278050231
  0
ELLIPSE
  5
452
100
AcDbEntity
  8
0
100
AcDbEllipse
 62
7
  6
CONTINUOUS
 10
5.4330165536
 20
4.8769588859
 30
0.0
 11
-0.0000252646
 21
0.0201739126
 31
0.0
 40
0.9913785554
 41
-0.8430822023
 42
0.8430822023
  0
ELLIPSE
  5
453
100
AcDbEntity
  8
0
100
AcDbEllipse
 62
7
  6
CONTINUOUS
 10
5.3092233719
 20
4.9482243539
 30
0.0
 11
0.0174584885
 21
0.0101088361
 31
0.0
 40
0.9913785554
 41
-0.8430822023
 42
0.8430822023
  0
ELLIPSE
  5
454
100
AcDbEntity
  8
0
100
AcDbEllipse
 62
7
  6
CONTINUOUS
 10
5.3092233719
 20
5.1428812188
 30
0.0
 11
0.0174584885
 21
-0.0101088361
 31
0.0
 40
0.9913785554
 41
-0.8430822023
 42
0.8430822023
  0
ELLIPSE
  5
455
100
AcDbEntity
  8
0
100
AcDbEllipse
 62
7
  6
CONTINUOUS
 10
5.4335395034
 20
5.2093805318
 30
0.0
 11
-0.0000253058
 21
0.0202067884
 31
0.0
 40
0.9897656159
 41
-4.0553802841
 42
-2.2278050231
  0
ELLIPSE
  5
456
100
AcDbEntity
  8
0
100
AcDbEllipse
 62
7
  6
CONTINUOUS
 10
5.4330165536
 20
5.6269588859
 30
0.0
 11
-0.0000252646
 21
0.0201739126
 31
0.0
 40
0.9913785554
 41
-0.8430822023
 42
0.8430822023
  0
ELLIPSE
  5
457
100
AcDbEntity
  8
0
100
AcDbEllipse
 62
7
  6
CONTINUOUS
 10
5.3092233719
 20
5.6982243539
 30
0.0
 11
0.0174584885
 21
0.0101088361
 31
0.0
 40
0.9913785554
 41
-0.8430822023
 42
0.8430822023
  0
ELLIPSE
  5
458
100
AcDbEntity
  8
0
100
AcDbEllipse
 62
7
  6
CONTINUOUS
 10
5.3092233719
 20
5.8928812188
 30
0.0
 11
0.0174584885
 21
-0.0101088361
 31
0.0
 40
0.9913785554
 41
-0.8430822023
 42
0.8430822023
  0
ELLIPSE
  5
459
100
AcDbEntity
  8
0
100
AcDbEllipse
 62
7
  6
CONTINUOUS
 10
5.55663085
 20
3.6430894962
 30
0.0
 11
0.0174837531
 21
0.0100650765
 31
0.0
 40
0.9913785554
 41
2.2985104513
 42
3.9846748559
  0
ELLIPSE
  5
45A
100
AcDbEntity
  8
0
100
AcDbEllipse
 62
7
  6
CONTINUOUS
 10
5.55663085
 20
3.4480160765
 30
0.0
 11
0.0174837531
 21
-0.0100650765
 31
0.0
 40
0.9913785554
 41
2.2985104513
 42
3.9846748559
  0
ELLIPSE
  5
45B
100
AcDbEntity
  8
0
100
AcDbEllipse
 62
7
  6
CONTINUOUS
 10
5.4330165536
 20
3.3769588859
 30
0.0
 11
-0.0000252646
 21
0.0201739126
 31
0.0
 40
0.9913785554
 41
-0.8430822023
 42
0.8430822023
  0
ELLIPSE
  5
45C
100
AcDbEntity
  8
0
100
AcDbEllipse
 62
7
  6
CONTINUOUS
 10
5.3092233719
 20
3.4482243539
 30
0.0
 11
0.0174584885
 21
0.0101088361
 31
0.0
 40
0.9913785554
 41
-0.8430822023
 42
0.8430822023
  0
ELLIPSE
  5
45D
100
AcDbEntity
  8
0
100
AcDbEllipse
 62
7
  6
CONTINUOUS
 10
5.55663085
 20
2.8930894962
 30
0.0
 11
0.0174837531
 21
0.0100650765
 31
0.0
 40
0.9913785554
 41
2.2985104513
 42
3.9846748559
  0
ELLIPSE
  5
45E
100
AcDbEntity
  8
0
100
AcDbEllipse
 62
7
  6
CONTINUOUS
 10
5.4335395034
 20
2.9593805318
 30
0.0
 11
-0.0000253058
 21
0.0202067884
 31
0.0
 40
0.9897656159
 41
-4.0553802841
 42
-2.2278050231
  0
ELLIPSE
  5
45F
100
AcDbEntity
  8
0
100
AcDbEllipse
 62
7
  6
CONTINUOUS
 10
5.3092233719
 20
2.8928812188
 30
0.0
 11
0.0174584885
 21
-0.0101088361
 31
0.0
 40
0.9913785554
 41
-0.8430822023
 42
0.8430822023
  0
ELLIPSE
  5
460
100
AcDbEntity
  8
0
100
AcDbEllipse
 62
7
  6
CONTINUOUS
 10
4.9478513841
 20
3.2389822889
 30
0.0
 11
0.0174869392
 21
0.0101253096
 31
0.0
 40
0.9897656159
 41
2.2278050231
 42
4.0553802841
  0
ELLIPSE
  5
461
100
AcDbEntity
  8
0
100
AcDbEllipse
 62
7
  6
CONTINUOUS
 10
4.7685257878
 20
3.2396797874
 30
0.0
 11
0.0175122449
 21
-0.0100814787
 31
0.0
 40
0.9897656159
 41
-0.9137876305
 42
0.9137876305
  0
ELLIPSE
  5
462
100
AcDbEntity
  8
0
100
AcDbEllipse
 62
7
  6
CONTINUOUS
 10
4.9478513841
 20
3.1021232838
 30
0.0
 11
0.0174869392
 21
-0.0101253096
 31
0.0
 40
0.9897656159
 41
2.2278050231
 42
4.0553802841
  0
ELLIPSE
  5
463
100
AcDbEntity
  8
0
100
AcDbEllipse
 62
7
  6
CONTINUOUS
 10
4.7685257878
 20
3.1014257853
 30
0.0
 11
0.0175122449
 21
0.0100814787
 31
0.0
 40
0.9897656159
 41
-0.9137876305
 42
0.9137876305
  0
ELLIPSE
  5
464
100
AcDbEntity
  8
0
100
AcDbEllipse
 62
7
  6
CONTINUOUS
 10
5.3092233719
 20
3.6428812188
 30
0.0
 11
0.0174584885
 21
-0.0101088361
 31
0.0
 40
0.9913785554
 41
-0.8430822023
 42
0.8430822023
  0
ELLIPSE
  5
465
100
AcDbEntity
  8
0
100
AcDbEllipse
 62
7
  6
CONTINUOUS
 10
4.7685257878
 20
5.3514257853
 30
0.0
 11
0.0175122449
 21
0.0100814787
 31
0.0
 40
0.9897656159
 41
-0.9137876305
 42
0.9137876305
  0
ELLIPSE
  5
466
100
AcDbEntity
  8
0
100
AcDbEllipse
 62
7
  6
CONTINUOUS
 10
4.9478513841
 20
5.3521232838
 30
0.0
 11
0.0174869392
 21
-0.0101253096
 31
0.0
 40
0.9897656159
 41
2.2278050231
 42
4.0553802841
  0
ELLIPSE
  5
467
100
AcDbEntity
  8
0
100
AcDbEllipse
 62
7
  6
CONTINUOUS
 10
4.7685257878
 20
4.7396797874
 30
0.0
 11
0.0175122449
 21
-0.0100814787
 31
0.0
 40
0.9897656159
 41
-0.9137876305
 42
0.9137876305
  0
ELLIPSE
  5
468
100
AcDbEntity
  8
0
100
AcDbEllipse
 62
7
  6
CONTINUOUS
 10
4.9478513841
 20
4.7389822889
 30
0.0
 11
0.0174869392
 21
0.0101253096
 31
0.0
 40
0.9897656159
 41
2.2278050231
 42
4.0553802841
  0
ELLIPSE
  5
469
100
AcDbEntity
  8
0
100
AcDbEllipse
 62
7
  6
CONTINUOUS
 10
4.9478513841
 20
4.6021232838
 30
0.0
 11
0.0174869392
 21
-0.0101253096
 31
0.0
 40
0.9897656159
 41
2.2278050231
 42
4.0553802841
  0
ELLIPSE
  5
46A
100
AcDbEntity
  8
0
100
AcDbEllipse
 62
7
  6
CONTINUOUS
 10
4.7685257878
 20
4.6014257853
 30
0.0
 11
0.0175122449
 21
0.0100814787
 31
0.0
 40
0.9897656159
 41
-0.9137876305
 42
0.9137876305
  0
ELLIPSE
  5
46B
100
AcDbEntity
  8
0
100
AcDbEllipse
 62
7
  6
CONTINUOUS
 10
4.7685257878
 20
3.9896797874
 30
0.0
 11
0.0175122449
 21
-0.0100814787
 31
0.0
 40
0.9897656159
 41
-0.9137876305
 42
0.9137876305
  0
ELLIPSE
  5
46C
100
AcDbEntity
  8
0
100
AcDbEllipse
 62
7
  6
CONTINUOUS
 10
4.9478513841
 20
3.9889822889
 30
0.0
 11
0.0174869392
 21
0.0101253096
 31
0.0
 40
0.9897656159
 41
2.2278050231
 42
4.0553802841
  0
ELLIPSE
  5
46D
100
AcDbEntity
  8
0
100
AcDbEllipse
 62
7
  6
CONTINUOUS
 10
4.9478513841
 20
3.8521232838
 30
0.0
 11
0.0174869392
 21
-0.0101253096
 31
0.0
 40
0.9897656159
 41
2.2278050231
 42
4.0553802841
  0
ELLIPSE
  5
46E
100
AcDbEntity
  8
0
100
AcDbEllipse
 62
7
  6
CONTINUOUS
 10
4.7685257878
 20
3.8514257853
 30
0.0
 11
0.0175122449
 21
0.0100814787
 31
0.0
 40
0.9897656159
 41
-0.9137876305
 42
0.9137876305
  0
ELLIPSE
  5
46F
100
AcDbEntity
  8
0
100
AcDbEllipse
 62
7
  6
CONTINUOUS
 10
5.4335395034
 20
3.7093805318
 30
0.0
 11
-0.0000253058
 21
0.0202067884
 31
0.0
 40
0.9897656159
 41
-4.0553802841
 42
-2.2278050231
  0
ELLIPSE
  5
470
100
AcDbEntity
  8
0
100
AcDbEllipse
 62
7
  6
CONTINUOUS
 10
5.55663085
 20
4.1980160765
 30
0.0
 11
0.0174837531
 21
-0.0100650765
 31
0.0
 40
0.9913785554
 41
2.2985104513
 42
3.9846748559
  0
ELLIPSE
  5
471
100
AcDbEntity
  8
0
100
AcDbEllipse
 62
7
  6
CONTINUOUS
 10
6.4592233719
 20
4.1982243539
 30
0.0
 11
0.0174584885
 21
0.0101088361
 31
0.0
 40
0.9913785554
 41
-0.8430822023
 42
0.8430822023
  0
ELLIPSE
  5
472
100
AcDbEntity
  8
0
100
AcDbEllipse
 62
7
  6
CONTINUOUS
 10
6.5830165536
 20
4.1269588859
 30
0.0
 11
-0.0000252646
 21
0.0201739126
 31
0.0
 40
0.9913785554
 41
-0.8430822023
 42
0.8430822023
  0
ELLIPSE
  5
473
100
AcDbEntity
  8
0
100
AcDbEllipse
 62
7
  6
CONTINUOUS
 10
6.5835395034
 20
3.7093805318
 30
0.0
 11
-0.0000253058
 21
0.0202067884
 31
0.0
 40
0.9897656159
 41
-4.0553802841
 42
-2.2278050231
  0
ELLIPSE
  5
474
100
AcDbEntity
  8
0
100
AcDbEllipse
 62
7
  6
CONTINUOUS
 10
6.4592233719
 20
3.6428812188
 30
0.0
 11
0.0174584885
 21
-0.0101088361
 31
0.0
 40
0.9913785554
 41
-0.8430822023
 42
0.8430822023
  0
ELLIPSE
  5
475
100
AcDbEntity
  8
0
100
AcDbEllipse
 62
7
  6
CONTINUOUS
 10
6.4592233719
 20
3.4482243539
 30
0.0
 11
0.0174584885
 21
0.0101088361
 31
0.0
 40
0.9913785554
 41
-0.8430822023
 42
0.8430822023
  0
ELLIPSE
  5
476
100
AcDbEntity
  8
0
100
AcDbEllipse
 62
7
  6
CONTINUOUS
 10
6.5830165536
 20
3.3769588859
 30
0.0
 11
-0.0000252646
 21
0.0201739126
 31
0.0
 40
0.9913785554
 41
-0.8430822023
 42
0.8430822023
  0
ELLIPSE
  5
477
100
AcDbEntity
  8
0
100
AcDbEllipse
 62
7
  6
CONTINUOUS
 10
6.5835395034
 20
2.9593805318
 30
0.0
 11
-0.0000253058
 21
0.0202067884
 31
0.0
 40
0.9897656159
 41
-4.0553802841
 42
-2.2278050231
  0
ELLIPSE
  5
478
100
AcDbEntity
  8
0
100
AcDbEllipse
 62
7
  6
CONTINUOUS
 10
6.4592233719
 20
2.8928812188
 30
0.0
 11
0.0174584885
 21
-0.0101088361
 31
0.0
 40
0.9913785554
 41
-0.8430822023
 42
0.8430822023
  0
ELLIPSE
  5
479
100
AcDbEntity
  8
0
100
AcDbEllipse
 62
7
  6
CONTINUOUS
 10
6.0978513841
 20
3.2389822889
 30
0.0
 11
0.0174869392
 21
0.0101253096
 31
0.0
 40
0.9897656159
 41
2.2278050231
 42
4.0553802841
  0
ELLIPSE
  5
47A
100
AcDbEntity
  8
0
100
AcDbEllipse
 62
7
  6
CONTINUOUS
 10
6.0978513841
 20
3.1021232838
 30
0.0
 11
0.0174869392
 21
-0.0101253096
 31
0.0
 40
0.9897656159
 41
2.2278050231
 42
4.0553802841
  0
ELLIPSE
  5
47B
100
AcDbEntity
  8
0
100
AcDbEllipse
 62
7
  6
CONTINUOUS
 10
5.9185257878
 20
3.1014257853
 30
0.0
 11
0.0175122449
 21
0.0100814787
 31
0.0
 40
0.9897656159
 41
-0.9137876305
 42
0.9137876305
  0
ELLIPSE
  5
47C
100
AcDbEntity
  8
0
100
AcDbEllipse
 62
7
  6
CONTINUOUS
 10
6.4592233719
 20
4.3928812188
 30
0.0
 11
0.0174584885
 21
-0.0101088361
 31
0.0
 40
0.9913785554
 41
-0.8430822023
 42
0.8430822023
  0
ELLIPSE
  5
47D
100
AcDbEntity
  8
0
100
AcDbEllipse
 62
7
  6
CONTINUOUS
 10
6.4592233719
 20
6.4482243539
 30
0.0
 11
0.0174584885
 21
0.0101088361
 31
0.0
 40
0.9913785554
 41
-0.8430822023
 42
0.8430822023
  0
ELLIPSE
  5
47E
100
AcDbEntity
  8
0
100
AcDbEllipse
 62
7
  6
CONTINUOUS
 10
6.5830165536
 20
6.3769588859
 30
0.0
 11
-0.0000252646
 21
0.0201739126
 31
0.0
 40
0.9913785554
 41
-0.8430822023
 42
0.8430822023
  0
ELLIPSE
  5
47F
100
AcDbEntity
  8
0
100
AcDbEllipse
 62
7
  6
CONTINUOUS
 10
6.5835395034
 20
5.9593805318
 30
0.0
 11
-0.0000253058
 21
0.0202067884
 31
0.0
 40
0.9897656159
 41
-4.0553802841
 42
-2.2278050231
  0
ELLIPSE
  5
480
100
AcDbEntity
  8
0
100
AcDbEllipse
 62
7
  6
CONTINUOUS
 10
6.4592233719
 20
5.8928812188
 30
0.0
 11
0.0174584885
 21
-0.0101088361
 31
0.0
 40
0.9913785554
 41
-0.8430822023
 42
0.8430822023
  0
ELLIPSE
  5
481
100
AcDbEntity
  8
0
100
AcDbEllipse
 62
7
  6
CONTINUOUS
 10
6.4592233719
 20
5.6982243539
 30
0.0
 11
0.0174584885
 21
0.0101088361
 31
0.0
 40
0.9913785554
 41
-0.8430822023
 42
0.8430822023
  0
ELLIPSE
  5
482
100
AcDbEntity
  8
0
100
AcDbEllipse
 62
7
  6
CONTINUOUS
 10
6.5830165536
 20
5.6269588859
 30
0.0
 11
-0.0000252646
 21
0.0201739126
 31
0.0
 40
0.9913785554
 41
-0.8430822023
 42
0.8430822023
  0
ELLIPSE
  5
483
100
AcDbEntity
  8
0
100
AcDbEllipse
 62
7
  6
CONTINUOUS
 10
6.5835395034
 20
5.2093805318
 30
0.0
 11
-0.0000253058
 21
0.0202067884
 31
0.0
 40
0.9897656159
 41
-4.0553802841
 42
-2.2278050231
  0
ELLIPSE
  5
484
100
AcDbEntity
  8
0
100
AcDbEllipse
 62
7
  6
CONTINUOUS
 10
6.4592233719
 20
5.1428812188
 30
0.0
 11
0.0174584885
 21
-0.0101088361
 31
0.0
 40
0.9913785554
 41
-0.8430822023
 42
0.8430822023
  0
ELLIPSE
  5
485
100
AcDbEntity
  8
0
100
AcDbEllipse
 62
7
  6
CONTINUOUS
 10
6.4592233719
 20
4.9482243539
 30
0.0
 11
0.0174584885
 21
0.0101088361
 31
0.0
 40
0.9913785554
 41
-0.8430822023
 42
0.8430822023
  0
ELLIPSE
  5
486
100
AcDbEntity
  8
0
100
AcDbEllipse
 62
7
  6
CONTINUOUS
 10
6.5830165536
 20
4.8769588859
 30
0.0
 11
-0.0000252646
 21
0.0201739126
 31
0.0
 40
0.9913785554
 41
-0.8430822023
 42
0.8430822023
  0
ELLIPSE
  5
487
100
AcDbEntity
  8
0
100
AcDbEllipse
 62
7
  6
CONTINUOUS
 10
6.5835395034
 20
4.4593805318
 30
0.0
 11
-0.0000253058
 21
0.0202067884
 31
0.0
 40
0.9897656159
 41
-4.0553802841
 42
-2.2278050231
  0
ELLIPSE
  5
488
100
AcDbEntity
  8
0
100
AcDbEllipse
 62
7
  6
CONTINUOUS
 10
5.9185257878
 20
5.4896797874
 30
0.0
 11
0.0175122449
 21
-0.0100814787
 31
0.0
 40
0.9897656159
 41
-0.9137876305
 42
0.9137876305
  0
ELLIPSE
  5
489
100
AcDbEntity
  8
0
100
AcDbEllipse
 62
7
  6
CONTINUOUS
 10
6.0978513841
 20
6.2389822889
 30
0.0
 11
0.0174869392
 21
0.0101253096
 31
0.0
 40
0.9897656159
 41
2.2278050231
 42
4.0553802841
  0
ELLIPSE
  5
48A
100
AcDbEntity
  8
0
100
AcDbEllipse
 62
7
  6
CONTINUOUS
 10
6.0978513841
 20
6.1021232838
 30
0.0
 11
0.0174869392
 21
-0.0101253096
 31
0.0
 40
0.9897656159
 41
2.2278050231
 42
4.0553802841
  0
ELLIPSE
  5
48B
100
AcDbEntity
  8
0
100
AcDbEllipse
 62
7
  6
CONTINUOUS
 10
5.9185257878
 20
6.1014257853
 30
0.0
 11
0.0175122449
 21
0.0100814787
 31
0.0
 40
0.9897656159
 41
-0.9137876305
 42
0.9137876305
  0
ELLIPSE
  5
48C
100
AcDbEntity
  8
0
100
AcDbEllipse
 62
7
  6
CONTINUOUS
 10
5.9185257878
 20
6.2396797874
 30
0.0
 11
0.0175122449
 21
-0.0100814787
 31
0.0
 40
0.9897656159
 41
-0.9137876305
 42
0.9137876305
  0
ELLIPSE
  5
48D
100
AcDbEntity
  8
0
100
AcDbEllipse
 62
7
  6
CONTINUOUS
 10
5.55663085
 20
6.4480160765
 30
0.0
 11
0.0174837531
 21
-0.0100650765
 31
0.0
 40
0.9913785554
 41
2.2985104513
 42
3.9846748559
  0
ELLIPSE
  5
48E
100
AcDbEntity
  8
0
100
AcDbEllipse
 62
7
  6
CONTINUOUS
 10
5.55663085
 20
5.8930894962
 30
0.0
 11
0.0174837531
 21
0.0100650765
 31
0.0
 40
0.9913785554
 41
2.2985104513
 42
3.9846748559
  0
ELLIPSE
  5
48F
100
AcDbEntity
  8
0
100
AcDbEllipse
 62
7
  6
CONTINUOUS
 10
5.55663085
 20
5.6980160765
 30
0.0
 11
0.0174837531
 21
-0.0100650765
 31
0.0
 40
0.9913785554
 41
2.2985104513
 42
3.9846748559
  0
ELLIPSE
  5
490
100
AcDbEntity
  8
0
100
AcDbEllipse
 62
7
  6
CONTINUOUS
 10
5.55663085
 20
5.1430894962
 30
0.0
 11
0.0174837531
 21
0.0100650765
 31
0.0
 40
0.9913785554
 41
2.2985104513
 42
3.9846748559
  0
ELLIPSE
  5
491
100
AcDbEntity
  8
0
100
AcDbEllipse
 62
7
  6
CONTINUOUS
 10
5.55663085
 20
4.9480160765
 30
0.0
 11
0.0174837531
 21
-0.0100650765
 31
0.0
 40
0.9913785554
 41
2.2985104513
 42
3.9846748559
  0
ELLIPSE
  5
492
100
AcDbEntity
  8
0
100
AcDbEllipse
 62
7
  6
CONTINUOUS
 10
5.55663085
 20
4.3930894962
 30
0.0
 11
0.0174837531
 21
0.0100650765
 31
0.0
 40
0.9913785554
 41
2.2985104513
 42
3.9846748559
  0
ELLIPSE
  5
493
100
AcDbEntity
  8
0
100
AcDbEllipse
 62
7
  6
CONTINUOUS
 10
5.9185257878
 20
5.3514257853
 30
0.0
 11
0.0175122449
 21
0.0100814787
 31
0.0
 40
0.9897656159
 41
-0.9137876305
 42
0.9137876305
  0
ELLIPSE
  5
494
100
AcDbEntity
  8
0
100
AcDbEllipse
 62
7
  6
CONTINUOUS
 10
5.9185257878
 20
3.2396797874
 30
0.0
 11
0.0175122449
 21
-0.0100814787
 31
0.0
 40
0.9897656159
 41
-0.9137876305
 42
0.9137876305
  0
ELLIPSE
  5
495
100
AcDbEntity
  8
0
100
AcDbEllipse
 62
7
  6
CONTINUOUS
 10
6.0978513841
 20
3.8521232838
 30
0.0
 11
0.0174869392
 21
-0.0101253096
 31
0.0
 40
0.9897656159
 41
2.2278050231
 42
4.0553802841
  0
ELLIPSE
  5
496
100
AcDbEntity
  8
0
100
AcDbEllipse
 62
7
  6
CONTINUOUS
 10
5.9185257878
 20
3.8514257853
 30
0.0
 11
0.0175122449
 21
0.0100814787
 31
0.0
 40
0.9897656159
 41
-0.9137876305
 42
0.9137876305
  0
ELLIPSE
  5
497
100
AcDbEntity
  8
0
100
AcDbEllipse
 62
7
  6
CONTINUOUS
 10
5.9185257878
 20
3.9896797874
 30
0.0
 11
0.0175122449
 21
-0.0100814787
 31
0.0
 40
0.9897656159
 41
-0.9137876305
 42
0.9137876305
  0
ELLIPSE
  5
498
100
AcDbEntity
  8
0
100
AcDbEllipse
 62
7
  6
CONTINUOUS
 10
6.0978513841
 20
3.9889822889
 30
0.0
 11
0.0174869392
 21
0.0101253096
 31
0.0
 40
0.9897656159
 41
2.2278050231
 42
4.0553802841
  0
ELLIPSE
  5
499
100
AcDbEntity
  8
0
100
AcDbEllipse
 62
7
  6
CONTINUOUS
 10
6.0978513841
 20
4.7389822889
 30
0.0
 11
0.0174869392
 21
0.0101253096
 31
0.0
 40
0.9897656159
 41
2.2278050231
 42
4.0553802841
  0
ELLIPSE
  5
49A
100
AcDbEntity
  8
0
100
AcDbEllipse
 62
7
  6
CONTINUOUS
 10
6.0978513841
 20
4.6021232838
 30
0.0
 11
0.0174869392
 21
-0.0101253096
 31
0.0
 40
0.9897656159
 41
2.2278050231
 42
4.0553802841
  0
ELLIPSE
  5
49B
100
AcDbEntity
  8
0
100
AcDbEllipse
 62
7
  6
CONTINUOUS
 10
5.9185257878
 20
4.6014257853
 30
0.0
 11
0.0175122449
 21
0.0100814787
 31
0.0
 40
0.9897656159
 41
-0.9137876305
 42
0.9137876305
  0
ELLIPSE
  5
49C
100
AcDbEntity
  8
0
100
AcDbEllipse
 62
7
  6
CONTINUOUS
 10
5.9185257878
 20
4.7396797874
 30
0.0
 11
0.0175122449
 21
-0.0100814787
 31
0.0
 40
0.9897656159
 41
-0.9137876305
 42
0.9137876305
  0
ELLIPSE
  5
49D
100
AcDbEntity
  8
0
100
AcDbEllipse
 62
7
  6
CONTINUOUS
 10
6.0978513841
 20
5.4889822889
 30
0.0
 11
0.0174869392
 21
0.0101253096
 31
0.0
 40
0.9897656159
 41
2.2278050231
 42
4.0553802841
  0
ELLIPSE
  5
49E
100
AcDbEntity
  8
0
100
AcDbEllipse
 62
7
  6
CONTINUOUS
 10
6.0978513841
 20
5.3521232838
 30
0.0
 11
0.0174869392
 21
-0.0101253096
 31
0.0
 40
0.9897656159
 41
2.2278050231
 42
4.0553802841
  0
ELLIPSE
  5
49F
100
AcDbEntity
  8
0
100
AcDbEllipse
 62
7
  6
CONTINUOUS
 10
3.1335395034
 20
3.7093805318
 30
0.0
 11
-0.0000253058
 21
0.0202067884
 31
0.0
 40
0.9897656159
 41
-4.0553802841
 42
-2.2278050231
  0
ELLIPSE
  5
4A0
100
AcDbEntity
  8
0
100
AcDbEllipse
 62
7
  6
CONTINUOUS
 10
3.25663085
 20
3.6430894962
 30
0.0
 11
0.0174837531
 21
0.0100650765
 31
0.0
 40
0.9913785554
 41
2.2985104513
 42
3.9846748559
  0
ELLIPSE
  5
4A1
100
AcDbEntity
  8
0
100
AcDbEllipse
 62
7
  6
CONTINUOUS
 10
3.1330165536
 20
3.3769588859
 30
0.0
 11
-0.0000252646
 21
0.0201739126
 31
0.0
 40
0.9913785554
 41
-0.8430822023
 42
0.8430822023
  0
ELLIPSE
  5
4A2
100
AcDbEntity
  8
0
100
AcDbEllipse
 62
7
  6
CONTINUOUS
 10
3.25663085
 20
3.4480160765
 30
0.0
 11
0.0174837531
 21
-0.0100650765
 31
0.0
 40
0.9913785554
 41
2.2985104513
 42
3.9846748559
  0
ELLIPSE
  5
4A3
100
AcDbEntity
  8
0
100
AcDbEllipse
 62
7
  6
CONTINUOUS
 10
3.25663085
 20
2.8930894962
 30
0.0
 11
0.0174837531
 21
0.0100650765
 31
0.0
 40
0.9913785554
 41
2.2985104513
 42
3.9846748559
  0
ELLIPSE
  5
4A4
100
AcDbEntity
  8
0
100
AcDbEllipse
 62
7
  6
CONTINUOUS
 10
3.1335395034
 20
2.9593805318
 30
0.0
 11
-0.0000253058
 21
0.0202067884
 31
0.0
 40
0.9897656159
 41
-4.0553802841
 42
-2.2278050231
  0
ELLIPSE
  5
4A5
100
AcDbEntity
  8
0
100
AcDbEllipse
 62
7
  6
CONTINUOUS
 10
3.6185257878
 20
3.1014257853
 30
0.0
 11
0.0175122449
 21
0.0100814787
 31
0.0
 40
0.9897656159
 41
-0.9137876305
 42
0.9137876305
  0
ELLIPSE
  5
4A6
100
AcDbEntity
  8
0
100
AcDbEllipse
 62
7
  6
CONTINUOUS
 10
3.6185257878
 20
3.2396797874
 30
0.0
 11
0.0175122449
 21
-0.0100814787
 31
0.0
 40
0.9897656159
 41
-0.9137876305
 42
0.9137876305
  0
ELLIPSE
  5
4A7
100
AcDbEntity
  8
0
100
AcDbEllipse
 62
7
  6
CONTINUOUS
 10
3.7978513841
 20
3.2389822889
 30
0.0
 11
0.0174869392
 21
0.0101253096
 31
0.0
 40
0.9897656159
 41
2.2278050231
 42
4.0553802841
  0
ELLIPSE
  5
4A8
100
AcDbEntity
  8
0
100
AcDbEllipse
 62
7
  6
CONTINUOUS
 10
3.7978513841
 20
3.1021232838
 30
0.0
 11
0.0174869392
 21
-0.0101253096
 31
0.0
 40
0.9897656159
 41
2.2278050231
 42
4.0553802841
  0
ELLIPSE
  5
4A9
100
AcDbEntity
  8
0
100
AcDbEllipse
 62
7
  6
CONTINUOUS
 10
3.7978513841
 20
3.8521232838
 30
0.0
 11
0.0174869392
 21
-0.0101253096
 31
0.0
 40
0.9897656159
 41
2.2278050231
 42
4.0553802841
  0
ELLIPSE
  5
4AA
100
AcDbEntity
  8
0
100
AcDbEllipse
 62
7
  6
CONTINUOUS
 10
3.6185257878
 20
3.8514257853
 30
0.0
 11
0.0175122449
 21
0.0100814787
 31
0.0
 40
0.9897656159
 41
-0.9137876305
 42
0.9137876305
  0
ELLIPSE
  5
4AB
100
AcDbEntity
  8
0
100
AcDbEllipse
 62
7
  6
CONTINUOUS
 10
3.6185257878
 20
3.9896797874
 30
0.0
 11
0.0175122449
 21
-0.0100814787
 31
0.0
 40
0.9897656159
 41
-0.9137876305
 42
0.9137876305
  0
ELLIPSE
  5
4AC
100
AcDbEntity
  8
0
100
AcDbEllipse
 62
7
  6
CONTINUOUS
 10
3.7978513841
 20
3.9889822889
 30
0.0
 11
0.0174869392
 21
0.0101253096
 31
0.0
 40
0.9897656159
 41
2.2278050231
 42
4.0553802841
  0
ELLIPSE
  5
4AD
100
AcDbEntity
  8
0
100
AcDbEllipse
 62
7
  6
CONTINUOUS
 10
3.7978513841
 20
4.6021232838
 30
0.0
 11
0.0174869392
 21
-0.0101253096
 31
0.0
 40
0.9897656159
 41
2.2278050231
 42
4.0553802841
  0
ELLIPSE
  5
4AE
100
AcDbEntity
  8
0
100
AcDbEllipse
 62
7
  6
CONTINUOUS
 10
3.6185257878
 20
4.6014257853
 30
0.0
 11
0.0175122449
 21
0.0100814787
 31
0.0
 40
0.9897656159
 41
-0.9137876305
 42
0.9137876305
  0
ELLIPSE
  5
4AF
100
AcDbEntity
  8
0
100
AcDbEllipse
 62
7
  6
CONTINUOUS
 10
3.25663085
 20
4.1980160765
 30
0.0
 11
0.0174837531
 21
-0.0100650765
 31
0.0
 40
0.9913785554
 41
2.2985104513
 42
3.9846748559
  0
ELLIPSE
  5
4B0
100
AcDbEntity
  8
0
100
AcDbEllipse
 62
7
  6
CONTINUOUS
 10
3.1330165536
 20
6.3769588859
 30
0.0
 11
-0.0000252646
 21
0.0201739126
 31
0.0
 40
0.9913785554
 41
-0.8430822023
 42
0.8430822023
  0
ELLIPSE
  5
4B1
100
AcDbEntity
  8
0
100
AcDbEllipse
 62
7
  6
CONTINUOUS
 10
3.1335395034
 20
5.9593805318
 30
0.0
 11
-0.0000253058
 21
0.0202067884
 31
0.0
 40
0.9897656159
 41
-4.0553802841
 42
-2.2278050231
  0
ELLIPSE
  5
4B2
100
AcDbEntity
  8
0
100
AcDbEllipse
 62
7
  6
CONTINUOUS
 10
3.25663085
 20
6.4480160765
 30
0.0
 11
0.0174837531
 21
-0.0100650765
 31
0.0
 40
0.9913785554
 41
2.2985104513
 42
3.9846748559
  0
ELLIPSE
  5
4B3
100
AcDbEntity
  8
0
100
AcDbEllipse
 62
7
  6
CONTINUOUS
 10
3.6185257878
 20
6.2396797874
 30
0.0
 11
0.0175122449
 21
-0.0100814787
 31
0.0
 40
0.9897656159
 41
-0.9137876305
 42
0.9137876305
  0
ELLIPSE
  5
4B4
100
AcDbEntity
  8
0
100
AcDbEllipse
 62
7
  6
CONTINUOUS
 10
3.6185257878
 20
6.1014257853
 30
0.0
 11
0.0175122449
 21
0.0100814787
 31
0.0
 40
0.9897656159
 41
-0.9137876305
 42
0.9137876305
  0
ELLIPSE
  5
4B5
100
AcDbEntity
  8
0
100
AcDbEllipse
 62
7
  6
CONTINUOUS
 10
3.25663085
 20
5.8930894962
 30
0.0
 11
0.0174837531
 21
0.0100650765
 31
0.0
 40
0.9913785554
 41
2.2985104513
 42
3.9846748559
  0
ELLIPSE
  5
4B6
100
AcDbEntity
  8
0
100
AcDbEllipse
 62
7
  6
CONTINUOUS
 10
3.25663085
 20
5.6980160765
 30
0.0
 11
0.0174837531
 21
-0.0100650765
 31
0.0
 40
0.9913785554
 41
2.2985104513
 42
3.9846748559
  0
ELLIPSE
  5
4B7
100
AcDbEntity
  8
0
100
AcDbEllipse
 62
7
  6
CONTINUOUS
 10
3.6185257878
 20
5.4896797874
 30
0.0
 11
0.0175122449
 21
-0.0100814787
 31
0.0
 40
0.9897656159
 41
-0.9137876305
 42
0.9137876305
  0
ELLIPSE
  5
4B8
100
AcDbEntity
  8
0
100
AcDbEllipse
 62
7
  6
CONTINUOUS
 10
3.6185257878
 20
5.3514257853
 30
0.0
 11
0.0175122449
 21
0.0100814787
 31
0.0
 40
0.9897656159
 41
-0.9137876305
 42
0.9137876305
  0
ELLIPSE
  5
4B9
100
AcDbEntity
  8
0
100
AcDbEllipse
 62
7
  6
CONTINUOUS
 10
3.25663085
 20
5.1430894962
 30
0.0
 11
0.0174837531
 21
0.0100650765
 31
0.0
 40
0.9913785554
 41
2.2985104513
 42
3.9846748559
  0
ELLIPSE
  5
4BA
100
AcDbEntity
  8
0
100
AcDbEllipse
 62
7
  6
CONTINUOUS
 10
3.1335395034
 20
5.2093805318
 30
0.0
 11
-0.0000253058
 21
0.0202067884
 31
0.0
 40
0.9897656159
 41
-4.0553802841
 42
-2.2278050231
  0
ELLIPSE
  5
4BB
100
AcDbEntity
  8
0
100
AcDbEllipse
 62
7
  6
CONTINUOUS
 10
3.1330165536
 20
5.6269588859
 30
0.0
 11
-0.0000252646
 21
0.0201739126
 31
0.0
 40
0.9913785554
 41
-0.8430822023
 42
0.8430822023
  0
ELLIPSE
  5
4BC
100
AcDbEntity
  8
0
100
AcDbEllipse
 62
7
  6
CONTINUOUS
 10
3.1330165536
 20
4.8769588859
 30
0.0
 11
-0.0000252646
 21
0.0201739126
 31
0.0
 40
0.9913785554
 41
-0.8430822023
 42
0.8430822023
  0
ELLIPSE
  5
4BD
100
AcDbEntity
  8
0
100
AcDbEllipse
 62
7
  6
CONTINUOUS
 10
3.1335395034
 20
4.4593805318
 30
0.0
 11
-0.0000253058
 21
0.0202067884
 31
0.0
 40
0.9897656159
 41
-4.0553802841
 42
-2.2278050231
  0
ELLIPSE
  5
4BE
100
AcDbEntity
  8
0
100
AcDbEllipse
 62
7
  6
CONTINUOUS
 10
3.25663085
 20
4.3930894962
 30
0.0
 11
0.0174837531
 21
0.0100650765
 31
0.0
 40
0.9913785554
 41
2.2985104513
 42
3.9846748559
  0
ELLIPSE
  5
4BF
100
AcDbEntity
  8
0
100
AcDbEllipse
 62
7
  6
CONTINUOUS
 10
3.1330165536
 20
4.1269588859
 30
0.0
 11
-0.0000252646
 21
0.0201739126
 31
0.0
 40
0.9913785554
 41
-0.8430822023
 42
0.8430822023
  0
ELLIPSE
  5
4C0
100
AcDbEntity
  8
0
100
AcDbEllipse
 62
7
  6
CONTINUOUS
 10
4.1592233719
 20
4.9482243539
 30
0.0
 11
0.0174584885
 21
0.0101088361
 31
0.0
 40
0.9913785554
 41
-0.8430822023
 42
0.8430822023
  0
ELLIPSE
  5
4C1
100
AcDbEntity
  8
0
100
AcDbEllipse
 62
7
  6
CONTINUOUS
 10
4.2835395034
 20
4.4593805318
 30
0.0
 11
-0.0000253058
 21
0.0202067884
 31
0.0
 40
0.9897656159
 41
-4.0553802841
 42
-2.2278050231
  0
ELLIPSE
  5
4C2
100
AcDbEntity
  8
0
100
AcDbEllipse
 62
7
  6
CONTINUOUS
 10
4.40663085
 20
4.3930894962
 30
0.0
 11
0.0174837531
 21
0.0100650765
 31
0.0
 40
0.9913785554
 41
2.2985104513
 42
3.9846748559
  0
ELLIPSE
  5
4C3
100
AcDbEntity
  8
0
100
AcDbEllipse
 62
7
  6
CONTINUOUS
 10
4.1592233719
 20
4.3928812188
 30
0.0
 11
0.0174584885
 21
-0.0101088361
 31
0.0
 40
0.9913785554
 41
-0.8430822023
 42
0.8430822023
  0
ELLIPSE
  5
4C4
100
AcDbEntity
  8
0
100
AcDbEllipse
 62
7
  6
CONTINUOUS
 10
4.1592233719
 20
4.1982243539
 30
0.0
 11
0.0174584885
 21
0.0101088361
 31
0.0
 40
0.9913785554
 41
-0.8430822023
 42
0.8430822023
  0
ELLIPSE
  5
4C5
100
AcDbEntity
  8
0
100
AcDbEllipse
 62
7
  6
CONTINUOUS
 10
4.2830165536
 20
4.1269588859
 30
0.0
 11
-0.0000252646
 21
0.0201739126
 31
0.0
 40
0.9913785554
 41
-0.8430822023
 42
0.8430822023
  0
ELLIPSE
  5
4C6
100
AcDbEntity
  8
0
100
AcDbEllipse
 62
7
  6
CONTINUOUS
 10
4.40663085
 20
4.1980160765
 30
0.0
 11
0.0174837531
 21
-0.0100650765
 31
0.0
 40
0.9913785554
 41
2.2985104513
 42
3.9846748559
  0
ELLIPSE
  5
4C7
100
AcDbEntity
  8
0
100
AcDbEllipse
 62
7
  6
CONTINUOUS
 10
4.40663085
 20
3.6430894962
 30
0.0
 11
0.0174837531
 21
0.0100650765
 31
0.0
 40
0.9913785554
 41
2.2985104513
 42
3.9846748559
  0
ELLIPSE
  5
4C8
100
AcDbEntity
  8
0
100
AcDbEllipse
 62
7
  6
CONTINUOUS
 10
4.2835395034
 20
3.7093805318
 30
0.0
 11
-0.0000253058
 21
0.0202067884
 31
0.0
 40
0.9897656159
 41
-4.0553802841
 42
-2.2278050231
  0
ELLIPSE
  5
4C9
100
AcDbEntity
  8
0
100
AcDbEllipse
 62
7
  6
CONTINUOUS
 10
4.1592233719
 20
3.6428812188
 30
0.0
 11
0.0174584885
 21
-0.0101088361
 31
0.0
 40
0.9913785554
 41
-0.8430822023
 42
0.8430822023
  0
ELLIPSE
  5
4CA
100
AcDbEntity
  8
0
100
AcDbEllipse
 62
7
  6
CONTINUOUS
 10
4.1592233719
 20
3.4482243539
 30
0.0
 11
0.0174584885
 21
0.0101088361
 31
0.0
 40
0.9913785554
 41
-0.8430822023
 42
0.8430822023
  0
ELLIPSE
  5
4CB
100
AcDbEntity
  8
0
100
AcDbEllipse
 62
7
  6
CONTINUOUS
 10
4.2830165536
 20
3.3769588859
 30
0.0
 11
-0.0000252646
 21
0.0201739126
 31
0.0
 40
0.9913785554
 41
-0.8430822023
 42
0.8430822023
  0
ELLIPSE
  5
4CC
100
AcDbEntity
  8
0
100
AcDbEllipse
 62
7
  6
CONTINUOUS
 10
4.40663085
 20
3.4480160765
 30
0.0
 11
0.0174837531
 21
-0.0100650765
 31
0.0
 40
0.9913785554
 41
2.2985104513
 42
3.9846748559
  0
ELLIPSE
  5
4CD
100
AcDbEntity
  8
0
100
AcDbEllipse
 62
7
  6
CONTINUOUS
 10
4.40663085
 20
2.8930894962
 30
0.0
 11
0.0174837531
 21
0.0100650765
 31
0.0
 40
0.9913785554
 41
2.2985104513
 42
3.9846748559
  0
ELLIPSE
  5
4CE
100
AcDbEntity
  8
0
100
AcDbEllipse
 62
7
  6
CONTINUOUS
 10
4.2835395034
 20
2.9593805318
 30
0.0
 11
-0.0000253058
 21
0.0202067884
 31
0.0
 40
0.9897656159
 41
-4.0553802841
 42
-2.2278050231
  0
ELLIPSE
  5
4CF
100
AcDbEntity
  8
0
100
AcDbEllipse
 62
7
  6
CONTINUOUS
 10
4.1592233719
 20
2.8928812188
 30
0.0
 11
0.0174584885
 21
-0.0101088361
 31
0.0
 40
0.9913785554
 41
-0.8430822023
 42
0.8430822023
  0
ELLIPSE
  5
4D0
100
AcDbEntity
  8
0
100
AcDbEllipse
 62
7
  6
CONTINUOUS
 10
4.2830165536
 20
4.8769588859
 30
0.0
 11
-0.0000252646
 21
0.0201739126
 31
0.0
 40
0.9913785554
 41
-0.8430822023
 42
0.8430822023
  0
ELLIPSE
  5
4D1
100
AcDbEntity
  8
0
100
AcDbEllipse
 62
7
  6
CONTINUOUS
 10
3.6185257878
 20
4.7396797874
 30
0.0
 11
0.0175122449
 21
-0.0100814787
 31
0.0
 40
0.9897656159
 41
-0.9137876305
 42
0.9137876305
  0
ELLIPSE
  5
4D2
100
AcDbEntity
  8
0
100
AcDbEllipse
 62
7
  6
CONTINUOUS
 10
3.7978513841
 20
4.7389822889
 30
0.0
 11
0.0174869392
 21
0.0101253096
 31
0.0
 40
0.9897656159
 41
2.2278050231
 42
4.0553802841
  0
ELLIPSE
  5
4D3
100
AcDbEntity
  8
0
100
AcDbEllipse
 62
7
  6
CONTINUOUS
 10
3.7978513841
 20
5.3521232838
 30
0.0
 11
0.0174869392
 21
-0.0101253096
 31
0.0
 40
0.9897656159
 41
2.2278050231
 42
4.0553802841
  0
ELLIPSE
  5
4D4
100
AcDbEntity
  8
0
100
AcDbEllipse
 62
7
  6
CONTINUOUS
 10
3.7978513841
 20
5.4889822889
 30
0.0
 11
0.0174869392
 21
0.0101253096
 31
0.0
 40
0.9897656159
 41
2.2278050231
 42
4.0553802841
  0
ELLIPSE
  5
4D5
100
AcDbEntity
  8
0
100
AcDbEllipse
 62
7
  6
CONTINUOUS
 10
3.7978513841
 20
6.2389822889
 30
0.0
 11
0.0174869392
 21
0.0101253096
 31
0.0
 40
0.9897656159
 41
2.2278050231
 42
4.0553802841
  0
ELLIPSE
  5
4D6
100
AcDbEntity
  8
0
100
AcDbEllipse
 62
7
  6
CONTINUOUS
 10
3.7978513841
 20
6.1021232838
 30
0.0
 11
0.0174869392
 21
-0.0101253096
 31
0.0
 40
0.9897656159
 41
2.2278050231
 42
4.0553802841
  0
ELLIPSE
  5
4D7
100
AcDbEntity
  8
0
100
AcDbEllipse
 62
7
  6
CONTINUOUS
 10
4.1592233719
 20
6.4482243539
 30
0.0
 11
0.0174584885
 21
0.0101088361
 31
0.0
 40
0.9913785554
 41
-0.8430822023
 42
0.8430822023
  0
ELLIPSE
  5
4D8
100
AcDbEntity
  8
0
100
AcDbEllipse
 62
7
  6
CONTINUOUS
 10
4.2830165536
 20
6.3769588859
 30
0.0
 11
-0.0000252646
 21
0.0201739126
 31
0.0
 40
0.9913785554
 41
-0.8430822023
 42
0.8430822023
  0
ELLIPSE
  5
4D9
100
AcDbEntity
  8
0
100
AcDbEllipse
 62
7
  6
CONTINUOUS
 10
4.2835395034
 20
5.9593805318
 30
0.0
 11
-0.0000253058
 21
0.0202067884
 31
0.0
 40
0.9897656159
 41
-4.0553802841
 42
-2.2278050231
  0
ELLIPSE
  5
4DA
100
AcDbEntity
  8
0
100
AcDbEllipse
 62
7
  6
CONTINUOUS
 10
4.1592233719
 20
5.8928812188
 30
0.0
 11
0.0174584885
 21
-0.0101088361
 31
0.0
 40
0.9913785554
 41
-0.8430822023
 42
0.8430822023
  0
ELLIPSE
  5
4DB
100
AcDbEntity
  8
0
100
AcDbEllipse
 62
7
  6
CONTINUOUS
 10
4.1592233719
 20
5.6982243539
 30
0.0
 11
0.0174584885
 21
0.0101088361
 31
0.0
 40
0.9913785554
 41
-0.8430822023
 42
0.8430822023
  0
ELLIPSE
  5
4DC
100
AcDbEntity
  8
0
100
AcDbEllipse
 62
7
  6
CONTINUOUS
 10
4.2830165536
 20
5.6269588859
 30
0.0
 11
-0.0000252646
 21
0.0201739126
 31
0.0
 40
0.9913785554
 41
-0.8430822023
 42
0.8430822023
  0
ELLIPSE
  5
4DD
100
AcDbEntity
  8
0
100
AcDbEllipse
 62
7
  6
CONTINUOUS
 10
4.2835395034
 20
5.2093805318
 30
0.0
 11
-0.0000253058
 21
0.0202067884
 31
0.0
 40
0.9897656159
 41
-4.0553802841
 42
-2.2278050231
  0
ELLIPSE
  5
4DE
100
AcDbEntity
  8
0
100
AcDbEllipse
 62
7
  6
CONTINUOUS
 10
4.1592233719
 20
5.1428812188
 30
0.0
 11
0.0174584885
 21
-0.0101088361
 31
0.0
 40
0.9913785554
 41
-0.8430822023
 42
0.8430822023
  0
ELLIPSE
  5
4DF
100
AcDbEntity
  8
0
100
AcDbEllipse
 62
7
  6
CONTINUOUS
 10
4.40663085
 20
5.1430894962
 30
0.0
 11
0.0174837531
 21
0.0100650765
 31
0.0
 40
0.9913785554
 41
2.2985104513
 42
3.9846748559
  0
ELLIPSE
  5
4E0
100
AcDbEntity
  8
0
100
AcDbEllipse
 62
7
  6
CONTINUOUS
 10
4.40663085
 20
4.9480160765
 30
0.0
 11
0.0174837531
 21
-0.0100650765
 31
0.0
 40
0.9913785554
 41
2.2985104513
 42
3.9846748559
  0
ELLIPSE
  5
4E1
100
AcDbEntity
  8
0
100
AcDbEllipse
 62
7
  6
CONTINUOUS
 10
6.0102406041
 20
3.351988906
 30
0.0
 11
-0.0000253058
 21
0.0202067884
 31
0.0
 40
0.9897656159
 41
-4.0553802841
 42
-2.2278050231
  0
ELLIPSE
  5
4E2
100
AcDbEntity
  8
0
100
AcDbEllipse
 62
7
  6
CONTINUOUS
 10
6.0098083518
 20
3.6971447199
 30
0.0
 11
-0.0000252646
 21
0.0201739126
 31
0.0
 40
0.9913785554
 41
-0.8430822023
 42
0.8430822023
  0
ELLIPSE
  5
4E3
100
AcDbEntity
  8
0
100
AcDbEllipse
 62
7
  6
CONTINUOUS
 10
4.8602406041
 20
3.351988906
 30
0.0
 11
-0.0000253058
 21
0.0202067884
 31
0.0
 40
0.9897656159
 41
-4.0553802841
 42
-2.2278050231
  0
ELLIPSE
  5
4E4
100
AcDbEntity
  8
0
100
AcDbEllipse
 62
7
  6
CONTINUOUS
 10
4.8598083518
 20
3.6971447199
 30
0.0
 11
-0.0000252646
 21
0.0201739126
 31
0.0
 40
0.9913785554
 41
-0.8430822023
 42
0.8430822023
  0
ELLIPSE
  5
4E5
100
AcDbEntity
  8
0
100
AcDbEllipse
 62
7
  6
CONTINUOUS
 10
3.7102406041
 20
3.351988906
 30
0.0
 11
-0.0000253058
 21
0.0202067884
 31
0.0
 40
0.9897656159
 41
-4.0553802841
 42
-2.2278050231
  0
ELLIPSE
  5
4E6
100
AcDbEntity
  8
0
100
AcDbEllipse
 62
7
  6
CONTINUOUS
 10
3.7098083518
 20
3.6971447199
 30
0.0
 11
-0.0000252646
 21
0.0201739126
 31
0.0
 40
0.9913785554
 41
-0.8430822023
 42
0.8430822023
  0
ELLIPSE
  5
4E7
100
AcDbEntity
  8
0
100
AcDbEllipse
 62
7
  6
CONTINUOUS
 10
6.0102406041
 20
4.101988906
 30
0.0
 11
-0.0000253058
 21
0.0202067884
 31
0.0
 40
0.9897656159
 41
-4.0553802841
 42
-2.2278050231
  0
ELLIPSE
  5
4E8
100
AcDbEntity
  8
0
100
AcDbEllipse
 62
7
  6
CONTINUOUS
 10
6.0098083518
 20
4.4471447199
 30
0.0
 11
-0.0000252646
 21
0.0201739126
 31
0.0
 40
0.9913785554
 41
-0.8430822023
 42
0.8430822023
  0
ELLIPSE
  5
4E9
100
AcDbEntity
  8
0
100
AcDbEllipse
 62
7
  6
CONTINUOUS
 10
4.8602406041
 20
4.101988906
 30
0.0
 11
-0.0000253058
 21
0.0202067884
 31
0.0
 40
0.9897656159
 41
-4.0553802841
 42
-2.2278050231
  0
ELLIPSE
  5
4EA
100
AcDbEntity
  8
0
100
AcDbEllipse
 62
7
  6
CONTINUOUS
 10
4.8598083518
 20
4.4471447199
 30
0.0
 11
-0.0000252646
 21
0.0201739126
 31
0.0
 40
0.9913785554
 41
-0.8430822023
 42
0.8430822023
  0
ELLIPSE
  5
4EB
100
AcDbEntity
  8
0
100
AcDbEllipse
 62
7
  6
CONTINUOUS
 10
3.7102406041
 20
4.101988906
 30
0.0
 11
-0.0000253058
 21
0.0202067884
 31
0.0
 40
0.9897656159
 41
-4.0553802841
 42
-2.2278050231
  0
ELLIPSE
  5
4EC
100
AcDbEntity
  8
0
100
AcDbEllipse
 62
7
  6
CONTINUOUS
 10
3.7098083518
 20
4.4471447199
 30
0.0
 11
-0.0000252646
 21
0.0201739126
 31
0.0
 40
0.9913785554
 41
-0.8430822023
 42
0.8430822023
  0
ELLIPSE
  5
4ED
100
AcDbEntity
  8
0
100
AcDbEllipse
 62
7
  6
CONTINUOUS
 10
6.0102406041
 20
4.851988906
 30
0.0
 11
-0.0000253058
 21
0.0202067884
 31
0.0
 40
0.9897656159
 41
-4.0553802841
 42
-2.2278050231
  0
ELLIPSE
  5
4EE
100
AcDbEntity
  8
0
100
AcDbEllipse
 62
7
  6
CONTINUOUS
 10
6.0098083518
 20
5.1971447199
 30
0.0
 11
-0.0000252646
 21
0.0201739126
 31
0.0
 40
0.9913785554
 41
-0.8430822023
 42
0.8430822023
  0
ELLIPSE
  5
4EF
100
AcDbEntity
  8
0
100
AcDbEllipse
 62
7
  6
CONTINUOUS
 10
4.8602406041
 20
4.851988906
 30
0.0
 11
-0.0000253058
 21
0.0202067884
 31
0.0
 40
0.9897656159
 41
-4.0553802841
 42
-2.2278050231
  0
ELLIPSE
  5
4F0
100
AcDbEntity
  8
0
100
AcDbEllipse
 62
7
  6
CONTINUOUS
 10
4.8598083518
 20
5.1971447199
 30
0.0
 11
-0.0000252646
 21
0.0201739126
 31
0.0
 40
0.9913785554
 41
-0.8430822023
 42
0.8430822023
  0
ELLIPSE
  5
4F1
100
AcDbEntity
  8
0
100
AcDbEllipse
 62
7
  6
CONTINUOUS
 10
3.7102406041
 20
4.851988906
 30
0.0
 11
-0.0000253058
 21
0.0202067884
 31
0.0
 40
0.9897656159
 41
-4.0553802841
 42
-2.2278050231
  0
ELLIPSE
  5
4F2
100
AcDbEntity
  8
0
100
AcDbEllipse
 62
7
  6
CONTINUOUS
 10
3.7098083518
 20
5.1971447199
 30
0.0
 11
-0.0000252646
 21
0.0201739126
 31
0.0
 40
0.9913785554
 41
-0.8430822023
 42
0.8430822023
  0
ELLIPSE
  5
4F3
100
AcDbEntity
  8
0
100
AcDbEllipse
 62
7
  6
CONTINUOUS
 10
6.0102406041
 20
5.601988906
 30
0.0
 11
-0.0000253058
 21
0.0202067884
 31
0.0
 40
0.9897656159
 41
-4.0553802841
 42
-2.2278050231
  0
ELLIPSE
  5
4F4
100
AcDbEntity
  8
0
100
AcDbEllipse
 62
7
  6
CONTINUOUS
 10
6.0098083518
 20
5.9471447199
 30
0.0
 11
-0.0000252646
 21
0.0201739126
 31
0.0
 40
0.9913785554
 41
-0.8430822023
 42
0.8430822023
  0
ELLIPSE
  5
4F5
100
AcDbEntity
  8
0
100
AcDbEllipse
 62
7
  6
CONTINUOUS
 10
4.8602406041
 20
5.601988906
 30
0.0
 11
-0.0000253058
 21
0.0202067884
 31
0.0
 40
0.9897656159
 41
-4.0553802841
 42
-2.2278050231
  0
ELLIPSE
  5
4F6
100
AcDbEntity
  8
0
100
AcDbEllipse
 62
7
  6
CONTINUOUS
 10
4.8598083518
 20
5.9471447199
 30
0.0
 11
-0.0000252646
 21
0.0201739126
 31
0.0
 40
0.9913785554
 41
-0.8430822023
 42
0.8430822023
  0
ELLIPSE
  5
4F7
100
AcDbEntity
  8
0
100
AcDbEllipse
 62
7
  6
CONTINUOUS
 10
3.7102406041
 20
5.601988906
 30
0.0
 11
-0.0000253058
 21
0.0202067884
 31
0.0
 40
0.9897656159
 41
-4.0553802841
 42
-2.2278050231
  0
ELLIPSE
  5
4F8
100
AcDbEntity
  8
0
100
AcDbEllipse
 62
7
  6
CONTINUOUS
 10
3.7098083518
 20
5.9471447199
 30
0.0
 11
-0.0000252646
 21
0.0201739126
 31
0.0
 40
0.9913785554
 41
-0.8430822023
 42
0.8430822023
  0
ENDSEC
  0
SECTION
  2
OBJECTS
  0
DICTIONARY
  5
C
100
AcDbDictionary
280
0
281
1
  3
ACAD_GROUP
350
D
  3
ACAD_MLINESTYLE
350
17
  3
ACAD_LAYOUT
350
1A
  3
ACAD_PLOTSETTINGS
350
19
  3
ACAD_PLOTSTYLENAME
350
E
  0
DICTIONARY
  5
D
102
{ACAD_REACTORS
330
C
102
}
100
AcDbDictionary
280
0
281
1
  0
ACDBDICTIONARYWDFLT
  5
E
102
{ACAD_REACTORS
330
C
102
}
100
AcDbDictionary
281
1
  3
Normal
350
F
100
AcDbDictionaryWithDefault
340
F
  0
DICTIONARY
  5
17
102
{ACAD_REACTORS
330
C
102
}
100
AcDbDictionary
280
0
281
1
  3
Standard
350
18
  0
DICTIONARY
  5
19
102
{ACAD_REACTORS
330
C
102
}
100
AcDbDictionary
281
1
  0
DICTIONARY
  5
1A
102
{ACAD_REACTORS
330
C
102
}
100
AcDbDictionary
281
1
  3
Model
350
4F9
  3
Layout1
350
4FA
  0
ACDBPLACEHOLDER
  5
F
102
{ACAD_REACTORS
330
E
102
}
  0
MLINESTYLE
  5
18
102
{ACAD_REACTORS
330
17
102
}
100
AcDbMlineStyle
  2
STANDARD
 70
0
  3

 62
256
 51
90.0
 52
90.0
 71
2
 49
0.5
 62
256
  6
BYLAYER
 49
-0.5
 62
256
  6
BYLAYER
  0
LAYOUT
  5
4F9
102
{ACAD_REACTORS
330
1A
102
}
100
AcDbPlotSettings
  1

  2
none_device
  4
ANSI_A_(11.00_x_8.50_Inches)
  6

 40
0.0
 41
0.0
 42
0.0
 43
0.0
 44
279.4
 45
215.9
 46
0.0
 47
0.0
 48
0.0
 49
0.0
140
0.0
141
0.0
142
1.0
143
1.0
 70
1024
 72
0
 73
0
 74
0
  7

 75
0
147
1.0
148
0.0
149
0.0
100
AcDbLayout
  1
Model
 70
0
 71
0
 10
0.0
 20
0.0
 11
11.0
 21
8.5
 12
0.0
 22
0.0
 32
0.0
 14
0.0
 24
0.0
 34
0.0
 15
0.0
 25
0.0
 35
0.0
146
0.0
 13
0.0
 23
0.0
 33
0.0
 16
1.0
 26
0.0
 36
0.0
 17
0.0
 27
1.0
 37
0.0
 76
0
330
206
345
0
346
0
  0
LAYOUT
  5
4FA
102
{ACAD_REACTORS
330
1A
102
}
100
AcDbPlotSettings
  1

  2
none_device
  4
ANSI_A_(11.00_x_8.50_Inches)
  6

 40
0.0
 41
0.0
 42
0.0
 43
0.0
 44
279.4
 45
215.9
 46
0.0
 47
0.0
 48
0.0
 49
0.0
140
0.0
141
0.0
142
1.0
143
1.0
 70
0
 72
0
 73
0
 74
0
  7

 75
0
147
1.0
148
0.0
149
0.0
100
AcDbLayout
  1
Layout1
 70
0
 71
1
 10
0.0
 20
0.0
 11
11.0
 21
8.5
 12
0.0
 22
0.0
 32
0.0
 14
0.0
 24
0.0
 34
0.0
 15
0.0
 25
0.0
 35
0.0
146
0.0
 13
0.0
 23
0.0
 33
0.0
 16
1.0
 26
0.0
 36
0.0
 17
0.0
 27
1.0
 37
0.0
 76
0
330
207
345
0
346
0
  0
ENDSEC
  0
EOF
