999
DXF file: 233-404_front.dxf
999
Pro/ENGINEER 2018400 by Parametric Technology Corporation
  0
SECTION
  2
HEADER
  9
$ACADVER
  1
AC1027
  9
$DWGCODEPAGE
  3
ANSI_1252
  9
$EXTMAX
 10
11.0
 20
8.5
 30
0.0
  9
$EXTMIN
 10
0.0
 20
0.0
 30
0.0
  9
$LIMMIN
 10
0.0
 20
0.0
  9
$LIMMAX
 10
11.0
 20
8.5
  9
$VIEWCTR
 10
5.5
 20
4.25
  9
$VIEWSIZE
 40
8.5
  9
$CLAYER
  8
0
  9
$LTSCALE
 40
0.605
  9
$CELTYPE
  6
BYLAYER
  9
$DIMSCALE
 40
1.0
  9
$DIMASZ
 40
0.1
  9
$DIMEXO
 40
0.0625
  9
$DIMDLI
 40
0.418
  9
$DIMEXE
 40
0.125
  9
$DIMCEN
 40
0.099
  9
$DIMLFAC
 40
1.0
  9
$DIMBLK
  1
_FILLED
  9
$DIMALT
 70
1
  9
$DIMALTD
 70
1
  9
$DIMALTTD
 70
2
  9
$DIMALTF
 40
25.4
  9
$DIMTXT
 40
0.08
  9
$DIMTOL
 70
1
  9
$DIMLIM
 70
0
  9
$DIMTFAC
 40
1.0
  9
$DIMTP
 40
0.01
  9
$DIMTM
 40
0.01
  9
$DIMGAP
 40
0.09
  9
$DIMDSEP
 70
46
  9
$AUNITS
 70
0
  9
$PDMODE
 70
3
  9
$PDSIZE
 40
0.3125
  9
$HANDSEED
  5
338
  9
$TILEMODE
 70
1
  9
$MEASUREMENT
 70
0
  9
$INSUNITS
 70
1
  0
ENDSEC
  0
SECTION
  2
CLASSES
  0
CLASS
  1
ACDBDICTIONARYWDFLT
  2
AcDbDictionaryWithDefault
  3
AutoCAD 2000
 90
0
 91
1
280
0
281
0
  0
CLASS
  1
ACDBPLACEHOLDER
  2
AcDbPlaceHolder
  3
AutoCAD 2000
 90
0
 91
1
280
0
281
0
  0
CLASS
  1
LAYOUT
  2
AcDbLayout
  3
AutoCAD 2000
 90
0
 91
0
280
0
281
0
  0
ENDSEC
  0
SECTION
  2
TABLES
  0
TABLE
  2
VPORT
  5
8
100
AcDbSymbolTable
 70
2
  0
VPORT
  5
1F4
100
AcDbSymbolTableRecord
100
AcDbViewportTableRecord
  2
*ACTIVE
 70
0
 10
0.0
 20
0.0
 11
1.0
 21
1.0
 12
5.5
 22
4.25
 13
0.0
 23
0.0
 14
1.0
 24
1.0
 15
0.0
 25
0.0
 16
0.0
 26
0.0
 36
1.0
 17
0.0
 27
0.0
 37
0.0
 40
8.5
 41
1.2941176471
 42
50.0
 43
0.0
 44
0.0
 50
0.0
 51
0.0
 71
0
 72
100
 73
1
 74
1
 75
0
 76
0
 77
0
 78
0
  0
ENDTAB
  0
TABLE
  2
LTYPE
  5
5
100
AcDbSymbolTable
 70
6
  0
LTYPE
  5
14
100
AcDbSymbolTableRecord
100
AcDbLinetypeTableRecord
  2
BYBLOCK
 70
0
  3

 72
65
 73
0
 40
0.0
  0
LTYPE
  5
15
100
AcDbSymbolTableRecord
100
AcDbLinetypeTableRecord
  2
BYLAYER
 70
0
  3

 72
65
 73
0
 40
0.0
  0
LTYPE
  5
16
100
AcDbSymbolTableRecord
100
AcDbLinetypeTableRecord
  2
CONTINUOUS
 70
64
  3
Solid line
 72
65
 73
0
 40
0.0
  0
LTYPE
  5
1F5
100
AcDbSymbolTableRecord
100
AcDbLinetypeTableRecord
  2
CENTER
 70
64
  3
____ _ ____ _ ____ _ ____ _ ____ _ ____ _ ____
 72
65
 73
4
 40
0.6
 49
0.375
 74
0
 49
-0.075
 74
0
 49
0.075
 74
0
 49
-0.075
 74
0
  0
LTYPE
  5
1F6
100
AcDbSymbolTableRecord
100
AcDbLinetypeTableRecord
  2
HIDDEN
 70
64
  3
- - - - - - - - - - - - - - - - - - - -
 72
65
 73
2
 40
0.2
 49
0.1
 74
0
 49
-0.1
 74
0
  0
LTYPE
  5
1F7
100
AcDbSymbolTableRecord
100
AcDbLinetypeTableRecord
  2
PHANTOM
 70
64
  3
_____ _ _ _____ _ _ _____ _ _ _____
 72
65
 73
6
 40
0.8
 49
0.45
 74
0
 49
-0.05
 74
0
 49
0.1
 74
0
 49
-0.05
 74
0
 49
0.1
 74
0
 49
-0.05
 74
0
  0
LTYPE
  5
1F8
100
AcDbSymbolTableRecord
100
AcDbLinetypeTableRecord
  2
DOT
 70
64
  3
. . . . . . . . . . . . . . . . . . . .
 72
65
 73
2
 40
0.2
 49
0.1
 74
0
 49
-0.1
 74
0
  0
LTYPE
  5
1F9
100
AcDbSymbolTableRecord
100
AcDbLinetypeTableRecord
  2
DASHED
 70
64
  3
- - - - - - - - - - - - - - - - - - - -
 72
65
 73
2
 40
0.2
 49
0.1
 74
0
 49
-0.1
 74
0
  0
ENDTAB
  0
TABLE
  2
LAYER
  5
2
100
AcDbSymbolTable
 70
36
  0
LAYER
  5
10
100
AcDbSymbolTableRecord
100
AcDbLayerTableRecord
  2
0
 70
0
 62
7
  6
CONTINUOUS
370
-3
390
F
  0
LAYER
  5
1FA
100
AcDbSymbolTableRecord
100
AcDbLayerTableRecord
  2
DEFAULT_1
 70
0
 62
7
  6
CENTER
370
-3
390
F
  0
LAYER
  5
1FB
100
AcDbSymbolTableRecord
100
AcDbLayerTableRecord
  2
DEFAULT_2
 70
0
 62
8
  6
HIDDEN
370
-3
390
F
  0
LAYER
  5
1FC
100
AcDbSymbolTableRecord
100
AcDbLayerTableRecord
  2
DEFAULT_3
 70
0
 62
7
  6
PHANTOM
370
-3
390
F
  0
LAYER
  5
1FD
100
AcDbSymbolTableRecord
100
AcDbLayerTableRecord
  2
DEFAULT_COORDINATE_SYSTEM
 70
0
 62
7
  6
CONTINUOUS
370
-3
390
F
  0
LAYER
  5
1FE
100
AcDbSymbolTableRecord
100
AcDbLayerTableRecord
  2
DEFAULT_DATUM_AXES
 70
0
 62
7
  6
CONTINUOUS
370
-3
390
F
  0
LAYER
  5
1FF
100
AcDbSymbolTableRecord
100
AcDbLayerTableRecord
  2
DEFAULT_DATUM_CURVES
 70
0
 62
7
  6
CONTINUOUS
370
-3
390
F
  0
LAYER
  5
200
100
AcDbSymbolTableRecord
100
AcDbLayerTableRecord
  2
DEFAULT_DATUM_PLANES
 70
0
 62
7
  6
CONTINUOUS
370
-3
390
F
  0
LAYER
  5
201
100
AcDbSymbolTableRecord
100
AcDbLayerTableRecord
  2
DEFAULT_SURFACES
 70
0
 62
7
  6
CONTINUOUS
370
-3
390
F
  0
LAYER
  5
202
100
AcDbSymbolTableRecord
100
AcDbLayerTableRecord
  2
INTF_1
 70
0
 62
7
  6
CONTINUOUS
370
-3
390
F
  0
LAYER
  5
203
100
AcDbSymbolTableRecord
100
AcDbLayerTableRecord
  2
RGB____0____0____0__
 70
0
 62
7
  6
CONTINUOUS
370
-3
390
F
  0
ENDTAB
  0
TABLE
  2
STYLE
  5
3
100
AcDbSymbolTable
 70
1
  0
STYLE
  5
11
100
AcDbSymbolTableRecord
100
AcDbTextStyleTableRecord
  2
STANDARD
 70
0
 40
0.0
 41
0.8
 50
0.0
 71
0
 42
0.2
  3
txt
  4

  0
STYLE
  5
204
100
AcDbSymbolTableRecord
100
AcDbTextStyleTableRecord
  2
TEXTSTYLE_1
 70
0
 40
0.0
 41
0.8
 50
0.0
 71
0
 42
0.2
  3
gdt
  4

  0
ENDTAB
  0
TABLE
  2
VIEW
  5
6
100
AcDbSymbolTable
 70
0
  0
ENDTAB
  0
TABLE
  2
UCS
  5
7
100
AcDbSymbolTable
 70
0
  0
ENDTAB
  0
TABLE
  2
APPID
  5
9
100
AcDbSymbolTable
 70
1
  0
APPID
  5
205
100
AcDbSymbolTableRecord
100
AcDbRegAppTableRecord
  2
ACAD
 70
0
  0
ENDTAB
  0
TABLE
  2
BLOCK_RECORD
  5
1
100
AcDbSymbolTable
 70
0
  0
BLOCK_RECORD
  5
206
100
AcDbSymbolTableRecord
100
AcDbBlockTableRecord
  2
*Model_Space
  0
BLOCK_RECORD
  5
207
100
AcDbSymbolTableRecord
100
AcDbBlockTableRecord
  2
*Paper_Space
  0
BLOCK_RECORD
  5
208
100
AcDbSymbolTableRecord
100
AcDbBlockTableRecord
  2
_FILLED
  0
ENDTAB
  0
TABLE
  2
DIMSTYLE
  5
A
100
AcDbSymbolTable
 70
1
100
AcDbDimStyleTable
 71
0
  0
DIMSTYLE
105
209
100
AcDbSymbolTableRecord
100
AcDbDimStyleTableRecord
  2
STANDARD
 70
0
  3

  4

 40
1.0
 41
0.1
 42
0.0625
 43
0.38
 44
0.125
 45
0.0
 46
0.0
 47
0.01
 48
0.01
140
0.08
141
0.09
142
0.0
143
25.4
144
1.0
145
0.0
146
1.0
147
0.09
 71
1.0
 72
0.0
 73
1
 74
1
 75
0
 76
0
 77
0
 78
4
 79
1
170
1
171
1
172
0
173
0
174
0
175
0
176
0
177
0
178
0
270
2
179
2
271
2
272
2
273
2
274
2
275
0
280
0
281
0
282
0
283
1
284
4
285
0
286
0
287
3
288
0
340
11
278
46
341
208
342
208
343
208
344
208
  0
ENDTAB
  0
ENDSEC
  0
SECTION
  2
BLOCKS
  0
BLOCK
  5
20
100
AcDbEntity
  8
0
100
AcDbBlockBegin
  2
*Model_Space
 70
0
 10
0.0
 20
0.0
 30
0.0
  3
*Model_Space
  1

  0
ENDBLK
  5
21
100
AcDbEntity
  8
0
100
AcDbBlockEnd
  0
BLOCK
  5
1C
100
AcDbEntity
  8
0
100
AcDbBlockBegin
  2
*Paper_Space
 70
0
 10
0.0
 20
0.0
 30
0.0
  3
*Paper_Space
  1

  0
ENDBLK
  5
1D
100
AcDbEntity
  8
0
100
AcDbBlockEnd
  0
BLOCK
  5
20A
100
AcDbEntity
  8
0
100
AcDbBlockBegin
  2
_FILLED
 70
64
 10
0.0
 20
0.0
  3
_FILLED
  1

  0
SOLID
  5
20B
100
AcDbEntity
  8
0
  6
BYBLOCK
 62
0
100
AcDbTrace
 10
0.0
 20
0.0
 11
-1.0
 21
0.2
 12
-1.0
 22
-0.2
 13
-1.0
 23
-0.2
  0
ENDBLK
  5
20C
100
AcDbEntity
  8
0
  6
BYBLOCK
 62
0
100
AcDbBlockEnd
  0
ENDSEC
  0
SECTION
  2
ENTITIES
  0
MTEXT
  5
20D
100
AcDbEntity
  8
0
100
AcDbMText
 62
2
  6
CONTINUOUS
  7
STANDARD
 71
3
 72
1
 10
4.6698757764
 20
1.4580240683
 30
0.0
 11
1.0
 21
0.0
 31
0.0
 73
2
 44
0.9
  1
SCALE  1.000
 40
0.08
 41
0.768
  0
LINE
  5
20E
100
AcDbEntity
  8
0
100
AcDbLine
 62
7
  6
CONTINUOUS
 10
0.0
 20
0.0
 11
0.0
 21
8.5
  0
LINE
  5
20F
100
AcDbEntity
  8
0
100
AcDbLine
 62
7
  6
CONTINUOUS
 10
0.0
 20
0.0
 11
11.0
 21
0.0
  0
LINE
  5
210
100
AcDbEntity
  8
0
100
AcDbLine
 62
7
  6
CONTINUOUS
 10
0.0
 20
8.5
 11
11.0
 21
8.5
  0
LINE
  5
211
100
AcDbEntity
  8
0
100
AcDbLine
 62
7
  6
CONTINUOUS
 10
11.0
 20
0.0
 11
11.0
 21
8.5
  0
LINE
  5
212
100
AcDbEntity
  8
0
100
AcDbLine
 62
7
  6
CONTINUOUS
 10
2.4052562112
 20
6.4173253106
 11
2.4052562112
 21
2.5323253106
  0
LINE
  5
213
100
AcDbEntity
  8
0
100
AcDbLine
 62
7
  6
CONTINUOUS
 10
2.4852562112
 20
2.4523253106
 11
6.3702562112
 21
2.4523253106
  0
LINE
  5
214
100
AcDbEntity
  8
0
100
AcDbLine
 62
7
  6
CONTINUOUS
 10
2.7077562112
 20
6.1643253106
 11
2.7077562112
 21
5.9882998065
  0
LINE
  5
215
100
AcDbEntity
  8
0
100
AcDbLine
 62
7
  6
CONTINUOUS
 10
2.7077562112
 20
2.9602823483
 11
2.7077562112
 21
2.7843253106
  0
LINE
  5
216
100
AcDbEntity
  8
0
100
AcDbLine
 62
7
  6
CONTINUOUS
 10
2.7076718151
 20
5.6626087503
 11
2.707660277
 21
5.7706196951
  0
LINE
  5
217
100
AcDbEntity
  8
0
100
AcDbLine
 62
7
  6
CONTINUOUS
 10
2.7076718151
 20
3.2860418708
 11
2.707660277
 21
3.178030852
  0
LINE
  5
218
100
AcDbEntity
  8
0
100
AcDbLine
 62
7
  6
CONTINUOUS
 10
2.7377562112
 20
2.7543253106
 11
2.9137817152
 21
2.7543253106
  0
LINE
  5
219
100
AcDbEntity
  8
0
100
AcDbLine
 62
7
  6
CONTINUOUS
 10
5.9417991734
 20
2.7543253106
 11
6.1177562112
 21
2.7543253106
  0
LINE
  5
21A
100
AcDbEntity
  8
0
100
AcDbLine
 62
7
  6
CONTINUOUS
 10
3.2394727715
 20
2.7542409145
 11
3.1314618267
 21
2.7542293764
  0
LINE
  5
21B
100
AcDbEntity
  8
0
100
AcDbLine
 62
7
  6
CONTINUOUS
 10
5.6160396509
 20
2.7542409145
 11
5.7240506698
 21
2.7542293763
  0
LINE
  5
21C
100
AcDbEntity
  8
0
100
AcDbLine
 62
7
  6
CONTINUOUS
 10
3.40672335
 20
3.5618573328
 11
3.4845033851
 21
3.6487216583
  0
LINE
  5
21D
100
AcDbEntity
  8
0
100
AcDbLine
 62
7
  6
CONTINUOUS
 10
5.2527728488
 20
5.4170525121
 11
5.3397820432
 21
5.4949622657
  0
LINE
  5
21E
100
AcDbEntity
  8
0
100
AcDbLine
 62
7
  6
CONTINUOUS
 10
5.3402241889
 20
3.4532924493
 11
5.2533598635
 21
3.5310724845
  0
LINE
  5
21F
100
AcDbEntity
  8
0
100
AcDbLine
 62
7
  6
CONTINUOUS
 10
3.4850290097
 20
5.2993419482
 11
3.407119256
 21
5.3863511426
  0
LINE
  5
220
100
AcDbEntity
  8
0
100
AcDbLine
 62
7
  6
CONTINUOUS
 10
5.4487890724
 20
5.3867932883
 11
5.3710090372
 21
5.2999289629
  0
LINE
  5
221
100
AcDbEntity
  8
0
100
AcDbLine
 62
7
  6
CONTINUOUS
 10
3.6027395735
 20
3.5315981091
 11
3.5157303792
 21
3.4536883554
  0
LINE
  5
222
100
AcDbEntity
  8
0
100
AcDbLine
 62
7
  6
CONTINUOUS
 10
3.5152882334
 20
5.4953581718
 11
3.6021525589
 21
5.4175781366
  0
LINE
  5
223
100
AcDbEntity
  8
0
100
AcDbLine
 62
7
  6
CONTINUOUS
 10
5.3704834127
 20
3.6493086729
 11
5.4483931664
 21
3.5622994785
  0
LINE
  5
224
100
AcDbEntity
  8
0
100
AcDbLine
 62
7
  6
CONTINUOUS
 10
6.1478406073
 20
3.2860418708
 11
6.1478521454
 21
3.1780309261
  0
LINE
  5
225
100
AcDbEntity
  8
0
100
AcDbLine
 62
7
  6
CONTINUOUS
 10
6.1477562112
 20
2.7843253106
 11
6.1477562112
 21
2.9603508146
  0
LINE
  5
226
100
AcDbEntity
  8
0
100
AcDbLine
 62
7
  6
CONTINUOUS
 10
6.1477562112
 20
5.9883682728
 11
6.1477562112
 21
6.1643253106
  0
LINE
  5
227
100
AcDbEntity
  8
0
100
AcDbLine
 62
7
  6
CONTINUOUS
 10
6.1478406073
 20
5.6626087503
 11
6.1478521454
 21
5.7706197691
  0
LINE
  5
228
100
AcDbEntity
  8
0
100
AcDbLine
 62
7
  6
CONTINUOUS
 10
5.6160396509
 20
6.1944097067
 11
5.7240505957
 21
6.1944212448
  0
LINE
  5
229
100
AcDbEntity
  8
0
100
AcDbLine
 62
7
  6
CONTINUOUS
 10
6.1177562112
 20
6.1943253106
 11
5.9417307072
 21
6.1943253106
  0
LINE
  5
22A
100
AcDbEntity
  8
0
100
AcDbLine
 62
7
  6
CONTINUOUS
 10
2.913713249
 20
6.1943253106
 11
2.7377562112
 21
6.1943253106
  0
LINE
  5
22B
100
AcDbEntity
  8
0
100
AcDbLine
 62
7
  6
CONTINUOUS
 10
3.2394727715
 20
6.1944097067
 11
3.1314617526
 21
6.1944212448
  0
LINE
  5
22C
100
AcDbEntity
  8
0
100
AcDbLine
 62
7
  6
CONTINUOUS
 10
6.4502562112
 20
2.5323253106
 11
6.4502562112
 21
6.4173253106
  0
LINE
  5
22D
100
AcDbEntity
  8
0
100
AcDbLine
 62
7
  6
CONTINUOUS
 10
6.3702562112
 20
6.4973253106
 11
2.4852562112
 21
6.4973253106
  0
ARC
  5
22E
100
AcDbEntity
  8
0
100
AcDbCircle
 62
7
  6
CONTINUOUS
 10
3.7535936259
 20
2.6502294851
 40
0.8204503135
100
AcDbArc
 50
151.9488922616
 51
170.9279562629
  0
ARC
  5
22F
100
AcDbEntity
  8
0
100
AcDbCircle
 62
7
  6
CONTINUOUS
 10
2.6092581102
 20
3.7760242923
 40
0.7958006304
100
AcDbArc
 50
278.9518433745
 51
298.4803350176
  0
ARC
  5
230
100
AcDbEntity
  8
0
100
AcDbCircle
 62
7
  6
CONTINUOUS
 10
4.0005223919
 20
4.1056137955
 40
0.3541276097
100
AcDbArc
 50
349.6651104058
 51
11.066516789
  0
ARC
  5
231
100
AcDbEntity
  8
0
100
AcDbCircle
 62
7
  6
CONTINUOUS
 10
4.058948565
 20
4.0470721376
 40
0.3541257165
100
AcDbArc
 50
78.8191370789
 51
100.1739872741
  0
ARC
  5
232
100
AcDbEntity
  8
0
100
AcDbCircle
 62
7
  6
CONTINUOUS
 10
2.4852562112
 20
2.5323253106
 40
0.08
100
AcDbArc
 50
180.0
 51
270.0
  0
ARC
  5
233
100
AcDbEntity
  8
0
100
AcDbCircle
 62
7
  6
CONTINUOUS
 10
3.7336990111
 20
4.1937210415
 40
0.03
100
AcDbArc
 50
14.655153876
 51
143.8589041435
  0
ARC
  5
234
100
AcDbEntity
  8
0
100
AcDbCircle
 62
7
  6
CONTINUOUS
 10
4.1504047923
 20
3.7802681105
 40
0.03
100
AcDbArc
 50
306.1410958565
 51
75.344846124
  0
ARC
  5
235
100
AcDbEntity
  8
0
100
AcDbCircle
 62
7
  6
CONTINUOUS
 10
4.1218284955
 20
4.3650468766
 40
0.03
100
AcDbArc
 50
358.0181547797
 51
78.8745930018
  0
ARC
  5
236
100
AcDbEntity
  8
0
100
AcDbCircle
 62
7
  6
CONTINUOUS
 10
4.318623842
 20
4.1678593618
 40
0.03
100
AcDbArc
 50
11.0110880149
 51
91.8501592263
  0
ARC
  5
237
100
AcDbEntity
  8
0
100
AcDbCircle
 62
7
  6
CONTINUOUS
 10
4.3193883922
 20
4.0474471843
 40
0.03
100
AcDbArc
 50
239.9604353111
 51
349.6993683194
  0
ARC
  5
238
100
AcDbEntity
  8
0
100
AcDbCircle
 62
7
  6
CONTINUOUS
 10
4.1308402149
 20
3.4717856893
 40
0.03
100
AcDbArc
 50
335.2355964251
 51
98.5674729325
  0
ARC
  5
239
100
AcDbEntity
  8
0
100
AcDbCircle
 62
7
  6
CONTINUOUS
 10
4.2659574326
 20
2.8331331011
 40
0.03
100
AcDbArc
 50
190.0146527182
 51
296.4108462995
  0
ARC
  5
23A
100
AcDbEntity
  8
0
100
AcDbCircle
 62
7
  6
CONTINUOUS
 10
4.3257713744
 20
2.8540371224
 40
0.03
100
AcDbArc
 50
282.3378760396
 51
9.3366543466
  0
ARC
  5
23B
100
AcDbEntity
  8
0
100
AcDbCircle
 62
7
  6
CONTINUOUS
 10
3.5137933455
 20
2.784286793
 40
0.03
100
AcDbArc
 50
140.2002327816
 51
270.0016894849
  0
ARC
  5
23C
100
AcDbEntity
  8
0
100
AcDbCircle
 62
7
  6
CONTINUOUS
 10
4.0335951132
 20
2.7843059636
 40
0.03
100
AcDbArc
 50
270.0024773343
 51
13.0420473253
  0
ARC
  5
23D
100
AcDbEntity
  8
0
100
AcDbCircle
 62
7
  6
CONTINUOUS
 10
3.5357427006
 20
3.4313387023
 40
0.03
100
AcDbArc
 50
131.8418944107
 51
196.4401667148
  0
ARC
  5
23E
100
AcDbEntity
  8
0
100
AcDbCircle
 62
7
  6
CONTINUOUS
 10
3.6227518949
 20
3.509248456
 40
0.03
100
AcDbArc
 50
357.7066171109
 51
131.8418944107
  0
ARC
  5
23F
100
AcDbEntity
  8
0
100
AcDbCircle
 62
7
  6
CONTINUOUS
 10
3.7973157065
 20
3.1691300813
 40
0.03
100
AcDbArc
 50
273.9754890403
 51
52.2737008293
  0
ARC
  5
240
100
AcDbEntity
  8
0
100
AcDbCircle
 62
7
  6
CONTINUOUS
 10
3.2394704264
 20
2.7842409144
 40
0.03
100
AcDbArc
 50
270.0044786447
 51
332.8251967844
  0
ARC
  5
241
100
AcDbEntity
  8
0
100
AcDbCircle
 62
7
  6
CONTINUOUS
 10
3.1314575482
 20
2.784229376
 40
0.03
100
AcDbArc
 50
161.1825570509
 51
270.0081712701
  0
ARC
  5
242
100
AcDbEntity
  8
0
100
AcDbCircle
 62
7
  6
CONTINUOUS
 10
2.7377562112
 20
2.7843253106
 40
0.03
100
AcDbArc
 50
180.0
 51
270.0
  0
ARC
  5
243
100
AcDbEntity
  8
0
100
AcDbCircle
 62
7
  6
CONTINUOUS
 10
4.001678252
 20
4.366098312
 40
0.03
100
AcDbArc
 50
100.1402230556
 51
210.3311895379
  0
ARC
  5
244
100
AcDbEntity
  8
0
100
AcDbCircle
 62
7
  6
CONTINUOUS
 10
4.0402349129
 20
4.0866651032
 40
0.03
100
AcDbArc
 50
169.9062163047
 51
279.6921611438
  0
ARC
  5
245
100
AcDbEntity
  8
0
100
AcDbCircle
 62
7
  6
CONTINUOUS
 10
2.7377368643
 20
4.0801642125
 40
0.03
100
AcDbArc
 50
76.9579526747
 51
179.9975226657
  0
ARC
  5
246
100
AcDbEntity
  8
0
100
AcDbCircle
 62
7
  6
CONTINUOUS
 10
2.7377176936
 20
3.5603624449
 40
0.03
100
AcDbArc
 50
179.9983105151
 51
309.7997672184
  0
ARC
  5
247
100
AcDbEntity
  8
0
100
AcDbCircle
 62
7
  6
CONTINUOUS
 10
3.3843736969
 20
3.5818696542
 40
0.03
100
AcDbArc
 50
254.888923693
 51
318.1581055893
  0
ARC
  5
248
100
AcDbEntity
  8
0
100
AcDbCircle
 62
7
  6
CONTINUOUS
 10
3.4621537321
 20
3.6687339797
 40
0.03
100
AcDbArc
 50
318.1581055894
 51
92.2667359021
  0
ARC
  5
249
100
AcDbEntity
  8
0
100
AcDbCircle
 62
7
  6
CONTINUOUS
 10
3.1225671623
 20
3.8439738566
 40
0.03
100
AcDbArc
 50
37.7703172123
 51
176.0351852887
  0
ARC
  5
24A
100
AcDbEntity
  8
0
100
AcDbCircle
 62
7
  6
CONTINUOUS
 10
2.737671815
 20
3.2860395258
 40
0.03
100
AcDbArc
 50
117.1748032156
 51
179.9955213553
  0
ARC
  5
24B
100
AcDbEntity
  8
0
100
AcDbCircle
 62
7
  6
CONTINUOUS
 10
2.7376602767
 20
3.1780265735
 40
0.03
100
AcDbArc
 50
179.9918287267
 51
288.8172740841
  0
ARC
  5
24C
100
AcDbEntity
  8
0
100
AcDbCircle
 62
7
  6
CONTINUOUS
 10
3.0030470087
 20
3.0501613682
 40
0.03
100
AcDbArc
 50
331.9488922616
 51
118.4803350176
  0
ARC
  5
24D
100
AcDbEntity
  8
0
100
AcDbCircle
 62
7
  6
CONTINUOUS
 10
2.7377562112
 20
2.9602823483
 40
0.03
100
AcDbArc
 50
98.9518433745
 51
180.0
  0
ARC
  5
24E
100
AcDbEntity
  8
0
100
AcDbCircle
 62
7
  6
CONTINUOUS
 10
2.9137817152
 20
2.7843253106
 40
0.03
100
AcDbArc
 50
270.0
 51
350.9279562629
  0
ARC
  5
24F
100
AcDbEntity
  8
0
100
AcDbCircle
 62
7
  6
CONTINUOUS
 10
2.7865640017
 20
4.3092736817
 40
0.03
100
AcDbArc
 50
153.5891537006
 51
259.9853472818
  0
ARC
  5
250
100
AcDbEntity
  8
0
100
AcDbCircle
 62
7
  6
CONTINUOUS
 10
2.807468023
 20
4.3690876236
 40
0.03
100
AcDbArc
 50
80.6633456534
 51
167.6621239604
  0
ARC
  5
251
100
AcDbEntity
  8
0
100
AcDbCircle
 62
7
  6
CONTINUOUS
 10
3.4252165899
 20
4.1741564641
 40
0.03
100
AcDbArc
 50
351.4325270675
 51
114.7644035749
  0
ARC
  5
252
100
AcDbEntity
  8
0
100
AcDbCircle
 62
7
  6
CONTINUOUS
 10
4.2589915046
 20
4.4726988772
 40
0.0298782288
100
AcDbArc
 50
335.1845434917
 51
24.8154853781
  0
ARC
  5
253
100
AcDbEntity
  8
0
100
AcDbCircle
 62
7
  6
CONTINUOUS
 10
2.6036603858
 20
5.1484878958
 40
0.8204503135
100
AcDbArc
 50
61.9488922616
 51
80.9279562629
  0
ARC
  5
254
100
AcDbEntity
  8
0
100
AcDbCircle
 62
7
  6
CONTINUOUS
 10
3.729455193
 20
6.2928234116
 40
0.7958006304
100
AcDbArc
 50
188.9518433745
 51
208.4803350176
  0
ARC
  5
255
100
AcDbEntity
  8
0
100
AcDbCircle
 62
7
  6
CONTINUOUS
 10
4.059044647
 20
4.9015591251
 40
0.3541276097
100
AcDbArc
 50
259.6651180799
 51
281.0665247308
  0
ARC
  5
256
100
AcDbEntity
  8
0
100
AcDbCircle
 62
7
  6
CONTINUOUS
 10
4.0005030397
 20
4.843132896
 40
0.3541257165
100
AcDbArc
 50
348.8191466664
 51
10.1739969855
  0
ARC
  5
257
100
AcDbEntity
  8
0
100
AcDbCircle
 62
7
  6
CONTINUOUS
 10
2.4852562112
 20
6.4173253106
 40
0.08
100
AcDbArc
 50
90.0
 51
180.0
  0
ARC
  5
258
100
AcDbEntity
  8
0
100
AcDbCircle
 62
7
  6
CONTINUOUS
 10
4.1471519421
 20
5.1683825107
 40
0.03
100
AcDbArc
 50
284.655153876
 51
53.8589041435
  0
ARC
  5
259
100
AcDbEntity
  8
0
100
AcDbCircle
 62
7
  6
CONTINUOUS
 10
3.7336990111
 20
4.7516767294
 40
0.03
100
AcDbArc
 50
216.1410958565
 51
345.344846124
  0
ARC
  5
25A
100
AcDbEntity
  8
0
100
AcDbCircle
 62
7
  6
CONTINUOUS
 10
4.3184777773
 20
4.7802530263
 40
0.03
100
AcDbArc
 50
268.0181547797
 51
348.8745930018
  0
ARC
  5
25B
100
AcDbEntity
  8
0
100
AcDbCircle
 62
7
  6
CONTINUOUS
 10
4.1212902624
 20
4.5834576798
 40
0.03
100
AcDbArc
 50
281.0110880149
 51
1.8501592263
  0
ARC
  5
25C
100
AcDbEntity
  8
0
100
AcDbCircle
 62
7
  6
CONTINUOUS
 10
4.0008780849
 20
4.5826931295
 40
0.03
100
AcDbArc
 50
149.9604353111
 51
259.6993683194
  0
ARC
  5
25D
100
AcDbEntity
  8
0
100
AcDbCircle
 62
7
  6
CONTINUOUS
 10
3.4252165899
 20
4.7712413068
 40
0.03
100
AcDbArc
 50
245.2355964251
 51
8.5674729325
  0
ARC
  5
25E
100
AcDbEntity
  8
0
100
AcDbCircle
 62
7
  6
CONTINUOUS
 10
2.7865640017
 20
4.6361240892
 40
0.03
100
AcDbArc
 50
100.0146527182
 51
206.4108462995
  0
ARC
  5
25F
100
AcDbEntity
  8
0
100
AcDbCircle
 62
7
  6
CONTINUOUS
 10
2.807468023
 20
4.5763101473
 40
0.03
100
AcDbArc
 50
192.3378760396
 51
279.3366543466
  0
ARC
  5
260
100
AcDbEntity
  8
0
100
AcDbCircle
 62
7
  6
CONTINUOUS
 10
2.7377176936
 20
5.3882881762
 40
0.03
100
AcDbArc
 50
50.2002327816
 51
180.0016894849
  0
ARC
  5
261
100
AcDbEntity
  8
0
100
AcDbCircle
 62
7
  6
CONTINUOUS
 10
2.7377368643
 20
4.8684864086
 40
0.03
100
AcDbArc
 50
180.0024773343
 51
283.0420473253
  0
ARC
  5
262
100
AcDbEntity
  8
0
100
AcDbCircle
 62
7
  6
CONTINUOUS
 10
3.3847696029
 20
5.3663388212
 40
0.03
100
AcDbArc
 50
41.8418944107
 51
106.4401667148
  0
ARC
  5
263
100
AcDbEntity
  8
0
100
AcDbCircle
 62
7
  6
CONTINUOUS
 10
3.4626793566
 20
5.2793296268
 40
0.03
100
AcDbArc
 50
267.7066171109
 51
41.8418944106
  0
ARC
  5
264
100
AcDbEntity
  8
0
100
AcDbCircle
 62
7
  6
CONTINUOUS
 10
3.1225609819
 20
5.1047658152
 40
0.03
100
AcDbArc
 50
183.9754890403
 51
322.2737008293
  0
ARC
  5
265
100
AcDbEntity
  8
0
100
AcDbCircle
 62
7
  6
CONTINUOUS
 10
2.737671815
 20
5.6626110953
 40
0.03
100
AcDbArc
 50
180.0044786447
 51
242.8251967844
  0
ARC
  5
266
100
AcDbEntity
  8
0
100
AcDbCircle
 62
7
  6
CONTINUOUS
 10
2.7376602767
 20
5.7706239735
 40
0.03
100
AcDbArc
 50
71.1825570509
 51
180.0081712701
  0
ARC
  5
267
100
AcDbEntity
  8
0
100
AcDbCircle
 62
7
  6
CONTINUOUS
 10
2.7377562112
 20
6.1643253106
 40
0.03
100
AcDbArc
 50
90.0
 51
180.0
  0
ARC
  5
268
100
AcDbEntity
  8
0
100
AcDbCircle
 62
7
  6
CONTINUOUS
 10
4.3195292127
 20
4.9004032697
 40
0.03
100
AcDbArc
 50
10.1402230556
 51
120.3311895379
  0
ARC
  5
269
100
AcDbEntity
  8
0
100
AcDbCircle
 62
7
  6
CONTINUOUS
 10
4.0400960038
 20
4.8618466088
 40
0.03
100
AcDbArc
 50
79.9062163047
 51
189.6921611438
  0
ARC
  5
26A
100
AcDbEntity
  8
0
100
AcDbCircle
 62
7
  6
CONTINUOUS
 10
4.0335951132
 20
6.1643446575
 40
0.03
100
AcDbArc
 50
346.9579526747
 51
89.9975226657
  0
ARC
  5
26B
100
AcDbEntity
  8
0
100
AcDbCircle
 62
7
  6
CONTINUOUS
 10
3.5137933455
 20
6.1643638281
 40
0.03
100
AcDbArc
 50
89.9983105151
 51
219.7997672184
  0
ARC
  5
26C
100
AcDbEntity
  8
0
100
AcDbCircle
 62
7
  6
CONTINUOUS
 10
3.5353005549
 20
5.5177078248
 40
0.03
100
AcDbArc
 50
164.888923693
 51
228.1581055894
  0
ARC
  5
26D
100
AcDbEntity
  8
0
100
AcDbCircle
 62
7
  6
CONTINUOUS
 10
3.6221648803
 20
5.4399277896
 40
0.03
100
AcDbArc
 50
228.1581055894
 51
2.2667359021
  0
ARC
  5
26E
100
AcDbEntity
  8
0
100
AcDbCircle
 62
7
  6
CONTINUOUS
 10
3.7974047573
 20
5.7795143594
 40
0.03
100
AcDbArc
 50
307.7703172123
 51
86.0351852887
  0
ARC
  5
26F
100
AcDbEntity
  8
0
100
AcDbCircle
 62
7
  6
CONTINUOUS
 10
3.2394704264
 20
6.1644097068
 40
0.03
100
AcDbArc
 50
27.1748032156
 51
89.9955213553
  0
ARC
  5
270
100
AcDbEntity
  8
0
100
AcDbCircle
 62
7
  6
CONTINUOUS
 10
3.1314574741
 20
6.1644212451
 40
0.03
100
AcDbArc
 50
89.9918287267
 51
198.8172740841
  0
ARC
  5
271
100
AcDbEntity
  8
0
100
AcDbCircle
 62
7
  6
CONTINUOUS
 10
3.0035922689
 20
5.8990345131
 40
0.03
100
AcDbArc
 50
241.9488922616
 51
28.4803350176
  0
ARC
  5
272
100
AcDbEntity
  8
0
100
AcDbCircle
 62
7
  6
CONTINUOUS
 10
2.913713249
 20
6.1643253106
 40
0.03
100
AcDbArc
 50
8.9518433745
 51
90.0
  0
ARC
  5
273
100
AcDbEntity
  8
0
100
AcDbCircle
 62
7
  6
CONTINUOUS
 10
2.7377562112
 20
5.9882998065
 40
0.03
100
AcDbArc
 50
180.0
 51
260.9279562629
  0
ARC
  5
274
100
AcDbEntity
  8
0
100
AcDbCircle
 62
7
  6
CONTINUOUS
 10
4.2627045823
 20
6.11551752
 40
0.03
100
AcDbArc
 50
63.5891537006
 51
169.9853472818
  0
ARC
  5
275
100
AcDbEntity
  8
0
100
AcDbCircle
 62
7
  6
CONTINUOUS
 10
4.3225185242
 20
6.0946134987
 40
0.03
100
AcDbArc
 50
350.6633456534
 51
77.6621239604
  0
ARC
  5
276
100
AcDbEntity
  8
0
100
AcDbCircle
 62
7
  6
CONTINUOUS
 10
4.1275873647
 20
5.4768649318
 40
0.03
100
AcDbArc
 50
261.4325270675
 51
24.7644035749
  0
ARC
  5
277
100
AcDbEntity
  8
0
100
AcDbCircle
 62
7
  6
CONTINUOUS
 10
6.2518520366
 20
3.8001627253
 40
0.8204503135
100
AcDbArc
 50
241.9488922616
 51
260.9279562629
  0
ARC
  5
278
100
AcDbEntity
  8
0
100
AcDbCircle
 62
7
  6
CONTINUOUS
 10
5.1260572294
 20
2.6558272096
 40
0.7958006304
100
AcDbArc
 50
8.9518433745
 51
28.4803350176
  0
ARC
  5
279
100
AcDbEntity
  8
0
100
AcDbCircle
 62
7
  6
CONTINUOUS
 10
4.7964676624
 20
4.0470914936
 40
0.3541276097
100
AcDbArc
 50
79.6651001732
 51
101.0665067201
  0
ARC
  5
27A
100
AcDbEntity
  8
0
100
AcDbCircle
 62
7
  6
CONTINUOUS
 10
4.8550093857
 20
4.1055177134
 40
0.3541257165
100
AcDbArc
 50
168.8191449048
 51
190.1739950334
  0
ARC
  5
27B
100
AcDbEntity
  8
0
100
AcDbCircle
 62
7
  6
CONTINUOUS
 10
6.3702562112
 20
2.5323253106
 40
0.08
100
AcDbArc
 50
270.0
 51
360.0
  0
ARC
  5
27C
100
AcDbEntity
  8
0
100
AcDbCircle
 62
7
  6
CONTINUOUS
 10
4.7083604803
 20
3.7802681105
 40
0.03
100
AcDbArc
 50
104.655153876
 51
233.8589041435
  0
ARC
  5
27D
100
AcDbEntity
  8
0
100
AcDbCircle
 62
7
  6
CONTINUOUS
 10
5.1218134113
 20
4.1969738917
 40
0.03
100
AcDbArc
 50
36.1410958565
 51
165.344846124
  0
ARC
  5
27E
100
AcDbEntity
  8
0
100
AcDbCircle
 62
7
  6
CONTINUOUS
 10
4.5370346451
 20
4.1683975949
 40
0.03
100
AcDbArc
 50
88.0181547797
 51
168.8745930018
  0
ARC
  5
27F
100
AcDbEntity
  8
0
100
AcDbCircle
 62
7
  6
CONTINUOUS
 10
4.73422216
 20
4.3651929414
 40
0.03
100
AcDbArc
 50
101.0110880149
 51
181.8501592263
  0
ARC
  5
280
100
AcDbEntity
  8
0
100
AcDbCircle
 62
7
  6
CONTINUOUS
 10
4.8546343374
 20
4.3659574916
 40
0.03
100
AcDbArc
 50
329.9604353111
 51
79.6993683194
  0
ARC
  5
281
100
AcDbEntity
  8
0
100
AcDbCircle
 62
7
  6
CONTINUOUS
 10
5.4302958324
 20
4.1774093143
 40
0.03
100
AcDbArc
 50
65.2355964251
 51
188.5674729325
  0
ARC
  5
282
100
AcDbEntity
  8
0
100
AcDbCircle
 62
7
  6
CONTINUOUS
 10
6.0689484206
 20
4.3125265319
 40
0.03
100
AcDbArc
 50
280.0146527182
 51
26.4108462995
  0
ARC
  5
283
100
AcDbEntity
  8
0
100
AcDbCircle
 62
7
  6
CONTINUOUS
 10
6.0480443993
 20
4.3723404738
 40
0.03
100
AcDbArc
 50
12.3378760396
 51
99.3366543466
  0
ARC
  5
284
100
AcDbEntity
  8
0
100
AcDbCircle
 62
7
  6
CONTINUOUS
 10
6.1177947287
 20
3.5603624449
 40
0.03
100
AcDbArc
 50
230.2002327816
 51
0.0016894849
  0
ARC
  5
285
100
AcDbEntity
  8
0
100
AcDbCircle
 62
7
  6
CONTINUOUS
 10
6.1177755581
 20
4.0801642125
 40
0.03
100
AcDbArc
 50
0.0024773343
 51
103.0420473253
  0
ARC
  5
286
100
AcDbEntity
  8
0
100
AcDbCircle
 62
7
  6
CONTINUOUS
 10
5.4707428194
 20
3.5823118
 40
0.03
100
AcDbArc
 50
221.8418944107
 51
286.4401667148
  0
ARC
  5
287
100
AcDbEntity
  8
0
100
AcDbCircle
 62
7
  6
CONTINUOUS
 10
5.3928330657
 20
3.6693209943
 40
0.03
100
AcDbArc
 50
87.7066171109
 51
221.8418944107
  0
ARC
  5
288
100
AcDbEntity
  8
0
100
AcDbCircle
 62
7
  6
CONTINUOUS
 10
5.7329514405
 20
3.8438848059
 40
0.03
100
AcDbArc
 50
3.9754890403
 51
142.2737008293
  0
ARC
  5
289
100
AcDbEntity
  8
0
100
AcDbCircle
 62
7
  6
CONTINUOUS
 10
6.1178406074
 20
3.2860395258
 40
0.03
100
AcDbArc
 50
0.0044786447
 51
62.8251967844
  0
ARC
  5
28A
100
AcDbEntity
  8
0
100
AcDbCircle
 62
7
  6
CONTINUOUS
 10
6.1178521457
 20
3.1780266476
 40
0.03
100
AcDbArc
 50
251.1825570509
 51
0.0081712701
  0
ARC
  5
28B
100
AcDbEntity
  8
0
100
AcDbCircle
 62
7
  6
CONTINUOUS
 10
6.1177562112
 20
2.7843253106
 40
0.03
100
AcDbArc
 50
270.0
 51
360.0
  0
ARC
  5
28C
100
AcDbEntity
  8
0
100
AcDbCircle
 62
7
  6
CONTINUOUS
 10
4.5359832097
 20
4.0482473514
 40
0.03
100
AcDbArc
 50
190.1402230556
 51
300.3311895379
  0
ARC
  5
28D
100
AcDbEntity
  8
0
100
AcDbCircle
 62
7
  6
CONTINUOUS
 10
4.8154164186
 20
4.0868040123
 40
0.03
100
AcDbArc
 50
259.9062163047
 51
9.6921611438
  0
ARC
  5
28E
100
AcDbEntity
  8
0
100
AcDbCircle
 62
7
  6
CONTINUOUS
 10
4.8219173092
 20
2.7843059636
 40
0.03
100
AcDbArc
 50
166.9579526747
 51
269.9975226657
  0
ARC
  5
28F
100
AcDbEntity
  8
0
100
AcDbCircle
 62
7
  6
CONTINUOUS
 10
5.3417190768
 20
2.784286793
 40
0.03
100
AcDbArc
 50
269.9983105151
 51
39.7997672184
  0
ARC
  5
290
100
AcDbEntity
  8
0
100
AcDbCircle
 62
7
  6
CONTINUOUS
 10
5.3202118675
 20
3.4309427963
 40
0.03
100
AcDbArc
 50
344.888923693
 51
48.1581055894
  0
ARC
  5
291
100
AcDbEntity
  8
0
100
AcDbCircle
 62
7
  6
CONTINUOUS
 10
5.2333475421
 20
3.5087228315
 40
0.03
100
AcDbArc
 50
48.1581055894
 51
182.2667359021
  0
ARC
  5
292
100
AcDbEntity
  8
0
100
AcDbCircle
 62
7
  6
CONTINUOUS
 10
5.0581076651
 20
3.1691362617
 40
0.03
100
AcDbArc
 50
127.7703172123
 51
266.0351852887
  0
ARC
  5
293
100
AcDbEntity
  8
0
100
AcDbCircle
 62
7
  6
CONTINUOUS
 10
5.6160419959
 20
2.7842409144
 40
0.03
100
AcDbArc
 50
207.1748032156
 51
269.9955213553
  0
ARC
  5
294
100
AcDbEntity
  8
0
100
AcDbCircle
 62
7
  6
CONTINUOUS
 10
5.7240549482
 20
2.784229376
 40
0.03
100
AcDbArc
 50
269.9918287267
 51
18.8172740841
  0
ARC
  5
295
100
AcDbEntity
  8
0
100
AcDbCircle
 62
7
  6
CONTINUOUS
 10
5.8519201535
 20
3.0496161081
 40
0.03
100
AcDbArc
 50
61.9488922616
 51
208.4803350176
  0
ARC
  5
296
100
AcDbEntity
  8
0
100
AcDbCircle
 62
7
  6
CONTINUOUS
 10
5.9417991734
 20
2.7843253106
 40
0.03
100
AcDbArc
 50
188.9518433745
 51
270.0
  0
ARC
  5
297
100
AcDbEntity
  8
0
100
AcDbCircle
 62
7
  6
CONTINUOUS
 10
6.1177562112
 20
2.9603508146
 40
0.03
100
AcDbArc
 50
0.0
 51
80.9279562629
  0
ARC
  5
298
100
AcDbEntity
  8
0
100
AcDbCircle
 62
7
  6
CONTINUOUS
 10
4.59280784
 20
2.8331331011
 40
0.03
100
AcDbArc
 50
243.5891537006
 51
349.9853472818
  0
ARC
  5
299
100
AcDbEntity
  8
0
100
AcDbCircle
 62
7
  6
CONTINUOUS
 10
4.5329938982
 20
2.8540371224
 40
0.03
100
AcDbArc
 50
170.6633456534
 51
257.6621239604
  0
ARC
  5
29A
100
AcDbEntity
  8
0
100
AcDbCircle
 62
7
  6
CONTINUOUS
 10
4.7279250577
 20
3.4717856893
 40
0.03
100
AcDbArc
 50
81.4325270675
 51
204.7644035749
  0
ARC
  5
29B
100
AcDbEntity
  8
0
100
AcDbCircle
 62
7
  6
CONTINUOUS
 10
4.600037353
 20
4.4726988924
 40
0.0298782349
100
AcDbArc
 50
155.1845461978
 51
204.8154779621
  0
ARC
  5
29C
100
AcDbEntity
  8
0
100
AcDbCircle
 62
7
  6
CONTINUOUS
 10
4.4295144341
 20
4.302175965
 40
0.0298782283
100
AcDbArc
 50
65.1845432322
 51
114.815486063
  0
ARC
  5
29D
100
AcDbEntity
  8
0
100
AcDbCircle
 62
7
  6
CONTINUOUS
 10
5.1019187964
 20
6.298421136
 40
0.8204503135
100
AcDbArc
 50
331.9488922616
 51
350.9279562629
  0
ARC
  5
29E
100
AcDbEntity
  8
0
100
AcDbCircle
 62
7
  6
CONTINUOUS
 10
6.2462543122
 20
5.1726263288
 40
0.7958006304
100
AcDbArc
 50
98.9518433745
 51
118.4803350176
  0
ARC
  5
29F
100
AcDbEntity
  8
0
100
AcDbCircle
 62
7
  6
CONTINUOUS
 10
4.8549900288
 20
4.843036817
 40
0.3541276097
100
AcDbArc
 50
169.6651089795
 51
191.0665154659
  0
ARC
  5
2A0
100
AcDbEntity
  8
0
100
AcDbCircle
 62
7
  6
CONTINUOUS
 10
4.7965637419
 20
4.9015784829
 40
0.3541257165
100
AcDbArc
 50
258.819155379
 51
280.1740056743
  0
ARC
  5
2A1
100
AcDbEntity
  8
0
100
AcDbCircle
 62
7
  6
CONTINUOUS
 10
6.3702562112
 20
6.4173253106
 40
0.08
100
AcDbArc
 50
0.0
 51
90.0
  0
ARC
  5
2A2
100
AcDbEntity
  8
0
100
AcDbCircle
 62
7
  6
CONTINUOUS
 10
5.1218134113
 20
4.7549295796
 40
0.03
100
AcDbArc
 50
194.655153876
 51
323.8589041435
  0
ARC
  5
2A3
100
AcDbEntity
  8
0
100
AcDbCircle
 62
7
  6
CONTINUOUS
 10
4.70510763
 20
5.1683825107
 40
0.03
100
AcDbArc
 50
126.1410958565
 51
255.344846124
  0
ARC
  5
2A4
100
AcDbEntity
  8
0
100
AcDbCircle
 62
7
  6
CONTINUOUS
 10
4.7336839269
 20
4.5836037445
 40
0.03
100
AcDbArc
 50
178.0181547797
 51
258.8745930018
  0
ARC
  5
2A5
100
AcDbEntity
  8
0
100
AcDbCircle
 62
7
  6
CONTINUOUS
 10
4.5368885804
 20
4.7807912593
 40
0.03
100
AcDbArc
 50
191.0110880149
 51
271.8501592263
  0
ARC
  5
2A6
100
AcDbEntity
  8
0
100
AcDbCircle
 62
7
  6
CONTINUOUS
 10
4.5361240302
 20
4.9012034368
 40
0.03
100
AcDbArc
 50
59.9604353111
 51
169.6993683194
  0
ARC
  5
2A7
100
AcDbEntity
  8
0
100
AcDbCircle
 62
7
  6
CONTINUOUS
 10
4.7246722074
 20
5.4768649318
 40
0.03
100
AcDbArc
 50
155.2355964251
 51
278.5674729325
  0
ARC
  5
2A8
100
AcDbEntity
  8
0
100
AcDbCircle
 62
7
  6
CONTINUOUS
 10
4.5895549898
 20
6.11551752
 40
0.03
100
AcDbArc
 50
10.0146527182
 51
116.4108462995
  0
ARC
  5
2A9
100
AcDbEntity
  8
0
100
AcDbCircle
 62
7
  6
CONTINUOUS
 10
4.5297410479
 20
6.0946134987
 40
0.03
100
AcDbArc
 50
102.3378760396
 51
189.3366543466
  0
ARC
  5
2AA
100
AcDbEntity
  8
0
100
AcDbCircle
 62
7
  6
CONTINUOUS
 10
5.3417190768
 20
6.1643638281
 40
0.03
100
AcDbArc
 50
320.2002327816
 51
90.0016894849
  0
ARC
  5
2AB
100
AcDbEntity
  8
0
100
AcDbCircle
 62
7
  6
CONTINUOUS
 10
4.8219173092
 20
6.1643446575
 40
0.03
100
AcDbArc
 50
90.0024773343
 51
193.0420473253
  0
ARC
  5
2AC
100
AcDbEntity
  8
0
100
AcDbCircle
 62
7
  6
CONTINUOUS
 10
5.3197697218
 20
5.5173119188
 40
0.03
100
AcDbArc
 50
311.8418944107
 51
16.4401667148
  0
ARC
  5
2AD
100
AcDbEntity
  8
0
100
AcDbCircle
 62
7
  6
CONTINUOUS
 10
5.2327605274
 20
5.4394021651
 40
0.03
100
AcDbArc
 50
177.7066171109
 51
311.8418944107
  0
ARC
  5
2AE
100
AcDbEntity
  8
0
100
AcDbCircle
 62
7
  6
CONTINUOUS
 10
5.0581967158
 20
5.7795205399
 40
0.03
100
AcDbArc
 50
93.9754890403
 51
232.2737008293
  0
ARC
  5
2AF
100
AcDbEntity
  8
0
100
AcDbCircle
 62
7
  6
CONTINUOUS
 10
5.6160419959
 20
6.1644097068
 40
0.03
100
AcDbArc
 50
90.0044786447
 51
152.8251967844
  0
ARC
  5
2B0
100
AcDbEntity
  8
0
100
AcDbCircle
 62
7
  6
CONTINUOUS
 10
5.7240548741
 20
6.1644212451
 40
0.03
100
AcDbArc
 50
341.1825570509
 51
90.0081712701
  0
ARC
  5
2B1
100
AcDbEntity
  8
0
100
AcDbCircle
 62
7
  6
CONTINUOUS
 10
6.1177562112
 20
6.1643253106
 40
0.03
100
AcDbArc
 50
0.0
 51
90.0
  0
ARC
  5
2B2
100
AcDbEntity
  8
0
100
AcDbCircle
 62
7
  6
CONTINUOUS
 10
4.8538341703
 20
4.5825523091
 40
0.03
100
AcDbArc
 50
280.1402230556
 51
30.3311895379
  0
ARC
  5
2B3
100
AcDbEntity
  8
0
100
AcDbCircle
 62
7
  6
CONTINUOUS
 10
4.8152775094
 20
4.8619855179
 40
0.03
100
AcDbArc
 50
349.9062163047
 51
99.6921611438
  0
ARC
  5
2B4
100
AcDbEntity
  8
0
100
AcDbCircle
 62
7
  6
CONTINUOUS
 10
6.1177755581
 20
4.8684864086
 40
0.03
100
AcDbArc
 50
256.9579526747
 51
359.9975226657
  0
ARC
  5
2B5
100
AcDbEntity
  8
0
100
AcDbCircle
 62
7
  6
CONTINUOUS
 10
6.1177947287
 20
5.3882881762
 40
0.03
100
AcDbArc
 50
359.9983105151
 51
129.7997672184
  0
ARC
  5
2B6
100
AcDbEntity
  8
0
100
AcDbCircle
 62
7
  6
CONTINUOUS
 10
5.4711387254
 20
5.3667809669
 40
0.03
100
AcDbArc
 50
74.888923693
 51
138.1581055893
  0
ARC
  5
2B7
100
AcDbEntity
  8
0
100
AcDbCircle
 62
7
  6
CONTINUOUS
 10
5.3933586903
 20
5.2799166414
 40
0.03
100
AcDbArc
 50
138.1581055893
 51
272.2667359021
  0
ARC
  5
2B8
100
AcDbEntity
  8
0
100
AcDbCircle
 62
7
  6
CONTINUOUS
 10
5.7329452601
 20
5.1046767645
 40
0.03
100
AcDbArc
 50
217.7703172123
 51
356.0351852887
  0
ARC
  5
2B9
100
AcDbEntity
  8
0
100
AcDbCircle
 62
7
  6
CONTINUOUS
 10
6.1178406074
 20
5.6626110953
 40
0.03
100
AcDbArc
 50
297.1748032156
 51
359.9955213553
  0
ARC
  5
2BA
100
AcDbEntity
  8
0
100
AcDbCircle
 62
7
  6
CONTINUOUS
 10
6.1178521457
 20
5.7706240476
 40
0.03
100
AcDbArc
 50
359.9918287267
 51
108.8172740841
  0
ARC
  5
2BB
100
AcDbEntity
  8
0
100
AcDbCircle
 62
7
  6
CONTINUOUS
 10
5.8524654137
 20
5.8984892529
 40
0.03
100
AcDbArc
 50
151.9488922616
 51
298.4803350176
  0
ARC
  5
2BC
100
AcDbEntity
  8
0
100
AcDbCircle
 62
7
  6
CONTINUOUS
 10
6.1177562112
 20
5.9883682728
 40
0.03
100
AcDbArc
 50
278.9518433745
 51
360.0
  0
ARC
  5
2BD
100
AcDbEntity
  8
0
100
AcDbCircle
 62
7
  6
CONTINUOUS
 10
5.9417307072
 20
6.1643253106
 40
0.03
100
AcDbArc
 50
90.0
 51
170.9279562629
  0
ARC
  5
2BE
100
AcDbEntity
  8
0
100
AcDbCircle
 62
7
  6
CONTINUOUS
 10
6.0689484206
 20
4.6393769394
 40
0.03
100
AcDbArc
 50
333.5891537006
 51
79.9853472818
  0
ARC
  5
2BF
100
AcDbEntity
  8
0
100
AcDbCircle
 62
7
  6
CONTINUOUS
 10
6.0480443993
 20
4.5795629975
 40
0.03
100
AcDbArc
 50
260.6633456534
 51
347.6621239604
  0
ARC
  5
2C0
100
AcDbEntity
  8
0
100
AcDbCircle
 62
7
  6
CONTINUOUS
 10
5.4302958324
 20
4.774494157
 40
0.03
100
AcDbArc
 50
171.4325270675
 51
294.7644035749
  0
ARC
  5
2C1
100
AcDbEntity
  8
0
100
AcDbCircle
 62
7
  6
CONTINUOUS
 10
4.4295144187
 20
4.6432218128
 40
0.0298782348
100
AcDbArc
 50
245.184546196
 51
294.8154779802
  0
SPLINE
  5
2C2
100
AcDbEntity
  8
0
100
AcDbSpline
 62
7
  6
CONTINUOUS
 70
0
 71
3
 72
20
 73
16
 74
0
 42
0.0000001
 43
0.0000001
 44
0.0000000001
 40
0.0
 40
0.0
 40
0.0
 40
0.0
 40
0.0624836088
 40
0.0937192207
 40
0.1249516751
 40
0.1874308481
 40
0.2499603137
 40
0.3125181152
 40
0.3750399205
 40
0.4375110048
 40
0.4999682418
 40
0.6249089582
 40
0.7499530756
 40
0.8750104692
 40
1.0
 40
1.0
 40
1.0
 40
1.0
 10
4.3043792863
 20
4.9262968931
 30
0.0
 10
4.2995892297
 20
4.923494311
 30
0.0
 10
4.2922713306
 20
4.9195121613
 30
0.0
 10
4.2822799215
 20
4.9146780812
 30
0.0
 10
4.2721382238
 20
4.9101679043
 30
0.0
 10
4.2592033811
 20
4.9051173593
 30
0.0
 10
4.2433613571
 20
4.8999382641
 30
0.0
 10
4.2272723664
 20
4.8955765486
 30
0.0
 10
4.2110058358
 20
4.8919618353
 30
0.0
 10
4.1946071645
 20
4.8890555231
 30
0.0
 10
4.1726065435
 20
4.8860996894
 30
0.0
 10
4.1449001657
 20
4.8840636169
 30
0.0
 10
4.1115629576
 20
4.8840828379
 30
0.0
 10
4.0783011061
 20
4.8863573075
 30
0.0
 10
4.0562833469
 20
4.8894366496
 30
0.0
 10
4.0453538011
 20
4.8913822748
 30
0.0
  0
SPLINE
  5
2C3
100
AcDbEntity
  8
0
100
AcDbSpline
 62
7
  6
CONTINUOUS
 70
0
 71
3
 72
21
 73
17
 74
0
 42
0.0000001
 43
0.0000001
 44
0.0000000001
 40
0.0
 40
0.0
 40
0.0
 40
0.0
 40
0.0625450456
 40
0.1250704897
 40
0.1563115543
 40
0.1875298672
 40
0.2499046739
 40
0.3122296117
 40
0.3745565544
 40
0.4369564713
 40
0.4995125133
 40
0.5622133657
 40
0.6249772926
 40
0.7503903026
 40
0.875413652
 40
1.0
 40
1.0
 40
1.0
 40
1.0
 10
4.0105242084
 20
4.8567959732
 30
0.0
 10
4.0114603252
 20
4.8513149495
 30
0.0
 10
4.0131340722
 20
4.8403199442
 30
0.0
 10
4.0147678705
 20
4.8265175248
 30
0.0
 10
4.0158224996
 20
4.8154559131
 30
0.0
 10
4.0167143713
 20
4.8043934465
 30
0.0
 10
4.0175090334
 20
4.7905522193
 30
0.0
 10
4.0179034534
 20
4.773926468
 30
0.0
 10
4.0176911511
 20
4.7572945451
 30
0.0
 10
4.0168257846
 20
4.7406625652
 30
0.0
 10
4.0152591062
 20
4.7240481248
 30
0.0
 10
4.0129643858
 20
4.7074850414
 30
0.0
 10
4.0089141946
 20
4.6855463185
 30
0.0
 10
4.0019519784
 20
4.6585373826
 30
0.0
 10
3.9904031923
 20
4.6272007413
 30
0.0
 10
3.9804523073
 20
4.6072993339
 30
0.0
 10
3.974907687
 20
4.5977110666
 30
0.0
  0
SPLINE
  5
2C4
100
AcDbEntity
  8
0
100
AcDbSpline
 62
7
  6
CONTINUOUS
 70
0
 71
3
 72
16
 73
12
 74
0
 42
0.0000001
 43
0.0000001
 44
0.0000000001
 40
0.0
 40
0.0
 40
0.0
 40
0.0
 40
0.1301392035
 40
0.2585822917
 40
0.3853730608
 40
0.4481984569
 40
0.5106641353
 40
0.6346219806
 40
0.757484872
 40
0.8792987068
 40
1.0
 40
1.0
 40
1.0
 40
1.0
 10
4.1512746228
 20
4.5844262525
 30
0.0
 10
4.151090176
 20
4.59013622
 30
0.0
 10
4.1512942739
 20
4.6015090889
 30
0.0
 10
4.1533251615
 20
4.6183320245
 30
0.0
 10
4.1564375014
 20
4.6319726938
 30
0.0
 10
4.159764785
 20
4.6425316618
 30
0.0
 10
4.163614385
 20
4.6527787245
 30
0.0
 10
4.169392745
 20
4.6650946477
 30
0.0
 10
4.1777475657
 20
4.6789855958
 30
0.0
 10
4.1873616999
 20
4.691856005
 30
0.0
 10
4.1945546286
 20
4.69973202
 30
0.0
 10
4.1983161767
 20
4.7034638122
 30
0.0
  0
SPLINE
  5
2C5
100
AcDbEntity
  8
0
100
AcDbSpline
 62
7
  6
CONTINUOUS
 70
0
 71
3
 72
16
 73
12
 74
0
 42
0.0000001
 43
0.0000001
 44
0.0000000001
 40
0.0
 40
0.0
 40
0.0
 40
0.0
 40
0.1207442006
 40
0.2425908041
 40
0.3654367481
 40
0.4893303273
 40
0.5517588475
 40
0.6145553499
 40
0.741327806
 40
0.8698012147
 40
1.0
 40
1.0
 40
1.0
 40
1.0
 10
4.1983161767
 20
4.7034638122
 30
0.0
 10
4.2020783523
 20
4.7071962271
 30
0.0
 10
4.2099949846
 20
4.7143440088
 30
0.0
 10
4.2228878128
 20
4.723925245
 30
0.0
 10
4.2367783857
 20
4.732269196
 30
0.0
 10
4.2490867951
 20
4.7380453114
 30
0.0
 10
4.2593277234
 20
4.7418893661
 30
0.0
 10
4.2698839211
 20
4.7452065053
 30
0.0
 10
4.2835266773
 20
4.7482964696
 30
0.0
 10
4.3003540848
 20
4.7502911604
 30
0.0
 10
4.3117292271
 20
4.7504685942
 30
0.0
 10
4.3174402924
 20
4.7502709712
 30
0.0
  0
LINE
  5
2C6
100
AcDbEntity
  8
0
100
AcDbLine
 62
7
  6
CONTINUOUS
 10
4.0335964103
 20
6.1943446574
 11
3.5137942301
 21
6.1943638281
  0
SPLINE
  5
2C7
100
AcDbEntity
  8
0
100
AcDbSpline
 62
7
  6
CONTINUOUS
 70
0
 71
3
 72
50
 73
46
 74
0
 42
0.0000001
 43
0.0000001
 44
0.0000000001
 40
0.0
 40
0.0
 40
0.0
 40
0.0
 40
0.0623405974
 40
0.0935093917
 40
0.1246959333
 40
0.1559313834
 40
0.1872411243
 40
0.2185594819
 40
0.249821225
 40
0.2654252531
 40
0.2810128563
 40
0.2965907593
 40
0.3121696448
 40
0.3277599051
 40
0.3433675611
 40
0.3746390943
 40
0.437309863
 40
0.4686015787
 40
0.4997872877
 40
0.5309238911
 40
0.546492011
 40
0.5620645276
 40
0.577648162
 40
0.5932561903
 40
0.6089090798
 40
0.6246060447
 40
0.6403052781
 40
0.655975674
 40
0.6716056213
 40
0.6872065476
 40
0.6950085218
 40
0.7028173087
 40
0.7184556373
 40
0.7341213868
 40
0.7497988268
 40
0.7654628256
 40
0.7810969615
 40
0.796727489
 40
0.8123767685
 40
0.8437426106
 40
0.8751326123
 40
0.906391658
 40
0.9375821535
 40
0.9687794734
 40
1.0
 40
1.0
 40
1.0
 40
1.0
 10
3.4907447618
 20
6.1451606308
 30
0.0
 10
3.5007943569
 20
6.1330986324
 30
0.0
 10
3.5160496226
 20
6.1151514034
 30
0.0
 10
3.5371355964
 20
6.0918761772
 30
0.0
 10
3.5534223038
 20
6.0748336517
 30
0.0
 10
3.570275842
 20
6.0582990373
 30
0.0
 10
3.5877630007
 20
6.0423834801
 30
0.0
 10
3.6059667875
 20
6.0272783143
 30
0.0
 10
3.6217960366
 20
6.0155462687
 30
0.0
 10
3.6348708999
 20
6.006799363
 30
0.0
 10
3.644883456
 20
6.0005912316
 30
0.0
 10
3.6551130515
 20
5.9947597122
 30
0.0
 10
3.6655673629
 20
5.9893393246
 30
0.0
 10
3.6762341512
 20
5.9843329303
 30
0.0
 10
3.6907183451
 20
5.9781832945
 30
0.0
 10
3.7166716436
 20
5.9687651177
 30
0.0
 10
3.7472955277
 20
5.9608806153
 30
0.0
 10
3.7783404027
 20
5.9554038253
 30
0.0
 10
3.8017345054
 20
5.9524075972
 30
0.0
 10
3.8212909543
 20
5.9508001328
 30
0.0
 10
3.8369560815
 20
5.9500107199
 30
0.0
 10
3.8487209369
 20
5.9497141161
 30
0.0
 10
3.8604999414
 20
5.9497705614
 30
0.0
 10
3.8722907969
 20
5.9502356052
 30
0.0
 10
3.8840835827
 20
5.9511634644
 30
0.0
 10
3.8958481329
 20
5.9526106026
 30
0.0
 10
3.9075302286
 20
5.9546512669
 30
0.0
 10
3.9190608919
 20
5.9573569997
 30
0.0
 10
3.9303688913
 20
5.9608003369
 30
0.0
 10
3.9395489844
 20
5.9643453849
 30
0.0
 10
3.9466976101
 20
5.9676186978
 30
0.0
 10
3.9537119541
 20
5.9711912551
 30
0.0
 10
3.9622123762
 20
5.9761901949
 30
0.0
 10
3.9719283559
 20
5.9829614743
 30
0.0
 10
3.9811226993
 20
5.9904352302
 30
0.0
 10
3.9897533341
 20
5.9985410409
 30
0.0
 10
3.9977887183
 20
6.0072198967
 30
0.0
 10
4.0052423371
 20
6.0163968753
 30
0.0
 10
4.0144456815
 20
6.0292205425
 30
0.0
 10
4.0246272224
 20
6.046181405
 30
0.0
 10
4.0349537937
 20
6.0675144307
 30
0.0
 10
4.043677189
 20
6.0894969871
 30
0.0
 10
4.0510424192
 20
6.1119132333
 30
0.0
 10
4.0573481051
 20
6.1346349157
 30
0.0
 10
4.0610469355
 20
6.1499149053
 30
0.0
 10
4.0628212547
 20
6.157574676
 30
0.0
  0
SPLINE
  5
2C8
100
AcDbEntity
  8
0
100
AcDbSpline
 62
7
  6
CONTINUOUS
 70
0
 71
3
 72
50
 73
46
 74
0
 42
0.0000001
 43
0.0000001
 44
0.0000000001
 40
0.0
 40
0.0
 40
0.0
 40
0.0
 40
0.0623256894
 40
0.0934899376
 40
0.1246716582
 40
0.1559096681
 40
0.1715694876
 40
0.1872634171
 40
0.2186806841
 40
0.2500274278
 40
0.2812255656
 40
0.2967704816
 40
0.3122873758
 40
0.3277931806
 40
0.3433125857
 40
0.3588627862
 40
0.3744500394
 40
0.4057130884
 40
0.436997028
 40
0.4681925458
 40
0.499296315
 40
0.5148225261
 40
0.5303438974
 40
0.5458778514
 40
0.5614366875
 40
0.5770139016
 40
0.5926044469
 40
0.6238201612
 40
0.6394665624
 40
0.6551405855
 40
0.6864821207
 40
0.7021269182
 40
0.7177369771
 40
0.7333094647
 40
0.7410836266
 40
0.7488517707
 40
0.7643846554
 40
0.7799384647
 40
0.8111725049
 40
0.8426418244
 40
0.8743186132
 40
0.9060923345
 40
0.9377874608
 40
0.9691781578
 40
1.0
 40
1.0
 40
1.0
 40
1.0
 10
3.1030609124
 20
6.1547447125
 30
0.0
 10
3.1085028927
 20
6.1387747844
 30
0.0
 10
3.117206296
 20
6.1149914422
 30
0.0
 10
3.1303860751
 20
6.0839153345
 30
0.0
 10
3.1411860454
 20
6.0609913026
 30
0.0
 10
3.1510441724
 20
6.0422849376
 30
0.0
 10
3.1595017733
 20
6.0276009997
 30
0.0
 10
3.1683680552
 20
6.0131034878
 30
0.0
 10
3.1802220856
 20
5.9954630851
 30
0.0
 10
3.1958002696
 20
5.9753297213
 30
0.0
 10
3.2100164323
 20
5.959647347
 30
0.0
 10
3.2221561342
 20
5.9479486996
 30
0.0
 10
3.2316455014
 20
5.9396420533
 30
0.0
 10
3.2415460802
 20
5.9318414598
 30
0.0
 10
3.2518120805
 20
5.9245150646
 30
0.0
 10
3.2623896904
 20
5.9176076353
 30
0.0
 10
3.2768561574
 20
5.9088808092
 30
0.0
 10
3.2954481077
 20
5.8987751063
 30
0.0
 10
3.3181903689
 20
5.8875118435
 30
0.0
 10
3.341066755
 20
5.8766299015
 30
0.0
 10
3.3600060431
 20
5.8673977737
 30
0.0
 10
3.3749330478
 20
5.8596331276
 30
0.0
 10
3.3859801797
 20
5.8535500951
 30
0.0
 10
3.3968469457
 20
5.8471313355
 30
0.0
 10
3.4074927739
 20
5.8403236497
 30
0.0
 10
3.4178911391
 20
5.8331155333
 30
0.0
 10
3.4313804904
 20
5.8229507062
 30
0.0
 10
3.4442348787
 20
5.8119290084
 30
0.0
 10
3.4562831938
 20
5.8000286993
 30
0.0
 10
3.4677553654
 20
5.7875268103
 30
0.0
 10
3.478271484
 20
5.7741708559
 30
0.0
 10
3.4876431797
 20
5.7600450028
 30
0.0
 10
3.4940468152
 20
5.7490967913
 30
0.0
 10
3.4988271939
 20
5.7396890184
 30
0.0
 10
3.5022895669
 20
5.7320093732
 30
0.0
 10
3.5055049465
 20
5.7242347578
 30
0.0
 10
3.5090777793
 20
5.714334629
 30
0.0
 10
3.5138762818
 20
5.6981531672
 30
0.0
 10
3.5182144368
 20
5.6773745498
 30
0.0
 10
3.5209826852
 20
5.65194179
 30
0.0
 10
3.5215617929
 20
5.6262250848
 30
0.0
 10
3.520184176
 20
5.6004839962
 30
0.0
 10
3.5170800413
 20
5.5749758045
 30
0.0
 10
3.5124777386
 20
5.5499609946
 30
0.0
 10
3.5085129723
 20
5.5335835911
 30
0.0
 10
3.5063378873
 20
5.5255285592
 30
0.0
  0
SPLINE
  5
2C9
100
AcDbEntity
  8
0
100
AcDbSpline
 62
7
  6
CONTINUOUS
 70
0
 71
3
 72
20
 73
16
 74
0
 42
0.0000001
 43
0.0000001
 44
0.0000000001
 40
0.0
 40
0.0
 40
0.0
 40
0.0
 40
0.1244588737
 40
0.248894745
 40
0.3110264352
 40
0.3730414911
 40
0.4040080977
 40
0.4349469399
 40
0.4968002042
 40
0.5587662221
 40
0.6209604551
 40
0.683451801
 40
0.7462668296
 40
0.8727544892
 40
1.0
 40
1.0
 40
1.0
 40
1.0
 10
3.6521414061
 20
5.4411143402
 30
0.0
 10
3.6515350801
 20
5.456432311
 30
0.0
 10
3.6523337723
 20
5.487179382
 30
0.0
 10
3.6583387427
 20
5.5251346051
 30
0.0
 10
3.666146802
 20
5.554761458
 30
0.0
 10
3.6722794008
 20
5.57287466
 30
0.0
 10
3.6779338121
 20
5.5870553099
 30
0.0
 10
3.6840867224
 20
5.601005308
 30
0.0
 10
3.6927062605
 20
5.6180258273
 30
0.0
 10
3.7044092376
 20
5.6377414537
 30
0.0
 10
3.7173681706
 20
5.6567486846
 30
0.0
 10
3.7314786951
 20
5.6750475532
 30
0.0
 10
3.751733157
 20
5.6985514822
 30
0.0
 10
3.7793943012
 20
5.7261184993
 30
0.0
 10
3.80339045
 20
5.7462003861
 30
0.0
 10
3.8157796859
 20
5.7558001865
 30
0.0
  0
SPLINE
  5
2CA
100
AcDbEntity
  8
0
100
AcDbSpline
 62
7
  6
CONTINUOUS
 70
0
 71
3
 72
25
 73
21
 74
0
 42
0.0000001
 43
0.0000001
 44
0.0000000001
 40
0.0
 40
0.0
 40
0.0
 40
0.0
 40
0.0626004717
 40
0.1257847901
 40
0.1894512001
 40
0.25340023
 40
0.3173551753
 40
0.3809793611
 40
0.4125526733
 40
0.4439175287
 40
0.506116249
 40
0.5678266253
 40
0.6292975648
 40
0.6600220551
 40
0.6907763529
 40
0.7215889801
 40
0.7524771066
 40
0.8143990767
 40
0.8763844804
 40
1.0
 40
1.0
 40
1.0
 40
1.0
 10
3.799479073
 20
5.8094425604
 30
0.0
 10
3.7854396557
 20
5.8104156287
 30
0.0
 10
3.7573082611
 20
5.8136983692
 30
0.0
 10
3.7155321429
 20
5.8222038163
 30
0.0
 10
3.6742438468
 20
5.8339714784
 30
0.0
 10
3.6337258905
 20
5.8486623063
 30
0.0
 10
3.5942569507
 20
5.8659391648
 30
0.0
 10
3.5623898647
 20
5.8822552063
 30
0.0
 10
3.5376471066
 20
5.8963091234
 30
0.0
 10
3.5135879647
 20
5.910894699
 30
0.0
 10
3.4845239139
 20
5.9302657248
 30
0.0
 10
3.4512167657
 20
5.9553509416
 30
0.0
 10
3.4248028253
 20
5.97773028
 30
0.0
 10
3.4044892525
 20
5.9964785517
 30
0.0
 10
3.389640491
 20
6.010973482
 30
0.0
 10
3.3751726549
 20
6.0258999395
 30
0.0
 10
3.3563804847
 20
6.0463779695
 30
0.0
 10
3.3339348393
 20
6.0730019098
 30
0.0
 10
3.3006354651
 20
6.1176055927
 30
0.0
 10
3.2788507258
 20
6.1533886395
 30
0.0
 10
3.2661589456
 20
6.1781109092
 30
0.0
  0
SPLINE
  5
2CB
100
AcDbEntity
  8
0
100
AcDbSpline
 62
7
  6
CONTINUOUS
 70
0
 71
3
 72
48
 73
44
 74
0
 42
0.0000001
 43
0.0000001
 44
0.0000000001
 40
0.0
 40
0.0
 40
0.0
 40
0.0
 40
0.0623355393
 40
0.0935047091
 40
0.1246913501
 40
0.1559342918
 40
0.1715965886
 40
0.1872929785
 40
0.218715032
 40
0.2500664554
 40
0.2812693348
 40
0.2968167339
 40
0.3123362448
 40
0.3278448566
 40
0.3433672191
 40
0.3589204016
 40
0.3745105233
 40
0.4057783922
 40
0.4370649811
 40
0.4682616812
 40
0.4993683479
 40
0.5148976898
 40
0.5304238375
 40
0.5459645504
 40
0.5615315305
 40
0.5771164917
 40
0.5927127105
 40
0.6239279241
 40
0.639566312
 40
0.6552280823
 40
0.6865501788
 40
0.7021944727
 40
0.7178126541
 40
0.7334018901
 40
0.7489658525
 40
0.7645240226
 40
0.7800993137
 40
0.8113509543
 40
0.8743454908
 40
0.906039114
 40
0.937672385
 40
0.9690633979
 40
1.0
 40
1.0
 40
1.0
 40
1.0
 10
2.7473368929
 20
5.7990205067
 30
0.0
 10
2.7633092757
 20
5.7935776374
 30
0.0
 10
2.7870962396
 20
5.7848727141
 30
0.0
 10
2.8181769499
 20
5.7716904146
 30
0.0
 10
2.8411042926
 20
5.7608882775
 30
0.0
 10
2.8598132696
 20
5.7510280906
 30
0.0
 10
2.874499187
 20
5.7425686848
 30
0.0
 10
2.8889985553
 20
5.7337005
 30
0.0
 10
2.9066409911
 20
5.7218438123
 30
0.0
 10
2.9267761661
 20
5.7062617891
 30
0.0
 10
2.9424593168
 20
5.6920417445
 30
0.0
 10
2.9541580318
 20
5.6798984775
 30
0.0
 10
2.9624644622
 20
5.6704061236
 30
0.0
 10
2.9702645612
 20
5.6605023185
 30
0.0
 10
2.9775905061
 20
5.6502331433
 30
0.0
 10
2.984497528
 20
5.6396524731
 30
0.0
 10
2.9932238596
 20
5.6251824046
 30
0.0
 10
3.0033291626
 20
5.6065871616
 30
0.0
 10
3.0145932568
 20
5.5838428165
 30
0.0
 10
3.0254778729
 20
5.5609657787
 30
0.0
 10
3.0347128451
 20
5.5420257861
 30
0.0
 10
3.0424798814
 20
5.5270967955
 30
0.0
 10
3.0485650983
 20
5.5160463885
 30
0.0
 10
3.0549860387
 20
5.5051747865
 30
0.0
 10
3.0617954863
 20
5.4945228689
 30
0.0
 10
3.0690055943
 20
5.4841188043
 30
0.0
 10
3.0791725351
 20
5.4706267411
 30
0.0
 10
3.0901987498
 20
5.4577766499
 30
0.0
 10
3.102110024
 20
5.44574695
 30
0.0
 10
3.1146252568
 20
5.4343050526
 30
0.0
 10
3.1279958507
 20
5.4238225339
 30
0.0
 10
3.1421267588
 20
5.4144650956
 30
0.0
 10
3.1530774416
 20
5.408053157
 30
0.0
 10
3.1643570484
 20
5.4022864355
 30
0.0
 10
3.175946964
 20
5.3972112475
 30
0.0
 10
3.1878117755
 20
5.3928294199
 30
0.0
 10
3.2039641548
 20
5.3878729004
 30
0.0
 10
3.2330415204
 20
5.3814513996
 30
0.0
 10
3.2672547464
 20
5.3789853436
 30
0.0
 10
3.301430829
 20
5.3806020934
 30
0.0
 10
3.3269087298
 20
5.3836936903
 30
0.0
 10
3.3519060143
 20
5.3884864623
 30
0.0
 10
3.368247003
 20
5.3927421755
 30
0.0
 10
3.3762791858
 20
5.3951122953
 30
0.0
  0
SPLINE
  5
2CC
100
AcDbEntity
  8
0
100
AcDbSpline
 62
7
  6
CONTINUOUS
 70
0
 71
3
 72
25
 73
21
 74
0
 42
0.0000001
 43
0.0000001
 44
0.0000000001
 40
0.0
 40
0.0
 40
0.0
 40
0.0
 40
0.0626015986
 40
0.1257868879
 40
0.189453941
 40
0.2534031896
 40
0.3173578918
 40
0.3809813816
 40
0.4125541892
 40
0.4439185669
 40
0.5061166088
 40
0.5678266183
 40
0.6292974349
 40
0.6600219331
 40
0.6907762748
 40
0.7215889734
 40
0.7524771606
 40
0.8143991689
 40
0.8763845454
 40
1.0
 40
1.0
 40
1.0
 40
1.0
 10
3.0926331679
 20
5.1026859238
 30
0.0
 10
3.0916575874
 20
5.1167236719
 30
0.0
 10
3.0883703869
 20
5.1448514578
 30
0.0
 10
3.0798598201
 20
5.1866217431
 30
0.0
 10
3.0680884379
 20
5.2279038508
 30
0.0
 10
3.0533951582
 20
5.2684153658
 30
0.0
 10
3.0361169888
 20
5.3078777114
 30
0.0
 10
3.0198006696
 20
5.3397392949
 30
0.0
 10
3.0057469698
 20
5.3644776846
 30
0.0
 10
2.9911618155
 20
5.3885325659
 30
0.0
 10
2.9717916119
 20
5.4175915438
 30
0.0
 10
2.9467078766
 20
5.4508930006
 30
0.0
 10
2.9243301672
 20
5.4773025472
 30
0.0
 10
2.9055834136
 20
5.4976128349
 30
0.0
 10
2.8910897209
 20
5.5124592474
 30
0.0
 10
2.8761646185
 20
5.5269248349
 30
0.0
 10
2.8556885509
 20
5.5457141038
 30
0.0
 10
2.829067338
 20
5.5681563046
 30
0.0
 10
2.7844685604
 20
5.6014506897
 30
0.0
 10
2.7486898045
 20
5.6232323759
 30
0.0
 10
2.7239706126
 20
5.6359225762
 30
0.0
  0
SPLINE
  5
2CD
100
AcDbEntity
  8
0
100
AcDbSpline
 62
7
  6
CONTINUOUS
 70
0
 71
3
 72
21
 73
17
 74
0
 42
0.0000001
 43
0.0000001
 44
0.0000000001
 40
0.0
 40
0.0
 40
0.0
 40
0.0
 40
0.1245433828
 40
0.186823584
 40
0.2490157605
 40
0.3110847488
 40
0.3730169368
 40
0.4039396724
 40
0.4348363302
 40
0.4966154012
 40
0.5585265678
 40
0.6206893939
 40
0.6831744773
 40
0.7460080117
 40
0.8725965953
 40
1.0
 40
1.0
 40
1.0
 40
1.0
 10
3.4614788648
 20
5.2493536561
 30
0.0
 10
3.4461352556
 20
5.2499681442
 30
0.0
 10
3.4230244541
 20
5.2494375474
 30
0.0
 10
3.3925243733
 20
5.2457878063
 30
0.0
 10
3.3698965358
 20
5.2415656632
 30
0.0
 10
3.3476453684
 20
5.2358477653
 30
0.0
 10
3.3295008609
 20
5.2298216376
 30
0.0
 10
3.3152962214
 20
5.2242420177
 30
0.0
 10
3.3013222324
 20
5.2181543883
 30
0.0
 10
3.2842720078
 20
5.2095964754
 30
0.0
 10
3.2645238691
 20
5.1979407807
 30
0.0
 10
3.2454860169
 20
5.1850050279
 30
0.0
 10
3.2271583746
 20
5.1708969174
 30
0.0
 10
3.203614527
 20
5.1506188582
 30
0.0
 10
3.1760056563
 20
5.1228940097
 30
0.0
 10
3.1559011672
 20
5.0988336688
 30
0.0
 10
3.1462892645
 20
5.0864091106
 30
0.0
  0
LINE
  5
2CE
100
AcDbEntity
  8
0
100
AcDbLine
 62
7
  6
CONTINUOUS
 10
2.7077368643
 20
4.8684851115
 11
2.7077176936
 21
5.3882872916
  0
SPLINE
  5
2CF
100
AcDbEntity
  8
0
100
AcDbSpline
 62
7
  6
CONTINUOUS
 70
0
 71
3
 72
50
 73
46
 74
0
 42
0.0000001
 43
0.0000001
 44
0.0000000001
 40
0.0
 40
0.0
 40
0.0
 40
0.0
 40
0.0623405974
 40
0.0935093917
 40
0.1246959333
 40
0.1559313834
 40
0.1872411243
 40
0.2185594819
 40
0.249821225
 40
0.2654252531
 40
0.2810128563
 40
0.2965907593
 40
0.3121696448
 40
0.3277599051
 40
0.3433675611
 40
0.3746390943
 40
0.437309863
 40
0.4686015787
 40
0.4997872877
 40
0.5309238911
 40
0.546492011
 40
0.5620645276
 40
0.577648162
 40
0.5932561903
 40
0.6089090798
 40
0.6246060447
 40
0.6403052781
 40
0.655975674
 40
0.6716056213
 40
0.6872065476
 40
0.6950085218
 40
0.7028173087
 40
0.7184556373
 40
0.7341213868
 40
0.7497988268
 40
0.7654628256
 40
0.7810969615
 40
0.796727489
 40
0.8123767685
 40
0.8437426106
 40
0.8751326123
 40
0.906391658
 40
0.9375821535
 40
0.9687794734
 40
1.0
 40
1.0
 40
1.0
 40
1.0
 10
2.756920891
 20
5.4113367599
 30
0.0
 10
2.7689828893
 20
5.4012871648
 30
0.0
 10
2.7869301184
 20
5.3860318992
 30
0.0
 10
2.8102053446
 20
5.3649459254
 30
0.0
 10
2.82724787
 20
5.3486592179
 30
0.0
 10
2.8437824844
 20
5.3318056798
 30
0.0
 10
2.8596980416
 20
5.3143185211
 30
0.0
 10
2.8748032075
 20
5.2961147343
 30
0.0
 10
2.8865352531
 20
5.2802854851
 30
0.0
 10
2.8952821587
 20
5.2672106219
 30
0.0
 10
2.9014902902
 20
5.2571980657
 30
0.0
 10
2.9073218096
 20
5.2469684702
 30
0.0
 10
2.9127421971
 20
5.2365141588
 30
0.0
 10
2.9177485914
 20
5.2258473705
 30
0.0
 10
2.9238982273
 20
5.2113631767
 30
0.0
 10
2.933316404
 20
5.1854098782
 30
0.0
 10
2.9412009064
 20
5.154785994
 30
0.0
 10
2.9466776964
 20
5.123741119
 30
0.0
 10
2.9496739246
 20
5.1003470163
 30
0.0
 10
2.951281389
 20
5.0807905674
 30
0.0
 10
2.9520708019
 20
5.0651254402
 30
0.0
 10
2.9523674057
 20
5.0533605848
 30
0.0
 10
2.9523109603
 20
5.0415815804
 30
0.0
 10
2.9518459166
 20
5.0297907249
 30
0.0
 10
2.9509180573
 20
5.0179979391
 30
0.0
 10
2.9494709192
 20
5.0062333889
 30
0.0
 10
2.9474302548
 20
4.9945512932
 30
0.0
 10
2.944724522
 20
4.9830206298
 30
0.0
 10
2.9412811848
 20
4.9717126304
 30
0.0
 10
2.9377361368
 20
4.9625325374
 30
0.0
 10
2.9344628239
 20
4.9553839116
 30
0.0
 10
2.9308902666
 20
4.9483695676
 30
0.0
 10
2.9258913269
 20
4.9398691456
 30
0.0
 10
2.9191200474
 20
4.9301531659
 30
0.0
 10
2.9116462915
 20
4.9209588224
 30
0.0
 10
2.9035404808
 20
4.9123281876
 30
0.0
 10
2.8948616251
 20
4.9042928035
 30
0.0
 10
2.8856846465
 20
4.8968391847
 30
0.0
 10
2.8728609792
 20
4.8876358402
 30
0.0
 10
2.8559001167
 20
4.8774542993
 30
0.0
 10
2.8345670911
 20
4.8671277281
 30
0.0
 10
2.8125845347
 20
4.8584043328
 30
0.0
 10
2.7901682885
 20
4.8510391026
 30
0.0
 10
2.7674466061
 20
4.8447334166
 30
0.0
 10
2.7521666164
 20
4.8410345863
 30
0.0
 10
2.7445068457
 20
4.839260267
 30
0.0
  0
SPLINE
  5
2D0
100
AcDbEntity
  8
0
100
AcDbSpline
 62
7
  6
CONTINUOUS
 70
0
 71
3
 72
40
 73
36
 74
0
 42
0.0000001
 43
0.0000001
 44
0.0000000001
 40
0.0
 40
0.0
 40
0.0
 40
0.0
 40
0.063384257
 40
0.09441538
 40
0.125091214
 40
0.1403642105
 40
0.155637405
 40
0.1709557043
 40
0.1863491287
 40
0.2018166328
 40
0.217348803
 40
0.2485310542
 40
0.2797447427
 40
0.2953062577
 40
0.3108075272
 40
0.3416953991
 40
0.37258701
 40
0.4036110893
 40
0.4348506074
 40
0.4977865343
 40
0.5293607712
 40
0.5608735756
 40
0.5922648954
 40
0.6235067537
 40
0.6546146564
 40
0.6856656154
 40
0.7167803863
 40
0.7480367328
 40
0.8109829247
 40
0.842674914
 40
0.8744085608
 40
0.9060994965
 40
0.9376521152
 40
0.9689674508
 40
1.0
 40
1.0
 40
1.0
 40
1.0
 10
4.1231181448
 20
5.4471996984
 30
0.0
 10
4.1128591336
 20
5.4487452712
 30
0.0
 10
4.0973545163
 20
5.4499533346
 30
0.0
 10
4.0768949136
 20
5.4486258481
 30
0.0
 10
4.0644499446
 20
5.4464655396
 30
0.0
 10
4.0547648359
 20
5.4438728017
 30
0.0
 10
4.0476431682
 20
5.4414814065
 30
0.0
 10
4.0406748642
 20
5.4386215813
 30
0.0
 10
4.0338810834
 20
5.4352965398
 30
0.0
 10
4.0272776668
 20
5.4315371916
 30
0.0
 10
4.0187471711
 20
5.4259760784
 30
0.0
 10
4.0086859761
 20
5.4180881646
 30
0.0
 10
3.9995547589
 20
5.409136924
 30
0.0
 10
3.9928778481
 20
5.4014287662
 30
0.0
 10
3.9866640114
 20
5.3934100906
 30
0.0
 10
3.9797297494
 20
5.3828002857
 30
0.0
 10
3.9727539865
 20
5.3692792478
 30
0.0
 10
3.9671045082
 20
5.3550907368
 30
0.0
 10
3.9612953838
 20
5.3354169947
 30
0.0
 10
3.9580985401
 20
5.3149558278
 30
0.0
 10
3.9576109139
 20
5.2943138243
 30
0.0
 10
3.9586361607
 20
5.2788606347
 30
0.0
 10
3.9610877246
 20
5.2636236185
 30
0.0
 10
3.965000769
 20
5.2487607467
 30
0.0
 10
3.9704120031
 20
5.2344305502
 30
0.0
 10
3.9773601446
 20
5.2208026157
 30
0.0
 10
3.985703417
 20
5.2079556621
 30
0.0
 10
3.9985225313
 20
5.191910204
 30
0.0
 10
4.0135821643
 20
5.1776583993
 30
0.0
 10
4.0302788039
 20
5.1654224192
 30
0.0
 10
4.0435570305
 20
5.1572585
 30
0.0
 10
4.0574212811
 20
5.1501915635
 30
0.0
 10
4.0717385761
 20
5.1442659775
 30
0.0
 10
4.0864113802
 20
5.1396247754
 30
0.0
 10
4.09641147
 20
5.1374872822
 30
0.0
 10
4.1014282651
 20
5.1366920569
 30
0.0
  0
SPLINE
  5
2D1
100
AcDbEntity
  8
0
100
AcDbSpline
 62
7
  6
CONTINUOUS
 70
0
 71
3
 72
55
 73
51
 74
0
 42
0.0000001
 43
0.0000001
 44
0.0000000001
 40
0.0
 40
0.0
 40
0.0
 40
0.0
 40
0.0623626546
 40
0.1247555995
 40
0.1872094742
 40
0.2497598177
 40
0.2810850228
 40
0.3124499247
 40
0.3438481711
 40
0.3752492118
 40
0.43794875
 40
0.4692211541
 40
0.5004334057
 40
0.531593878
 40
0.5471614372
 40
0.5627247301
 40
0.578288363
 40
0.5938586741
 40
0.6094412523
 40
0.6250379347
 40
0.6406478212
 40
0.6562684665
 40
0.6718911959
 40
0.6875008791
 40
0.703091765
 40
0.7186752301
 40
0.7264746736
 40
0.7342827758
 40
0.7499173393
 40
0.7655668203
 40
0.7812166163
 40
0.7968520956
 40
0.8124651391
 40
0.8280739655
 40
0.843695503
 40
0.8593359532
 40
0.8749919992
 40
0.8828227812
 40
0.890652488
 40
0.8984785655
 40
0.9062980952
 40
0.9141087535
 40
0.9219100381
 40
0.9297037785
 40
0.9374945914
 40
0.9452902335
 40
0.9530962632
 40
0.9687284279
 40
0.9843714825
 40
1.0
 40
1.0
 40
1.0
 40
1.0
 10
4.3521210881
 20
6.0897464452
 30
0.0
 10
4.3499263817
 20
6.076397725
 30
0.0
 10
4.3450730918
 20
6.0497674249
 30
0.0
 10
4.336383513
 20
6.0100893481
 30
0.0
 10
4.3262600807
 20
5.9707100569
 30
0.0
 10
4.3166147843
 20
5.9381902837
 30
0.0
 10
4.3081619301
 20
5.9123697157
 30
0.0
 10
4.3014488672
 20
5.8930940684
 30
0.0
 10
4.2943580164
 20
5.8739360691
 30
0.0
 10
4.2843339425
 20
5.8486236069
 30
0.0
 10
4.2733520134
 20
5.8237233993
 30
0.0
 10
4.2612136706
 20
5.7994268496
 30
0.0
 10
4.2514977918
 20
5.7815819603
 30
0.0
 10
4.2428433917
 20
5.7670519292
 30
0.0
 10
4.2355657251
 20
5.7556657074
 30
0.0
 10
4.2299257789
 20
5.7472509469
 30
0.0
 10
4.2240936099
 20
5.7389674805
 30
0.0
 10
4.2180767668
 20
5.7308122913
 30
0.0
 10
4.2119236655
 20
5.7227508333
 30
0.0
 10
4.2056750526
 20
5.714752512
 30
0.0
 10
4.1993746171
 20
5.706784552
 30
0.0
 10
4.1930618636
 20
5.6988191774
 30
0.0
 10
4.1867966608
 20
5.6908161302
 30
0.0
 10
4.1806846696
 20
5.6827025175
 30
0.0
 10
4.1748267625
 20
5.6744127817
 30
0.0
 10
4.1702433173
 20
5.6673041994
 30
0.0
 10
4.1668133839
 20
5.6614709189
 30
0.0
 10
4.1635473097
 20
5.6555317979
 30
0.0
 10
4.1597775729
 20
5.6479303221
 30
0.0
 10
4.1557708324
 20
5.6385651772
 30
0.0
 10
4.1522936275
 20
5.6289904628
 30
0.0
 10
4.1493600656
 20
5.6192435243
 30
0.0
 10
4.1469865286
 20
5.609354757
 30
0.0
 10
4.1451345339
 20
5.599359256
 30
0.0
 10
4.1437572525
 20
5.5892821205
 30
0.0
 10
4.1428087485
 20
5.5791460857
 30
0.0
 10
4.1423372702
 20
5.5706696678
 30
0.0
 10
4.1421283331
 20
5.56387937
 30
0.0
 10
4.1420503139
 20
5.5587849717
 30
0.0
 10
4.1420444244
 20
5.5536924793
 30
0.0
 10
4.1421082834
 20
5.5486044529
 30
0.0
 10
4.1422658935
 20
5.5435236955
 30
0.0
 10
4.1425386812
 20
5.5384532575
 30
0.0
 10
4.1429489568
 20
5.5333962033
 30
0.0
 10
4.1435182667
 20
5.5283555791
 30
0.0
 10
4.1442703616
 20
5.5233359285
 30
0.0
 10
4.1455350566
 20
5.5166782295
 30
0.0
 10
4.1475925071
 20
5.5084448371
 30
0.0
 10
4.1507958116
 20
5.4987784222
 30
0.0
 10
4.1534083894
 20
5.4925099985
 30
0.0
 10
4.1548285016
 20
5.4894315725
 30
0.0
  0
SPLINE
  5
2D2
100
AcDbEntity
  8
0
100
AcDbSpline
 62
7
  6
CONTINUOUS
 70
0
 71
3
 72
9
 73
5
 74
0
 42
0.0000001
 43
0.0000001
 44
0.0000000001
 40
0.0
 40
0.0
 40
0.0
 40
0.0
 40
0.4995333303
 40
1.0
 40
1.0
 40
1.0
 40
1.0
 10
4.2760487243
 20
6.1423863472
 30
0.0
 10
4.2844175026
 20
6.1382300748
 30
0.0
 10
4.3017286226
 20
6.1309959531
 30
0.0
 10
4.3197835223
 20
6.1259209641
 30
0.0
 10
4.328928811
 20
6.1239206347
 30
0.0
  0
SPLINE
  5
2D3
100
AcDbEntity
  8
0
100
AcDbSpline
 62
7
  6
CONTINUOUS
 70
0
 71
3
 72
37
 73
33
 74
0
 42
0.0000001
 43
0.0000001
 44
0.0000000001
 40
0.0
 40
0.0
 40
0.0
 40
0.0
 40
0.0620922768
 40
0.0931129718
 40
0.1240455813
 40
0.1549705211
 40
0.1704943497
 40
0.1860839843
 40
0.2174746089
 40
0.2491641743
 40
0.2810967031
 40
0.3131779078
 40
0.3452967436
 40
0.3773459805
 40
0.4092427717
 40
0.4409501792
 40
0.4725055592
 40
0.5039723336
 40
0.5665755594
 40
0.5977542589
 40
0.6287673201
 40
0.6442103604
 40
0.6596172465
 40
0.6904130405
 40
0.7213192188
 40
0.7524008242
 40
0.8149417135
 40
0.8462476594
 40
0.8773598903
 40
0.9082003442
 40
0.9388583874
 40
1.0
 40
1.0
 40
1.0
 40
1.0
 10
4.1648452144
 20
5.1926095228
 30
0.0
 10
4.1607555813
 20
5.19559623
 30
0.0
 10
4.1549836106
 20
5.2006186374
 30
0.0
 10
4.1484084891
 20
5.2083263601
 30
0.0
 10
4.1441374108
 20
5.2146025403
 30
0.0
 10
4.1412249332
 20
5.2202216336
 30
0.0
 10
4.1393450152
 20
5.2249226875
 30
0.0
 10
4.1377607033
 20
5.2297711635
 30
0.0
 10
4.1363400097
 20
5.2360454285
 30
0.0
 10
4.1355156845
 20
5.2437666599
 30
0.0
 10
4.1355488326
 20
5.2515874806
 30
0.0
 10
4.136423481
 20
5.2593938452
 30
0.0
 10
4.1381242019
 20
5.2670726369
 30
0.0
 10
4.1406369942
 20
5.2745101007
 30
0.0
 10
4.1439477051
 20
5.281592874
 30
0.0
 10
4.1480479849
 20
5.2882048184
 30
0.0
 10
4.1529111434
 20
5.2942339943
 30
0.0
 10
4.1602459721
 20
5.3014126346
 30
0.0
 10
4.1687362778
 20
5.3072753418
 30
0.0
 10
4.1779671566
 20
5.3115983878
 30
0.0
 10
4.1839805309
 20
5.3136311038
 30
0.0
 10
4.1888847002
 20
5.3148267063
 30
0.0
 10
4.1938326557
 20
5.3157327186
 30
0.0
 10
4.2001042448
 20
5.316348749
 30
0.0
 10
4.2076831063
 20
5.3163233905
 30
0.0
 10
4.2178049885
 20
5.315362004
 30
0.0
 10
4.2277973954
 20
5.3131495869
 30
0.0
 10
4.237479321
 20
5.3099548983
 30
0.0
 10
4.2445463635
 20
5.3071291451
 30
0.0
 10
4.2513870633
 20
5.3039161308
 30
0.0
 10
4.2601778866
 20
5.2991359928
 30
0.0
 10
4.2664357839
 20
5.2949866116
 30
0.0
 10
4.2704311311
 20
5.2920027484
 30
0.0
  0
SPLINE
  5
2D4
100
AcDbEntity
  8
0
100
AcDbSpline
 62
7
  6
CONTINUOUS
 70
0
 71
3
 72
37
 73
33
 74
0
 42
0.0000001
 43
0.0000001
 44
0.0000000001
 40
0.0
 40
0.0
 40
0.0
 40
0.0
 40
0.0620922768
 40
0.0931129718
 40
0.1240455813
 40
0.1549705211
 40
0.1704943497
 40
0.1860839843
 40
0.2174746089
 40
0.2491641743
 40
0.2810967031
 40
0.3131779078
 40
0.3452967436
 40
0.3773459805
 40
0.4092427717
 40
0.4409501792
 40
0.4725055592
 40
0.5039723336
 40
0.5665755594
 40
0.5977542589
 40
0.6287673201
 40
0.6442103604
 40
0.6596172465
 40
0.6904130405
 40
0.7213192188
 40
0.7524008242
 40
0.8149417135
 40
0.8462476594
 40
0.8773598903
 40
0.9082003442
 40
0.9388583874
 40
1.0
 40
1.0
 40
1.0
 40
1.0
 10
3.709471999
 20
4.7339834571
 30
0.0
 10
3.7064852918
 20
4.7380730902
 30
0.0
 10
3.7014628844
 20
4.7438450609
 30
0.0
 10
3.6937551617
 20
4.7504201824
 30
0.0
 10
3.6874789815
 20
4.7546912607
 30
0.0
 10
3.6818598881
 20
4.7576037383
 30
0.0
 10
3.6771588342
 20
4.7594836564
 30
0.0
 10
3.6723103583
 20
4.7610679683
 30
0.0
 10
3.6660360932
 20
4.7624886618
 30
0.0
 10
3.6583148619
 20
4.7633129871
 30
0.0
 10
3.6504940411
 20
4.763279839
 30
0.0
 10
3.6426876766
 20
4.7624051906
 30
0.0
 10
3.6350088849
 20
4.7607044696
 30
0.0
 10
3.627571421
 20
4.7581916773
 30
0.0
 10
3.6204886477
 20
4.7548809664
 30
0.0
 10
3.6138767034
 20
4.7507806866
 30
0.0
 10
3.6078475274
 20
4.7459175281
 30
0.0
 10
3.6006688872
 20
4.7385826994
 30
0.0
 10
3.59480618
 20
4.7300923937
 30
0.0
 10
3.5904831339
 20
4.7208615149
 30
0.0
 10
3.588450418
 20
4.7148481406
 30
0.0
 10
3.5872548155
 20
4.7099439713
 30
0.0
 10
3.5863488031
 20
4.7049960159
 30
0.0
 10
3.5857327728
 20
4.6987244267
 30
0.0
 10
3.5857581312
 20
4.6911455653
 30
0.0
 10
3.5867195178
 20
4.681023683
 30
0.0
 10
3.5889319349
 20
4.6710312761
 30
0.0
 10
3.5921266234
 20
4.6613493506
 30
0.0
 10
3.5949523767
 20
4.654282308
 30
0.0
 10
3.5981653909
 20
4.6474416082
 30
0.0
 10
3.6029455289
 20
4.6386507849
 30
0.0
 10
3.6070949102
 20
4.6323928876
 30
0.0
 10
3.6100787734
 20
4.6283975404
 30
0.0
  0
SPLINE
  5
2D5
100
AcDbEntity
  8
0
100
AcDbSpline
 62
7
  6
CONTINUOUS
 70
0
 71
3
 72
9
 73
5
 74
0
 42
0.0000001
 43
0.0000001
 44
0.0000000001
 40
0.0
 40
0.0
 40
0.0
 40
0.0
 40
0.4995333303
 40
1.0
 40
1.0
 40
1.0
 40
1.0
 10
2.7596951745
 20
4.6227799472
 30
0.0
 10
2.763851447
 20
4.6144111689
 30
0.0
 10
2.7710855687
 20
4.5971000489
 30
0.0
 10
2.7761605577
 20
4.5790451493
 30
0.0
 10
2.778160887
 20
4.5698998605
 30
0.0
  0
SPLINE
  5
2D6
100
AcDbEntity
  8
0
100
AcDbSpline
 62
7
  6
CONTINUOUS
 70
0
 71
3
 72
55
 73
51
 74
0
 42
0.0000001
 43
0.0000001
 44
0.0000000001
 40
0.0
 40
0.0
 40
0.0
 40
0.0
 40
0.0623626546
 40
0.1247555995
 40
0.1872094742
 40
0.2497598177
 40
0.2810850228
 40
0.3124499247
 40
0.3438481711
 40
0.3752492118
 40
0.43794875
 40
0.4692211541
 40
0.5004334057
 40
0.531593878
 40
0.5471614372
 40
0.5627247301
 40
0.578288363
 40
0.5938586741
 40
0.6094412523
 40
0.6250379347
 40
0.6406478212
 40
0.6562684665
 40
0.6718911959
 40
0.6875008791
 40
0.703091765
 40
0.7186752301
 40
0.7264746736
 40
0.7342827758
 40
0.7499173393
 40
0.7655668203
 40
0.7812166163
 40
0.7968520956
 40
0.8124651391
 40
0.8280739655
 40
0.843695503
 40
0.8593359532
 40
0.8749919992
 40
0.8828227812
 40
0.890652488
 40
0.8984785655
 40
0.9062980952
 40
0.9141087535
 40
0.9219100381
 40
0.9297037785
 40
0.9374945914
 40
0.9452902335
 40
0.9530962632
 40
0.9687284279
 40
0.9843714825
 40
1.0
 40
1.0
 40
1.0
 40
1.0
 10
2.8123350766
 20
4.5467075834
 30
0.0
 10
2.8256837967
 20
4.5489022898
 30
0.0
 10
2.8523140969
 20
4.5537555797
 30
0.0
 10
2.8919921737
 20
4.5624451585
 30
0.0
 10
2.9313714648
 20
4.5725685908
 30
0.0
 10
2.9638912381
 20
4.5822138872
 30
0.0
 10
2.989711806
 20
4.5906667415
 30
0.0
 10
3.0089874533
 20
4.5973798044
 30
0.0
 10
3.0281454527
 20
4.6044706551
 30
0.0
 10
3.0534579148
 20
4.614494729
 30
0.0
 10
3.0783581224
 20
4.6254766581
 30
0.0
 10
3.1026546722
 20
4.637615001
 30
0.0
 10
3.1204995614
 20
4.6473308797
 30
0.0
 10
3.1350295925
 20
4.6559852798
 30
0.0
 10
3.1464158144
 20
4.6632629464
 30
0.0
 10
3.1548305748
 20
4.6689028926
 30
0.0
 10
3.1631140412
 20
4.6747350616
 30
0.0
 10
3.1712692304
 20
4.6807519047
 30
0.0
 10
3.1793306884
 20
4.6869050061
 30
0.0
 10
3.1873290098
 20
4.693153619
 30
0.0
 10
3.1952969698
 20
4.6994540544
 30
0.0
 10
3.2032623444
 20
4.7057668079
 30
0.0
 10
3.2112653916
 20
4.7120320107
 30
0.0
 10
3.2193790043
 20
4.7181440019
 30
0.0
 10
3.22766874
 20
4.724001909
 30
0.0
 10
3.2347773223
 20
4.7285853542
 30
0.0
 10
3.2406106029
 20
4.7320152876
 30
0.0
 10
3.2465497238
 20
4.7352813618
 30
0.0
 10
3.2541511996
 20
4.7390510986
 30
0.0
 10
3.2635163446
 20
4.7430578391
 30
0.0
 10
3.2730910589
 20
4.7465350441
 30
0.0
 10
3.2828379975
 20
4.7494686059
 30
0.0
 10
3.2927267648
 20
4.7518421429
 30
0.0
 10
3.3027222657
 20
4.7536941376
 30
0.0
 10
3.3127994013
 20
4.7550714191
 30
0.0
 10
3.3229354361
 20
4.7560199231
 30
0.0
 10
3.3314118539
 20
4.7564914013
 30
0.0
 10
3.3382021517
 20
4.7567003384
 30
0.0
 10
3.34329655
 20
4.7567783576
 30
0.0
 10
3.3483890425
 20
4.7567842471
 30
0.0
 10
3.3534770689
 20
4.7567203882
 30
0.0
 10
3.3585578263
 20
4.756562778
 30
0.0
 10
3.3636282642
 20
4.7562899903
 30
0.0
 10
3.3686853184
 20
4.7558797147
 30
0.0
 10
3.3737259426
 20
4.7553104048
 30
0.0
 10
3.3787455933
 20
4.7545583099
 30
0.0
 10
3.3854032922
 20
4.7532936149
 30
0.0
 10
3.3936366846
 20
4.7512361644
 30
0.0
 10
3.4033030995
 20
4.74803286
 30
0.0
 10
3.4095715232
 20
4.7454202822
 30
0.0
 10
3.4126499493
 20
4.7440001699
 30
0.0
  0
SPLINE
  5
2D7
100
AcDbEntity
  8
0
100
AcDbSpline
 62
7
  6
CONTINUOUS
 70
0
 71
3
 72
40
 73
36
 74
0
 42
0.0000001
 43
0.0000001
 44
0.0000000001
 40
0.0
 40
0.0
 40
0.0
 40
0.0
 40
0.063384257
 40
0.09441538
 40
0.125091214
 40
0.1403642105
 40
0.155637405
 40
0.1709557043
 40
0.1863491287
 40
0.2018166328
 40
0.217348803
 40
0.2485310542
 40
0.2797447427
 40
0.2953062577
 40
0.3108075272
 40
0.3416953991
 40
0.37258701
 40
0.4036110893
 40
0.4348506074
 40
0.4977865343
 40
0.5293607712
 40
0.5608735756
 40
0.5922648954
 40
0.6235067537
 40
0.6546146564
 40
0.6856656154
 40
0.7167803863
 40
0.7480367328
 40
0.8109829247
 40
0.842674914
 40
0.8744085608
 40
0.9060994965
 40
0.9376521152
 40
0.9689674508
 40
1.0
 40
1.0
 40
1.0
 40
1.0
 10
3.4548818233
 20
4.7757105268
 30
0.0
 10
3.4533362505
 20
4.785969538
 30
0.0
 10
3.4521281871
 20
4.8014741552
 30
0.0
 10
3.4534556736
 20
4.821933758
 30
0.0
 10
3.4556159822
 20
4.8343787269
 30
0.0
 10
3.45820872
 20
4.8440638357
 30
0.0
 10
3.4606001153
 20
4.8511855033
 30
0.0
 10
3.4634599404
 20
4.8581538073
 30
0.0
 10
3.466784982
 20
4.8649475881
 30
0.0
 10
3.4705443301
 20
4.8715510047
 30
0.0
 10
3.4761054433
 20
4.8800815004
 30
0.0
 10
3.4839933572
 20
4.8901426955
 30
0.0
 10
3.4929445978
 20
4.8992739126
 30
0.0
 10
3.5006527555
 20
4.9059508234
 30
0.0
 10
3.5086714311
 20
4.9121646601
 30
0.0
 10
3.5192812361
 20
4.9190989222
 30
0.0
 10
3.532802274
 20
4.926074685
 30
0.0
 10
3.546990785
 20
4.9317241634
 30
0.0
 10
3.566664527
 20
4.9375332877
 30
0.0
 10
3.587125694
 20
4.9407301315
 30
0.0
 10
3.6077676975
 20
4.9412177576
 30
0.0
 10
3.623220887
 20
4.9401925108
 30
0.0
 10
3.6384579033
 20
4.9377409469
 30
0.0
 10
3.653320775
 20
4.9338279025
 30
0.0
 10
3.6676509715
 20
4.9284166684
 30
0.0
 10
3.681278906
 20
4.9214685269
 30
0.0
 10
3.6941258596
 20
4.9131252545
 30
0.0
 10
3.7101713178
 20
4.9003061402
 30
0.0
 10
3.7244231225
 20
4.8852465072
 30
0.0
 10
3.7366591026
 20
4.8685498677
 30
0.0
 10
3.7448230218
 20
4.855271641
 30
0.0
 10
3.7518899582
 20
4.8414073904
 30
0.0
 10
3.7578155442
 20
4.8270900954
 30
0.0
 10
3.7624567463
 20
4.8124172913
 30
0.0
 10
3.7645942395
 20
4.8024172015
 30
0.0
 10
3.7653894648
 20
4.7974004064
 30
0.0
  0
SPLINE
  5
2D8
100
AcDbEntity
  8
0
100
AcDbSpline
 62
7
  6
CONTINUOUS
 70
0
 71
3
 72
50
 73
46
 74
0
 42
0.0000001
 43
0.0000001
 44
0.0000000001
 40
0.0
 40
0.0
 40
0.0
 40
0.0
 40
0.0623256894
 40
0.0934899376
 40
0.1246716582
 40
0.1559096681
 40
0.1715694876
 40
0.1872634171
 40
0.2186806841
 40
0.2500274278
 40
0.2812255656
 40
0.2967704816
 40
0.3122873758
 40
0.3277931806
 40
0.3433125857
 40
0.3588627862
 40
0.3744500394
 40
0.4057130884
 40
0.436997028
 40
0.4681925458
 40
0.499296315
 40
0.5148225261
 40
0.5303438974
 40
0.5458778514
 40
0.5614366875
 40
0.5770139016
 40
0.5926044469
 40
0.6238201612
 40
0.6394665624
 40
0.6551405855
 40
0.6864821207
 40
0.7021269182
 40
0.7177369771
 40
0.7333094647
 40
0.7410836266
 40
0.7488517707
 40
0.7643846554
 40
0.7799384647
 40
0.8111725049
 40
0.8426418244
 40
0.8743186132
 40
0.9060923345
 40
0.9377874608
 40
0.9691781578
 40
1.0
 40
1.0
 40
1.0
 40
1.0
 10
6.1081756131
 20
5.7990206093
 30
0.0
 10
6.092205685
 20
5.793578629
 30
0.0
 10
6.0684223428
 20
5.7848752257
 30
0.0
 10
6.0373462352
 20
5.7716954467
 30
0.0
 10
6.0144222032
 20
5.7608954763
 30
0.0
 10
5.9957158382
 20
5.7510373493
 30
0.0
 10
5.9810319003
 20
5.7425797485
 30
0.0
 10
5.9665343885
 20
5.7337134665
 30
0.0
 10
5.9488939857
 20
5.7218594361
 30
0.0
 10
5.9287606219
 20
5.7062812521
 30
0.0
 10
5.9130782476
 20
5.6920650895
 30
0.0
 10
5.9013796002
 20
5.6799253875
 30
0.0
 10
5.8930729539
 20
5.6704360203
 30
0.0
 10
5.8852723604
 20
5.6605354415
 30
0.0
 10
5.8779459652
 20
5.6502694413
 30
0.0
 10
5.8710385359
 20
5.6396918313
 30
0.0
 10
5.8623117098
 20
5.6252253643
 30
0.0
 10
5.852206007
 20
5.606633414
 30
0.0
 10
5.8409427441
 20
5.5838911529
 30
0.0
 10
5.8300608022
 20
5.5610147668
 30
0.0
 10
5.8208286743
 20
5.5420754787
 30
0.0
 10
5.8130640282
 20
5.5271484739
 30
0.0
 10
5.8069809957
 20
5.516101342
 30
0.0
 10
5.8005622361
 20
5.505234576
 30
0.0
 10
5.7937545504
 20
5.4945887478
 30
0.0
 10
5.7865464339
 20
5.4841903827
 30
0.0
 10
5.7763816069
 20
5.4707010313
 30
0.0
 10
5.765359909
 20
5.457846643
 30
0.0
 10
5.7534595999
 20
5.4457983279
 30
0.0
 10
5.7409577109
 20
5.4343261564
 30
0.0
 10
5.7276017565
 20
5.4238100377
 30
0.0
 10
5.7134759034
 20
5.4144383421
 30
0.0
 10
5.7025276919
 20
5.4080347065
 30
0.0
 10
5.693119919
 20
5.4032543279
 30
0.0
 10
5.6854402738
 20
5.3997919548
 30
0.0
 10
5.6776656584
 20
5.3965765753
 30
0.0
 10
5.6677655296
 20
5.3930037425
 30
0.0
 10
5.6515840678
 20
5.3882052399
 30
0.0
 10
5.6308054504
 20
5.3838670849
 30
0.0
 10
5.6053726906
 20
5.3810988365
 30
0.0
 10
5.5796559854
 20
5.3805197288
 30
0.0
 10
5.5539148968
 20
5.3818973457
 30
0.0
 10
5.5284067051
 20
5.3850014804
 30
0.0
 10
5.5033918952
 20
5.3896037831
 30
0.0
 10
5.4870144918
 20
5.3935685494
 30
0.0
 10
5.4789594599
 20
5.3957436345
 30
0.0
  0
SPLINE
  5
2D9
100
AcDbEntity
  8
0
100
AcDbSpline
 62
7
  6
CONTINUOUS
 70
0
 71
3
 72
20
 73
16
 74
0
 42
0.0000001
 43
0.0000001
 44
0.0000000001
 40
0.0
 40
0.0
 40
0.0
 40
0.0
 40
0.1244588737
 40
0.248894745
 40
0.3110264352
 40
0.3730414911
 40
0.4040080977
 40
0.4349469399
 40
0.4968002042
 40
0.5587662221
 40
0.6209604551
 40
0.683451801
 40
0.7462668296
 40
0.8727544892
 40
1.0
 40
1.0
 40
1.0
 40
1.0
 10
5.3945452408
 20
5.2499401157
 30
0.0
 10
5.4098632116
 20
5.2505464417
 30
0.0
 10
5.4406102826
 20
5.2497477494
 30
0.0
 10
5.4785655057
 20
5.2437427791
 30
0.0
 10
5.5081923586
 20
5.2359347197
 30
0.0
 10
5.5263055606
 20
5.2298021209
 30
0.0
 10
5.5404862106
 20
5.2241477097
 30
0.0
 10
5.5544362086
 20
5.2179947994
 30
0.0
 10
5.5714567279
 20
5.2093752612
 30
0.0
 10
5.5911723543
 20
5.1976722842
 30
0.0
 10
5.6101795852
 20
5.1847133511
 30
0.0
 10
5.6284784538
 20
5.1706028267
 30
0.0
 10
5.6519823828
 20
5.1503483648
 30
0.0
 10
5.6795493999
 20
5.1226872206
 30
0.0
 10
5.6996312868
 20
5.0986910718
 30
0.0
 10
5.7092310872
 20
5.0863018358
 30
0.0
  0
SPLINE
  5
2DA
100
AcDbEntity
  8
0
100
AcDbSpline
 62
7
  6
CONTINUOUS
 70
0
 71
3
 72
25
 73
21
 74
0
 42
0.0000001
 43
0.0000001
 44
0.0000000001
 40
0.0
 40
0.0
 40
0.0
 40
0.0
 40
0.0626004717
 40
0.1257847901
 40
0.1894512001
 40
0.25340023
 40
0.3173551753
 40
0.3809793611
 40
0.4125526733
 40
0.4439175287
 40
0.506116249
 40
0.5678266253
 40
0.6292975648
 40
0.6600220551
 40
0.6907763529
 40
0.7215889801
 40
0.7524771066
 40
0.8143990767
 40
0.8763844804
 40
1.0
 40
1.0
 40
1.0
 40
1.0
 10
5.7628734611
 20
5.1026024488
 30
0.0
 10
5.7638465294
 20
5.116641866
 30
0.0
 10
5.7671292699
 20
5.1447732606
 30
0.0
 10
5.775634717
 20
5.1865493788
 30
0.0
 10
5.787402379
 20
5.227837675
 30
0.0
 10
5.8020932069
 20
5.2683556312
 30
0.0
 10
5.8193700654
 20
5.307824571
 30
0.0
 10
5.8356861069
 20
5.3396916571
 30
0.0
 10
5.849740024
 20
5.3644344151
 30
0.0
 10
5.8643255996
 20
5.388493557
 30
0.0
 10
5.8836966254
 20
5.4175576078
 30
0.0
 10
5.9087818422
 20
5.450864756
 30
0.0
 10
5.9311611806
 20
5.4772786965
 30
0.0
 10
5.9499094523
 20
5.4975922693
 30
0.0
 10
5.9644043827
 20
5.5124410307
 30
0.0
 10
5.9793308401
 20
5.5269088669
 30
0.0
 10
5.9998088701
 20
5.5457010371
 30
0.0
 10
6.0264328104
 20
5.5681466825
 30
0.0
 10
6.0710364934
 20
5.6014460566
 30
0.0
 10
6.1068195402
 20
5.6232307959
 30
0.0
 10
6.1315418098
 20
5.6359225762
 30
0.0
  0
LINE
  5
2DB
100
AcDbEntity
  8
0
100
AcDbLine
 62
7
  6
CONTINUOUS
 10
6.1477755581
 20
4.8684851115
 11
6.1477947287
 21
5.3882872916
  0
SPLINE
  5
2DC
100
AcDbEntity
  8
0
100
AcDbSpline
 62
7
  6
CONTINUOUS
 70
0
 71
3
 72
50
 73
46
 74
0
 42
0.0000001
 43
0.0000001
 44
0.0000000001
 40
0.0
 40
0.0
 40
0.0
 40
0.0
 40
0.0623405974
 40
0.0935093917
 40
0.1246959333
 40
0.1559313834
 40
0.1872411243
 40
0.2185594819
 40
0.249821225
 40
0.2654252531
 40
0.2810128563
 40
0.2965907593
 40
0.3121696448
 40
0.3277599051
 40
0.3433675611
 40
0.3746390943
 40
0.437309863
 40
0.4686015787
 40
0.4997872877
 40
0.5309238911
 40
0.546492011
 40
0.5620645276
 40
0.577648162
 40
0.5932561903
 40
0.6089090798
 40
0.6246060447
 40
0.6403052781
 40
0.655975674
 40
0.6716056213
 40
0.6872065476
 40
0.6950085218
 40
0.7028173087
 40
0.7184556373
 40
0.7341213868
 40
0.7497988268
 40
0.7654628256
 40
0.7810969615
 40
0.796727489
 40
0.8123767685
 40
0.8437426106
 40
0.8751326123
 40
0.906391658
 40
0.9375821535
 40
0.9687794734
 40
1.0
 40
1.0
 40
1.0
 40
1.0
 10
6.0985915314
 20
5.4113367599
 30
0.0
 10
6.086529533
 20
5.4012871648
 30
0.0
 10
6.068582304
 20
5.3860318992
 30
0.0
 10
6.0453070778
 20
5.3649459254
 30
0.0
 10
6.0282645524
 20
5.3486592179
 30
0.0
 10
6.0117299379
 20
5.3318056798
 30
0.0
 10
5.9958143808
 20
5.3143185211
 30
0.0
 10
5.9807092149
 20
5.2961147343
 30
0.0
 10
5.9689771693
 20
5.2802854851
 30
0.0
 10
5.9602302636
 20
5.2672106219
 30
0.0
 10
5.9540221322
 20
5.2571980657
 30
0.0
 10
5.9481906128
 20
5.2469684702
 30
0.0
 10
5.9427702252
 20
5.2365141588
 30
0.0
 10
5.9377638309
 20
5.2258473705
 30
0.0
 10
5.9316141951
 20
5.2113631767
 30
0.0
 10
5.9221960184
 20
5.1854098782
 30
0.0
 10
5.914311516
 20
5.154785994
 30
0.0
 10
5.908834726
 20
5.123741119
 30
0.0
 10
5.9058384978
 20
5.1003470163
 30
0.0
 10
5.9042310334
 20
5.0807905674
 30
0.0
 10
5.9034416205
 20
5.0651254402
 30
0.0
 10
5.9031450167
 20
5.0533605848
 30
0.0
 10
5.903201462
 20
5.0415815804
 30
0.0
 10
5.9036665058
 20
5.0297907249
 30
0.0
 10
5.904594365
 20
5.0179979391
 30
0.0
 10
5.9060415032
 20
5.0062333889
 30
0.0
 10
5.9080821676
 20
4.9945512932
 30
0.0
 10
5.9107879003
 20
4.9830206298
 30
0.0
 10
5.9142312375
 20
4.9717126304
 30
0.0
 10
5.9177762855
 20
4.9625325374
 30
0.0
 10
5.9210495985
 20
4.9553839116
 30
0.0
 10
5.9246221558
 20
4.9483695676
 30
0.0
 10
5.9296210955
 20
4.9398691456
 30
0.0
 10
5.9363923749
 20
4.9301531659
 30
0.0
 10
5.9438661308
 20
4.9209588224
 30
0.0
 10
5.9519719415
 20
4.9123281876
 30
0.0
 10
5.9606507973
 20
4.9042928035
 30
0.0
 10
5.9698277759
 20
4.8968391847
 30
0.0
 10
5.9826514431
 20
4.8876358402
 30
0.0
 10
5.9996123056
 20
4.8774542993
 30
0.0
 10
6.0209453313
 20
4.8671277281
 30
0.0
 10
6.0429278877
 20
4.8584043328
 30
0.0
 10
6.0653441339
 20
4.8510391026
 30
0.0
 10
6.0880658163
 20
4.8447334166
 30
0.0
 10
6.1033458059
 20
4.8410345863
 30
0.0
 10
6.1110055766
 20
4.839260267
 30
0.0
  0
SPLINE
  5
2DD
100
AcDbEntity
  8
0
100
AcDbSpline
 62
7
  6
CONTINUOUS
 70
0
 71
3
 72
20
 73
16
 74
0
 42
0.0000001
 43
0.0000001
 44
0.0000000001
 40
0.0
 40
0.0
 40
0.0
 40
0.0
 40
0.0624836088
 40
0.0937192207
 40
0.1249516751
 40
0.1874308481
 40
0.2499603137
 40
0.3125181152
 40
0.3750399205
 40
0.4375110048
 40
0.4999682418
 40
0.6249089582
 40
0.7499530756
 40
0.8750104692
 40
1.0
 40
1.0
 40
1.0
 40
1.0
 10
4.8797277937
 20
4.5977022355
 30
0.0
 10
4.8769252116
 20
4.602492292
 30
0.0
 10
4.872943062
 20
4.6098101911
 30
0.0
 10
4.8681089818
 20
4.6198016002
 30
0.0
 10
4.863598805
 20
4.629943298
 30
0.0
 10
4.8585482599
 20
4.6428781406
 30
0.0
 10
4.8533691648
 20
4.6587201646
 30
0.0
 10
4.8490074492
 20
4.6748091553
 30
0.0
 10
4.8453927359
 20
4.6910756859
 30
0.0
 10
4.8424864238
 20
4.7074743573
 30
0.0
 10
4.83953059
 20
4.7294749782
 30
0.0
 10
4.8374945176
 20
4.757181356
 30
0.0
 10
4.8375137385
 20
4.7905185642
 30
0.0
 10
4.8397882081
 20
4.8237804156
 30
0.0
 10
4.8428675502
 20
4.8457981748
 30
0.0
 10
4.8448131755
 20
4.8567277206
 30
0.0
  0
SPLINE
  5
2DE
100
AcDbEntity
  8
0
100
AcDbSpline
 62
7
  6
CONTINUOUS
 70
0
 71
3
 72
21
 73
17
 74
0
 42
0.0000001
 43
0.0000001
 44
0.0000000001
 40
0.0
 40
0.0
 40
0.0
 40
0.0
 40
0.0625450456
 40
0.1250704897
 40
0.1563115543
 40
0.1875298672
 40
0.2499046739
 40
0.3122296117
 40
0.3745565544
 40
0.4369564713
 40
0.4995125133
 40
0.5622133657
 40
0.6249772926
 40
0.7503903026
 40
0.875413652
 40
1.0
 40
1.0
 40
1.0
 40
1.0
 10
4.8102268738
 20
4.8915573133
 30
0.0
 10
4.8047458501
 20
4.8906211965
 30
0.0
 10
4.7937508448
 20
4.8889474495
 30
0.0
 10
4.7799484254
 20
4.8873136513
 30
0.0
 10
4.7688868138
 20
4.8862590221
 30
0.0
 10
4.7578243471
 20
4.8853671504
 30
0.0
 10
4.7439831199
 20
4.8845724883
 30
0.0
 10
4.7273573687
 20
4.8841780684
 30
0.0
 10
4.7107254458
 20
4.8843903707
 30
0.0
 10
4.6940934659
 20
4.8852557371
 30
0.0
 10
4.6774790254
 20
4.8868224155
 30
0.0
 10
4.660915942
 20
4.8891171359
 30
0.0
 10
4.6389772191
 20
4.8931673271
 30
0.0
 10
4.6119682832
 20
4.9001295433
 30
0.0
 10
4.5806316419
 20
4.9116783295
 30
0.0
 10
4.5607302346
 20
4.9216292144
 30
0.0
 10
4.5511419672
 20
4.9271738347
 30
0.0
  0
SPLINE
  5
2DF
100
AcDbEntity
  8
0
100
AcDbSpline
 62
7
  6
CONTINUOUS
 70
0
 71
3
 72
16
 73
12
 74
0
 42
0.0000001
 43
0.0000001
 44
0.0000000001
 40
0.0
 40
0.0
 40
0.0
 40
0.0
 40
0.1301392035
 40
0.2585822917
 40
0.3853730608
 40
0.4481984569
 40
0.5106641353
 40
0.6346219806
 40
0.757484872
 40
0.8792987068
 40
1.0
 40
1.0
 40
1.0
 40
1.0
 10
4.5378571531
 20
4.750806899
 30
0.0
 10
4.5435671206
 20
4.7509913457
 30
0.0
 10
4.5549399895
 20
4.7507872478
 30
0.0
 10
4.5717629251
 20
4.7487563602
 30
0.0
 10
4.5854035944
 20
4.7456440204
 30
0.0
 10
4.5959625625
 20
4.7423167368
 30
0.0
 10
4.6062096251
 20
4.7384671368
 30
0.0
 10
4.6185255483
 20
4.7326887767
 30
0.0
 10
4.6324164964
 20
4.724333956
 30
0.0
 10
4.6452869056
 20
4.7147198219
 30
0.0
 10
4.6531629206
 20
4.7075268931
 30
0.0
 10
4.6568947129
 20
4.7037653451
 30
0.0
  0
SPLINE
  5
2E0
100
AcDbEntity
  8
0
100
AcDbSpline
 62
7
  6
CONTINUOUS
 70
0
 71
3
 72
16
 73
12
 74
0
 42
0.0000001
 43
0.0000001
 44
0.0000000001
 40
0.0
 40
0.0
 40
0.0
 40
0.0
 40
0.1207442006
 40
0.2425908041
 40
0.3654367481
 40
0.4893303273
 40
0.5517588475
 40
0.6145553499
 40
0.741327806
 40
0.8698012147
 40
1.0
 40
1.0
 40
1.0
 40
1.0
 10
4.6568947129
 20
4.7037653451
 30
0.0
 10
4.6606271278
 20
4.7000031694
 30
0.0
 10
4.6677749094
 20
4.6920865371
 30
0.0
 10
4.6773561457
 20
4.6791937089
 30
0.0
 10
4.6857000966
 20
4.665303136
 30
0.0
 10
4.691476212
 20
4.6529947266
 30
0.0
 10
4.6953202667
 20
4.6427537983
 30
0.0
 10
4.6986374059
 20
4.6321976006
 30
0.0
 10
4.7017273703
 20
4.6185548444
 30
0.0
 10
4.7037220611
 20
4.601727437
 30
0.0
 10
4.7038994948
 20
4.5903522946
 30
0.0
 10
4.7037018718
 20
4.5846412293
 30
0.0
  0
SPLINE
  5
2E1
100
AcDbEntity
  8
0
100
AcDbSpline
 62
7
  6
CONTINUOUS
 70
0
 71
3
 72
48
 73
44
 74
0
 42
0.0000001
 43
0.0000001
 44
0.0000000001
 40
0.0
 40
0.0
 40
0.0
 40
0.0
 40
0.0623355393
 40
0.0935047091
 40
0.1246913501
 40
0.1559342918
 40
0.1715965886
 40
0.1872929785
 40
0.218715032
 40
0.2500664554
 40
0.2812693348
 40
0.2968167339
 40
0.3123362448
 40
0.3278448566
 40
0.3433672191
 40
0.3589204016
 40
0.3745105233
 40
0.4057783922
 40
0.4370649811
 40
0.4682616812
 40
0.4993683479
 40
0.5148976898
 40
0.5304238375
 40
0.5459645504
 40
0.5615315305
 40
0.5771164917
 40
0.5927127105
 40
0.6239279241
 40
0.639566312
 40
0.6552280823
 40
0.6865501788
 40
0.7021944727
 40
0.7178126541
 40
0.7334018901
 40
0.7489658525
 40
0.7645240226
 40
0.7800993137
 40
0.8113509543
 40
0.8743454908
 40
0.906039114
 40
0.937672385
 40
0.9690633979
 40
1.0
 40
1.0
 40
1.0
 40
1.0
 10
5.7524514073
 20
6.1547446288
 30
0.0
 10
5.747008538
 20
6.138772246
 30
0.0
 10
5.7383036147
 20
6.1149852821
 30
0.0
 10
5.7251213152
 20
6.0839045719
 30
0.0
 10
5.7143191782
 20
6.0609772292
 30
0.0
 10
5.7044589912
 20
6.0422682521
 30
0.0
 10
5.6959995854
 20
6.0275823348
 30
0.0
 10
5.6871314007
 20
6.0130829664
 30
0.0
 10
5.6752747129
 20
5.9954405307
 30
0.0
 10
5.6596926897
 20
5.9753053557
 30
0.0
 10
5.6454726451
 20
5.9596222049
 30
0.0
 10
5.6333293781
 20
5.94792349
 30
0.0
 10
5.6238370242
 20
5.9396170595
 30
0.0
 10
5.6139332192
 20
5.9318169605
 30
0.0
 10
5.6036640439
 20
5.9244910156
 30
0.0
 10
5.5930833737
 20
5.9175839937
 30
0.0
 10
5.5786133052
 20
5.9088576622
 30
0.0
 10
5.5600180622
 20
5.8987523592
 30
0.0
 10
5.5372737172
 20
5.887488265
 30
0.0
 10
5.5143966793
 20
5.8766036489
 30
0.0
 10
5.4954566867
 20
5.8673686767
 30
0.0
 10
5.4805276961
 20
5.8596016403
 30
0.0
 10
5.4694772891
 20
5.8535164235
 30
0.0
 10
5.4586056872
 20
5.8470954831
 30
0.0
 10
5.4479537695
 20
5.8402860354
 30
0.0
 10
5.4375497049
 20
5.8330759274
 30
0.0
 10
5.4240576418
 20
5.8229089867
 30
0.0
 10
5.4112075505
 20
5.8118827719
 30
0.0
 10
5.3991778507
 20
5.7999714977
 30
0.0
 10
5.3877359532
 20
5.787456265
 30
0.0
 10
5.3772534345
 20
5.7740856711
 30
0.0
 10
5.3678959962
 20
5.7599547629
 30
0.0
 10
5.3614840576
 20
5.7490040802
 30
0.0
 10
5.3557173361
 20
5.7377244734
 30
0.0
 10
5.3506421481
 20
5.7261345578
 30
0.0
 10
5.3462603205
 20
5.7142697462
 30
0.0
 10
5.3413038011
 20
5.6981173669
 30
0.0
 10
5.3348823002
 20
5.6690400014
 30
0.0
 10
5.3324162443
 20
5.6348267753
 30
0.0
 10
5.334032994
 20
5.6006506927
 30
0.0
 10
5.337124591
 20
5.5751727919
 30
0.0
 10
5.341917363
 20
5.5501755074
 30
0.0
 10
5.3461730761
 20
5.5338345187
 30
0.0
 10
5.3485431959
 20
5.525802336
 30
0.0
  0
SPLINE
  5
2E2
100
AcDbEntity
  8
0
100
AcDbSpline
 62
7
  6
CONTINUOUS
 70
0
 71
3
 72
25
 73
21
 74
0
 42
0.0000001
 43
0.0000001
 44
0.0000000001
 40
0.0
 40
0.0
 40
0.0
 40
0.0
 40
0.0626015986
 40
0.1257868879
 40
0.189453941
 40
0.2534031896
 40
0.3173578918
 40
0.3809813816
 40
0.4125541892
 40
0.4439185669
 40
0.5061166088
 40
0.5678266183
 40
0.6292974349
 40
0.6600219331
 40
0.6907762748
 40
0.7215889734
 40
0.7524771606
 40
0.8143991689
 40
0.8763845454
 40
1.0
 40
1.0
 40
1.0
 40
1.0
 10
5.0561168245
 20
5.8094483539
 30
0.0
 10
5.0701545725
 20
5.8104239344
 30
0.0
 10
5.0982823584
 20
5.8137111348
 30
0.0
 10
5.1400526437
 20
5.8222217017
 30
0.0
 10
5.1813347515
 20
5.8339930839
 30
0.0
 10
5.2218462664
 20
5.8486863636
 30
0.0
 10
5.2613086121
 20
5.865964533
 30
0.0
 10
5.2931701955
 20
5.8822808522
 30
0.0
 10
5.3179085853
 20
5.8963345519
 30
0.0
 10
5.3419634665
 20
5.9109197062
 30
0.0
 10
5.3710224444
 20
5.9302899098
 30
0.0
 10
5.4043239013
 20
5.9553736452
 30
0.0
 10
5.4307334478
 20
5.9777513545
 30
0.0
 10
5.4510437355
 20
5.9964981082
 30
0.0
 10
5.465890148
 20
6.0109918009
 30
0.0
 10
5.4803557355
 20
6.0259169033
 30
0.0
 10
5.4991450044
 20
6.0463929708
 30
0.0
 10
5.5215872052
 20
6.0730141838
 30
0.0
 10
5.5548815904
 20
6.1176129614
 30
0.0
 10
5.5766632765
 20
6.1533917172
 30
0.0
 10
5.5893534768
 20
6.1781109092
 30
0.0
  0
SPLINE
  5
2E3
100
AcDbEntity
  8
0
100
AcDbSpline
 62
7
  6
CONTINUOUS
 70
0
 71
3
 72
21
 73
17
 74
0
 42
0.0000001
 43
0.0000001
 44
0.0000000001
 40
0.0
 40
0.0
 40
0.0
 40
0.0
 40
0.1245433828
 40
0.186823584
 40
0.2490157605
 40
0.3110847488
 40
0.3730169368
 40
0.4039396724
 40
0.4348363302
 40
0.4966154012
 40
0.5585265678
 40
0.6206893939
 40
0.6831744773
 40
0.7460080117
 40
0.8725965953
 40
1.0
 40
1.0
 40
1.0
 40
1.0
 10
5.2027845567
 20
5.440602657
 30
0.0
 10
5.2033990448
 20
5.4559462661
 30
0.0
 10
5.202868448
 20
5.4790570676
 30
0.0
 10
5.1992187069
 20
5.5095571485
 30
0.0
 10
5.1949965638
 20
5.5321849859
 30
0.0
 10
5.1892786659
 20
5.5544361533
 30
0.0
 10
5.1832525383
 20
5.5725806609
 30
0.0
 10
5.1776729184
 20
5.5867853004
 30
0.0
 10
5.1715852889
 20
5.6007592893
 30
0.0
 10
5.163027376
 20
5.617809514
 30
0.0
 10
5.1513716813
 20
5.6375576526
 30
0.0
 10
5.1384359285
 20
5.6565955049
 30
0.0
 10
5.124327818
 20
5.6749231472
 30
0.0
 10
5.1040497588
 20
5.6984669947
 30
0.0
 10
5.0763249104
 20
5.7260758654
 30
0.0
 10
5.0522645695
 20
5.7461803545
 30
0.0
 10
5.0398400112
 20
5.7557922572
 30
0.0
  0
LINE
  5
2E4
100
AcDbEntity
  8
0
100
AcDbLine
 62
7
  6
CONTINUOUS
 10
4.8219160121
 20
6.1943446574
 11
5.3417181922
 21
6.1943638281
  0
SPLINE
  5
2E5
100
AcDbEntity
  8
0
100
AcDbSpline
 62
7
  6
CONTINUOUS
 70
0
 71
3
 72
50
 73
46
 74
0
 42
0.0000001
 43
0.0000001
 44
0.0000000001
 40
0.0
 40
0.0
 40
0.0
 40
0.0
 40
0.0623405974
 40
0.0935093917
 40
0.1246959333
 40
0.1559313834
 40
0.1872411243
 40
0.2185594819
 40
0.249821225
 40
0.2654252531
 40
0.2810128563
 40
0.2965907593
 40
0.3121696448
 40
0.3277599051
 40
0.3433675611
 40
0.3746390943
 40
0.437309863
 40
0.4686015787
 40
0.4997872877
 40
0.5309238911
 40
0.546492011
 40
0.5620645276
 40
0.577648162
 40
0.5932561903
 40
0.6089090798
 40
0.6246060447
 40
0.6403052781
 40
0.655975674
 40
0.6716056213
 40
0.6872065476
 40
0.6950085218
 40
0.7028173087
 40
0.7184556373
 40
0.7341213868
 40
0.7497988268
 40
0.7654628256
 40
0.7810969615
 40
0.796727489
 40
0.8123767685
 40
0.8437426106
 40
0.8751326123
 40
0.906391658
 40
0.9375821535
 40
0.9687794734
 40
1.0
 40
1.0
 40
1.0
 40
1.0
 10
5.3647676606
 20
6.1451606308
 30
0.0
 10
5.3547180654
 20
6.1330986324
 30
0.0
 10
5.3394627998
 20
6.1151514034
 30
0.0
 10
5.318376826
 20
6.0918761772
 30
0.0
 10
5.3020901185
 20
6.0748336517
 30
0.0
 10
5.2852365804
 20
6.0582990373
 30
0.0
 10
5.2677494217
 20
6.0423834801
 30
0.0
 10
5.2495456349
 20
6.0272783143
 30
0.0
 10
5.2337163857
 20
6.0155462687
 30
0.0
 10
5.2206415225
 20
6.006799363
 30
0.0
 10
5.2106289663
 20
6.0005912316
 30
0.0
 10
5.2003993708
 20
5.9947597122
 30
0.0
 10
5.1899450595
 20
5.9893393246
 30
0.0
 10
5.1792782712
 20
5.9843329303
 30
0.0
 10
5.1647940773
 20
5.9781832945
 30
0.0
 10
5.1388407788
 20
5.9687651177
 30
0.0
 10
5.1082168947
 20
5.9608806153
 30
0.0
 10
5.0771720196
 20
5.9554038253
 30
0.0
 10
5.0537779169
 20
5.9524075972
 30
0.0
 10
5.0342214681
 20
5.9508001328
 30
0.0
 10
5.0185563408
 20
5.9500107199
 30
0.0
 10
5.0067914854
 20
5.9497141161
 30
0.0
 10
4.995012481
 20
5.9497705614
 30
0.0
 10
4.9832216255
 20
5.9502356052
 30
0.0
 10
4.9714288397
 20
5.9511634644
 30
0.0
 10
4.9596642895
 20
5.9526106026
 30
0.0
 10
4.9479821938
 20
5.9546512669
 30
0.0
 10
4.9364515304
 20
5.9573569997
 30
0.0
 10
4.9251435311
 20
5.9608003369
 30
0.0
 10
4.915963438
 20
5.9643453849
 30
0.0
 10
4.9088148122
 20
5.9676186978
 30
0.0
 10
4.9018004682
 20
5.9711912551
 30
0.0
 10
4.8933000462
 20
5.9761901949
 30
0.0
 10
4.8835840665
 20
5.9829614743
 30
0.0
 10
4.874389723
 20
5.9904352302
 30
0.0
 10
4.8657590883
 20
5.9985410409
 30
0.0
 10
4.8577237041
 20
6.0072198967
 30
0.0
 10
4.8502700853
 20
6.0163968753
 30
0.0
 10
4.8410667408
 20
6.0292205425
 30
0.0
 10
4.8308851999
 20
6.046181405
 30
0.0
 10
4.8205586287
 20
6.0675144307
 30
0.0
 10
4.8118352334
 20
6.0894969871
 30
0.0
 10
4.8044700032
 20
6.1119132333
 30
0.0
 10
4.7981643172
 20
6.1346349157
 30
0.0
 10
4.7944654869
 20
6.1499149053
 30
0.0
 10
4.7926911676
 20
6.157574676
 30
0.0
  0
SPLINE
  5
2E6
100
AcDbEntity
  8
0
100
AcDbSpline
 62
7
  6
CONTINUOUS
 70
0
 71
3
 72
40
 73
36
 74
0
 42
0.0000001
 43
0.0000001
 44
0.0000000001
 40
0.0
 40
0.0
 40
0.0
 40
0.0
 40
0.063384257
 40
0.0944153799
 40
0.125091214
 40
0.1403642104
 40
0.1556374049
 40
0.1709557043
 40
0.1863491287
 40
0.2018166329
 40
0.2173488032
 40
0.2485310545
 40
0.279744743
 40
0.2953062578
 40
0.3108075273
 40
0.3416953992
 40
0.3725870102
 40
0.4036110896
 40
0.4348506079
 40
0.497786535
 40
0.5293607719
 40
0.5608735762
 40
0.5922648959
 40
0.6235067541
 40
0.6546146566
 40
0.6856656157
 40
0.7167803868
 40
0.7480367335
 40
0.8109829258
 40
0.8426749153
 40
0.8744085622
 40
0.9060994977
 40
0.9376521161
 40
0.9689674513
 40
1.0
 40
1.0
 40
1.0
 40
1.0
 10
5.400630599
 20
4.778963377
 30
0.0
 10
5.4021761719
 20
4.7892223887
 30
0.0
 10
5.4033842353
 20
4.8047270068
 30
0.0
 10
5.4020567484
 20
4.8251866107
 30
0.0
 10
5.3998964395
 20
4.8376315803
 30
0.0
 10
5.3973037013
 20
4.8473166895
 30
0.0
 10
5.3949123056
 20
4.8544383575
 30
0.0
 10
5.3920524801
 20
4.8614066618
 30
0.0
 10
5.388727438
 20
4.8682004428
 30
0.0
 10
5.3849680894
 20
4.8748038597
 30
0.0
 10
5.3794069755
 20
4.8833343556
 30
0.0
 10
5.3715190607
 20
4.8933955508
 30
0.0
 10
5.3625678191
 20
4.902526768
 30
0.0
 10
5.3548596606
 20
4.9092036787
 30
0.0
 10
5.3468409842
 20
4.9154175153
 30
0.0
 10
5.3362311782
 20
4.9223517771
 30
0.0
 10
5.3227101391
 20
4.9293275395
 30
0.0
 10
5.3085216269
 20
4.9349770172
 30
0.0
 10
5.2888478833
 20
4.9407861406
 30
0.0
 10
5.2683867149
 20
4.9439829831
 30
0.0
 10
5.2477447102
 20
4.9444706075
 30
0.0
 10
5.2322915199
 20
4.9434453593
 30
0.0
 10
5.2170545031
 20
4.9409937938
 30
0.0
 10
5.2021916311
 20
4.9370807475
 30
0.0
 10
5.1878614344
 20
4.9316695114
 30
0.0
 10
5.1742335001
 20
4.9247213677
 30
0.0
 10
5.1613865468
 20
4.9163780932
 30
0.0
 10
5.1453410892
 20
4.9035589761
 30
0.0
 10
5.1310892855
 20
4.8884993405
 30
0.0
 10
5.1188533067
 20
4.8718026984
 30
0.0
 10
5.1106893887
 20
4.8585244701
 30
0.0
 10
5.1036224536
 20
4.8446602178
 30
0.0
 10
5.0976968692
 20
4.8303429214
 30
0.0
 10
5.0930556692
 20
4.815670116
 30
0.0
 10
5.0909181777
 20
4.8056700253
 30
0.0
 10
5.0901229533
 20
4.8006532299
 30
0.0
  0
SPLINE
  5
2E7
100
AcDbEntity
  8
0
100
AcDbSpline
 62
7
  6
CONTINUOUS
 70
0
 71
3
 72
55
 73
51
 74
0
 42
0.0000001
 43
0.0000001
 44
0.0000000001
 40
0.0
 40
0.0
 40
0.0
 40
0.0
 40
0.0623626546
 40
0.1247555995
 40
0.1872094742
 40
0.2497598177
 40
0.2810850228
 40
0.3124499247
 40
0.3438481711
 40
0.3752492118
 40
0.43794875
 40
0.4692211541
 40
0.5004334057
 40
0.531593878
 40
0.5471614372
 40
0.5627247301
 40
0.578288363
 40
0.5938586741
 40
0.6094412523
 40
0.6250379347
 40
0.6406478212
 40
0.6562684665
 40
0.6718911959
 40
0.6875008791
 40
0.703091765
 40
0.7186752301
 40
0.7264746736
 40
0.7342827758
 40
0.7499173393
 40
0.7655668203
 40
0.7812166163
 40
0.7968520956
 40
0.8124651391
 40
0.8280739655
 40
0.843695503
 40
0.8593359532
 40
0.8749919992
 40
0.8828227812
 40
0.890652488
 40
0.8984785655
 40
0.9062980952
 40
0.9141087535
 40
0.9219100381
 40
0.9297037785
 40
0.9374945914
 40
0.9452902335
 40
0.9530962632
 40
0.9687284279
 40
0.9843714825
 40
1.0
 40
1.0
 40
1.0
 40
1.0
 10
6.0431773458
 20
4.5499604336
 30
0.0
 10
6.0298286256
 20
4.55215514
 30
0.0
 10
6.0031983255
 20
4.5570084299
 30
0.0
 10
5.9635202487
 20
4.5656980087
 30
0.0
 10
5.9241409576
 20
4.575821441
 30
0.0
 10
5.8916211843
 20
4.5854667374
 30
0.0
 10
5.8658006163
 20
4.5939195917
 30
0.0
 10
5.8465249691
 20
4.6006326546
 30
0.0
 10
5.8273669697
 20
4.6077235053
 30
0.0
 10
5.8020545075
 20
4.6177475793
 30
0.0
 10
5.7771543
 20
4.6287295083
 30
0.0
 10
5.7528577502
 20
4.6408678512
 30
0.0
 10
5.7350128609
 20
4.6505837299
 30
0.0
 10
5.7204828298
 20
4.65923813
 30
0.0
 10
5.709096608
 20
4.6665157966
 30
0.0
 10
5.7006818475
 20
4.6721557429
 30
0.0
 10
5.6923983812
 20
4.6779879118
 30
0.0
 10
5.684243192
 20
4.684004755
 30
0.0
 10
5.6761817339
 20
4.6901578563
 30
0.0
 10
5.6681834126
 20
4.6964064692
 30
0.0
 10
5.6602154526
 20
4.7027069047
 30
0.0
 10
5.652250078
 20
4.7090196581
 30
0.0
 10
5.6442470308
 20
4.7152848609
 30
0.0
 10
5.6361334181
 20
4.7213968521
 30
0.0
 10
5.6278436823
 20
4.7272547592
 30
0.0
 10
5.6207351001
 20
4.7318382045
 30
0.0
 10
5.6149018195
 20
4.7352681378
 30
0.0
 10
5.6089626985
 20
4.738534212
 30
0.0
 10
5.6013612227
 20
4.7423039488
 30
0.0
 10
5.5919960778
 20
4.7463106893
 30
0.0
 10
5.5824213634
 20
4.7497878943
 30
0.0
 10
5.5726744249
 20
4.7527214561
 30
0.0
 10
5.5627856576
 20
4.7550949931
 30
0.0
 10
5.5527901567
 20
4.7569469879
 30
0.0
 10
5.5427130211
 20
4.7583242693
 30
0.0
 10
5.5325769863
 20
4.7592727733
 30
0.0
 10
5.5241005684
 20
4.7597442515
 30
0.0
 10
5.5173102706
 20
4.7599531886
 30
0.0
 10
5.5122158724
 20
4.7600312078
 30
0.0
 10
5.5071233799
 20
4.7600370973
 30
0.0
 10
5.5020353535
 20
4.7599732384
 30
0.0
 10
5.4969545961
 20
4.7598156282
 30
0.0
 10
5.4918841581
 20
4.7595428405
 30
0.0
 10
5.4868271039
 20
4.7591325649
 30
0.0
 10
5.4817864798
 20
4.758563255
 30
0.0
 10
5.4767668291
 20
4.7578111601
 30
0.0
 10
5.4701091302
 20
4.7565464651
 30
0.0
 10
5.4618757377
 20
4.7544890146
 30
0.0
 10
5.4522093229
 20
4.7512857102
 30
0.0
 10
5.4459408991
 20
4.7486731324
 30
0.0
 10
5.4428624731
 20
4.7472530201
 30
0.0
  0
SPLINE
  5
2E8
100
AcDbEntity
  8
0
100
AcDbSpline
 62
7
  6
CONTINUOUS
 70
0
 71
3
 72
9
 73
5
 74
0
 42
0.0000001
 43
0.0000001
 44
0.0000000001
 40
0.0
 40
0.0
 40
0.0
 40
0.0
 40
0.4995333303
 40
1.0
 40
1.0
 40
1.0
 40
1.0
 10
6.0958172478
 20
4.6260327974
 30
0.0
 10
6.0916609754
 20
4.6176640191
 30
0.0
 10
6.0844268537
 20
4.6003528991
 30
0.0
 10
6.0793518647
 20
4.5822979995
 30
0.0
 10
6.0773515354
 20
4.5731527107
 30
0.0
  0
SPLINE
  5
2E9
100
AcDbEntity
  8
0
100
AcDbSpline
 62
7
  6
CONTINUOUS
 70
0
 71
3
 72
37
 73
33
 74
0
 42
0.0000001
 43
0.0000001
 44
0.0000000001
 40
0.0
 40
0.0
 40
0.0
 40
0.0
 40
0.0620922797
 40
0.0931129757
 40
0.1240455863
 40
0.1549705286
 40
0.1704943597
 40
0.1860839974
 40
0.217474629
 40
0.2491642016
 40
0.2810967366
 40
0.3131779454
 40
0.3452967824
 40
0.3773460174
 40
0.4092428043
 40
0.4409502068
 40
0.4725055841
 40
0.5039723573
 40
0.5665755776
 40
0.5977542716
 40
0.628767325
 40
0.6442103612
 40
0.6596172457
 40
0.6904130442
 40
0.7213192336
 40
0.752400852
 40
0.8149417565
 40
0.8462476965
 40
0.8773599092
 40
0.908200347
 40
0.9388583817
 40
1.0
 40
1.0
 40
1.0
 40
1.0
 10
5.1460404234
 20
4.7372363073
 30
0.0
 10
5.1490271385
 20
4.7413259513
 30
0.0
 10
5.1540495607
 20
4.7470979364
 30
0.0
 10
5.1617573084
 20
4.75367307
 30
0.0
 10
5.1680335098
 20
4.7579441531
 30
0.0
 10
5.1736526227
 20
4.7608566303
 30
0.0
 10
5.1783536929
 20
4.7627365448
 30
0.0
 10
5.1832021855
 20
4.7643208517
 30
0.0
 10
5.1894764713
 20
4.7657415363
 30
0.0
 10
5.1971977263
 20
4.7665658464
 30
0.0
 10
5.2050185688
 20
4.766532679
 30
0.0
 10
5.2128249523
 20
4.7656580072
 30
0.0
 10
5.2205037593
 20
4.7639572589
 30
0.0
 10
5.2279412338
 20
4.7614444352
 30
0.0
 10
5.2350240124
 20
4.7581336893
 30
0.0
 10
5.2416359552
 20
4.7540333701
 30
0.0
 10
5.2476651236
 20
4.7491701713
 30
0.0
 10
5.2548437471
 20
4.7418352898
 30
0.0
 10
5.2607064267
 20
4.7333449332
 30
0.0
 10
5.2650294329
 20
4.7241140079
 30
0.0
 10
5.2670621184
 20
4.7181006072
 30
0.0
 10
5.2682576928
 20
4.7131964187
 30
0.0
 10
5.2691636765
 20
4.7082484448
 30
0.0
 10
5.2697796705
 20
4.7019768346
 30
0.0
 10
5.2697542683
 20
4.6943979513
 30
0.0
 10
5.268792824
 20
4.6842760448
 30
0.0
 10
5.2665803518
 20
4.6742836213
 30
0.0
 10
5.263385611
 20
4.6646016858
 30
0.0
 10
5.2605598211
 20
4.6575346401
 30
0.0
 10
5.2573467694
 20
4.65069394
 30
0.0
 10
5.2525665792
 20
4.6419031171
 30
0.0
 10
5.2484171576
 20
4.6356452234
 30
0.0
 10
5.2454332673
 20
4.6316498796
 30
0.0
  0
SPLINE
  5
2EA
100
AcDbEntity
  8
0
100
AcDbSpline
 62
7
  6
CONTINUOUS
 70
0
 71
3
 72
37
 73
33
 74
0
 42
0.0000001
 43
0.0000001
 44
0.0000000001
 40
0.0
 40
0.0
 40
0.0
 40
0.0
 40
0.0620922797
 40
0.0931129757
 40
0.1240455863
 40
0.1549705286
 40
0.1704943597
 40
0.1860839974
 40
0.217474629
 40
0.2491642016
 40
0.2810967366
 40
0.3131779454
 40
0.3452967824
 40
0.3773460174
 40
0.4092428043
 40
0.4409502068
 40
0.4725055841
 40
0.5039723573
 40
0.5665755776
 40
0.5977542716
 40
0.628767325
 40
0.6442103612
 40
0.6596172457
 40
0.6904130442
 40
0.7213192336
 40
0.752400852
 40
0.8149417565
 40
0.8462476965
 40
0.8773599092
 40
0.908200347
 40
0.9388583817
 40
1.0
 40
1.0
 40
1.0
 40
1.0
 10
4.6874143577
 20
5.1926095228
 30
0.0
 10
4.6915040017
 20
5.1955962379
 30
0.0
 10
4.6972759868
 20
5.2006186601
 30
0.0
 10
4.7038511204
 20
5.2083264077
 30
0.0
 10
4.7081222035
 20
5.2146026092
 30
0.0
 10
4.7110346807
 20
5.220221722
 30
0.0
 10
4.7129145952
 20
5.2249227923
 30
0.0
 10
4.7144989021
 20
5.2297712849
 30
0.0
 10
4.7159195867
 20
5.2360455707
 30
0.0
 10
4.7167438968
 20
5.2437668257
 30
0.0
 10
4.7167107294
 20
5.2515876682
 30
0.0
 10
4.7158360576
 20
5.2593940517
 30
0.0
 10
4.7141353093
 20
5.2670728587
 30
0.0
 10
4.7116224856
 20
5.2745103332
 30
0.0
 10
4.7083117397
 20
5.2815931118
 30
0.0
 10
4.7042114205
 20
5.2882050546
 30
0.0
 10
4.6993482217
 20
5.294234223
 30
0.0
 10
4.6920133402
 20
5.3014128465
 30
0.0
 10
4.6835229836
 20
5.3072755261
 30
0.0
 10
4.6742920583
 20
5.3115985323
 30
0.0
 10
4.6682786577
 20
5.3136312178
 30
0.0
 10
4.6633744691
 20
5.3148267922
 30
0.0
 10
4.6584264952
 20
5.3157327759
 30
0.0
 10
4.652154885
 20
5.3163487698
 30
0.0
 10
4.6445760017
 20
5.3163233677
 30
0.0
 10
4.6344540952
 20
5.3153619234
 30
0.0
 10
4.6244616717
 20
5.3131494512
 30
0.0
 10
4.6147797362
 20
5.3099547104
 30
0.0
 10
4.6077126905
 20
5.3071289205
 30
0.0
 10
4.6008719904
 20
5.3039158687
 30
0.0
 10
4.5920811675
 20
5.2991356786
 30
0.0
 10
4.5858232738
 20
5.294986257
 30
0.0
 10
4.58182793
 20
5.2920023667
 30
0.0
  0
SPLINE
  5
2EB
100
AcDbEntity
  8
0
100
AcDbSpline
 62
7
  6
CONTINUOUS
 70
0
 71
3
 72
9
 73
5
 74
0
 42
0.0000001
 43
0.0000001
 44
0.0000000001
 40
0.0
 40
0.0
 40
0.0
 40
0.0
 40
0.4995333303
 40
1.0
 40
1.0
 40
1.0
 40
1.0
 10
4.5762108478
 20
6.1423863472
 30
0.0
 10
4.5678420695
 20
6.1382300748
 30
0.0
 10
4.5505309495
 20
6.1309959531
 30
0.0
 10
4.5324760499
 20
6.1259209641
 30
0.0
 10
4.5233307611
 20
6.1239206347
 30
0.0
  0
SPLINE
  5
2EC
100
AcDbEntity
  8
0
100
AcDbSpline
 62
7
  6
CONTINUOUS
 70
0
 71
3
 72
55
 73
51
 74
0
 42
0.0000001
 43
0.0000001
 44
0.0000000001
 40
0.0
 40
0.0
 40
0.0
 40
0.0
 40
0.0623626546
 40
0.1247555995
 40
0.1872094742
 40
0.2497598177
 40
0.2810850228
 40
0.3124499247
 40
0.3438481711
 40
0.3752492118
 40
0.43794875
 40
0.4692211541
 40
0.5004334057
 40
0.531593878
 40
0.5471614372
 40
0.5627247301
 40
0.578288363
 40
0.5938586741
 40
0.6094412523
 40
0.6250379347
 40
0.6406478212
 40
0.6562684665
 40
0.6718911959
 40
0.6875008791
 40
0.703091765
 40
0.7186752301
 40
0.7264746736
 40
0.7342827758
 40
0.7499173393
 40
0.7655668203
 40
0.7812166163
 40
0.7968520956
 40
0.8124651391
 40
0.8280739655
 40
0.843695503
 40
0.8593359532
 40
0.8749919992
 40
0.8828227812
 40
0.890652488
 40
0.8984785655
 40
0.9062980952
 40
0.9141087535
 40
0.9219100381
 40
0.9297037785
 40
0.9374945914
 40
0.9452902335
 40
0.9530962632
 40
0.9687284279
 40
0.9843714825
 40
1.0
 40
1.0
 40
1.0
 40
1.0
 10
4.500138484
 20
6.0897464452
 30
0.0
 10
4.5023331904
 20
6.076397725
 30
0.0
 10
4.5071864803
 20
6.0497674249
 30
0.0
 10
4.5158760591
 20
6.0100893481
 30
0.0
 10
4.5259994914
 20
5.9707100569
 30
0.0
 10
4.5356447878
 20
5.9381902837
 30
0.0
 10
4.5440976421
 20
5.9123697157
 30
0.0
 10
4.550810705
 20
5.8930940684
 30
0.0
 10
4.5579015557
 20
5.8739360691
 30
0.0
 10
4.5679256297
 20
5.8486236069
 30
0.0
 10
4.5789075587
 20
5.8237233993
 30
0.0
 10
4.5910459016
 20
5.7994268496
 30
0.0
 10
4.6007617803
 20
5.7815819603
 30
0.0
 10
4.6094161804
 20
5.7670519292
 30
0.0
 10
4.616693847
 20
5.7556657074
 30
0.0
 10
4.6223337933
 20
5.7472509469
 30
0.0
 10
4.6281659622
 20
5.7389674805
 30
0.0
 10
4.6341828054
 20
5.7308122913
 30
0.0
 10
4.6403359067
 20
5.7227508333
 30
0.0
 10
4.6465845196
 20
5.714752512
 30
0.0
 10
4.6528849551
 20
5.706784552
 30
0.0
 10
4.6591977085
 20
5.6988191774
 30
0.0
 10
4.6654629113
 20
5.6908161302
 30
0.0
 10
4.6715749025
 20
5.6827025175
 30
0.0
 10
4.6774328096
 20
5.6744127817
 30
0.0
 10
4.6820162549
 20
5.6673041994
 30
0.0
 10
4.6854461882
 20
5.6614709189
 30
0.0
 10
4.6887122624
 20
5.6555317979
 30
0.0
 10
4.6924819992
 20
5.6479303221
 30
0.0
 10
4.6964887397
 20
5.6385651772
 30
0.0
 10
4.6999659447
 20
5.6289904628
 30
0.0
 10
4.7028995065
 20
5.6192435243
 30
0.0
 10
4.7052730435
 20
5.609354757
 30
0.0
 10
4.7071250383
 20
5.599359256
 30
0.0
 10
4.7085023197
 20
5.5892821205
 30
0.0
 10
4.7094508237
 20
5.5791460857
 30
0.0
 10
4.7099223019
 20
5.5706696678
 30
0.0
 10
4.710131239
 20
5.56387937
 30
0.0
 10
4.7102092582
 20
5.5587849717
 30
0.0
 10
4.7102151477
 20
5.5536924793
 30
0.0
 10
4.7101512888
 20
5.5486044529
 30
0.0
 10
4.7099936786
 20
5.5435236955
 30
0.0
 10
4.7097208909
 20
5.5384532575
 30
0.0
 10
4.7093106153
 20
5.5333962033
 30
0.0
 10
4.7087413054
 20
5.5283555791
 30
0.0
 10
4.7079892105
 20
5.5233359285
 30
0.0
 10
4.7067245155
 20
5.5166782295
 30
0.0
 10
4.704667065
 20
5.5084448371
 30
0.0
 10
4.7014637606
 20
5.4987784222
 30
0.0
 10
4.6988511828
 20
5.4925099985
 30
0.0
 10
4.6974310705
 20
5.4894315725
 30
0.0
  0
SPLINE
  5
2ED
100
AcDbEntity
  8
0
100
AcDbSpline
 62
7
  6
CONTINUOUS
 70
0
 71
3
 72
40
 73
36
 74
0
 42
0.0000001
 43
0.0000001
 44
0.0000000001
 40
0.0
 40
0.0
 40
0.0
 40
0.0
 40
0.063384257
 40
0.0944153799
 40
0.125091214
 40
0.1403642104
 40
0.1556374049
 40
0.1709557043
 40
0.1863491287
 40
0.2018166329
 40
0.2173488032
 40
0.2485310545
 40
0.279744743
 40
0.2953062578
 40
0.3108075273
 40
0.3416953992
 40
0.3725870102
 40
0.4036110896
 40
0.4348506079
 40
0.497786535
 40
0.5293607719
 40
0.5608735762
 40
0.5922648959
 40
0.6235067541
 40
0.6546146566
 40
0.6856656157
 40
0.7167803868
 40
0.7480367335
 40
0.8109829258
 40
0.8426749153
 40
0.8744085622
 40
0.9060994977
 40
0.9376521161
 40
0.9689674513
 40
1.0
 40
1.0
 40
1.0
 40
1.0
 10
4.7291414274
 20
5.4471996984
 30
0.0
 10
4.7394004392
 20
5.4487452713
 30
0.0
 10
4.7549050572
 20
5.4499533347
 30
0.0
 10
4.7753646611
 20
5.4486258478
 30
0.0
 10
4.7878096307
 20
5.4464655389
 30
0.0
 10
4.7974947399
 20
5.4438728006
 30
0.0
 10
4.8046164079
 20
5.441481405
 30
0.0
 10
4.8115847122
 20
5.4386215794
 30
0.0
 10
4.8183784932
 20
5.4352965374
 30
0.0
 10
4.8249819101
 20
5.4315371887
 30
0.0
 10
4.833512406
 20
5.4259760748
 30
0.0
 10
4.8435736012
 20
5.4180881601
 30
0.0
 10
4.8527048184
 20
5.4091369185
 30
0.0
 10
4.8593817291
 20
5.40142876
 30
0.0
 10
4.8655955658
 20
5.3934100836
 30
0.0
 10
4.8725298275
 20
5.3828002776
 30
0.0
 10
4.8795055899
 20
5.3692792385
 30
0.0
 10
4.8851550676
 20
5.3550907263
 30
0.0
 10
4.890964191
 20
5.3354169827
 30
0.0
 10
4.8941610335
 20
5.3149558143
 30
0.0
 10
4.8946486579
 20
5.2943138096
 30
0.0
 10
4.8936234097
 20
5.2788606193
 30
0.0
 10
4.8911718442
 20
5.2636236025
 30
0.0
 10
4.887258798
 20
5.2487607304
 30
0.0
 10
4.8818475618
 20
5.2344305338
 30
0.0
 10
4.8748994181
 20
5.2208025995
 30
0.0
 10
4.8665561436
 20
5.2079556462
 30
0.0
 10
4.8537370265
 20
5.1919101886
 30
0.0
 10
4.8386773909
 20
5.1776583849
 30
0.0
 10
4.8219807488
 20
5.1654224061
 30
0.0
 10
4.8087025205
 20
5.157258488
 30
0.0
 10
4.7948382682
 20
5.150191553
 30
0.0
 10
4.7805209718
 20
5.1442659686
 30
0.0
 10
4.7658481664
 20
5.1396247686
 30
0.0
 10
4.7558480757
 20
5.137487277
 30
0.0
 10
4.7508312803
 20
5.1366920527
 30
0.0
  0
SPLINE
  5
2EE
100
AcDbEntity
  8
0
100
AcDbSpline
 62
7
  6
CONTINUOUS
 70
0
 71
3
 72
50
 73
46
 74
0
 42
0.0000001
 43
0.0000001
 44
0.0000000001
 40
0.0
 40
0.0
 40
0.0
 40
0.0
 40
0.0623256894
 40
0.0934899376
 40
0.1246716582
 40
0.1559096681
 40
0.1715694876
 40
0.1872634171
 40
0.2186806841
 40
0.2500274278
 40
0.2812255656
 40
0.2967704816
 40
0.3122873758
 40
0.3277931806
 40
0.3433125857
 40
0.3588627862
 40
0.3744500394
 40
0.4057130884
 40
0.436997028
 40
0.4681925458
 40
0.499296315
 40
0.5148225261
 40
0.5303438974
 40
0.5458778514
 40
0.5614366875
 40
0.5770139016
 40
0.5926044469
 40
0.6238201612
 40
0.6394665624
 40
0.6551405855
 40
0.6864821207
 40
0.7021269182
 40
0.7177369771
 40
0.7333094647
 40
0.7410836266
 40
0.7488517707
 40
0.7643846554
 40
0.7799384647
 40
0.8111725049
 40
0.8426418244
 40
0.8743186132
 40
0.9060923345
 40
0.9377874608
 40
0.9691781578
 40
1.0
 40
1.0
 40
1.0
 40
1.0
 10
5.7524515099
 20
2.7939059086
 30
0.0
 10
5.7470095296
 20
2.8098758367
 30
0.0
 10
5.7383061263
 20
2.8336591789
 30
0.0
 10
5.7251263473
 20
2.8647352866
 30
0.0
 10
5.714326377
 20
2.8876593186
 30
0.0
 10
5.7044682499
 20
2.9063656835
 30
0.0
 10
5.6960106491
 20
2.9210496214
 30
0.0
 10
5.6871443672
 20
2.9355471333
 30
0.0
 10
5.6752903367
 20
2.953187536
 30
0.0
 10
5.6597121527
 20
2.9733208999
 30
0.0
 10
5.6454959901
 20
2.9890032741
 30
0.0
 10
5.6333562881
 20
3.0007019215
 30
0.0
 10
5.6238669209
 20
3.0090085678
 30
0.0
 10
5.6139663422
 20
3.0168091613
 30
0.0
 10
5.6037003419
 20
3.0241355565
 30
0.0
 10
5.5931227319
 20
3.0310429858
 30
0.0
 10
5.578656265
 20
3.0397698119
 30
0.0
 10
5.5600643147
 20
3.0498755148
 30
0.0
 10
5.5373220535
 20
3.0611387777
 30
0.0
 10
5.5144456674
 20
3.0720207196
 30
0.0
 10
5.4955063793
 20
3.0812528475
 30
0.0
 10
5.4805793745
 20
3.0890174935
 30
0.0
 10
5.4695322426
 20
3.095100526
 30
0.0
 10
5.4586654767
 20
3.1015192856
 30
0.0
 10
5.4480196485
 20
3.1083269714
 30
0.0
 10
5.4376212833
 20
3.1155350878
 30
0.0
 10
5.4241319319
 20
3.1256999149
 30
0.0
 10
5.4112775436
 20
3.1367216127
 30
0.0
 10
5.3992292285
 20
3.1486219219
 30
0.0
 10
5.387757057
 20
3.1611238108
 30
0.0
 10
5.3772409384
 20
3.1744797652
 30
0.0
 10
5.3678692427
 20
3.1886056183
 30
0.0
 10
5.3614656072
 20
3.1995538298
 30
0.0
 10
5.3566852285
 20
3.2089616028
 30
0.0
 10
5.3532228555
 20
3.2166412479
 30
0.0
 10
5.3500074759
 20
3.2244158634
 30
0.0
 10
5.3464346431
 20
3.2343159921
 30
0.0
 10
5.3416361406
 20
3.2504974539
 30
0.0
 10
5.3372979855
 20
3.2712760713
 30
0.0
 10
5.3345297371
 20
3.2967088312
 30
0.0
 10
5.3339506294
 20
3.3224255364
 30
0.0
 10
5.3353282464
 20
3.3481666249
 30
0.0
 10
5.3384323811
 20
3.3736748167
 30
0.0
 10
5.3430346838
 20
3.3986896266
 30
0.0
 10
5.34699945
 20
3.41506703
 30
0.0
 10
5.3491745351
 20
3.4231220619
 30
0.0
  0
SPLINE
  5
2EF
100
AcDbEntity
  8
0
100
AcDbSpline
 62
7
  6
CONTINUOUS
 70
0
 71
3
 72
20
 73
16
 74
0
 42
0.0000001
 43
0.0000001
 44
0.0000000001
 40
0.0
 40
0.0
 40
0.0
 40
0.0
 40
0.1244588737
 40
0.248894745
 40
0.3110264352
 40
0.3730414911
 40
0.4040080977
 40
0.4349469399
 40
0.4968002042
 40
0.5587662221
 40
0.6209604551
 40
0.683451801
 40
0.7462668296
 40
0.8727544892
 40
1.0
 40
1.0
 40
1.0
 40
1.0
 10
5.2033710163
 20
3.5075362809
 30
0.0
 10
5.2039773423
 20
3.4922183102
 30
0.0
 10
5.2031786501
 20
3.4614712391
 30
0.0
 10
5.1971736797
 20
3.423516016
 30
0.0
 10
5.1893656203
 20
3.3938891631
 30
0.0
 10
5.1832330216
 20
3.3757759611
 30
0.0
 10
5.1775786103
 20
3.3615953112
 30
0.0
 10
5.1714257
 20
3.3476453131
 30
0.0
 10
5.1628061619
 20
3.3306247938
 30
0.0
 10
5.1511031848
 20
3.3109091674
 30
0.0
 10
5.1381442517
 20
3.2919019365
 30
0.0
 10
5.1240337273
 20
3.2736030679
 30
0.0
 10
5.1037792654
 20
3.2500991389
 30
0.0
 10
5.0761181212
 20
3.2225321218
 30
0.0
 10
5.0521219724
 20
3.202450235
 30
0.0
 10
5.0397327365
 20
3.1928504346
 30
0.0
  0
SPLINE
  5
2F0
100
AcDbEntity
  8
0
100
AcDbSpline
 62
7
  6
CONTINUOUS
 70
0
 71
3
 72
25
 73
21
 74
0
 42
0.0000001
 43
0.0000001
 44
0.0000000001
 40
0.0
 40
0.0
 40
0.0
 40
0.0
 40
0.0626004717
 40
0.1257847901
 40
0.1894512001
 40
0.25340023
 40
0.3173551753
 40
0.3809793611
 40
0.4125526733
 40
0.4439175287
 40
0.506116249
 40
0.5678266253
 40
0.6292975648
 40
0.6600220551
 40
0.6907763529
 40
0.7215889801
 40
0.7524771066
 40
0.8143990767
 40
0.8763844804
 40
1.0
 40
1.0
 40
1.0
 40
1.0
 10
5.0560333494
 20
3.1392080607
 30
0.0
 10
5.0700727666
 20
3.1382349924
 30
0.0
 10
5.0982041612
 20
3.1349522519
 30
0.0
 10
5.1399802795
 20
3.1264468048
 30
0.0
 10
5.1812685756
 20
3.1146791428
 30
0.0
 10
5.2217865318
 20
3.0999883149
 30
0.0
 10
5.2612554716
 20
3.0827114563
 30
0.0
 10
5.2931225577
 20
3.0663954149
 30
0.0
 10
5.3178653157
 20
3.0523414977
 30
0.0
 10
5.3419244577
 20
3.0377559221
 30
0.0
 10
5.3709885085
 20
3.0183848963
 30
0.0
 10
5.4042956566
 20
2.9932996795
 30
0.0
 10
5.4307095971
 20
2.9709203411
 30
0.0
 10
5.4510231699
 20
2.9521720695
 30
0.0
 10
5.4658719313
 20
2.9376771391
 30
0.0
 10
5.4803397675
 20
2.9227506816
 30
0.0
 10
5.4991319377
 20
2.9022726516
 30
0.0
 10
5.5215775831
 20
2.8756487113
 30
0.0
 10
5.5548769573
 20
2.8310450284
 30
0.0
 10
5.5766616965
 20
2.7952619816
 30
0.0
 10
5.5893534768
 20
2.770539712
 30
0.0
  0
LINE
  5
2F1
100
AcDbEntity
  8
0
100
AcDbLine
 62
7
  6
CONTINUOUS
 10
4.8219160121
 20
2.7543059637
 11
5.3417181922
 21
2.754286793
  0
SPLINE
  5
2F2
100
AcDbEntity
  8
0
100
AcDbSpline
 62
7
  6
CONTINUOUS
 70
0
 71
3
 72
50
 73
46
 74
0
 42
0.0000001
 43
0.0000001
 44
0.0000000001
 40
0.0
 40
0.0
 40
0.0
 40
0.0
 40
0.0623405974
 40
0.0935093917
 40
0.1246959333
 40
0.1559313834
 40
0.1872411243
 40
0.2185594819
 40
0.249821225
 40
0.2654252531
 40
0.2810128563
 40
0.2965907593
 40
0.3121696448
 40
0.3277599051
 40
0.3433675611
 40
0.3746390943
 40
0.437309863
 40
0.4686015787
 40
0.4997872877
 40
0.5309238911
 40
0.546492011
 40
0.5620645276
 40
0.577648162
 40
0.5932561903
 40
0.6089090798
 40
0.6246060447
 40
0.6403052781
 40
0.655975674
 40
0.6716056213
 40
0.6872065476
 40
0.6950085218
 40
0.7028173087
 40
0.7184556373
 40
0.7341213868
 40
0.7497988268
 40
0.7654628256
 40
0.7810969615
 40
0.796727489
 40
0.8123767685
 40
0.8437426106
 40
0.8751326123
 40
0.906391658
 40
0.9375821535
 40
0.9687794734
 40
1.0
 40
1.0
 40
1.0
 40
1.0
 10
5.3647676606
 20
2.8034899904
 30
0.0
 10
5.3547180654
 20
2.8155519887
 30
0.0
 10
5.3394627998
 20
2.8334992177
 30
0.0
 10
5.318376826
 20
2.856774444
 30
0.0
 10
5.3020901185
 20
2.8738169694
 30
0.0
 10
5.2852365804
 20
2.8903515838
 30
0.0
 10
5.2677494217
 20
2.906267141
 30
0.0
 10
5.2495456349
 20
2.9213723069
 30
0.0
 10
5.2337163857
 20
2.9331043524
 30
0.0
 10
5.2206415225
 20
2.9418512581
 30
0.0
 10
5.2106289663
 20
2.9480593896
 30
0.0
 10
5.2003993708
 20
2.953890909
 30
0.0
 10
5.1899450595
 20
2.9593112965
 30
0.0
 10
5.1792782712
 20
2.9643176908
 30
0.0
 10
5.1647940773
 20
2.9704673266
 30
0.0
 10
5.1388407788
 20
2.9798855034
 30
0.0
 10
5.1082168947
 20
2.9877700058
 30
0.0
 10
5.0771720196
 20
2.9932467958
 30
0.0
 10
5.0537779169
 20
2.9962430239
 30
0.0
 10
5.0342214681
 20
2.9978504884
 30
0.0
 10
5.0185563408
 20
2.9986399013
 30
0.0
 10
5.0067914854
 20
2.998936505
 30
0.0
 10
4.995012481
 20
2.9988800597
 30
0.0
 10
4.9832216255
 20
2.9984150159
 30
0.0
 10
4.9714288397
 20
2.9974871567
 30
0.0
 10
4.9596642895
 20
2.9960400185
 30
0.0
 10
4.9479821938
 20
2.9939993542
 30
0.0
 10
4.9364515304
 20
2.9912936214
 30
0.0
 10
4.9251435311
 20
2.9878502842
 30
0.0
 10
4.915963438
 20
2.9843052362
 30
0.0
 10
4.9088148122
 20
2.9810319233
 30
0.0
 10
4.9018004682
 20
2.977459366
 30
0.0
 10
4.8933000462
 20
2.9724604262
 30
0.0
 10
4.8835840665
 20
2.9656891468
 30
0.0
 10
4.874389723
 20
2.9582153909
 30
0.0
 10
4.8657590883
 20
2.9501095802
 30
0.0
 10
4.8577237041
 20
2.9414307244
 30
0.0
 10
4.8502700853
 20
2.9322537458
 30
0.0
 10
4.8410667408
 20
2.9194300786
 30
0.0
 10
4.8308851999
 20
2.9024692161
 30
0.0
 10
4.8205586287
 20
2.8811361904
 30
0.0
 10
4.8118352334
 20
2.859153634
 30
0.0
 10
4.8044700032
 20
2.8367373879
 30
0.0
 10
4.7981643172
 20
2.8140157055
 30
0.0
 10
4.7944654869
 20
2.7987357158
 30
0.0
 10
4.7926911676
 20
2.7910759451
 30
0.0
  0
SPLINE
  5
2F3
100
AcDbEntity
  8
0
100
AcDbSpline
 62
7
  6
CONTINUOUS
 70
0
 71
3
 72
20
 73
16
 74
0
 42
0.0000001
 43
0.0000001
 44
0.0000000001
 40
0.0
 40
0.0
 40
0.0
 40
0.0
 40
0.0624836088
 40
0.0937192207
 40
0.1249516751
 40
0.1874308481
 40
0.2499603137
 40
0.3125181152
 40
0.3750399205
 40
0.4375110048
 40
0.4999682418
 40
0.6249089582
 40
0.7499530756
 40
0.8750104692
 40
1.0
 40
1.0
 40
1.0
 40
1.0
 10
4.5511331361
 20
4.0223537281
 30
0.0
 10
4.5559231926
 20
4.0251563101
 30
0.0
 10
4.5632410917
 20
4.0291384598
 30
0.0
 10
4.5732325008
 20
4.03397254
 30
0.0
 10
4.5833741986
 20
4.0384827168
 30
0.0
 10
4.5963090413
 20
4.0435332618
 30
0.0
 10
4.6121510652
 20
4.048712357
 30
0.0
 10
4.628240056
 20
4.0530740726
 30
0.0
 10
4.6445065866
 20
4.0566887858
 30
0.0
 10
4.6609052579
 20
4.059595098
 30
0.0
 10
4.6829058788
 20
4.0625509317
 30
0.0
 10
4.7106122566
 20
4.0645870042
 30
0.0
 10
4.7439494648
 20
4.0645677832
 30
0.0
 10
4.7772113162
 20
4.0622933136
 30
0.0
 10
4.7992290754
 20
4.0592139715
 30
0.0
 10
4.8101586212
 20
4.0572683463
 30
0.0
  0
SPLINE
  5
2F4
100
AcDbEntity
  8
0
100
AcDbSpline
 62
7
  6
CONTINUOUS
 70
0
 71
3
 72
21
 73
17
 74
0
 42
0.0000001
 43
0.0000001
 44
0.0000000001
 40
0.0
 40
0.0
 40
0.0
 40
0.0
 40
0.0625450456
 40
0.1250704897
 40
0.1563115543
 40
0.1875298672
 40
0.2499046739
 40
0.3122296117
 40
0.3745565544
 40
0.4369564713
 40
0.4995125133
 40
0.5622133657
 40
0.6249772926
 40
0.7503903026
 40
0.875413652
 40
1.0
 40
1.0
 40
1.0
 40
1.0
 10
4.8449882139
 20
4.0918546479
 30
0.0
 10
4.8440520971
 20
4.0973356716
 30
0.0
 10
4.8423783502
 20
4.1083306769
 30
0.0
 10
4.8407445519
 20
4.1221330964
 30
0.0
 10
4.8396899228
 20
4.133194708
 30
0.0
 10
4.8387980511
 20
4.1442571746
 30
0.0
 10
4.8380033889
 20
4.1580984019
 30
0.0
 10
4.837608969
 20
4.1747241531
 30
0.0
 10
4.8378212713
 20
4.191356076
 30
0.0
 10
4.8386866378
 20
4.2079880559
 30
0.0
 10
4.8402533161
 20
4.2246024963
 30
0.0
 10
4.8425480366
 20
4.2411655797
 30
0.0
 10
4.8465982277
 20
4.2631043026
 30
0.0
 10
4.8535604439
 20
4.2901132386
 30
0.0
 10
4.8651092301
 20
4.3214498799
 30
0.0
 10
4.875060115
 20
4.3413512872
 30
0.0
 10
4.8806047353
 20
4.3509395546
 30
0.0
  0
SPLINE
  5
2F5
100
AcDbEntity
  8
0
100
AcDbSpline
 62
7
  6
CONTINUOUS
 70
0
 71
3
 72
16
 73
12
 74
0
 42
0.0000001
 43
0.0000001
 44
0.0000000001
 40
0.0
 40
0.0
 40
0.0
 40
0.0
 40
0.1301392035
 40
0.2585822917
 40
0.3853730608
 40
0.4481984569
 40
0.5106641353
 40
0.6346219806
 40
0.757484872
 40
0.8792987068
 40
1.0
 40
1.0
 40
1.0
 40
1.0
 10
4.7042377996
 20
4.3642243686
 30
0.0
 10
4.7044222464
 20
4.3585144011
 30
0.0
 10
4.7042181484
 20
4.3471415322
 30
0.0
 10
4.7021872609
 20
4.3303185967
 30
0.0
 10
4.699074921
 20
4.3166779273
 30
0.0
 10
4.6957476374
 20
4.3061189593
 30
0.0
 10
4.6918980374
 20
4.2958718966
 30
0.0
 10
4.6861196774
 20
4.2835559735
 30
0.0
 10
4.6777648566
 20
4.2696650253
 30
0.0
 10
4.6681507225
 20
4.2567946161
 30
0.0
 10
4.6609577937
 20
4.2489186011
 30
0.0
 10
4.6571962457
 20
4.2451868089
 30
0.0
  0
SPLINE
  5
2F6
100
AcDbEntity
  8
0
100
AcDbSpline
 62
7
  6
CONTINUOUS
 70
0
 71
3
 72
16
 73
12
 74
0
 42
0.0000001
 43
0.0000001
 44
0.0000000001
 40
0.0
 40
0.0
 40
0.0
 40
0.0
 40
0.1207442006
 40
0.2425908041
 40
0.3654367481
 40
0.4893303273
 40
0.5517588475
 40
0.6145553499
 40
0.741327806
 40
0.8698012147
 40
1.0
 40
1.0
 40
1.0
 40
1.0
 10
4.6571962457
 20
4.2451868089
 30
0.0
 10
4.6534340701
 20
4.241454394
 30
0.0
 10
4.6455174378
 20
4.2343066123
 30
0.0
 10
4.6326246096
 20
4.2247253761
 30
0.0
 10
4.6187340367
 20
4.2163814252
 30
0.0
 10
4.6064256273
 20
4.2106053097
 30
0.0
 10
4.5961846989
 20
4.206761255
 30
0.0
 10
4.5856285012
 20
4.2034441158
 30
0.0
 10
4.5719857451
 20
4.2003541515
 30
0.0
 10
4.5551583376
 20
4.1983594607
 30
0.0
 10
4.5437831953
 20
4.1981820269
 30
0.0
 10
4.5380721299
 20
4.1983796499
 30
0.0
  0
SPLINE
  5
2F7
100
AcDbEntity
  8
0
100
AcDbSpline
 62
7
  6
CONTINUOUS
 70
0
 71
3
 72
48
 73
44
 74
0
 42
0.0000001
 43
0.0000001
 44
0.0000000001
 40
0.0
 40
0.0
 40
0.0
 40
0.0
 40
0.0623355393
 40
0.0935047091
 40
0.1246913501
 40
0.1559342918
 40
0.1715965886
 40
0.1872929785
 40
0.218715032
 40
0.2500664554
 40
0.2812693348
 40
0.2968167339
 40
0.3123362448
 40
0.3278448566
 40
0.3433672191
 40
0.3589204016
 40
0.3745105233
 40
0.4057783922
 40
0.4370649811
 40
0.4682616812
 40
0.4993683479
 40
0.5148976898
 40
0.5304238375
 40
0.5459645504
 40
0.5615315305
 40
0.5771164917
 40
0.5927127105
 40
0.6239279241
 40
0.639566312
 40
0.6552280823
 40
0.6865501788
 40
0.7021944727
 40
0.7178126541
 40
0.7334018901
 40
0.7489658525
 40
0.7645240226
 40
0.7800993137
 40
0.8113509543
 40
0.8743454908
 40
0.906039114
 40
0.937672385
 40
0.9690633979
 40
1.0
 40
1.0
 40
1.0
 40
1.0
 10
6.1081755294
 20
3.1496301144
 30
0.0
 10
6.0922031466
 20
3.1550729837
 30
0.0
 10
6.0684161827
 20
3.163777907
 30
0.0
 10
6.0373354725
 20
3.1769602065
 30
0.0
 10
6.0144081298
 20
3.1877623436
 30
0.0
 10
5.9956991527
 20
3.1976225305
 30
0.0
 10
5.9810132354
 20
3.2060819363
 30
0.0
 10
5.9665138671
 20
3.2149501211
 30
0.0
 10
5.9488714313
 20
3.2268068088
 30
0.0
 10
5.9287362563
 20
3.242388832
 30
0.0
 10
5.9130531055
 20
3.2566088767
 30
0.0
 10
5.9013543906
 20
3.2687521436
 30
0.0
 10
5.8930479602
 20
3.2782444975
 30
0.0
 10
5.8852478612
 20
3.2881483026
 30
0.0
 10
5.8779219163
 20
3.2984174778
 30
0.0
 10
5.8710148944
 20
3.308998148
 30
0.0
 10
5.8622885628
 20
3.3234682166
 30
0.0
 10
5.8521832598
 20
3.3420634596
 30
0.0
 10
5.8409191656
 20
3.3648078046
 30
0.0
 10
5.8300345495
 20
3.3876848424
 30
0.0
 10
5.8207995773
 20
3.4066248351
 30
0.0
 10
5.8130325409
 20
3.4215538256
 30
0.0
 10
5.8069473241
 20
3.4326042327
 30
0.0
 10
5.8005263837
 20
3.4434758346
 30
0.0
 10
5.793716936
 20
3.4541277523
 30
0.0
 10
5.786506828
 20
3.4645318168
 30
0.0
 10
5.7763398873
 20
3.47802388
 30
0.0
 10
5.7653136726
 20
3.4908739712
 30
0.0
 10
5.7534023983
 20
3.5029036711
 30
0.0
 10
5.7408871656
 20
3.5143455686
 30
0.0
 10
5.7275165717
 20
3.5248280873
 30
0.0
 10
5.7133856636
 20
3.5341855256
 30
0.0
 10
5.7024349808
 20
3.5405974641
 30
0.0
 10
5.691155374
 20
3.5463641856
 30
0.0
 10
5.6795654584
 20
3.5514393736
 30
0.0
 10
5.6677006468
 20
3.5558212012
 30
0.0
 10
5.6515482676
 20
3.5607777207
 30
0.0
 10
5.622470902
 20
3.5671992216
 30
0.0
 10
5.588257676
 20
3.5696652775
 30
0.0
 10
5.5540815934
 20
3.5680485278
 30
0.0
 10
5.5286036925
 20
3.5649569308
 30
0.0
 10
5.503606408
 20
3.5601641588
 30
0.0
 10
5.4872654193
 20
3.5559084456
 30
0.0
 10
5.4792332366
 20
3.5535383258
 30
0.0
  0
SPLINE
  5
2F8
100
AcDbEntity
  8
0
100
AcDbSpline
 62
7
  6
CONTINUOUS
 70
0
 71
3
 72
25
 73
21
 74
0
 42
0.0000001
 43
0.0000001
 44
0.0000000001
 40
0.0
 40
0.0
 40
0.0
 40
0.0
 40
0.0626015986
 40
0.1257868879
 40
0.189453941
 40
0.2534031896
 40
0.3173578918
 40
0.3809813816
 40
0.4125541892
 40
0.4439185669
 40
0.5061166088
 40
0.5678266183
 40
0.6292974349
 40
0.6600219331
 40
0.6907762748
 40
0.7215889734
 40
0.7524771606
 40
0.8143991689
 40
0.8763845454
 40
1.0
 40
1.0
 40
1.0
 40
1.0
 10
5.7628792545
 20
3.8459646973
 30
0.0
 10
5.763854835
 20
3.8319269492
 30
0.0
 10
5.7671420354
 20
3.8037991633
 30
0.0
 10
5.7756526023
 20
3.7620288781
 30
0.0
 10
5.7874239845
 20
3.7207467703
 30
0.0
 10
5.8021172642
 20
3.6802352553
 30
0.0
 10
5.8193954336
 20
3.6407729097
 30
0.0
 10
5.8357117528
 20
3.6089113262
 30
0.0
 10
5.8497654525
 20
3.5841729365
 30
0.0
 10
5.8643506068
 20
3.5601180552
 30
0.0
 10
5.8837208104
 20
3.5310590773
 30
0.0
 10
5.9088045458
 20
3.4977576205
 30
0.0
 10
5.9311822551
 20
3.471348074
 30
0.0
 10
5.9499290088
 20
3.4510377862
 30
0.0
 10
5.9644227015
 20
3.4361913737
 30
0.0
 10
5.9793478039
 20
3.4217257863
 30
0.0
 10
5.9998238714
 20
3.4029365173
 30
0.0
 10
6.0264450844
 20
3.3804943165
 30
0.0
 10
6.071043862
 20
3.3471999314
 30
0.0
 10
6.1068226178
 20
3.3254182452
 30
0.0
 10
6.1315418098
 20
3.3127280449
 30
0.0
  0
SPLINE
  5
2F9
100
AcDbEntity
  8
0
100
AcDbSpline
 62
7
  6
CONTINUOUS
 70
0
 71
3
 72
21
 73
17
 74
0
 42
0.0000001
 43
0.0000001
 44
0.0000000001
 40
0.0
 40
0.0
 40
0.0
 40
0.0
 40
0.1245433828
 40
0.186823584
 40
0.2490157605
 40
0.3110847488
 40
0.3730169368
 40
0.4039396724
 40
0.4348363302
 40
0.4966154012
 40
0.5585265678
 40
0.6206893939
 40
0.6831744773
 40
0.7460080117
 40
0.8725965953
 40
1.0
 40
1.0
 40
1.0
 40
1.0
 10
5.3940335576
 20
3.699296965
 30
0.0
 10
5.4093771668
 20
3.6986824769
 30
0.0
 10
5.4324879683
 20
3.6992130737
 30
0.0
 10
5.4629880491
 20
3.7028628148
 30
0.0
 10
5.4856158865
 20
3.7070849579
 30
0.0
 10
5.5078670539
 20
3.7128028558
 30
0.0
 10
5.5260115615
 20
3.7188289835
 30
0.0
 10
5.540216201
 20
3.7244086034
 30
0.0
 10
5.55419019
 20
3.7304962329
 30
0.0
 10
5.5712404146
 20
3.7390541457
 30
0.0
 10
5.5909885532
 20
3.7507098404
 30
0.0
 10
5.6100264055
 20
3.7636455932
 30
0.0
 10
5.6283540478
 20
3.7777537037
 30
0.0
 10
5.6518978953
 20
3.798031763
 30
0.0
 10
5.6795067661
 20
3.8257566114
 30
0.0
 10
5.6996112551
 20
3.8498169523
 30
0.0
 10
5.7092231579
 20
3.8622415105
 30
0.0
  0
LINE
  5
2FA
100
AcDbEntity
  8
0
100
AcDbLine
 62
7
  6
CONTINUOUS
 10
6.1477755581
 20
4.0801655097
 11
6.1477947287
 21
3.5603633295
  0
SPLINE
  5
2FB
100
AcDbEntity
  8
0
100
AcDbSpline
 62
7
  6
CONTINUOUS
 70
0
 71
3
 72
50
 73
46
 74
0
 42
0.0000001
 43
0.0000001
 44
0.0000000001
 40
0.0
 40
0.0
 40
0.0
 40
0.0
 40
0.0623405974
 40
0.0935093917
 40
0.1246959333
 40
0.1559313834
 40
0.1872411243
 40
0.2185594819
 40
0.249821225
 40
0.2654252531
 40
0.2810128563
 40
0.2965907593
 40
0.3121696448
 40
0.3277599051
 40
0.3433675611
 40
0.3746390943
 40
0.437309863
 40
0.4686015787
 40
0.4997872877
 40
0.5309238911
 40
0.546492011
 40
0.5620645276
 40
0.577648162
 40
0.5932561903
 40
0.6089090798
 40
0.6246060447
 40
0.6403052781
 40
0.655975674
 40
0.6716056213
 40
0.6872065476
 40
0.6950085218
 40
0.7028173087
 40
0.7184556373
 40
0.7341213868
 40
0.7497988268
 40
0.7654628256
 40
0.7810969615
 40
0.796727489
 40
0.8123767685
 40
0.8437426106
 40
0.8751326123
 40
0.906391658
 40
0.9375821535
 40
0.9687794734
 40
1.0
 40
1.0
 40
1.0
 40
1.0
 10
6.0985915314
 20
3.5373138612
 30
0.0
 10
6.086529533
 20
3.5473634563
 30
0.0
 10
6.068582304
 20
3.5626187219
 30
0.0
 10
6.0453070778
 20
3.5837046957
 30
0.0
 10
6.0282645524
 20
3.5999914032
 30
0.0
 10
6.0117299379
 20
3.6168449413
 30
0.0
 10
5.9958143808
 20
3.6343321001
 30
0.0
 10
5.9807092149
 20
3.6525358869
 30
0.0
 10
5.9689771693
 20
3.668365136
 30
0.0
 10
5.9602302636
 20
3.6814399992
 30
0.0
 10
5.9540221322
 20
3.6914525554
 30
0.0
 10
5.9481906128
 20
3.7016821509
 30
0.0
 10
5.9427702252
 20
3.7121364623
 30
0.0
 10
5.9377638309
 20
3.7228032506
 30
0.0
 10
5.9316141951
 20
3.7372874445
 30
0.0
 10
5.9221960184
 20
3.7632407429
 30
0.0
 10
5.914311516
 20
3.7938646271
 30
0.0
 10
5.908834726
 20
3.8249095021
 30
0.0
 10
5.9058384978
 20
3.8483036048
 30
0.0
 10
5.9042310334
 20
3.8678600537
 30
0.0
 10
5.9034416205
 20
3.8835251809
 30
0.0
 10
5.9031450167
 20
3.8952900363
 30
0.0
 10
5.903201462
 20
3.9070690408
 30
0.0
 10
5.9036665058
 20
3.9188598963
 30
0.0
 10
5.904594365
 20
3.9306526821
 30
0.0
 10
5.9060415032
 20
3.9424172322
 30
0.0
 10
5.9080821676
 20
3.9540993279
 30
0.0
 10
5.9107879003
 20
3.9656299913
 30
0.0
 10
5.9142312375
 20
3.9769379907
 30
0.0
 10
5.9177762855
 20
3.9861180838
 30
0.0
 10
5.9210495985
 20
3.9932667095
 30
0.0
 10
5.9246221558
 20
4.0002810535
 30
0.0
 10
5.9296210955
 20
4.0087814756
 30
0.0
 10
5.9363923749
 20
4.0184974552
 30
0.0
 10
5.9438661308
 20
4.0276917987
 30
0.0
 10
5.9519719415
 20
4.0363224335
 30
0.0
 10
5.9606507973
 20
4.0443578177
 30
0.0
 10
5.9698277759
 20
4.0518114365
 30
0.0
 10
5.9826514431
 20
4.0610147809
 30
0.0
 10
5.9996123056
 20
4.0711963218
 30
0.0
 10
6.0209453313
 20
4.0815228931
 30
0.0
 10
6.0429278877
 20
4.0902462883
 30
0.0
 10
6.0653441339
 20
4.0976115185
 30
0.0
 10
6.0880658163
 20
4.1039172045
 30
0.0
 10
6.1033458059
 20
4.1076160348
 30
0.0
 10
6.1110055766
 20
4.1093903541
 30
0.0
  0
SPLINE
  5
2FC
100
AcDbEntity
  8
0
100
AcDbSpline
 62
7
  6
CONTINUOUS
 70
0
 71
3
 72
40
 73
36
 74
0
 42
0.0000001
 43
0.0000001
 44
0.0000000001
 40
0.0
 40
0.0
 40
0.0
 40
0.0
 40
0.063384257
 40
0.0944153799
 40
0.125091214
 40
0.1403642104
 40
0.1556374049
 40
0.1709557043
 40
0.1863491287
 40
0.2018166329
 40
0.2173488032
 40
0.2485310545
 40
0.279744743
 40
0.2953062578
 40
0.3108075273
 40
0.3416953992
 40
0.3725870102
 40
0.4036110896
 40
0.4348506079
 40
0.497786535
 40
0.5293607719
 40
0.5608735762
 40
0.5922648959
 40
0.6235067541
 40
0.6546146566
 40
0.6856656157
 40
0.7167803868
 40
0.7480367335
 40
0.8109829258
 40
0.8426749153
 40
0.8744085622
 40
0.9060994977
 40
0.9376521161
 40
0.9689674513
 40
1.0
 40
1.0
 40
1.0
 40
1.0
 10
4.7323942776
 20
3.5014509227
 30
0.0
 10
4.7426532894
 20
3.4999053498
 30
0.0
 10
4.7581579075
 20
3.4986972864
 30
0.0
 10
4.7786175113
 20
3.5000247733
 30
0.0
 10
4.7910624809
 20
3.5021850822
 30
0.0
 10
4.8007475901
 20
3.5047778205
 30
0.0
 10
4.8078692581
 20
3.5071692161
 30
0.0
 10
4.8148375624
 20
3.5100290417
 30
0.0
 10
4.8216313434
 20
3.5133540837
 30
0.0
 10
4.8282347603
 20
3.5171134324
 30
0.0
 10
4.8367652562
 20
3.5226745463
 30
0.0
 10
4.8468264515
 20
3.530562461
 30
0.0
 10
4.8559576686
 20
3.5395137026
 30
0.0
 10
4.8626345793
 20
3.5472218612
 30
0.0
 10
4.868848416
 20
3.5552405375
 30
0.0
 10
4.8757826777
 20
3.5658503435
 30
0.0
 10
4.8827584401
 20
3.5793713826
 30
0.0
 10
4.8884079178
 20
3.5935598948
 30
0.0
 10
4.8942170412
 20
3.6132336384
 30
0.0
 10
4.8974138837
 20
3.6336948069
 30
0.0
 10
4.8979015081
 20
3.6543368116
 30
0.0
 10
4.8968762599
 20
3.6697900018
 30
0.0
 10
4.8944246944
 20
3.6850270186
 30
0.0
 10
4.8905116482
 20
3.6998898907
 30
0.0
 10
4.8851004121
 20
3.7142200873
 30
0.0
 10
4.8781522683
 20
3.7278480217
 30
0.0
 10
4.8698089938
 20
3.740694975
 30
0.0
 10
4.8569898768
 20
3.7567404325
 30
0.0
 10
4.8419302411
 20
3.7709922363
 30
0.0
 10
4.825233599
 20
3.7832282151
 30
0.0
 10
4.8119553707
 20
3.7913921331
 30
0.0
 10
4.7980911184
 20
3.7984590681
 30
0.0
 10
4.783773822
 20
3.8043846525
 30
0.0
 10
4.7691010166
 20
3.8090258525
 30
0.0
 10
4.7591009259
 20
3.8111633441
 30
0.0
 10
4.7540841305
 20
3.8119585685
 30
0.0
  0
SPLINE
  5
2FD
100
AcDbEntity
  8
0
100
AcDbSpline
 62
7
  6
CONTINUOUS
 70
0
 71
3
 72
55
 73
51
 74
0
 42
0.0000001
 43
0.0000001
 44
0.0000000001
 40
0.0
 40
0.0
 40
0.0
 40
0.0
 40
0.0623626546
 40
0.1247555995
 40
0.1872094742
 40
0.2497598177
 40
0.2810850228
 40
0.3124499247
 40
0.3438481711
 40
0.3752492118
 40
0.43794875
 40
0.4692211541
 40
0.5004334057
 40
0.531593878
 40
0.5471614372
 40
0.5627247301
 40
0.578288363
 40
0.5938586741
 40
0.6094412523
 40
0.6250379347
 40
0.6406478212
 40
0.6562684665
 40
0.6718911959
 40
0.6875008791
 40
0.703091765
 40
0.7186752301
 40
0.7264746736
 40
0.7342827758
 40
0.7499173393
 40
0.7655668203
 40
0.7812166163
 40
0.7968520956
 40
0.8124651391
 40
0.8280739655
 40
0.843695503
 40
0.8593359532
 40
0.8749919992
 40
0.8828227812
 40
0.890652488
 40
0.8984785655
 40
0.9062980952
 40
0.9141087535
 40
0.9219100381
 40
0.9297037785
 40
0.9374945914
 40
0.9452902335
 40
0.9530962632
 40
0.9687284279
 40
0.9843714825
 40
1.0
 40
1.0
 40
1.0
 40
1.0
 10
4.5033913343
 20
2.858904176
 30
0.0
 10
4.5055860406
 20
2.8722528961
 30
0.0
 10
4.5104393305
 20
2.8988831963
 30
0.0
 10
4.5191289093
 20
2.9385612731
 30
0.0
 10
4.5292523416
 20
2.9779405642
 30
0.0
 10
4.538897638
 20
3.0104603374
 30
0.0
 10
4.5473504923
 20
3.0362809054
 30
0.0
 10
4.5540635552
 20
3.0555565527
 30
0.0
 10
4.5611544059
 20
3.0747145521
 30
0.0
 10
4.5711784799
 20
3.1000270142
 30
0.0
 10
4.5821604089
 20
3.1249272218
 30
0.0
 10
4.5942987518
 20
3.1492237715
 30
0.0
 10
4.6040146306
 20
3.1670686608
 30
0.0
 10
4.6126690306
 20
3.1815986919
 30
0.0
 10
4.6199466972
 20
3.1929849137
 30
0.0
 10
4.6255866435
 20
3.2013996742
 30
0.0
 10
4.6314188124
 20
3.2096831406
 30
0.0
 10
4.6374356556
 20
3.2178383298
 30
0.0
 10
4.6435887569
 20
3.2258997878
 30
0.0
 10
4.6498373698
 20
3.2338981091
 30
0.0
 10
4.6561378053
 20
3.2418660692
 30
0.0
 10
4.6624505587
 20
3.2498314438
 30
0.0
 10
4.6687157615
 20
3.2578344909
 30
0.0
 10
4.6748277527
 20
3.2659481037
 30
0.0
 10
4.6806856598
 20
3.2742378394
 30
0.0
 10
4.6852691051
 20
3.2813464217
 30
0.0
 10
4.6886990384
 20
3.2871797022
 30
0.0
 10
4.6919651127
 20
3.2931188232
 30
0.0
 10
4.6957348494
 20
3.300720299
 30
0.0
 10
4.6997415899
 20
3.3100854439
 30
0.0
 10
4.7032187949
 20
3.3196601583
 30
0.0
 10
4.7061523568
 20
3.3294070969
 30
0.0
 10
4.7085258937
 20
3.3392958641
 30
0.0
 10
4.7103778885
 20
3.3492913651
 30
0.0
 10
4.7117551699
 20
3.3593685006
 30
0.0
 10
4.7127036739
 20
3.3695045354
 30
0.0
 10
4.7131751521
 20
3.3779809533
 30
0.0
 10
4.7133840892
 20
3.3847712511
 30
0.0
 10
4.7134621085
 20
3.3898656494
 30
0.0
 10
4.713467998
 20
3.3949581419
 30
0.0
 10
4.713404139
 20
3.4000461682
 30
0.0
 10
4.7132465288
 20
3.4051269256
 30
0.0
 10
4.7129737411
 20
3.4101973636
 30
0.0
 10
4.7125634655
 20
3.4152544178
 30
0.0
 10
4.7119941557
 20
3.420295042
 30
0.0
 10
4.7112420608
 20
3.4253146926
 30
0.0
 10
4.7099773658
 20
3.4319723916
 30
0.0
 10
4.7079199153
 20
3.440205784
 30
0.0
 10
4.7047166108
 20
3.4498721989
 30
0.0
 10
4.702104033
 20
3.4561406226
 30
0.0
 10
4.7006839207
 20
3.4592190486
 30
0.0
  0
SPLINE
  5
2FE
100
AcDbEntity
  8
0
100
AcDbSpline
 62
7
  6
CONTINUOUS
 70
0
 71
3
 72
9
 73
5
 74
0
 42
0.0000001
 43
0.0000001
 44
0.0000000001
 40
0.0
 40
0.0
 40
0.0
 40
0.0
 40
0.4995333303
 40
1.0
 40
1.0
 40
1.0
 40
1.0
 10
4.579463698
 20
2.8062642739
 30
0.0
 10
4.5710949197
 20
2.8104205464
 30
0.0
 10
4.5537837997
 20
2.8176546681
 30
0.0
 10
4.5357289001
 20
2.8227296571
 30
0.0
 10
4.5265836114
 20
2.8247299864
 30
0.0
  0
SPLINE
  5
2FF
100
AcDbEntity
  8
0
100
AcDbSpline
 62
7
  6
CONTINUOUS
 70
0
 71
3
 72
37
 73
33
 74
0
 42
0.0000001
 43
0.0000001
 44
0.0000000001
 40
0.0
 40
0.0
 40
0.0
 40
0.0
 40
0.0620922797
 40
0.0931129757
 40
0.1240455863
 40
0.1549705286
 40
0.1704943597
 40
0.1860839974
 40
0.217474629
 40
0.2491642017
 40
0.2810967366
 40
0.3131779454
 40
0.3452967824
 40
0.3773460174
 40
0.4092428043
 40
0.4409502068
 40
0.4725055841
 40
0.5039723573
 40
0.5665755777
 40
0.5977542716
 40
0.628767325
 40
0.6442103612
 40
0.6596172457
 40
0.6904130442
 40
0.7213192336
 40
0.752400852
 40
0.8149417565
 40
0.8462476965
 40
0.8773599092
 40
0.908200347
 40
0.9388583817
 40
1.0
 40
1.0
 40
1.0
 40
1.0
 10
4.690667208
 20
3.7560410983
 30
0.0
 10
4.6947568519
 20
3.7530543832
 30
0.0
 10
4.700528837
 20
3.748031961
 30
0.0
 10
4.7071039707
 20
3.7403242134
 30
0.0
 10
4.7113750538
 20
3.7340480119
 30
0.0
 10
4.7142875309
 20
3.728428899
 30
0.0
 10
4.7161674454
 20
3.7237278288
 30
0.0
 10
4.7177517524
 20
3.7188793362
 30
0.0
 10
4.7191724369
 20
3.7126050504
 30
0.0
 10
4.719996747
 20
3.7048837954
 30
0.0
 10
4.7199635796
 20
3.6970629528
 30
0.0
 10
4.7190889078
 20
3.6892565693
 30
0.0
 10
4.7173881595
 20
3.6815777623
 30
0.0
 10
4.7148753358
 20
3.6741402878
 30
0.0
 10
4.7115645899
 20
3.6670575092
 30
0.0
 10
4.7074642706
 20
3.6604455664
 30
0.0
 10
4.7026010718
 20
3.654416398
 30
0.0
 10
4.6952661903
 20
3.6472377745
 30
0.0
 10
4.6867758336
 20
3.6413750949
 30
0.0
 10
4.6775449084
 20
3.6370520888
 30
0.0
 10
4.6715315077
 20
3.6350194032
 30
0.0
 10
4.6666273191
 20
3.6338238289
 30
0.0
 10
4.6616793452
 20
3.6329178452
 30
0.0
 10
4.6554077349
 20
3.6323018513
 30
0.0
 10
4.6478288516
 20
3.6323272535
 30
0.0
 10
4.6377069451
 20
3.6332886978
 30
0.0
 10
4.6277145216
 20
3.63550117
 30
0.0
 10
4.6180325861
 20
3.6386959108
 30
0.0
 10
4.6109655404
 20
3.6415217008
 30
0.0
 10
4.6041248403
 20
3.6447347525
 30
0.0
 10
4.5953340175
 20
3.6495149427
 30
0.0
 10
4.5890761237
 20
3.6536643643
 30
0.0
 10
4.5850807799
 20
3.6566482546
 30
0.0
  0
SPLINE
  5
300
100
AcDbEntity
  8
0
100
AcDbSpline
 62
7
  6
CONTINUOUS
 70
0
 71
3
 72
37
 73
33
 74
0
 42
0.0000001
 43
0.0000001
 44
0.0000000001
 40
0.0
 40
0.0
 40
0.0
 40
0.0
 40
0.0620922797
 40
0.0931129757
 40
0.1240455863
 40
0.1549705286
 40
0.1704943597
 40
0.1860839974
 40
0.217474629
 40
0.2491642017
 40
0.2810967366
 40
0.3131779454
 40
0.3452967824
 40
0.3773460174
 40
0.4092428043
 40
0.4409502068
 40
0.4725055841
 40
0.5039723573
 40
0.5665755777
 40
0.5977542716
 40
0.628767325
 40
0.6442103612
 40
0.6596172457
 40
0.6904130442
 40
0.7213192336
 40
0.752400852
 40
0.8149417565
 40
0.8462476965
 40
0.8773599092
 40
0.908200347
 40
0.9388583817
 40
1.0
 40
1.0
 40
1.0
 40
1.0
 10
5.1460404234
 20
4.214667164
 30
0.0
 10
5.1490271385
 20
4.2105775201
 30
0.0
 10
5.1540495607
 20
4.204805535
 30
0.0
 10
5.1617573084
 20
4.1982304013
 30
0.0
 10
5.1680335098
 20
4.1939593182
 30
0.0
 10
5.1736526227
 20
4.1910468411
 30
0.0
 10
5.178353693
 20
4.1891669266
 30
0.0
 10
5.1832021856
 20
4.1875826196
 30
0.0
 10
5.1894764714
 20
4.186161935
 30
0.0
 10
5.1971977264
 20
4.1853376249
 30
0.0
 10
5.2050185689
 20
4.1853707923
 30
0.0
 10
5.2128249524
 20
4.1862454642
 30
0.0
 10
5.2205037595
 20
4.1879462125
 30
0.0
 10
5.2279412339
 20
4.1904590362
 30
0.0
 10
5.2350240126
 20
4.1937697821
 30
0.0
 10
5.2416359553
 20
4.1978701013
 30
0.0
 10
5.2476651237
 20
4.2027333001
 30
0.0
 10
5.2548437472
 20
4.2100681816
 30
0.0
 10
5.2607064268
 20
4.2185585383
 30
0.0
 10
5.265029433
 20
4.2277894636
 30
0.0
 10
5.2670621185
 20
4.2338028643
 30
0.0
 10
5.2682576929
 20
4.2387070528
 30
0.0
 10
5.2691636765
 20
4.2436550267
 30
0.0
 10
5.2697796705
 20
4.249926637
 30
0.0
 10
5.2697542683
 20
4.2575055203
 30
0.0
 10
5.268792824
 20
4.2676274269
 30
0.0
 10
5.2665803517
 20
4.2776198504
 30
0.0
 10
5.2633856109
 20
4.2873017858
 30
0.0
 10
5.260559821
 20
4.2943688315
 30
0.0
 10
5.2573467692
 20
4.3012095316
 30
0.0
 10
5.252566579
 20
4.3100003545
 30
0.0
 10
5.2484171574
 20
4.3162582483
 30
0.0
 10
5.2454332671
 20
4.320253592
 30
0.0
  0
SPLINE
  5
301
100
AcDbEntity
  8
0
100
AcDbSpline
 62
7
  6
CONTINUOUS
 70
0
 71
3
 72
9
 73
5
 74
0
 42
0.0000001
 43
0.0000001
 44
0.0000000001
 40
0.0
 40
0.0
 40
0.0
 40
0.0
 40
0.4995333303
 40
1.0
 40
1.0
 40
1.0
 40
1.0
 10
6.0958172478
 20
4.3258706739
 30
0.0
 10
6.0916609754
 20
4.3342394522
 30
0.0
 10
6.0844268537
 20
4.3515505722
 30
0.0
 10
6.0793518647
 20
4.3696054719
 30
0.0
 10
6.0773515354
 20
4.3787507606
 30
0.0
  0
SPLINE
  5
302
100
AcDbEntity
  8
0
100
AcDbSpline
 62
7
  6
CONTINUOUS
 70
0
 71
3
 72
55
 73
51
 74
0
 42
0.0000001
 43
0.0000001
 44
0.0000000001
 40
0.0
 40
0.0
 40
0.0
 40
0.0
 40
0.0623626546
 40
0.1247555995
 40
0.1872094742
 40
0.2497598177
 40
0.2810850228
 40
0.3124499247
 40
0.3438481711
 40
0.3752492118
 40
0.43794875
 40
0.4692211541
 40
0.5004334057
 40
0.531593878
 40
0.5471614372
 40
0.5627247301
 40
0.578288363
 40
0.5938586741
 40
0.6094412523
 40
0.6250379347
 40
0.6406478212
 40
0.6562684665
 40
0.6718911959
 40
0.6875008791
 40
0.703091765
 40
0.7186752301
 40
0.7264746736
 40
0.7342827758
 40
0.7499173393
 40
0.7655668203
 40
0.7812166163
 40
0.7968520956
 40
0.8124651391
 40
0.8280739655
 40
0.843695503
 40
0.8593359532
 40
0.8749919992
 40
0.8828227812
 40
0.890652488
 40
0.8984785655
 40
0.9062980952
 40
0.9141087535
 40
0.9219100381
 40
0.9297037785
 40
0.9374945914
 40
0.9452902335
 40
0.9530962632
 40
0.9687284279
 40
0.9843714825
 40
1.0
 40
1.0
 40
1.0
 40
1.0
 10
6.0431773458
 20
4.4019430377
 30
0.0
 10
6.0298286256
 20
4.3997483313
 30
0.0
 10
6.0031983255
 20
4.3948950414
 30
0.0
 10
5.9635202487
 20
4.3862054626
 30
0.0
 10
5.9241409576
 20
4.3760820303
 30
0.0
 10
5.8916211843
 20
4.3664367339
 30
0.0
 10
5.8658006163
 20
4.3579838796
 30
0.0
 10
5.8465249691
 20
4.3512708167
 30
0.0
 10
5.8273669697
 20
4.344179966
 30
0.0
 10
5.8020545075
 20
4.3341558921
 30
0.0
 10
5.7771543
 20
4.323173963
 30
0.0
 10
5.7528577502
 20
4.3110356201
 30
0.0
 10
5.7350128609
 20
4.3013197414
 30
0.0
 10
5.7204828298
 20
4.2926653413
 30
0.0
 10
5.709096608
 20
4.2853876747
 30
0.0
 10
5.7006818475
 20
4.2797477285
 30
0.0
 10
5.6923983812
 20
4.2739155595
 30
0.0
 10
5.684243192
 20
4.2678987164
 30
0.0
 10
5.6761817339
 20
4.261745615
 30
0.0
 10
5.6681834126
 20
4.2554970022
 30
0.0
 10
5.6602154526
 20
4.2491965667
 30
0.0
 10
5.652250078
 20
4.2428838132
 30
0.0
 10
5.6442470308
 20
4.2366186104
 30
0.0
 10
5.6361334181
 20
4.2305066192
 30
0.0
 10
5.6278436823
 20
4.2246487121
 30
0.0
 10
5.6207351001
 20
4.2200652669
 30
0.0
 10
5.6149018195
 20
4.2166353335
 30
0.0
 10
5.6089626985
 20
4.2133692593
 30
0.0
 10
5.6013612227
 20
4.2095995225
 30
0.0
 10
5.5919960778
 20
4.205592782
 30
0.0
 10
5.5824213634
 20
4.2021155771
 30
0.0
 10
5.5726744249
 20
4.1991820152
 30
0.0
 10
5.5627856576
 20
4.1968084782
 30
0.0
 10
5.5527901567
 20
4.1949564835
 30
0.0
 10
5.5427130211
 20
4.1935792021
 30
0.0
 10
5.5325769863
 20
4.1926306981
 30
0.0
 10
5.5241005684
 20
4.1921592198
 30
0.0
 10
5.5173102706
 20
4.1919502827
 30
0.0
 10
5.5122158724
 20
4.1918722635
 30
0.0
 10
5.5071233799
 20
4.191866374
 30
0.0
 10
5.5020353535
 20
4.191930233
 30
0.0
 10
5.4969545961
 20
4.1920878431
 30
0.0
 10
5.4918841581
 20
4.1923606308
 30
0.0
 10
5.4868271039
 20
4.1927709064
 30
0.0
 10
5.4817864798
 20
4.1933402163
 30
0.0
 10
5.4767668291
 20
4.1940923112
 30
0.0
 10
5.4701091302
 20
4.1953570062
 30
0.0
 10
5.4618757377
 20
4.1974144567
 30
0.0
 10
5.4522093229
 20
4.2006177611
 30
0.0
 10
5.4459408991
 20
4.2032303389
 30
0.0
 10
5.4428624731
 20
4.2046504512
 30
0.0
  0
SPLINE
  5
303
100
AcDbEntity
  8
0
100
AcDbSpline
 62
7
  6
CONTINUOUS
 70
0
 71
3
 72
40
 73
36
 74
0
 42
0.0000001
 43
0.0000001
 44
0.0000000001
 40
0.0
 40
0.0
 40
0.0
 40
0.0
 40
0.063384257
 40
0.0944153799
 40
0.125091214
 40
0.1403642104
 40
0.1556374049
 40
0.1709557043
 40
0.1863491287
 40
0.2018166329
 40
0.2173488032
 40
0.2485310545
 40
0.279744743
 40
0.2953062578
 40
0.3108075273
 40
0.3416953992
 40
0.3725870102
 40
0.4036110896
 40
0.4348506079
 40
0.497786535
 40
0.5293607719
 40
0.5608735762
 40
0.5922648959
 40
0.6235067541
 40
0.6546146566
 40
0.6856656157
 40
0.7167803868
 40
0.7480367335
 40
0.8109829258
 40
0.8426749153
 40
0.8744085622
 40
0.9060994977
 40
0.9376521161
 40
0.9689674513
 40
1.0
 40
1.0
 40
1.0
 40
1.0
 10
5.400630599
 20
4.1729400944
 30
0.0
 10
5.4021761719
 20
4.1626810826
 30
0.0
 10
5.4033842353
 20
4.1471764645
 30
0.0
 10
5.4020567484
 20
4.1267168606
 30
0.0
 10
5.3998964395
 20
4.114271891
 30
0.0
 10
5.3973037013
 20
4.1045867818
 30
0.0
 10
5.3949123056
 20
4.0974651138
 30
0.0
 10
5.3920524801
 20
4.0904968096
 30
0.0
 10
5.388727438
 20
4.0837030285
 30
0.0
 10
5.3849680894
 20
4.0770996117
 30
0.0
 10
5.3794069755
 20
4.0685691158
 30
0.0
 10
5.3715190607
 20
4.0585079205
 30
0.0
 10
5.3625678191
 20
4.0493767033
 30
0.0
 10
5.3548596606
 20
4.0426997926
 30
0.0
 10
5.3468409842
 20
4.036485956
 30
0.0
 10
5.3362311782
 20
4.0295516942
 30
0.0
 10
5.3227101391
 20
4.0225759318
 30
0.0
 10
5.3085216269
 20
4.0169264541
 30
0.0
 10
5.2888478833
 20
4.0111173307
 30
0.0
 10
5.2683867149
 20
4.0079204883
 30
0.0
 10
5.2477447102
 20
4.0074328638
 30
0.0
 10
5.2322915199
 20
4.008458112
 30
0.0
 10
5.2170545031
 20
4.0109096776
 30
0.0
 10
5.202191631
 20
4.0148227238
 30
0.0
 10
5.1878614344
 20
4.0202339599
 30
0.0
 10
5.1742335001
 20
4.0271821036
 30
0.0
 10
5.1613865468
 20
4.0355253781
 30
0.0
 10
5.1453410892
 20
4.0483444952
 30
0.0
 10
5.1310892855
 20
4.0634041308
 30
0.0
 10
5.1188533067
 20
4.0801007729
 30
0.0
 10
5.1106893887
 20
4.0933790013
 30
0.0
 10
5.1036224536
 20
4.1072432535
 30
0.0
 10
5.0976968692
 20
4.1215605499
 30
0.0
 10
5.0930556692
 20
4.1362333554
 30
0.0
 10
5.0909181777
 20
4.146233446
 30
0.0
 10
5.0901229533
 20
4.1512502414
 30
0.0
  0
SPLINE
  5
304
100
AcDbEntity
  8
0
100
AcDbSpline
 62
7
  6
CONTINUOUS
 70
0
 71
3
 72
50
 73
46
 74
0
 42
0.0000001
 43
0.0000001
 44
0.0000000001
 40
0.0
 40
0.0
 40
0.0
 40
0.0
 40
0.0623256894
 40
0.0934899376
 40
0.1246716582
 40
0.1559096681
 40
0.1715694876
 40
0.1872634171
 40
0.2186806841
 40
0.2500274278
 40
0.2812255656
 40
0.2967704816
 40
0.3122873758
 40
0.3277931806
 40
0.3433125857
 40
0.3588627862
 40
0.3744500394
 40
0.4057130884
 40
0.436997028
 40
0.4681925458
 40
0.499296315
 40
0.5148225261
 40
0.5303438974
 40
0.5458778514
 40
0.5614366875
 40
0.5770139016
 40
0.5926044469
 40
0.6238201612
 40
0.6394665624
 40
0.6551405855
 40
0.6864821207
 40
0.7021269182
 40
0.7177369771
 40
0.7333094647
 40
0.7410836266
 40
0.7488517707
 40
0.7643846554
 40
0.7799384647
 40
0.8111725049
 40
0.8426418244
 40
0.8743186132
 40
0.9060923345
 40
0.9377874608
 40
0.9691781578
 40
1.0
 40
1.0
 40
1.0
 40
1.0
 10
2.7473368092
 20
3.1496300118
 30
0.0
 10
2.7633067373
 20
3.1550719921
 30
0.0
 10
2.7870900796
 20
3.1637753954
 30
0.0
 10
2.8181661872
 20
3.1769551745
 30
0.0
 10
2.8410902192
 20
3.1877551448
 30
0.0
 10
2.8597965841
 20
3.1976132718
 30
0.0
 10
2.8744805221
 20
3.2060708726
 30
0.0
 10
2.8889780339
 20
3.2149371546
 30
0.0
 10
2.9066184367
 20
3.226791185
 30
0.0
 10
2.9267518005
 20
3.242369369
 30
0.0
 10
2.9424341748
 20
3.2565855316
 30
0.0
 10
2.9541328221
 20
3.2687252336
 30
0.0
 10
2.9624394684
 20
3.2782146008
 30
0.0
 10
2.9702400619
 20
3.2881151796
 30
0.0
 10
2.9775664571
 20
3.2983811798
 30
0.0
 10
2.9844738865
 20
3.3089587898
 30
0.0
 10
2.9932007126
 20
3.3234252568
 30
0.0
 10
3.0033064154
 20
3.3420172071
 30
0.0
 10
3.0145696783
 20
3.3647594683
 30
0.0
 10
3.0254516202
 20
3.3876358544
 30
0.0
 10
3.0346837481
 20
3.4065751424
 30
0.0
 10
3.0424483941
 20
3.4215021472
 30
0.0
 10
3.0485314267
 20
3.4325492791
 30
0.0
 10
3.0549501863
 20
3.4434160451
 30
0.0
 10
3.061757872
 20
3.4540618733
 30
0.0
 10
3.0689659885
 20
3.4644602384
 30
0.0
 10
3.0791308155
 20
3.4779495898
 30
0.0
 10
3.0901525134
 20
3.4908039781
 30
0.0
 10
3.1020528225
 20
3.5028522932
 30
0.0
 10
3.1145547114
 20
3.5143244647
 30
0.0
 10
3.1279106658
 20
3.5248405834
 30
0.0
 10
3.1420365189
 20
3.534212279
 30
0.0
 10
3.1529847304
 20
3.5406159146
 30
0.0
 10
3.1623925034
 20
3.5453962933
 30
0.0
 10
3.1700721485
 20
3.5488586663
 30
0.0
 10
3.177846764
 20
3.5520740459
 30
0.0
 10
3.1877468927
 20
3.5556468786
 30
0.0
 10
3.2039283545
 20
3.5604453812
 30
0.0
 10
3.2247069719
 20
3.5647835362
 30
0.0
 10
3.2501397318
 20
3.5675517846
 30
0.0
 10
3.275856437
 20
3.5681308923
 30
0.0
 10
3.3015975256
 20
3.5667532754
 30
0.0
 10
3.3271057173
 20
3.5636491407
 30
0.0
 10
3.3521205272
 20
3.559046838
 30
0.0
 10
3.3684979306
 20
3.5550820717
 30
0.0
 10
3.3765529625
 20
3.5529069867
 30
0.0
  0
SPLINE
  5
305
100
AcDbEntity
  8
0
100
AcDbSpline
 62
7
  6
CONTINUOUS
 70
0
 71
3
 72
20
 73
16
 74
0
 42
0.0000001
 43
0.0000001
 44
0.0000000001
 40
0.0
 40
0.0
 40
0.0
 40
0.0
 40
0.1244588737
 40
0.248894745
 40
0.3110264352
 40
0.3730414911
 40
0.4040080977
 40
0.4349469399
 40
0.4968002042
 40
0.5587662221
 40
0.6209604551
 40
0.683451801
 40
0.7462668296
 40
0.8727544892
 40
1.0
 40
1.0
 40
1.0
 40
1.0
 10
3.4609671815
 20
3.6987105055
 30
0.0
 10
3.4456492108
 20
3.6981041795
 30
0.0
 10
3.4149021398
 20
3.6989028717
 30
0.0
 10
3.3769469167
 20
3.7049078421
 30
0.0
 10
3.3473200637
 20
3.7127159014
 30
0.0
 10
3.3292068617
 20
3.7188485002
 30
0.0
 10
3.3150262118
 20
3.7245029114
 30
0.0
 10
3.3010762138
 20
3.7306558217
 30
0.0
 10
3.2840556945
 20
3.7392753599
 30
0.0
 10
3.264340068
 20
3.7509783369
 30
0.0
 10
3.2453328371
 20
3.76393727
 30
0.0
 10
3.2270339686
 20
3.7780477944
 30
0.0
 10
3.2035300396
 20
3.7983022564
 30
0.0
 10
3.1759630224
 20
3.8259634005
 30
0.0
 10
3.1558811356
 20
3.8499595494
 30
0.0
 10
3.1462813352
 20
3.8623487853
 30
0.0
  0
SPLINE
  5
306
100
AcDbEntity
  8
0
100
AcDbSpline
 62
7
  6
CONTINUOUS
 70
0
 71
3
 72
25
 73
21
 74
0
 42
0.0000001
 43
0.0000001
 44
0.0000000001
 40
0.0
 40
0.0
 40
0.0
 40
0.0
 40
0.0626004717
 40
0.1257847901
 40
0.1894512001
 40
0.25340023
 40
0.3173551753
 40
0.3809793611
 40
0.4125526733
 40
0.4439175287
 40
0.506116249
 40
0.5678266253
 40
0.6292975648
 40
0.6600220551
 40
0.6907763529
 40
0.7215889801
 40
0.7524771066
 40
0.8143990767
 40
0.8763844804
 40
1.0
 40
1.0
 40
1.0
 40
1.0
 10
3.0926389613
 20
3.8460481724
 30
0.0
 10
3.091665893
 20
3.8320087551
 30
0.0
 10
3.0883831525
 20
3.8038773605
 30
0.0
 10
3.0798777054
 20
3.7621012423
 30
0.0
 10
3.0681100434
 20
3.7208129461
 30
0.0
 10
3.0534192155
 20
3.6802949899
 30
0.0
 10
3.0361423569
 20
3.6408260501
 30
0.0
 10
3.0198263155
 20
3.608958964
 30
0.0
 10
3.0057723983
 20
3.584216206
 30
0.0
 10
2.9911868227
 20
3.5601570641
 30
0.0
 10
2.9718157969
 20
3.5310930133
 30
0.0
 10
2.9467305801
 20
3.4977858651
 30
0.0
 10
2.9243512418
 20
3.4713719246
 30
0.0
 10
2.9056029701
 20
3.4510583519
 30
0.0
 10
2.8911080397
 20
3.4362095904
 30
0.0
 10
2.8761815823
 20
3.4217417543
 30
0.0
 10
2.8557035522
 20
3.402949584
 30
0.0
 10
2.8290796119
 20
3.3805039386
 30
0.0
 10
2.784475929
 20
3.3472045645
 30
0.0
 10
2.7486928822
 20
3.3254198252
 30
0.0
 10
2.7239706126
 20
3.3127280449
 30
0.0
  0
LINE
  5
307
100
AcDbEntity
  8
0
100
AcDbLine
 62
7
  6
CONTINUOUS
 10
2.7077368643
 20
4.0801655097
 11
2.7077176936
 21
3.5603633295
  0
SPLINE
  5
308
100
AcDbEntity
  8
0
100
AcDbSpline
 62
7
  6
CONTINUOUS
 70
0
 71
3
 72
50
 73
46
 74
0
 42
0.0000001
 43
0.0000001
 44
0.0000000001
 40
0.0
 40
0.0
 40
0.0
 40
0.0
 40
0.0623405974
 40
0.0935093917
 40
0.1246959333
 40
0.1559313834
 40
0.1872411243
 40
0.2185594819
 40
0.249821225
 40
0.2654252531
 40
0.2810128563
 40
0.2965907593
 40
0.3121696448
 40
0.3277599051
 40
0.3433675611
 40
0.3746390943
 40
0.437309863
 40
0.4686015787
 40
0.4997872877
 40
0.5309238911
 40
0.546492011
 40
0.5620645276
 40
0.577648162
 40
0.5932561903
 40
0.6089090798
 40
0.6246060447
 40
0.6403052781
 40
0.655975674
 40
0.6716056213
 40
0.6872065476
 40
0.6950085218
 40
0.7028173087
 40
0.7184556373
 40
0.7341213868
 40
0.7497988268
 40
0.7654628256
 40
0.7810969615
 40
0.796727489
 40
0.8123767685
 40
0.8437426106
 40
0.8751326123
 40
0.906391658
 40
0.9375821535
 40
0.9687794734
 40
1.0
 40
1.0
 40
1.0
 40
1.0
 10
2.756920891
 20
3.5373138612
 30
0.0
 10
2.7689828893
 20
3.5473634563
 30
0.0
 10
2.7869301184
 20
3.5626187219
 30
0.0
 10
2.8102053446
 20
3.5837046957
 30
0.0
 10
2.82724787
 20
3.5999914032
 30
0.0
 10
2.8437824844
 20
3.6168449413
 30
0.0
 10
2.8596980416
 20
3.6343321001
 30
0.0
 10
2.8748032075
 20
3.6525358869
 30
0.0
 10
2.8865352531
 20
3.668365136
 30
0.0
 10
2.8952821587
 20
3.6814399992
 30
0.0
 10
2.9014902902
 20
3.6914525554
 30
0.0
 10
2.9073218096
 20
3.7016821509
 30
0.0
 10
2.9127421971
 20
3.7121364623
 30
0.0
 10
2.9177485914
 20
3.7228032506
 30
0.0
 10
2.9238982273
 20
3.7372874445
 30
0.0
 10
2.933316404
 20
3.7632407429
 30
0.0
 10
2.9412009064
 20
3.7938646271
 30
0.0
 10
2.9466776964
 20
3.8249095021
 30
0.0
 10
2.9496739246
 20
3.8483036048
 30
0.0
 10
2.951281389
 20
3.8678600537
 30
0.0
 10
2.9520708019
 20
3.8835251809
 30
0.0
 10
2.9523674057
 20
3.8952900363
 30
0.0
 10
2.9523109603
 20
3.9070690408
 30
0.0
 10
2.9518459166
 20
3.9188598963
 30
0.0
 10
2.9509180573
 20
3.9306526821
 30
0.0
 10
2.9494709192
 20
3.9424172322
 30
0.0
 10
2.9474302548
 20
3.9540993279
 30
0.0
 10
2.944724522
 20
3.9656299913
 30
0.0
 10
2.9412811848
 20
3.9769379907
 30
0.0
 10
2.9377361368
 20
3.9861180838
 30
0.0
 10
2.9344628239
 20
3.9932667095
 30
0.0
 10
2.9308902666
 20
4.0002810535
 30
0.0
 10
2.9258913269
 20
4.0087814756
 30
0.0
 10
2.9191200474
 20
4.0184974552
 30
0.0
 10
2.9116462915
 20
4.0276917987
 30
0.0
 10
2.9035404808
 20
4.0363224335
 30
0.0
 10
2.8948616251
 20
4.0443578177
 30
0.0
 10
2.8856846465
 20
4.0518114365
 30
0.0
 10
2.8728609792
 20
4.0610147809
 30
0.0
 10
2.8559001167
 20
4.0711963218
 30
0.0
 10
2.8345670911
 20
4.0815228931
 30
0.0
 10
2.8125845347
 20
4.0902462883
 30
0.0
 10
2.7901682885
 20
4.0976115185
 30
0.0
 10
2.7674466061
 20
4.1039172045
 30
0.0
 10
2.7521666164
 20
4.1076160348
 30
0.0
 10
2.7445068457
 20
4.1093903541
 30
0.0
  0
SPLINE
  5
309
100
AcDbEntity
  8
0
100
AcDbSpline
 62
7
  6
CONTINUOUS
 70
0
 71
3
 72
20
 73
16
 74
0
 42
0.0000001
 43
0.0000001
 44
0.0000000001
 40
0.0
 40
0.0
 40
0.0
 40
0.0
 40
0.0624836088
 40
0.0937192207
 40
0.1249516751
 40
0.1874308481
 40
0.2499603137
 40
0.3125181152
 40
0.3750399205
 40
0.4375110048
 40
0.4999682418
 40
0.6249089582
 40
0.7499530756
 40
0.8750104692
 40
1.0
 40
1.0
 40
1.0
 40
1.0
 10
3.9757846287
 20
4.3509483856
 30
0.0
 10
3.9785872107
 20
4.3461583291
 30
0.0
 10
3.9825693604
 20
4.33884043
 30
0.0
 10
3.9874034406
 20
4.3288490209
 30
0.0
 10
3.9919136174
 20
4.3187073231
 30
0.0
 10
3.9969641625
 20
4.3057724805
 30
0.0
 10
4.0021432576
 20
4.2899304565
 30
0.0
 10
4.0065049732
 20
4.2738414658
 30
0.0
 10
4.0101196865
 20
4.2575749352
 30
0.0
 10
4.0130259986
 20
4.2411762639
 30
0.0
 10
4.0159818324
 20
4.2191756429
 30
0.0
 10
4.0180179048
 20
4.1914692651
 30
0.0
 10
4.0179986839
 20
4.1581320569
 30
0.0
 10
4.0157242143
 20
4.1248702055
 30
0.0
 10
4.0126448721
 20
4.1028524463
 30
0.0
 10
4.0106992469
 20
4.0919229005
 30
0.0
  0
SPLINE
  5
30A
100
AcDbEntity
  8
0
100
AcDbSpline
 62
7
  6
CONTINUOUS
 70
0
 71
3
 72
21
 73
17
 74
0
 42
0.0000001
 43
0.0000001
 44
0.0000000001
 40
0.0
 40
0.0
 40
0.0
 40
0.0
 40
0.0625450456
 40
0.1250704897
 40
0.1563115543
 40
0.1875298672
 40
0.2499046739
 40
0.3122296117
 40
0.3745565544
 40
0.4369564713
 40
0.4995125133
 40
0.5622133657
 40
0.6249772926
 40
0.7503903026
 40
0.875413652
 40
1.0
 40
1.0
 40
1.0
 40
1.0
 10
4.0452855485
 20
4.0570933078
 30
0.0
 10
4.0507665723
 20
4.0580294246
 30
0.0
 10
4.0617615775
 20
4.0597031716
 30
0.0
 10
4.075563997
 20
4.0613369698
 30
0.0
 10
4.0866256086
 20
4.062391599
 30
0.0
 10
4.0976880752
 20
4.0632834707
 30
0.0
 10
4.1115293025
 20
4.0640781328
 30
0.0
 10
4.1281550537
 20
4.0644725528
 30
0.0
 10
4.1447869766
 20
4.0642602504
 30
0.0
 10
4.1614189565
 20
4.063394884
 30
0.0
 10
4.1780333969
 20
4.0618282056
 30
0.0
 10
4.1945964803
 20
4.0595334852
 30
0.0
 10
4.2165352032
 20
4.055483294
 30
0.0
 10
4.2435441392
 20
4.0485210778
 30
0.0
 10
4.2748807805
 20
4.0369722917
 30
0.0
 10
4.2947821878
 20
4.0270214067
 30
0.0
 10
4.3043704552
 20
4.0214767864
 30
0.0
  0
SPLINE
  5
30B
100
AcDbEntity
  8
0
100
AcDbSpline
 62
7
  6
CONTINUOUS
 70
0
 71
3
 72
16
 73
12
 74
0
 42
0.0000001
 43
0.0000001
 44
0.0000000001
 40
0.0
 40
0.0
 40
0.0
 40
0.0
 40
0.1301392035
 40
0.2585822917
 40
0.3853730608
 40
0.4481984569
 40
0.5106641353
 40
0.6346219806
 40
0.757484872
 40
0.8792987068
 40
1.0
 40
1.0
 40
1.0
 40
1.0
 10
4.3176552692
 20
4.1978437222
 30
0.0
 10
4.3119453017
 20
4.1976592754
 30
0.0
 10
4.3005724328
 20
4.1978633733
 30
0.0
 10
4.2837494973
 20
4.1998942609
 30
0.0
 10
4.270108828
 20
4.2030066008
 30
0.0
 10
4.2595498599
 20
4.2063338843
 30
0.0
 10
4.2493027972
 20
4.2101834843
 30
0.0
 10
4.2369868741
 20
4.2159618444
 30
0.0
 10
4.223095926
 20
4.2243166651
 30
0.0
 10
4.2102255168
 20
4.2339307993
 30
0.0
 10
4.2023495018
 20
4.241123728
 30
0.0
 10
4.1986177095
 20
4.2448852761
 30
0.0
  0
SPLINE
  5
30C
100
AcDbEntity
  8
0
100
AcDbSpline
 62
7
  6
CONTINUOUS
 70
0
 71
3
 72
16
 73
12
 74
0
 42
0.0000001
 43
0.0000001
 44
0.0000000001
 40
0.0
 40
0.0
 40
0.0
 40
0.0
 40
0.1207442006
 40
0.2425908041
 40
0.3654367481
 40
0.4893303273
 40
0.5517588475
 40
0.6145553499
 40
0.741327806
 40
0.8698012147
 40
1.0
 40
1.0
 40
1.0
 40
1.0
 10
4.1986177095
 20
4.2448852761
 30
0.0
 10
4.1948852946
 20
4.2486474517
 30
0.0
 10
4.1877375129
 20
4.256564084
 30
0.0
 10
4.1781562767
 20
4.2694569122
 30
0.0
 10
4.1698123258
 20
4.2833474851
 30
0.0
 10
4.1640362104
 20
4.2956558945
 30
0.0
 10
4.1601921557
 20
4.3058968228
 30
0.0
 10
4.1568750164
 20
4.3164530205
 30
0.0
 10
4.1537850521
 20
4.3300957767
 30
0.0
 10
4.1517903613
 20
4.3469231841
 30
0.0
 10
4.1516129275
 20
4.3582983265
 30
0.0
 10
4.1518105505
 20
4.3640093918
 30
0.0
  0
SPLINE
  5
30D
100
AcDbEntity
  8
0
100
AcDbSpline
 62
7
  6
CONTINUOUS
 70
0
 71
3
 72
48
 73
44
 74
0
 42
0.0000001
 43
0.0000001
 44
0.0000000001
 40
0.0
 40
0.0
 40
0.0
 40
0.0
 40
0.0623355393
 40
0.0935047091
 40
0.1246913501
 40
0.1559342918
 40
0.1715965886
 40
0.1872929785
 40
0.218715032
 40
0.2500664554
 40
0.2812693348
 40
0.2968167339
 40
0.3123362448
 40
0.3278448566
 40
0.3433672191
 40
0.3589204016
 40
0.3745105233
 40
0.4057783922
 40
0.4370649811
 40
0.4682616812
 40
0.4993683479
 40
0.5148976898
 40
0.5304238375
 40
0.5459645504
 40
0.5615315305
 40
0.5771164917
 40
0.5927127105
 40
0.6239279241
 40
0.639566312
 40
0.6552280823
 40
0.6865501788
 40
0.7021944727
 40
0.7178126541
 40
0.7334018901
 40
0.7489658525
 40
0.7645240226
 40
0.7800993137
 40
0.8113509543
 40
0.8743454908
 40
0.906039114
 40
0.937672385
 40
0.9690633979
 40
1.0
 40
1.0
 40
1.0
 40
1.0
 10
3.103061015
 20
2.7939059923
 30
0.0
 10
3.1085038843
 20
2.8098783751
 30
0.0
 10
3.1172088077
 20
2.833665339
 30
0.0
 10
3.1303911071
 20
2.8647460493
 30
0.0
 10
3.1411932442
 20
2.887673392
 30
0.0
 10
3.1510534311
 20
2.906382369
 30
0.0
 10
3.1595128369
 20
2.9210682863
 30
0.0
 10
3.1683810217
 20
2.9355676547
 30
0.0
 10
3.1802377094
 20
2.9532100904
 30
0.0
 10
3.1958197326
 20
2.9733452654
 30
0.0
 10
3.2100397773
 20
2.9890284162
 30
0.0
 10
3.2221830442
 20
3.0007271312
 30
0.0
 10
3.2316753982
 20
3.0090335616
 30
0.0
 10
3.2415792032
 20
3.0168336606
 30
0.0
 10
3.2518483784
 20
3.0241596055
 30
0.0
 10
3.2624290487
 20
3.0310666274
 30
0.0
 10
3.2768991172
 20
3.039792959
 30
0.0
 10
3.2954943602
 20
3.0498982619
 30
0.0
 10
3.3182387052
 20
3.0611623562
 30
0.0
 10
3.341115743
 20
3.0720469723
 30
0.0
 10
3.3600557357
 20
3.0812819444
 30
0.0
 10
3.3749847263
 20
3.0890489808
 30
0.0
 10
3.3860351333
 20
3.0951341977
 30
0.0
 10
3.3969067352
 20
3.1015551381
 30
0.0
 10
3.4075586529
 20
3.1083645857
 30
0.0
 10
3.4179627175
 20
3.1155746937
 30
0.0
 10
3.4314547806
 20
3.1257416345
 30
0.0
 10
3.4443048718
 20
3.1367678492
 30
0.0
 10
3.4563345717
 20
3.1486791234
 30
0.0
 10
3.4677764692
 20
3.1611943561
 30
0.0
 10
3.4782589879
 20
3.17456495
 30
0.0
 10
3.4876164262
 20
3.1886958582
 30
0.0
 10
3.4940283648
 20
3.1996465409
 30
0.0
 10
3.4997950863
 20
3.2109261477
 30
0.0
 10
3.5048702743
 20
3.2225160634
 30
0.0
 10
3.5092521019
 20
3.2343808749
 30
0.0
 10
3.5142086213
 20
3.2505332542
 30
0.0
 10
3.5206301222
 20
3.2796106198
 30
0.0
 10
3.5230961781
 20
3.3138238458
 30
0.0
 10
3.5214794284
 20
3.3479999284
 30
0.0
 10
3.5183878314
 20
3.3734778292
 30
0.0
 10
3.5135950594
 20
3.3984751137
 30
0.0
 10
3.5093393463
 20
3.4148161024
 30
0.0
 10
3.5069692264
 20
3.4228482851
 30
0.0
  0
SPLINE
  5
30E
100
AcDbEntity
  8
0
100
AcDbSpline
 62
7
  6
CONTINUOUS
 70
0
 71
3
 72
25
 73
21
 74
0
 42
0.0000001
 43
0.0000001
 44
0.0000000001
 40
0.0
 40
0.0
 40
0.0
 40
0.0
 40
0.0626015986
 40
0.1257868879
 40
0.189453941
 40
0.2534031896
 40
0.3173578918
 40
0.3809813816
 40
0.4125541892
 40
0.4439185669
 40
0.5061166088
 40
0.5678266183
 40
0.6292974349
 40
0.6600219331
 40
0.6907762748
 40
0.7215889734
 40
0.7524771606
 40
0.8143991689
 40
0.8763845454
 40
1.0
 40
1.0
 40
1.0
 40
1.0
 10
3.7993955979
 20
3.1392022672
 30
0.0
 10
3.7853578499
 20
3.1382266868
 30
0.0
 10
3.757230064
 20
3.1349394863
 30
0.0
 10
3.7154597787
 20
3.1264289195
 30
0.0
 10
3.6741776709
 20
3.1146575372
 30
0.0
 10
3.6336661559
 20
3.0999642575
 30
0.0
 10
3.5942038103
 20
3.0826860881
 30
0.0
 10
3.5623422268
 20
3.0663697689
 30
0.0
 10
3.5376038371
 20
3.0523160692
 30
0.0
 10
3.5135489558
 20
3.0377309149
 30
0.0
 10
3.484489978
 20
3.0183607113
 30
0.0
 10
3.4511885211
 20
2.993276976
 30
0.0
 10
3.4247789746
 20
2.9708992666
 30
0.0
 10
3.4044686868
 20
2.952152513
 30
0.0
 10
3.3896222743
 20
2.9376588202
 30
0.0
 10
3.3751566869
 20
2.9227337178
 30
0.0
 10
3.356367418
 20
2.9022576503
 30
0.0
 10
3.3339252171
 20
2.8756364373
 30
0.0
 10
3.300630832
 20
2.8310376597
 30
0.0
 10
3.2788491458
 20
2.7952589039
 30
0.0
 10
3.2661589456
 20
2.770539712
 30
0.0
  0
SPLINE
  5
30F
100
AcDbEntity
  8
0
100
AcDbSpline
 62
7
  6
CONTINUOUS
 70
0
 71
3
 72
21
 73
17
 74
0
 42
0.0000001
 43
0.0000001
 44
0.0000000001
 40
0.0
 40
0.0
 40
0.0
 40
0.0
 40
0.1245433828
 40
0.186823584
 40
0.2490157605
 40
0.3110847488
 40
0.3730169368
 40
0.4039396724
 40
0.4348363302
 40
0.4966154012
 40
0.5585265678
 40
0.6206893939
 40
0.6831744773
 40
0.7460080117
 40
0.8725965953
 40
1.0
 40
1.0
 40
1.0
 40
1.0
 10
3.6527278656
 20
3.5080479642
 30
0.0
 10
3.6521133775
 20
3.492704355
 30
0.0
 10
3.6526439744
 20
3.4695935535
 30
0.0
 10
3.6562937154
 20
3.4390934727
 30
0.0
 10
3.6605158585
 20
3.4164656352
 30
0.0
 10
3.6662337564
 20
3.3942144678
 30
0.0
 10
3.6722598841
 20
3.3760699603
 30
0.0
 10
3.677839504
 20
3.3618653208
 30
0.0
 10
3.6839271335
 20
3.3478913318
 30
0.0
 10
3.6924850463
 20
3.3308411071
 30
0.0
 10
3.704140741
 20
3.3110929685
 30
0.0
 10
3.7170764938
 20
3.2920551162
 30
0.0
 10
3.7311846043
 20
3.273727474
 30
0.0
 10
3.7514626636
 20
3.2501836264
 30
0.0
 10
3.779187512
 20
3.2225747557
 30
0.0
 10
3.8032478529
 20
3.2024702666
 30
0.0
 10
3.8156724111
 20
3.1928583639
 30
0.0
  0
LINE
  5
310
100
AcDbEntity
  8
0
100
AcDbLine
 62
7
  6
CONTINUOUS
 10
4.0335964103
 20
2.7543059637
 11
3.5137942301
 21
2.754286793
  0
SPLINE
  5
311
100
AcDbEntity
  8
0
100
AcDbSpline
 62
7
  6
CONTINUOUS
 70
0
 71
3
 72
50
 73
46
 74
0
 42
0.0000001
 43
0.0000001
 44
0.0000000001
 40
0.0
 40
0.0
 40
0.0
 40
0.0
 40
0.0623405974
 40
0.0935093917
 40
0.1246959333
 40
0.1559313834
 40
0.1872411243
 40
0.2185594819
 40
0.249821225
 40
0.2654252531
 40
0.2810128563
 40
0.2965907593
 40
0.3121696448
 40
0.3277599051
 40
0.3433675611
 40
0.3746390943
 40
0.437309863
 40
0.4686015787
 40
0.4997872877
 40
0.5309238911
 40
0.546492011
 40
0.5620645276
 40
0.577648162
 40
0.5932561903
 40
0.6089090798
 40
0.6246060447
 40
0.6403052781
 40
0.655975674
 40
0.6716056213
 40
0.6872065476
 40
0.6950085218
 40
0.7028173087
 40
0.7184556373
 40
0.7341213868
 40
0.7497988268
 40
0.7654628256
 40
0.7810969615
 40
0.796727489
 40
0.8123767685
 40
0.8437426106
 40
0.8751326123
 40
0.906391658
 40
0.9375821535
 40
0.9687794734
 40
1.0
 40
1.0
 40
1.0
 40
1.0
 10
3.4907447618
 20
2.8034899904
 30
0.0
 10
3.5007943569
 20
2.8155519887
 30
0.0
 10
3.5160496226
 20
2.8334992177
 30
0.0
 10
3.5371355964
 20
2.856774444
 30
0.0
 10
3.5534223038
 20
2.8738169694
 30
0.0
 10
3.570275842
 20
2.8903515838
 30
0.0
 10
3.5877630007
 20
2.906267141
 30
0.0
 10
3.6059667875
 20
2.9213723069
 30
0.0
 10
3.6217960366
 20
2.9331043524
 30
0.0
 10
3.6348708999
 20
2.9418512581
 30
0.0
 10
3.644883456
 20
2.9480593896
 30
0.0
 10
3.6551130515
 20
2.953890909
 30
0.0
 10
3.6655673629
 20
2.9593112965
 30
0.0
 10
3.6762341512
 20
2.9643176908
 30
0.0
 10
3.6907183451
 20
2.9704673266
 30
0.0
 10
3.7166716436
 20
2.9798855034
 30
0.0
 10
3.7472955277
 20
2.9877700058
 30
0.0
 10
3.7783404027
 20
2.9932467958
 30
0.0
 10
3.8017345054
 20
2.9962430239
 30
0.0
 10
3.8212909543
 20
2.9978504884
 30
0.0
 10
3.8369560815
 20
2.9986399013
 30
0.0
 10
3.8487209369
 20
2.998936505
 30
0.0
 10
3.8604999414
 20
2.9988800597
 30
0.0
 10
3.8722907969
 20
2.9984150159
 30
0.0
 10
3.8840835827
 20
2.9974871567
 30
0.0
 10
3.8958481329
 20
2.9960400185
 30
0.0
 10
3.9075302286
 20
2.9939993542
 30
0.0
 10
3.9190608919
 20
2.9912936214
 30
0.0
 10
3.9303688913
 20
2.9878502842
 30
0.0
 10
3.9395489844
 20
2.9843052362
 30
0.0
 10
3.9466976101
 20
2.9810319233
 30
0.0
 10
3.9537119541
 20
2.977459366
 30
0.0
 10
3.9622123762
 20
2.9724604262
 30
0.0
 10
3.9719283559
 20
2.9656891468
 30
0.0
 10
3.9811226993
 20
2.9582153909
 30
0.0
 10
3.9897533341
 20
2.9501095802
 30
0.0
 10
3.9977887183
 20
2.9414307244
 30
0.0
 10
4.0052423371
 20
2.9322537458
 30
0.0
 10
4.0144456815
 20
2.9194300786
 30
0.0
 10
4.0246272224
 20
2.9024692161
 30
0.0
 10
4.0349537937
 20
2.8811361904
 30
0.0
 10
4.043677189
 20
2.859153634
 30
0.0
 10
4.0510424192
 20
2.8367373879
 30
0.0
 10
4.0573481051
 20
2.8140157055
 30
0.0
 10
4.0610469355
 20
2.7987357158
 30
0.0
 10
4.0628212547
 20
2.7910759451
 30
0.0
  0
SPLINE
  5
312
100
AcDbEntity
  8
0
100
AcDbSpline
 62
7
  6
CONTINUOUS
 70
0
 71
3
 72
40
 73
36
 74
0
 42
0.0000001
 43
0.0000001
 44
0.0000000001
 40
0.0
 40
0.0
 40
0.0
 40
0.0
 40
0.063384257
 40
0.0944153799
 40
0.125091214
 40
0.1403642104
 40
0.1556374049
 40
0.1709557043
 40
0.1863491287
 40
0.2018166329
 40
0.2173488032
 40
0.2485310545
 40
0.279744743
 40
0.2953062578
 40
0.3108075273
 40
0.3416953992
 40
0.3725870102
 40
0.4036110896
 40
0.4348506079
 40
0.497786535
 40
0.5293607719
 40
0.5608735762
 40
0.5922648959
 40
0.6235067541
 40
0.6546146566
 40
0.6856656157
 40
0.7167803868
 40
0.7480367335
 40
0.8109829258
 40
0.8426749153
 40
0.8744085622
 40
0.9060994977
 40
0.9376521161
 40
0.9689674513
 40
1.0
 40
1.0
 40
1.0
 40
1.0
 10
3.4548818233
 20
4.1696872441
 30
0.0
 10
3.4533362505
 20
4.1594282324
 30
0.0
 10
3.452128187
 20
4.1439236143
 30
0.0
 10
3.4534556739
 20
4.1234640104
 30
0.0
 10
3.4556159828
 20
4.1110190408
 30
0.0
 10
3.4582087211
 20
4.1013339316
 30
0.0
 10
3.4606001167
 20
4.0942122636
 30
0.0
 10
3.4634599423
 20
4.0872439594
 30
0.0
 10
3.4667849843
 20
4.0804501783
 30
0.0
 10
3.470544333
 20
4.0738467615
 30
0.0
 10
3.4761054469
 20
4.0653162655
 30
0.0
 10
3.4839933617
 20
4.0552550703
 30
0.0
 10
3.4929446032
 20
4.0461238531
 30
0.0
 10
3.5006527618
 20
4.0394469424
 30
0.0
 10
3.5086714382
 20
4.0332331058
 30
0.0
 10
3.5192812441
 20
4.026298844
 30
0.0
 10
3.5328022833
 20
4.0193230816
 30
0.0
 10
3.5469907955
 20
4.0136736039
 30
0.0
 10
3.5666645391
 20
4.0078644805
 30
0.0
 10
3.5871257075
 20
4.0046676381
 30
0.0
 10
3.6077677122
 20
4.0041800136
 30
0.0
 10
3.6232209024
 20
4.0052052618
 30
0.0
 10
3.6384579193
 20
4.0076568274
 30
0.0
 10
3.6533207913
 20
4.0115698736
 30
0.0
 10
3.6676509879
 20
4.0169811097
 30
0.0
 10
3.6812789223
 20
4.0239292534
 30
0.0
 10
3.6941258756
 20
4.0322725279
 30
0.0
 10
3.7101713331
 20
4.045091645
 30
0.0
 10
3.7244231369
 20
4.0601512806
 30
0.0
 10
3.7366591157
 20
4.0768479227
 30
0.0
 10
3.7448230337
 20
4.0901261511
 30
0.0
 10
3.7518899687
 20
4.1039904033
 30
0.0
 10
3.7578155531
 20
4.1183076997
 30
0.0
 10
3.7624567532
 20
4.1329805052
 30
0.0
 10
3.7645942447
 20
4.1429805958
 30
0.0
 10
3.7653894691
 20
4.1479973912
 30
0.0
  0
SPLINE
  5
313
100
AcDbEntity
  8
0
100
AcDbSpline
 62
7
  6
CONTINUOUS
 70
0
 71
3
 72
55
 73
51
 74
0
 42
0.0000001
 43
0.0000001
 44
0.0000000001
 40
0.0
 40
0.0
 40
0.0
 40
0.0
 40
0.0623626546
 40
0.1247555995
 40
0.1872094742
 40
0.2497598177
 40
0.2810850228
 40
0.3124499247
 40
0.3438481711
 40
0.3752492118
 40
0.43794875
 40
0.4692211541
 40
0.5004334057
 40
0.531593878
 40
0.5471614372
 40
0.5627247301
 40
0.578288363
 40
0.5938586741
 40
0.6094412523
 40
0.6250379347
 40
0.6406478212
 40
0.6562684665
 40
0.6718911959
 40
0.6875008791
 40
0.703091765
 40
0.7186752301
 40
0.7264746736
 40
0.7342827758
 40
0.7499173393
 40
0.7655668203
 40
0.7812166163
 40
0.7968520956
 40
0.8124651391
 40
0.8280739655
 40
0.843695503
 40
0.8593359532
 40
0.8749919992
 40
0.8828227812
 40
0.890652488
 40
0.8984785655
 40
0.9062980952
 40
0.9141087535
 40
0.9219100381
 40
0.9297037785
 40
0.9374945914
 40
0.9452902335
 40
0.9530962632
 40
0.9687284279
 40
0.9843714825
 40
1.0
 40
1.0
 40
1.0
 40
1.0
 10
2.8123350766
 20
4.3986901875
 30
0.0
 10
2.8256837967
 20
4.3964954811
 30
0.0
 10
2.8523140969
 20
4.3916421912
 30
0.0
 10
2.8919921737
 20
4.3829526124
 30
0.0
 10
2.9313714648
 20
4.3728291801
 30
0.0
 10
2.9638912381
 20
4.3631838837
 30
0.0
 10
2.989711806
 20
4.3547310294
 30
0.0
 10
3.0089874533
 20
4.3480179665
 30
0.0
 10
3.0281454527
 20
4.3409271158
 30
0.0
 10
3.0534579148
 20
4.3309030419
 30
0.0
 10
3.0783581224
 20
4.3199211128
 30
0.0
 10
3.1026546722
 20
4.3077827699
 30
0.0
 10
3.1204995614
 20
4.2980668912
 30
0.0
 10
3.1350295925
 20
4.2894124911
 30
0.0
 10
3.1464158144
 20
4.2821348245
 30
0.0
 10
3.1548305748
 20
4.2764948783
 30
0.0
 10
3.1631140412
 20
4.2706627093
 30
0.0
 10
3.1712692304
 20
4.2646458662
 30
0.0
 10
3.1793306884
 20
4.2584927648
 30
0.0
 10
3.1873290098
 20
4.2522441519
 30
0.0
 10
3.1952969698
 20
4.2459437165
 30
0.0
 10
3.2032623444
 20
4.239630963
 30
0.0
 10
3.2112653916
 20
4.2333657602
 30
0.0
 10
3.2193790043
 20
4.227253769
 30
0.0
 10
3.22766874
 20
4.2213958619
 30
0.0
 10
3.2347773223
 20
4.2168124167
 30
0.0
 10
3.2406106029
 20
4.2133824833
 30
0.0
 10
3.2465497238
 20
4.2101164091
 30
0.0
 10
3.2541511996
 20
4.2063466723
 30
0.0
 10
3.2635163446
 20
4.2023399318
 30
0.0
 10
3.2730910589
 20
4.1988627268
 30
0.0
 10
3.2828379975
 20
4.195929165
 30
0.0
 10
3.2927267648
 20
4.193555628
 30
0.0
 10
3.3027222657
 20
4.1917036333
 30
0.0
 10
3.3127994013
 20
4.1903263518
 30
0.0
 10
3.3229354361
 20
4.1893778478
 30
0.0
 10
3.3314118539
 20
4.1889063696
 30
0.0
 10
3.3382021517
 20
4.1886974325
 30
0.0
 10
3.34329655
 20
4.1886194133
 30
0.0
 10
3.3483890425
 20
4.1886135238
 30
0.0
 10
3.3534770689
 20
4.1886773827
 30
0.0
 10
3.3585578263
 20
4.1888349929
 30
0.0
 10
3.3636282642
 20
4.1891077806
 30
0.0
 10
3.3686853184
 20
4.1895180562
 30
0.0
 10
3.3737259426
 20
4.1900873661
 30
0.0
 10
3.3787455933
 20
4.190839461
 30
0.0
 10
3.3854032922
 20
4.192104156
 30
0.0
 10
3.3936366846
 20
4.1941616065
 30
0.0
 10
3.4033030995
 20
4.1973649109
 30
0.0
 10
3.4095715232
 20
4.1999774887
 30
0.0
 10
3.4126499493
 20
4.201397601
 30
0.0
  0
SPLINE
  5
314
100
AcDbEntity
  8
0
100
AcDbSpline
 62
7
  6
CONTINUOUS
 70
0
 71
3
 72
9
 73
5
 74
0
 42
0.0000001
 43
0.0000001
 44
0.0000000001
 40
0.0
 40
0.0
 40
0.0
 40
0.0
 40
0.4995333303
 40
1.0
 40
1.0
 40
1.0
 40
1.0
 10
2.7596951745
 20
4.3226178237
 30
0.0
 10
2.763851447
 20
4.330986602
 30
0.0
 10
2.7710855687
 20
4.348297722
 30
0.0
 10
2.7761605577
 20
4.3663526216
 30
0.0
 10
2.778160887
 20
4.3754979104
 30
0.0
  0
SPLINE
  5
315
100
AcDbEntity
  8
0
100
AcDbSpline
 62
7
  6
CONTINUOUS
 70
0
 71
3
 72
37
 73
33
 74
0
 42
0.0000001
 43
0.0000001
 44
0.0000000001
 40
0.0
 40
0.0
 40
0.0
 40
0.0
 40
0.0620922797
 40
0.0931129757
 40
0.1240455863
 40
0.1549705286
 40
0.1704943597
 40
0.1860839974
 40
0.217474629
 40
0.2491642017
 40
0.2810967366
 40
0.3131779454
 40
0.3452967824
 40
0.3773460174
 40
0.4092428043
 40
0.4409502068
 40
0.4725055841
 40
0.5039723573
 40
0.5665755777
 40
0.5977542716
 40
0.628767325
 40
0.6442103612
 40
0.6596172457
 40
0.6904130442
 40
0.7213192336
 40
0.752400852
 40
0.8149417565
 40
0.8462476965
 40
0.8773599092
 40
0.908200347
 40
0.9388583817
 40
1.0
 40
1.0
 40
1.0
 40
1.0
 10
3.709471999
 20
4.2114143138
 30
0.0
 10
3.7064852838
 20
4.2073246698
 30
0.0
 10
3.7014628616
 20
4.2015526847
 30
0.0
 10
3.693755114
 20
4.1949775511
 30
0.0
 10
3.6874789125
 20
4.190706468
 30
0.0
 10
3.6818597997
 20
4.1877939908
 30
0.0
 10
3.6771587294
 20
4.1859140763
 30
0.0
 10
3.6723102368
 20
4.1843297694
 30
0.0
 10
3.666035951
 20
4.1829090848
 30
0.0
 10
3.658314696
 20
4.1820847747
 30
0.0
 10
3.6504938534
 20
4.1821179421
 30
0.0
 10
3.6426874699
 20
4.1829926139
 30
0.0
 10
3.6350086629
 20
4.1846933623
 30
0.0
 10
3.6275711884
 20
4.1872061859
 30
0.0
 10
3.6204884098
 20
4.1905169318
 30
0.0
 10
3.613876467
 20
4.1946172511
 30
0.0
 10
3.6078472986
 20
4.1994804499
 30
0.0
 10
3.6006686751
 20
4.2068153314
 30
0.0
 10
3.5948059955
 20
4.2153056881
 30
0.0
 10
3.5904829894
 20
4.2245366134
 30
0.0
 10
3.5884503039
 20
4.2305500141
 30
0.0
 10
3.5872547295
 20
4.2354542026
 30
0.0
 10
3.5863487458
 20
4.2404021765
 30
0.0
 10
3.5857327519
 20
4.2466737868
 30
0.0
 10
3.5857581541
 20
4.2542526701
 30
0.0
 10
3.5867195984
 20
4.2643745766
 30
0.0
 10
3.5889320707
 20
4.2743670001
 30
0.0
 10
3.5921268114
 20
4.2840489356
 30
0.0
 10
3.5949526014
 20
4.2911159813
 30
0.0
 10
3.5981656531
 20
4.2979566814
 30
0.0
 10
3.6029458433
 20
4.3067475043
 30
0.0
 10
3.607095265
 20
4.313005398
 30
0.0
 10
3.6100791552
 20
4.3170007418
 30
0.0
  0
SPLINE
  5
316
100
AcDbEntity
  8
0
100
AcDbSpline
 62
7
  6
CONTINUOUS
 70
0
 71
3
 72
37
 73
33
 74
0
 42
0.0000001
 43
0.0000001
 44
0.0000000001
 40
0.0
 40
0.0
 40
0.0
 40
0.0
 40
0.0620922797
 40
0.0931129757
 40
0.1240455863
 40
0.1549705286
 40
0.1704943597
 40
0.1860839974
 40
0.217474629
 40
0.2491642017
 40
0.2810967366
 40
0.3131779454
 40
0.3452967824
 40
0.3773460174
 40
0.4092428043
 40
0.4409502068
 40
0.4725055841
 40
0.5039723573
 40
0.5665755777
 40
0.5977542716
 40
0.628767325
 40
0.6442103612
 40
0.6596172457
 40
0.6904130442
 40
0.7213192336
 40
0.752400852
 40
0.8149417565
 40
0.8462476965
 40
0.8773599092
 40
0.908200347
 40
0.9388583817
 40
1.0
 40
1.0
 40
1.0
 40
1.0
 10
4.1680980646
 20
3.7560410983
 30
0.0
 10
4.1640084207
 20
3.7530543832
 30
0.0
 10
4.1582364356
 20
3.748031961
 30
0.0
 10
4.1516613019
 20
3.7403242134
 30
0.0
 10
4.1473902188
 20
3.7340480119
 30
0.0
 10
4.1444777417
 20
3.728428899
 30
0.0
 10
4.1425978272
 20
3.7237278288
 30
0.0
 10
4.1410135202
 20
3.7188793362
 30
0.0
 10
4.1395928356
 20
3.7126050504
 30
0.0
 10
4.1387685255
 20
3.7048837954
 30
0.0
 10
4.138801693
 20
3.6970629528
 30
0.0
 10
4.1396763648
 20
3.6892565693
 30
0.0
 10
4.1413771131
 20
3.6815777623
 30
0.0
 10
4.1438899368
 20
3.6741402878
 30
0.0
 10
4.1472006827
 20
3.6670575092
 30
0.0
 10
4.151301002
 20
3.6604455664
 30
0.0
 10
4.1561642008
 20
3.654416398
 30
0.0
 10
4.1634990823
 20
3.6472377745
 30
0.0
 10
4.171989439
 20
3.6413750949
 30
0.0
 10
4.1812203642
 20
3.6370520888
 30
0.0
 10
4.1872337649
 20
3.6350194032
 30
0.0
 10
4.1921379534
 20
3.6338238289
 30
0.0
 10
4.1970859274
 20
3.6329178452
 30
0.0
 10
4.2033575376
 20
3.6323018513
 30
0.0
 10
4.210936421
 20
3.6323272535
 30
0.0
 10
4.2210583275
 20
3.6332886978
 30
0.0
 10
4.231050751
 20
3.63550117
 30
0.0
 10
4.2407326865
 20
3.6386959108
 30
0.0
 10
4.2477997321
 20
3.6415217008
 30
0.0
 10
4.2546404322
 20
3.6447347525
 30
0.0
 10
4.2634312551
 20
3.6495149427
 30
0.0
 10
4.2696891489
 20
3.6536643643
 30
0.0
 10
4.2736844926
 20
3.6566482546
 30
0.0
  0
SPLINE
  5
317
100
AcDbEntity
  8
0
100
AcDbSpline
 62
7
  6
CONTINUOUS
 70
0
 71
3
 72
9
 73
5
 74
0
 42
0.0000001
 43
0.0000001
 44
0.0000000001
 40
0.0
 40
0.0
 40
0.0
 40
0.0
 40
0.4995333303
 40
1.0
 40
1.0
 40
1.0
 40
1.0
 10
4.2793015745
 20
2.8062642739
 30
0.0
 10
4.2876703528
 20
2.8104205464
 30
0.0
 10
4.3049814729
 20
2.8176546681
 30
0.0
 10
4.3230363725
 20
2.8227296571
 30
0.0
 10
4.3321816612
 20
2.8247299864
 30
0.0
  0
SPLINE
  5
318
100
AcDbEntity
  8
0
100
AcDbSpline
 62
7
  6
CONTINUOUS
 70
0
 71
3
 72
55
 73
51
 74
0
 42
0.0000001
 43
0.0000001
 44
0.0000000001
 40
0.0
 40
0.0
 40
0.0
 40
0.0
 40
0.0623626546
 40
0.1247555995
 40
0.1872094742
 40
0.2497598177
 40
0.2810850228
 40
0.3124499247
 40
0.3438481711
 40
0.3752492118
 40
0.43794875
 40
0.4692211541
 40
0.5004334057
 40
0.531593878
 40
0.5471614372
 40
0.5627247301
 40
0.578288363
 40
0.5938586741
 40
0.6094412523
 40
0.6250379347
 40
0.6406478212
 40
0.6562684665
 40
0.6718911959
 40
0.6875008791
 40
0.703091765
 40
0.7186752301
 40
0.7264746736
 40
0.7342827758
 40
0.7499173393
 40
0.7655668203
 40
0.7812166163
 40
0.7968520956
 40
0.8124651391
 40
0.8280739655
 40
0.843695503
 40
0.8593359532
 40
0.8749919992
 40
0.8828227812
 40
0.890652488
 40
0.8984785655
 40
0.9062980952
 40
0.9141087535
 40
0.9219100381
 40
0.9297037785
 40
0.9374945914
 40
0.9452902335
 40
0.9530962632
 40
0.9687284279
 40
0.9843714825
 40
1.0
 40
1.0
 40
1.0
 40
1.0
 10
4.3553739383
 20
2.858904176
 30
0.0
 10
4.3531792319
 20
2.8722528961
 30
0.0
 10
4.3483259421
 20
2.8988831963
 30
0.0
 10
4.3396363632
 20
2.9385612731
 30
0.0
 10
4.329512931
 20
2.9779405642
 30
0.0
 10
4.3198676346
 20
3.0104603374
 30
0.0
 10
4.3114147803
 20
3.0362809054
 30
0.0
 10
4.3047017174
 20
3.0555565527
 30
0.0
 10
4.2976108667
 20
3.0747145521
 30
0.0
 10
4.2875867927
 20
3.1000270142
 30
0.0
 10
4.2766048636
 20
3.1249272218
 30
0.0
 10
4.2644665208
 20
3.1492237715
 30
0.0
 10
4.254750642
 20
3.1670686608
 30
0.0
 10
4.246096242
 20
3.1815986919
 30
0.0
 10
4.2388185753
 20
3.1929849137
 30
0.0
 10
4.2331786291
 20
3.2013996742
 30
0.0
 10
4.2273464601
 20
3.2096831406
 30
0.0
 10
4.221329617
 20
3.2178383298
 30
0.0
 10
4.2151765157
 20
3.2258997878
 30
0.0
 10
4.2089279028
 20
3.2338981091
 30
0.0
 10
4.2026274673
 20
3.2418660692
 30
0.0
 10
4.1963147139
 20
3.2498314438
 30
0.0
 10
4.1900495111
 20
3.2578344909
 30
0.0
 10
4.1839375199
 20
3.2659481037
 30
0.0
 10
4.1780796128
 20
3.2742378394
 30
0.0
 10
4.1734961675
 20
3.2813464217
 30
0.0
 10
4.1700662341
 20
3.2871797022
 30
0.0
 10
4.1668001599
 20
3.2931188232
 30
0.0
 10
4.1630304231
 20
3.300720299
 30
0.0
 10
4.1590236826
 20
3.3100854439
 30
0.0
 10
4.1555464777
 20
3.3196601583
 30
0.0
 10
4.1526129158
 20
3.3294070969
 30
0.0
 10
4.1502393789
 20
3.3392958641
 30
0.0
 10
4.1483873841
 20
3.3492913651
 30
0.0
 10
4.1470101027
 20
3.3593685006
 30
0.0
 10
4.1460615987
 20
3.3695045354
 30
0.0
 10
4.1455901204
 20
3.3779809533
 30
0.0
 10
4.1453811833
 20
3.3847712511
 30
0.0
 10
4.1453031641
 20
3.3898656494
 30
0.0
 10
4.1452972746
 20
3.3949581419
 30
0.0
 10
4.1453611336
 20
3.4000461682
 30
0.0
 10
4.1455187437
 20
3.4051269256
 30
0.0
 10
4.1457915314
 20
3.4101973636
 30
0.0
 10
4.146201807
 20
3.4152544178
 30
0.0
 10
4.1467711169
 20
3.420295042
 30
0.0
 10
4.1475232118
 20
3.4253146926
 30
0.0
 10
4.1487879068
 20
3.4319723916
 30
0.0
 10
4.1508453573
 20
3.440205784
 30
0.0
 10
4.1540486618
 20
3.4498721989
 30
0.0
 10
4.1566612396
 20
3.4561406226
 30
0.0
 10
4.1580813519
 20
3.4592190486
 30
0.0
  0
SPLINE
  5
319
100
AcDbEntity
  8
0
100
AcDbSpline
 62
7
  6
CONTINUOUS
 70
0
 71
3
 72
40
 73
36
 74
0
 42
0.0000001
 43
0.0000001
 44
0.0000000001
 40
0.0
 40
0.0
 40
0.0
 40
0.0
 40
0.063384257
 40
0.0944153799
 40
0.125091214
 40
0.1403642104
 40
0.1556374049
 40
0.1709557043
 40
0.1863491287
 40
0.2018166329
 40
0.2173488032
 40
0.2485310545
 40
0.279744743
 40
0.2953062578
 40
0.3108075273
 40
0.3416953992
 40
0.3725870102
 40
0.4036110896
 40
0.4348506079
 40
0.497786535
 40
0.5293607719
 40
0.5608735762
 40
0.5922648959
 40
0.6235067541
 40
0.6546146566
 40
0.6856656157
 40
0.7167803868
 40
0.7480367335
 40
0.8109829258
 40
0.8426749153
 40
0.8744085622
 40
0.9060994977
 40
0.9376521161
 40
0.9689674513
 40
1.0
 40
1.0
 40
1.0
 40
1.0
 10
4.126370995
 20
3.5014509227
 30
0.0
 10
4.1161119832
 20
3.4999053498
 30
0.0
 10
4.1006073651
 20
3.4986972864
 30
0.0
 10
4.0801477613
 20
3.5000247733
 30
0.0
 10
4.0677027917
 20
3.5021850822
 30
0.0
 10
4.0580176825
 20
3.5047778205
 30
0.0
 10
4.0508960145
 20
3.5071692161
 30
0.0
 10
4.0439277102
 20
3.5100290417
 30
0.0
 10
4.0371339292
 20
3.5133540837
 30
0.0
 10
4.0305305123
 20
3.5171134324
 30
0.0
 10
4.0220000164
 20
3.5226745463
 30
0.0
 10
4.0119388211
 20
3.530562461
 30
0.0
 10
4.0028076039
 20
3.5395137026
 30
0.0
 10
3.9961306932
 20
3.5472218612
 30
0.0
 10
3.9899168566
 20
3.5552405375
 30
0.0
 10
3.9829825949
 20
3.5658503435
 30
0.0
 10
3.9760068325
 20
3.5793713826
 30
0.0
 10
3.9703573547
 20
3.5935598948
 30
0.0
 10
3.9645482314
 20
3.6132336384
 30
0.0
 10
3.9613513889
 20
3.6336948069
 30
0.0
 10
3.9608637644
 20
3.6543368116
 30
0.0
 10
3.9618890127
 20
3.6697900018
 30
0.0
 10
3.9643405782
 20
3.6850270186
 30
0.0
 10
3.9682536244
 20
3.6998898907
 30
0.0
 10
3.9736648605
 20
3.7142200873
 30
0.0
 10
3.9806130042
 20
3.7278480217
 30
0.0
 10
3.9889562787
 20
3.740694975
 30
0.0
 10
4.0017753958
 20
3.7567404325
 30
0.0
 10
4.0168350315
 20
3.7709922363
 30
0.0
 10
4.0335316735
 20
3.7832282151
 30
0.0
 10
4.0468099019
 20
3.7913921331
 30
0.0
 10
4.0606741541
 20
3.7984590681
 30
0.0
 10
4.0749914506
 20
3.8043846525
 30
0.0
 10
4.089664256
 20
3.8090258525
 30
0.0
 10
4.0996643467
 20
3.8111633441
 30
0.0
 10
4.1046811421
 20
3.8119585685
 30
0.0
  0
SPLINE
  5
31A
100
AcDbEntity
  8
0
100
AcDbSpline
 62
7
  6
CONTINUOUS
 70
0
 71
3
 72
31
 73
27
 74
0
 42
0.0000001
 43
0.0000001
 44
0.0000000001
 40
0.0
 40
0.0
 40
0.0
 40
0.0
 40
0.0630029885
 40
0.1272668776
 40
0.159640704
 40
0.1920540469
 40
0.2244560861
 40
0.2568099626
 40
0.2890063467
 40
0.3208795761
 40
0.3828230401
 40
0.412726489
 40
0.4421027965
 40
0.5
 40
0.5578972035
 40
0.587273511
 40
0.6171769599
 40
0.6791204239
 40
0.7109936533
 40
0.7431900374
 40
0.7755439139
 40
0.8079459531
 40
0.840359296
 40
0.8727331224
 40
0.9369970115
 40
1.0
 40
1.0
 40
1.0
 40
1.0
 10
4.2861110699
 20
4.4601589997
 30
0.0
 10
4.2839857261
 20
4.4555612467
 30
0.0
 10
4.2804004727
 20
4.4459320792
 30
0.0
 10
4.2777116343
 20
4.4333325449
 30
0.0
 10
4.2767024827
 20
4.4229975282
 30
0.0
 10
4.2765548503
 20
4.4151767003
 30
0.0
 10
4.2770486804
 20
4.4073707863
 30
0.0
 10
4.2782131515
 20
4.3996543063
 30
0.0
 10
4.2799890446
 20
4.3920996006
 30
0.0
 10
4.2830621638
 20
4.3824386079
 30
0.0
 10
4.287121513
 20
4.3733092862
 30
0.0
 10
4.292073699
 20
4.364906709
 30
0.0
 10
4.2974566671
 20
4.3571654163
 30
0.0
 10
4.305158132
 20
4.3483425918
 30
0.0
 10
4.3139809565
 20
4.3406411269
 30
0.0
 10
4.3217222492
 20
4.3352581588
 30
0.0
 10
4.3301248264
 20
4.3303059728
 30
0.0
 10
4.3392541481
 20
4.3262466236
 30
0.0
 10
4.3489151408
 20
4.3231735044
 30
0.0
 10
4.3564698465
 20
4.3213976113
 30
0.0
 10
4.3641863265
 20
4.3202331402
 30
0.0
 10
4.3719922405
 20
4.3197393101
 30
0.0
 10
4.3798130684
 20
4.3198869425
 30
0.0
 10
4.3901480851
 20
4.3208960941
 30
0.0
 10
4.4027476194
 20
4.3235849325
 30
0.0
 10
4.4123767869
 20
4.3271701859
 30
0.0
 10
4.4169745399
 20
4.3292955297
 30
0.0
  0
SPLINE
  5
31B
100
AcDbEntity
  8
0
100
AcDbSpline
 62
7
  6
CONTINUOUS
 70
0
 71
3
 72
31
 73
27
 74
0
 42
0.0000001
 43
0.0000001
 44
0.0000000001
 40
0.0
 40
0.0
 40
0.0
 40
0.0
 40
0.0630029885
 40
0.1272668776
 40
0.159640704
 40
0.1920540469
 40
0.2244560861
 40
0.2568099626
 40
0.2890063467
 40
0.3208795761
 40
0.3828230401
 40
0.412726489
 40
0.4421027965
 40
0.5
 40
0.5578972035
 40
0.587273511
 40
0.6171769599
 40
0.6791204239
 40
0.7109936533
 40
0.7431900374
 40
0.7755439139
 40
0.8079459531
 40
0.840359296
 40
0.8727331224
 40
0.9369970115
 40
1.0
 40
1.0
 40
1.0
 40
1.0
 10
4.4420543114
 20
4.3292955297
 30
0.0
 10
4.4466520644
 20
4.3271701859
 30
0.0
 10
4.4562812318
 20
4.3235849325
 30
0.0
 10
4.4688807661
 20
4.3208960941
 30
0.0
 10
4.4792157829
 20
4.3198869425
 30
0.0
 10
4.4870366108
 20
4.3197393101
 30
0.0
 10
4.4948425248
 20
4.3202331402
 30
0.0
 10
4.5025590048
 20
4.3213976113
 30
0.0
 10
4.5101137105
 20
4.3231735044
 30
0.0
 10
4.5197747032
 20
4.3262466236
 30
0.0
 10
4.5289040249
 20
4.3303059728
 30
0.0
 10
4.5373066021
 20
4.3352581588
 30
0.0
 10
4.5450478948
 20
4.3406411269
 30
0.0
 10
4.5538707193
 20
4.3483425918
 30
0.0
 10
4.5615721842
 20
4.3571654163
 30
0.0
 10
4.5669551523
 20
4.364906709
 30
0.0
 10
4.5719073383
 20
4.3733092862
 30
0.0
 10
4.5759666875
 20
4.3824386079
 30
0.0
 10
4.5790398067
 20
4.3920996006
 30
0.0
 10
4.5808156998
 20
4.3996543063
 30
0.0
 10
4.5819801709
 20
4.4073707863
 30
0.0
 10
4.582474001
 20
4.4151767003
 30
0.0
 10
4.5823263686
 20
4.4229975282
 30
0.0
 10
4.581317217
 20
4.433332545
 30
0.0
 10
4.5786283786
 20
4.4459320793
 30
0.0
 10
4.5750431252
 20
4.4555612467
 30
0.0
 10
4.5729177813
 20
4.4601589997
 30
0.0
  0
SPLINE
  5
31C
100
AcDbEntity
  8
0
100
AcDbSpline
 62
7
  6
CONTINUOUS
 70
0
 71
3
 72
31
 73
27
 74
0
 42
0.0000001
 43
0.0000001
 44
0.0000000001
 40
0.0
 40
0.0
 40
0.0
 40
0.0
 40
0.0630029885
 40
0.1272668776
 40
0.159640704
 40
0.1920540469
 40
0.2244560861
 40
0.2568099626
 40
0.2890063467
 40
0.3208795761
 40
0.3828230401
 40
0.412726489
 40
0.4421027965
 40
0.5
 40
0.5578972035
 40
0.587273511
 40
0.6171769599
 40
0.6791204239
 40
0.7109936533
 40
0.7431900374
 40
0.7755439139
 40
0.8079459531
 40
0.840359296
 40
0.8727331224
 40
0.9369970115
 40
1.0
 40
1.0
 40
1.0
 40
1.0
 10
4.5729177814
 20
4.4852387712
 30
0.0
 10
4.5750431252
 20
4.4898365242
 30
0.0
 10
4.5786283786
 20
4.4994656917
 30
0.0
 10
4.581317217
 20
4.512065226
 30
0.0
 10
4.5823263686
 20
4.5224002427
 30
0.0
 10
4.582474001
 20
4.5302210706
 30
0.0
 10
4.5819801709
 20
4.5380269846
 30
0.0
 10
4.5808156998
 20
4.5457434646
 30
0.0
 10
4.5790398067
 20
4.5532981703
 30
0.0
 10
4.5759666875
 20
4.562959163
 30
0.0
 10
4.5719073383
 20
4.5720884847
 30
0.0
 10
4.5669551523
 20
4.5804910619
 30
0.0
 10
4.5615721842
 20
4.5882323546
 30
0.0
 10
4.5538707193
 20
4.5970551791
 30
0.0
 10
4.5450478948
 20
4.604756644
 30
0.0
 10
4.5373066021
 20
4.6101396121
 30
0.0
 10
4.5289040249
 20
4.6150917981
 30
0.0
 10
4.5197747032
 20
4.6191511473
 30
0.0
 10
4.5101137105
 20
4.6222242665
 30
0.0
 10
4.5025590047
 20
4.6240001596
 30
0.0
 10
4.4948425248
 20
4.6251646307
 30
0.0
 10
4.4870366108
 20
4.6256584608
 30
0.0
 10
4.4792157829
 20
4.6255108284
 30
0.0
 10
4.4688807661
 20
4.6245016768
 30
0.0
 10
4.4562812318
 20
4.6218128384
 30
0.0
 10
4.4466520644
 20
4.618227585
 30
0.0
 10
4.4420543114
 20
4.6161022412
 30
0.0
  0
SPLINE
  5
31D
100
AcDbEntity
  8
0
100
AcDbSpline
 62
7
  6
CONTINUOUS
 70
0
 71
3
 72
31
 73
27
 74
0
 42
0.0000001
 43
0.0000001
 44
0.0000000001
 40
0.0
 40
0.0
 40
0.0
 40
0.0
 40
0.0630029885
 40
0.1272668776
 40
0.159640704
 40
0.1920540469
 40
0.2244560861
 40
0.2568099626
 40
0.2890063467
 40
0.3208795761
 40
0.3828230401
 40
0.412726489
 40
0.4421027965
 40
0.5
 40
0.5578972035
 40
0.587273511
 40
0.6171769599
 40
0.6791204239
 40
0.7109936533
 40
0.7431900374
 40
0.7755439139
 40
0.8079459531
 40
0.840359296
 40
0.8727331224
 40
0.9369970115
 40
1.0
 40
1.0
 40
1.0
 40
1.0
 10
4.4169745398
 20
4.6161022412
 30
0.0
 10
4.4123767869
 20
4.618227585
 30
0.0
 10
4.4027476194
 20
4.6218128384
 30
0.0
 10
4.3901480851
 20
4.6245016768
 30
0.0
 10
4.3798130683
 20
4.6255108284
 30
0.0
 10
4.3719922405
 20
4.6256584608
 30
0.0
 10
4.3641863265
 20
4.6251646307
 30
0.0
 10
4.3564698465
 20
4.6240001596
 30
0.0
 10
4.3489151408
 20
4.6222242665
 30
0.0
 10
4.3392541481
 20
4.6191511473
 30
0.0
 10
4.3301248264
 20
4.6150917981
 30
0.0
 10
4.3217222492
 20
4.6101396121
 30
0.0
 10
4.3139809565
 20
4.604756644
 30
0.0
 10
4.305158132
 20
4.5970551791
 30
0.0
 10
4.2974566671
 20
4.5882323546
 30
0.0
 10
4.292073699
 20
4.5804910619
 30
0.0
 10
4.287121513
 20
4.5720884847
 30
0.0
 10
4.2830621638
 20
4.562959163
 30
0.0
 10
4.2799890446
 20
4.5532981703
 30
0.0
 10
4.2782131515
 20
4.5457434646
 30
0.0
 10
4.2770486804
 20
4.5380269846
 30
0.0
 10
4.2765548503
 20
4.5302210706
 30
0.0
 10
4.2767024827
 20
4.5224002427
 30
0.0
 10
4.2777116343
 20
4.5120652259
 30
0.0
 10
4.2804004727
 20
4.4994656916
 30
0.0
 10
4.2839857261
 20
4.4898365242
 30
0.0
 10
4.2861110699
 20
4.4852387712
 30
0.0
  0
SPLINE
  5
31E
100
AcDbEntity
  8
0
100
AcDbSpline
 62
7
  6
CONTINUOUS
 70
0
 71
3
 72
12
 73
8
 74
0
 42
0.0000001
 43
0.0000001
 44
0.0000000001
 40
0.0
 40
0.0
 40
0.0
 40
0.0
 40
0.2500444712
 40
0.4991430423
 40
0.6238207967
 40
0.7488001206
 40
1.0
 40
1.0
 40
1.0
 40
1.0
 10
4.1014282651
 20
5.1366920569
 30
0.0
 10
4.1058539894
 20
5.1359905238
 30
0.0
 10
4.1147611852
 20
5.1350060705
 30
0.0
 10
4.1259634503
 20
5.1349320396
 30
0.0
 10
4.1348788087
 20
5.1356273837
 30
0.0
 10
4.1437792611
 20
5.1368126506
 30
0.0
 10
4.1503867368
 20
5.1382195983
 30
0.0
 10
4.1547419653
 20
5.1393585284
 30
0.0
  0
SPLINE
  5
31F
100
AcDbEntity
  8
0
100
AcDbSpline
 62
7
  6
CONTINUOUS
 70
0
 71
3
 72
52
 73
48
 74
0
 42
0.0000001
 43
0.0000001
 44
0.0000000001
 40
0.0
 40
0.0
 40
0.0
 40
0.0
 40
0.0155199648
 40
0.031066105
 40
0.0466054385
 40
0.0543686685
 40
0.0621263426
 40
0.077642698
 40
0.093207301
 40
0.1245938428
 40
0.1564405143
 40
0.1886950301
 40
0.221174532
 40
0.2536093541
 40
0.2697163265
 40
0.2856902256
 40
0.3171636229
 40
0.3481652491
 40
0.3635874374
 40
0.3790170182
 40
0.3944980037
 40
0.4100333037
 40
0.4411950971
 40
0.4567898372
 40
0.4723538515
 40
0.5034153135
 40
0.5344846035
 40
0.5500308897
 40
0.5655737474
 40
0.5811080563
 40
0.5966334889
 40
0.6121505819
 40
0.6276607299
 40
0.6431663162
 40
0.6586708086
 40
0.6896807909
 40
0.7206952345
 40
0.7516968523
 40
0.7827171918
 40
0.8137780878
 40
0.8293249165
 40
0.844878095
 40
0.8759815313
 40
0.9070572829
 40
0.9380838338
 40
0.9690557578
 40
1.0
 40
1.0
 40
1.0
 40
1.0
 10
4.2704311311
 20
5.2920027484
 30
0.0
 10
4.272924492
 20
5.2901406203
 30
0.0
 10
4.2777883324
 20
5.2862390054
 30
0.0
 10
4.2846408193
 20
5.279873171
 30
0.0
 10
4.2899288692
 20
5.2741409267
 30
0.0
 10
4.293862156
 20
5.2693099961
 30
0.0
 10
4.297581881
 20
5.2643184722
 30
0.0
 10
4.3018293104
 20
5.2577788446
 30
0.0
 10
4.3077831799
 20
5.2467461793
 30
0.0
 10
4.3136597961
 20
5.2320134853
 30
0.0
 10
4.3182896313
 20
5.2133834382
 30
0.0
 10
4.3206587103
 20
5.1941191031
 30
0.0
 10
4.3208897144
 20
5.1746008028
 30
0.0
 10
4.319396053
 20
5.1583929236
 30
0.0
 10
4.317231835
 20
5.1456340517
 30
0.0
 10
4.3144651901
 20
5.1331898674
 30
0.0
 10
4.3098634129
 20
5.1181135111
 30
0.0
 10
4.3035577824
 20
5.1037749907
 30
0.0
 10
4.2974704032
 20
5.0929598586
 30
0.0
 10
4.2923664582
 20
5.0851878229
 30
0.0
 10
4.286715918
 20
5.0777752367
 30
0.0
 10
4.2785124927
 20
5.068377469
 30
0.0
 10
4.2694150002
 20
5.0597649159
 30
0.0
 10
4.259615063
 20
5.0520033442
 30
0.0
 10
4.2493998165
 20
5.0448297992
 30
0.0
 10
4.2359278061
 20
5.0369452682
 30
0.0
 10
4.2217562339
 20
5.0304280162
 30
0.0
 10
4.2101140209
 20
5.0259702134
 30
0.0
 10
4.2012521924
 20
5.0229844242
 30
0.0
 10
4.1922825226
 20
5.0203556572
 30
0.0
 10
4.1832186316
 20
5.0180935655
 30
0.0
 10
4.1740745485
 20
5.0162048328
 30
0.0
 10
4.1648640049
 20
5.0146969833
 30
0.0
 10
4.1556005996
 20
5.0135768794
 30
0.0
 10
4.1431990122
 20
5.0126120828
 30
0.0
 10
4.127636751
 20
5.0123732281
 30
0.0
 10
4.1090029482
 20
5.013537977
 30
0.0
 10
4.0905036648
 20
5.0160643784
 30
0.0
 10
4.0722145916
 20
5.0198551654
 30
0.0
 10
4.0571959033
 20
5.0239850405
 30
0.0
 10
4.0453362152
 20
5.0278241576
 30
0.0
 10
4.0335832719
 20
5.0320040584
 30
0.0
 10
4.0191268907
 20
5.037856333
 30
0.0
 10
4.00224286
 20
5.0458958605
 30
0.0
 10
3.9859140863
 20
5.0549594098
 30
0.0
 10
3.9702359162
 20
5.0650596172
 30
0.0
 10
3.9602723162
 20
5.0724843856
 30
0.0
 10
3.9554170935
 20
5.0763477812
 30
0.0
  0
SPLINE
  5
320
100
AcDbEntity
  8
0
100
AcDbSpline
 62
7
  6
CONTINUOUS
 70
0
 71
3
 72
73
 73
69
 74
0
 42
0.0000001
 43
0.0000001
 44
0.0000000001
 40
0.0
 40
0.0
 40
0.0
 40
0.0
 40
0.0155622058
 40
0.0311657424
 40
0.0468226892
 40
0.0625345329
 40
0.0782933378
 40
0.0940828789
 40
0.1019825151
 40
0.1098806172
 40
0.1256613693
 40
0.1414102406
 40
0.1571159697
 40
0.1883664467
 40
0.203923055
 40
0.2194421825
 40
0.2271935316
 40
0.2349430037
 40
0.2504548873
 40
0.2660178935
 40
0.2816651033
 40
0.2895297196
 40
0.2974247211
 40
0.3132798034
 40
0.329160483
 40
0.3449999603
 40
0.3607438675
 40
0.3763533063
 40
0.3841019899
 40
0.3918114601
 40
0.3994828966
 40
0.4071195216
 40
0.4147318743
 40
0.4223345791
 40
0.4375564124
 40
0.4682820221
 40
0.483855414
 40
0.499564699
 40
0.5312917819
 40
0.5472379027
 40
0.5631836887
 40
0.5790890632
 40
0.587015767
 40
0.5949203868
 40
0.6028003511
 40
0.6106548357
 40
0.6262977753
 40
0.6418750597
 40
0.6574117423
 40
0.672931975
 40
0.6884584855
 40
0.7040039022
 40
0.7195698567
 40
0.7351544412
 40
0.7507527837
 40
0.7663573164
 40
0.7819586909
 40
0.7975530643
 40
0.8131407855
 40
0.8442961167
 40
0.8598670071
 40
0.8754336054
 40
0.8909967393
 40
0.906557934
 40
0.9221208073
 40
0.937688101
 40
0.9688377345
 40
1.0
 40
1.0
 40
1.0
 40
1.0
 10
3.9554170935
 20
5.0763477812
 30
0.0
 10
3.9504355829
 20
5.0803116666
 30
0.0
 10
3.9407159848
 20
5.0885778171
 30
0.0
 10
3.9269003632
 20
5.1018595864
 30
0.0
 10
3.9138178239
 20
5.1159467647
 30
0.0
 10
3.901453651
 20
5.1307493663
 30
0.0
 10
3.8897924344
 20
5.1461783211
 30
0.0
 10
3.8806489296
 20
5.1594818351
 30
0.0
 10
3.8736666322
 20
5.1703554406
 30
0.0
 10
3.8669052481
 20
5.1813635753
 30
0.0
 10
3.8588824546
 20
5.195361261
 30
0.0
 10
3.8499924743
 20
5.2125251755
 30
0.0
 10
3.8392214323
 20
5.2358119112
 30
0.0
 10
3.8301276502
 20
5.2597669928
 30
0.0
 10
3.8229712295
 20
5.2842483392
 30
0.0
 10
3.8193567947
 20
5.2997247812
 30
0.0
 10
3.8170090632
 20
5.3121968576
 30
0.0
 10
3.815030704
 20
5.3247298759
 30
0.0
 10
3.8132367775
 20
5.3405198489
 30
0.0
 10
3.8121389003
 20
5.3596102718
 30
0.0
 10
3.8120709533
 20
5.3756025627
 30
0.0
 10
3.8125037565
 20
5.388444199
 30
0.0
 10
3.8132564371
 20
5.4013562255
 30
0.0
 10
3.8148018104
 20
5.417502105
 30
0.0
 10
3.8176812241
 20
5.4367595791
 30
0.0
 10
3.8216480855
 20
5.4557784493
 30
0.0
 10
3.8267630489
 20
5.474407687
 30
0.0
 10
3.832047395
 20
5.4895215408
 30
0.0
 10
3.8369153318
 20
5.5012643239
 30
0.0
 10
3.8408829967
 20
5.509856964
 30
0.0
 10
3.8451824666
 20
5.5182372148
 30
0.0
 10
3.8498262334
 20
5.5263862424
 30
0.0
 10
3.8548066906
 20
5.5343005102
 30
0.0
 10
3.8618660196
 20
5.5445606128
 30
0.0
 10
3.8753187333
 20
5.5618743605
 30
0.0
 10
3.8927102032
 20
5.5801507168
 30
0.0
 10
3.9113838862
 20
5.5973205756
 30
0.0
 10
3.930948891
 20
5.6141095022
 30
0.0
 10
3.9512299954
 20
5.630270741
 30
0.0
 10
3.9717060363
 20
5.6463332424
 30
0.0
 10
3.9870410041
 20
5.6584642131
 30
0.0
 10
3.9996669927
 20
5.6687308206
 30
0.0
 10
4.0095977098
 20
5.6770939626
 30
0.0
 10
4.0169296858
 20
5.6834448903
 30
0.0
 10
4.0241347497
 20
5.6898955117
 30
0.0
 10
4.0335354889
 20
5.6986362064
 30
0.0
 10
4.044934415
 20
5.7098478598
 30
0.0
 10
4.058064249
 20
5.7237626508
 30
0.0
 10
4.0706381929
 20
5.7381150685
 30
0.0
 10
4.0826682196
 20
5.7528994223
 30
0.0
 10
4.0941611581
 20
5.7681092912
 30
0.0
 10
4.1051346068
 20
5.783720403
 30
0.0
 10
4.115615406
 20
5.7996943026
 30
0.0
 10
4.125625433
 20
5.8159922903
 30
0.0
 10
4.1351875648
 20
5.8325748356
 30
0.0
 10
4.1443233507
 20
5.8494034363
 30
0.0
 10
4.1530604252
 20
5.866440321
 30
0.0
 10
4.1614009048
 20
5.8836673743
 30
0.0
 10
4.1719793283
 20
5.9068724595
 30
0.0
 10
4.1817439477
 20
5.9304313039
 30
0.0
 10
4.1906701634
 20
5.9543012533
 30
0.0
 10
4.1969403391
 20
5.9723491259
 30
0.0
 10
4.202782089
 20
5.9905359301
 30
0.0
 10
4.2081898835
 20
6.0088547843
 30
0.0
 10
4.2131923423
 20
6.0272899504
 30
0.0
 10
4.2193638233
 20
6.0520099546
 30
0.0
 10
4.2262174354
 20
6.0831294807
 30
0.0
 10
4.2309448436
 20
6.1081809743
 30
0.0
 10
4.233161683
 20
6.1207345208
 30
0.0
  0
SPLINE
  5
321
100
AcDbEntity
  8
0
100
AcDbSpline
 62
7
  6
CONTINUOUS
 70
0
 71
3
 72
52
 73
48
 74
0
 42
0.0000001
 43
0.0000001
 44
0.0000000001
 40
0.0
 40
0.0
 40
0.0
 40
0.0
 40
0.0155199648
 40
0.031066105
 40
0.0466054385
 40
0.0543686685
 40
0.0621263426
 40
0.077642698
 40
0.093207301
 40
0.1245938428
 40
0.1564405143
 40
0.1886950301
 40
0.221174532
 40
0.2536093541
 40
0.2697163265
 40
0.2856902256
 40
0.3171636229
 40
0.3481652491
 40
0.3635874374
 40
0.3790170182
 40
0.3944980037
 40
0.4100333037
 40
0.4411950971
 40
0.4567898372
 40
0.4723538515
 40
0.5034153135
 40
0.5344846035
 40
0.5500308897
 40
0.5655737474
 40
0.5811080563
 40
0.5966334889
 40
0.6121505819
 40
0.6276607299
 40
0.6431663162
 40
0.6586708086
 40
0.6896807909
 40
0.7206952345
 40
0.7516968523
 40
0.7827171918
 40
0.8137780878
 40
0.8293249165
 40
0.844878095
 40
0.8759815313
 40
0.9070572829
 40
0.9380838338
 40
0.9690557578
 40
1.0
 40
1.0
 40
1.0
 40
1.0
 10
3.6100787734
 20
4.6283975404
 30
0.0
 10
3.6119409014
 20
4.6259041795
 30
0.0
 10
3.6158425164
 20
4.6210403392
 30
0.0
 10
3.6222083508
 20
4.6141878522
 30
0.0
 10
3.627940595
 20
4.6088998023
 30
0.0
 10
3.6327715256
 20
4.6049665155
 30
0.0
 10
3.6377630495
 20
4.6012467905
 30
0.0
 10
3.6443026771
 20
4.5969993611
 30
0.0
 10
3.6553353424
 20
4.5910454916
 30
0.0
 10
3.6700680364
 20
4.5851688754
 30
0.0
 10
3.6886980836
 20
4.5805390403
 30
0.0
 10
3.7079624187
 20
4.5781699612
 30
0.0
 10
3.727480719
 20
4.5779389572
 30
0.0
 10
3.7436885981
 20
4.5794326185
 30
0.0
 10
3.75644747
 20
4.5815968365
 30
0.0
 10
3.7688916544
 20
4.5843634814
 30
0.0
 10
3.7839680106
 20
4.5889652586
 30
0.0
 10
3.798306531
 20
4.5952708891
 30
0.0
 10
3.8091216632
 20
4.6013582683
 30
0.0
 10
3.8168936989
 20
4.6064622134
 30
0.0
 10
3.8243062851
 20
4.6121127535
 30
0.0
 10
3.8337040527
 20
4.6203161788
 30
0.0
 10
3.8423166058
 20
4.6294136713
 30
0.0
 10
3.8500781776
 20
4.6392136085
 30
0.0
 10
3.8572517225
 20
4.649428855
 30
0.0
 10
3.8651362535
 20
4.6629008654
 30
0.0
 10
3.8716535055
 20
4.6770724377
 30
0.0
 10
3.8761113083
 20
4.6887146506
 30
0.0
 10
3.8790970975
 20
4.6975764792
 30
0.0
 10
3.8817258645
 20
4.7065461489
 30
0.0
 10
3.8839879562
 20
4.71561004
 30
0.0
 10
3.885876689
 20
4.724754123
 30
0.0
 10
3.8873845385
 20
4.7339646667
 30
0.0
 10
3.8885046423
 20
4.7432280719
 30
0.0
 10
3.889469439
 20
4.7556296594
 30
0.0
 10
3.8897082937
 20
4.7711919205
 30
0.0
 10
3.8885435448
 20
4.7898257234
 30
0.0
 10
3.8860171434
 20
4.8083250067
 30
0.0
 10
3.8822263564
 20
4.8266140799
 30
0.0
 10
3.8780964812
 20
4.8416327682
 30
0.0
 10
3.8742573641
 20
4.8534924564
 30
0.0
 10
3.8700774634
 20
4.8652453996
 30
0.0
 10
3.8642251887
 20
4.8797017808
 30
0.0
 10
3.8561856612
 20
4.8965858115
 30
0.0
 10
3.8471221119
 20
4.9129145852
 30
0.0
 10
3.8370219045
 20
4.9285927553
 30
0.0
 10
3.8295971361
 20
4.9385563554
 30
0.0
 10
3.8257337405
 20
4.943411578
 30
0.0
  0
SPLINE
  5
322
100
AcDbEntity
  8
0
100
AcDbSpline
 62
7
  6
CONTINUOUS
 70
0
 71
3
 72
73
 73
69
 74
0
 42
0.0000001
 43
0.0000001
 44
0.0000000001
 40
0.0
 40
0.0
 40
0.0
 40
0.0
 40
0.0155622058
 40
0.0311657424
 40
0.0468226892
 40
0.0625345329
 40
0.0782933378
 40
0.0940828789
 40
0.1019825151
 40
0.1098806172
 40
0.1256613693
 40
0.1414102406
 40
0.1571159697
 40
0.1883664467
 40
0.203923055
 40
0.2194421825
 40
0.2271935316
 40
0.2349430037
 40
0.2504548873
 40
0.2660178935
 40
0.2816651033
 40
0.2895297196
 40
0.2974247211
 40
0.3132798034
 40
0.329160483
 40
0.3449999603
 40
0.3607438675
 40
0.3763533063
 40
0.3841019899
 40
0.3918114601
 40
0.3994828966
 40
0.4071195216
 40
0.4147318743
 40
0.4223345791
 40
0.4375564124
 40
0.4682820221
 40
0.483855414
 40
0.499564699
 40
0.5312917819
 40
0.5472379027
 40
0.5631836887
 40
0.5790890632
 40
0.587015767
 40
0.5949203868
 40
0.6028003511
 40
0.6106548357
 40
0.6262977753
 40
0.6418750597
 40
0.6574117423
 40
0.672931975
 40
0.6884584855
 40
0.7040039022
 40
0.7195698567
 40
0.7351544412
 40
0.7507527837
 40
0.7663573164
 40
0.7819586909
 40
0.7975530643
 40
0.8131407855
 40
0.8442961167
 40
0.8598670071
 40
0.8754336054
 40
0.8909967393
 40
0.906557934
 40
0.9221208073
 40
0.937688101
 40
0.9688377345
 40
1.0
 40
1.0
 40
1.0
 40
1.0
 10
3.8257337405
 20
4.943411578
 30
0.0
 10
3.8217698551
 20
4.9483930886
 30
0.0
 10
3.8135037046
 20
4.9581126867
 30
0.0
 10
3.8002219354
 20
4.9719283084
 30
0.0
 10
3.7861347571
 20
4.9850108476
 30
0.0
 10
3.7713321554
 20
4.9973750205
 30
0.0
 10
3.7559032006
 20
5.0090362371
 30
0.0
 10
3.7425996867
 20
5.0181797419
 30
0.0
 10
3.7317260811
 20
5.0251620394
 30
0.0
 10
3.7207179465
 20
5.0319234234
 30
0.0
 10
3.7067202608
 20
5.0399462169
 30
0.0
 10
3.6895563463
 20
5.0488361972
 30
0.0
 10
3.6662696105
 20
5.0596072393
 30
0.0
 10
3.642314529
 20
5.0687010213
 30
0.0
 10
3.6178331826
 20
5.075857442
 30
0.0
 10
3.6023567406
 20
5.0794718768
 30
0.0
 10
3.5898846641
 20
5.0818196083
 30
0.0
 10
3.5773516459
 20
5.0837979675
 30
0.0
 10
3.5615616729
 20
5.085591894
 30
0.0
 10
3.54247125
 20
5.0866897712
 30
0.0
 10
3.526478959
 20
5.0867577182
 30
0.0
 10
3.5136373227
 20
5.086324915
 30
0.0
 10
3.5007252963
 20
5.0855722344
 30
0.0
 10
3.4845794168
 20
5.0840268611
 30
0.0
 10
3.4653219426
 20
5.0811474474
 30
0.0
 10
3.4463030725
 20
5.077180586
 30
0.0
 10
3.4276738348
 20
5.0720656226
 30
0.0
 10
3.4125599809
 20
5.0667812765
 30
0.0
 10
3.4008171979
 20
5.0619133397
 30
0.0
 10
3.3922245578
 20
5.0579456749
 30
0.0
 10
3.383844307
 20
5.053646205
 30
0.0
 10
3.3756952793
 20
5.0490024381
 30
0.0
 10
3.3677810116
 20
5.0440219809
 30
0.0
 10
3.357520909
 20
5.0369626519
 30
0.0
 10
3.3402071612
 20
5.0235099382
 30
0.0
 10
3.321930805
 20
5.0061184683
 30
0.0
 10
3.3047609461
 20
4.9874447853
 30
0.0
 10
3.2879720195
 20
4.9678797805
 30
0.0
 10
3.2718107808
 20
4.9475986761
 30
0.0
 10
3.2557482794
 20
4.9271226353
 30
0.0
 10
3.2436173086
 20
4.9117876674
 30
0.0
 10
3.2333507011
 20
4.8991616788
 30
0.0
 10
3.2249875591
 20
4.8892309617
 30
0.0
 10
3.2186366315
 20
4.8818989857
 30
0.0
 10
3.21218601
 20
4.8746939219
 30
0.0
 10
3.2034453153
 20
4.8652931826
 30
0.0
 10
3.192233662
 20
4.8538942565
 30
0.0
 10
3.1783188709
 20
4.8407644225
 30
0.0
 10
3.1639664533
 20
4.8281904786
 30
0.0
 10
3.1491820994
 20
4.8161604519
 30
0.0
 10
3.1339722305
 20
4.8046675134
 30
0.0
 10
3.1183611188
 20
4.7936940647
 30
0.0
 10
3.1023872191
 20
4.7832132655
 30
0.0
 10
3.0860892315
 20
4.7732032385
 30
0.0
 10
3.0695066861
 20
4.7636411068
 30
0.0
 10
3.0526780854
 20
4.7545053208
 30
0.0
 10
3.0356412008
 20
4.7457682463
 30
0.0
 10
3.0184141475
 20
4.7374277667
 30
0.0
 10
2.9952090623
 20
4.7268493432
 30
0.0
 10
2.9716502178
 20
4.7170847238
 30
0.0
 10
2.9477802685
 20
4.7081585081
 30
0.0
 10
2.9297323958
 20
4.7018883324
 30
0.0
 10
2.9115455916
 20
4.6960465825
 30
0.0
 10
2.8932267374
 20
4.6906387881
 30
0.0
 10
2.8747915713
 20
4.6856363292
 30
0.0
 10
2.8500715671
 20
4.6794648482
 30
0.0
 10
2.8189520411
 20
4.6726112361
 30
0.0
 10
2.7939005474
 20
4.6678838279
 30
0.0
 10
2.781347001
 20
4.6656669886
 30
0.0
  0
SPLINE
  5
323
100
AcDbEntity
  8
0
100
AcDbSpline
 62
7
  6
CONTINUOUS
 70
0
 71
3
 72
12
 73
8
 74
0
 42
0.0000001
 43
0.0000001
 44
0.0000000001
 40
0.0
 40
0.0
 40
0.0
 40
0.0
 40
0.2500444712
 40
0.4991430423
 40
0.6238207967
 40
0.7488001206
 40
1.0
 40
1.0
 40
1.0
 40
1.0
 10
3.7653894648
 20
4.7974004064
 30
0.0
 10
3.766090998
 20
4.7929746821
 30
0.0
 10
3.7670754513
 20
4.7840674863
 30
0.0
 10
3.7671494821
 20
4.7728652213
 30
0.0
 10
3.766454138
 20
4.7639498629
 30
0.0
 10
3.7652688711
 20
4.7550494104
 30
0.0
 10
3.7638619234
 20
4.7484419348
 30
0.0
 10
3.7627229934
 20
4.7440867062
 30
0.0
  0
SPLINE
  5
324
100
AcDbEntity
  8
0
100
AcDbSpline
 62
7
  6
CONTINUOUS
 70
0
 71
3
 72
12
 73
8
 74
0
 42
0.0000001
 43
0.0000001
 44
0.0000000001
 40
0.0
 40
0.0
 40
0.0
 40
0.0
 40
0.2500444691
 40
0.4991430401
 40
0.6238207951
 40
0.7488001197
 40
1.0
 40
1.0
 40
1.0
 40
1.0
 10
5.0901229533
 20
4.8006532299
 30
0.0
 10
5.0894214213
 20
4.7962275077
 30
0.0
 10
5.0884369701
 20
4.7873203163
 30
0.0
 10
5.0883629408
 20
4.7761180569
 30
0.0
 10
5.0890582855
 20
4.767202703
 30
0.0
 10
5.0902435524
 20
4.7583022551
 30
0.0
 10
5.0916504995
 20
4.7516947828
 30
0.0
 10
5.092789429
 20
4.7473395564
 30
0.0
  0
SPLINE
  5
325
100
AcDbEntity
  8
0
100
AcDbSpline
 62
7
  6
CONTINUOUS
 70
0
 71
3
 72
52
 73
48
 74
0
 42
0.0000001
 43
0.0000001
 44
0.0000000001
 40
0.0
 40
0.0
 40
0.0
 40
0.0
 40
0.0155199689
 40
0.0310661102
 40
0.0466054429
 40
0.0543686723
 40
0.062126346
 40
0.0776427043
 40
0.0932073144
 40
0.1245938789
 40
0.1564405766
 40
0.1886951133
 40
0.2211746229
 40
0.2536094327
 40
0.2697163899
 40
0.2856902672
 40
0.3171636213
 40
0.348165221
 40
0.3635874067
 40
0.3790169943
 40
0.3944979908
 40
0.4100333005
 40
0.4411951034
 40
0.4567898404
 40
0.4723538485
 40
0.5034153089
 40
0.5344846031
 40
0.5500308902
 40
0.5655737469
 40
0.5811080544
 40
0.5966334857
 40
0.6121505775
 40
0.6276607246
 40
0.6431663109
 40
0.6586708043
 40
0.6896807894
 40
0.7206952331
 40
0.7516968521
 40
0.7827171978
 40
0.8137781015
 40
0.8293249334
 40
0.8448781138
 40
0.8759815496
 40
0.907057296
 40
0.938083839
 40
0.9690557558
 40
1.0
 40
1.0
 40
1.0
 40
1.0
 10
5.2454332673
 20
4.6316498796
 30
0.0
 10
5.2435711187
 20
4.6291565158
 30
0.0
 10
5.2396694615
 20
4.6242926724
 30
0.0
 10
5.2333035598
 20
4.61744019
 30
0.0
 10
5.2275712565
 20
4.6121521529
 30
0.0
 10
5.2227402774
 20
4.6082188825
 30
0.0
 10
5.2177487034
 20
4.6044991778
 30
0.0
 10
5.2112090138
 20
4.6002517768
 30
0.0
 10
5.20017625
 20
4.5942979589
 30
0.0
 10
5.1854434379
 20
4.588421419
 30
0.0
 10
5.1668132623
 20
4.58379169
 30
0.0
 10
5.1475488148
 20
4.58142273
 30
0.0
 10
5.1280304231
 20
4.5811918567
 30
0.0
 10
5.1118224861
 20
4.5826856361
 30
0.0
 10
5.099063583
 20
4.5848499543
 30
0.0
 10
5.0866193796
 20
4.5876167006
 30
0.0
 10
5.0715430122
 20
4.5922186209
 30
0.0
 10
5.0572045043
 20
4.5985244194
 30
0.0
 10
5.0463893967
 20
4.6046119457
 30
0.0
 10
5.0386173863
 20
4.6097160102
 30
0.0
 10
5.0312048318
 20
4.6153666691
 30
0.0
 10
5.0218071151
 20
4.6235702461
 30
0.0
 10
5.0131946264
 20
4.6326678802
 30
0.0
 10
5.0054331319
 20
4.6424679494
 30
0.0
 10
4.9982596728
 20
4.6526833211
 30
0.0
 10
4.9903752533
 20
4.6661554756
 30
0.0
 10
4.9838581144
 20
4.6803271764
 30
0.0
 10
4.9794004013
 20
4.6919694837
 30
0.0
 10
4.9764146788
 20
4.7008313782
 30
0.0
 10
4.9737859842
 20
4.7098011117
 30
0.0
 10
4.9715239698
 20
4.7188650639
 30
0.0
 10
4.9696353195
 20
4.7280092057
 30
0.0
 10
4.9681275575
 20
4.7372198052
 30
0.0
 10
4.9670075468
 20
4.7464832635
 30
0.0
 10
4.9660428798
 20
4.7588849171
 30
0.0
 10
4.9658041868
 20
4.7744472505
 30
0.0
 10
4.966969131
 20
4.7930811248
 30
0.0
 10
4.9694957273
 20
4.8115804665
 30
0.0
 10
4.9732867063
 20
4.8298695875
 30
0.0
 10
4.9774167385
 20
4.8448883077
 30
0.0
 10
4.9812559788
 20
4.8567480167
 30
0.0
 10
4.9854360009
 20
4.8685009765
 30
0.0
 10
4.9912884346
 20
4.8829573674
 30
0.0
 10
4.9993281635
 20
4.8998413914
 30
0.0
 10
5.0083919239
 20
4.9161701384
 30
0.0
 10
5.0184923571
 20
4.9318482586
 30
0.0
 10
5.0259172735
 20
4.9418118157
 30
0.0
 10
5.0297807414
 20
4.9466670165
 30
0.0
  0
SPLINE
  5
326
100
AcDbEntity
  8
0
100
AcDbSpline
 62
7
  6
CONTINUOUS
 70
0
 71
3
 72
73
 73
69
 74
0
 42
0.0000001
 43
0.0000001
 44
0.0000000001
 40
0.0
 40
0.0
 40
0.0
 40
0.0
 40
0.015562211
 40
0.0311657558
 40
0.0468227116
 40
0.0625345637
 40
0.0782933748
 40
0.0940829189
 40
0.1019825551
 40
0.1098806561
 40
0.1256614041
 40
0.1414102695
 40
0.1571159914
 40
0.1883664532
 40
0.2039230552
 40
0.2194421783
 40
0.2271935264
 40
0.2349429985
 40
0.2504548861
 40
0.266017901
 40
0.281665123
 40
0.2895297465
 40
0.2974247551
 40
0.3132798448
 40
0.329160523
 40
0.344999992
 40
0.3607438857
 40
0.3763533081
 40
0.3841019832
 40
0.3918114451
 40
0.3994828737
 40
0.407119492
 40
0.4147318413
 40
0.4223345454
 40
0.4375563836
 40
0.4682820168
 40
0.4838554214
 40
0.4995647174
 40
0.5312918136
 40
0.5472379358
 40
0.5631837199
 40
0.5790890898
 40
0.5870157906
 40
0.5949204068
 40
0.6028003675
 40
0.6106548486
 40
0.6262977828
 40
0.6418750636
 40
0.6574117442
 40
0.6729319765
 40
0.6884584876
 40
0.7040039051
 40
0.7195698604
 40
0.7351544455
 40
0.7507527883
 40
0.7663573208
 40
0.7819586948
 40
0.7975530678
 40
0.8131407885
 40
0.844296119
 40
0.859867009
 40
0.875433607
 40
0.8909967406
 40
0.9065579351
 40
0.9221208082
 40
0.9376881018
 40
0.968837735
 40
1.0
 40
1.0
 40
1.0
 40
1.0
 10
5.0297807414
 20
4.9466670165
 30
0.0
 10
5.0337446738
 20
4.9516484705
 30
0.0
 10
5.0420109108
 20
4.9613679568
 30
0.0
 10
5.0552927878
 20
4.9751834155
 30
0.0
 10
5.0693800544
 20
4.9882657984
 30
0.0
 10
5.0841827259
 20
5.0006298215
 30
0.0
 10
5.0996117326
 20
5.0122908945
 30
0.0
 10
5.1129152765
 20
5.0214342853
 30
0.0
 10
5.123788898
 20
5.0284164948
 30
0.0
 10
5.134797043
 20
5.0351777917
 30
0.0
 10
5.1487947382
 20
5.0432004721
 30
0.0
 10
5.1659586584
 20
5.0520903129
 30
0.0
 10
5.1892453939
 20
5.0628611635
 30
0.0
 10
5.213200465
 20
5.0719547468
 30
0.0
 10
5.2376817889
 20
5.0791109622
 30
0.0
 10
5.2531582124
 20
5.082725267
 30
0.0
 10
5.2656302717
 20
5.085072893
 30
0.0
 10
5.2781632728
 20
5.0870511492
 30
0.0
 10
5.2939532217
 20
5.0888449537
 30
0.0
 10
5.3130436109
 20
5.0899426947
 30
0.0
 10
5.3290358705
 20
5.0900105371
 30
0.0
 10
5.3418774804
 20
5.0895776552
 30
0.0
 10
5.3547894764
 20
5.0888248991
 30
0.0
 10
5.3709353083
 20
5.0872794297
 30
0.0
 10
5.3901927111
 20
5.0843998992
 30
0.0
 10
5.4092114937
 20
5.0804329198
 30
0.0
 10
5.4278406288
 20
5.0753178376
 30
0.0
 10
5.4429543858
 20
5.0700333919
 30
0.0
 10
5.4546970842
 20
5.0651653758
 30
0.0
 10
5.4632896577
 20
5.0611976518
 30
0.0
 10
5.4716698393
 20
5.056898123
 30
0.0
 10
5.4798187955
 20
5.0522542965
 30
0.0
 10
5.4877329951
 20
5.0472737869
 30
0.0
 10
5.4979930135
 20
5.0402143944
 30
0.0
 10
5.5153066275
 20
5.0267615873
 30
0.0
 10
5.5335828539
 20
5.0093700589
 30
0.0
 10
5.5507526128
 20
4.9906963508
 30
0.0
 10
5.5675414537
 20
4.9711313445
 30
0.0
 10
5.5837026312
 20
4.9508502678
 30
0.0
 10
5.5997650918
 20
4.9303742773
 30
0.0
 10
5.6118960391
 20
4.9150393606
 30
0.0
 10
5.6221626336
 20
4.9024134229
 30
0.0
 10
5.6305257684
 20
4.8924827515
 30
0.0
 10
5.636876692
 20
4.8851508119
 30
0.0
 10
5.6433273112
 20
4.8779457869
 30
0.0
 10
5.6520680033
 20
4.8685450994
 30
0.0
 10
5.663279651
 20
4.8571462354
 30
0.0
 10
5.6771944323
 20
4.8440164727
 30
0.0
 10
5.6915468375
 20
4.8314425965
 30
0.0
 10
5.7063311762
 20
4.8194126338
 30
0.0
 10
5.7215410271
 20
4.807919756
 30
0.0
 10
5.7371521168
 20
4.7969463637
 30
0.0
 10
5.7531259904
 20
4.786465617
 30
0.0
 10
5.7694239483
 20
4.7764556388
 30
0.0
 10
5.7860064606
 20
4.7668935525
 30
0.0
 10
5.8028350252
 20
4.7577578086
 30
0.0
 10
5.8198718714
 20
4.7490207731
 30
0.0
 10
5.8370988848
 20
4.7406803308
 30
0.0
 10
5.8603039152
 20
4.7301019542
 30
0.0
 10
5.8838627022
 20
4.7203373778
 30
0.0
 10
5.9077325921
 20
4.7114112007
 30
0.0
 10
5.9257804192
 20
4.7051410518
 30
0.0
 10
5.9439671769
 20
4.6992993265
 30
0.0
 10
5.9622859837
 20
4.6938915542
 30
0.0
 10
5.9807211015
 20
4.6888891146
 30
0.0
 10
6.0054410402
 20
4.6827176562
 30
0.0
 10
6.0365604829
 20
4.6758640667
 30
0.0
 10
6.0616119089
 20
4.6711366721
 30
0.0
 10
6.0741654214
 20
4.6689198388
 30
0.0
  0
SPLINE
  5
327
100
AcDbEntity
  8
0
100
AcDbSpline
 62
7
  6
CONTINUOUS
 70
0
 71
3
 72
52
 73
48
 74
0
 42
0.0000001
 43
0.0000001
 44
0.0000000001
 40
0.0
 40
0.0
 40
0.0
 40
0.0
 40
0.0155199689
 40
0.0310661102
 40
0.0466054429
 40
0.0543686723
 40
0.062126346
 40
0.0776427043
 40
0.0932073144
 40
0.1245938789
 40
0.1564405766
 40
0.1886951133
 40
0.2211746229
 40
0.2536094327
 40
0.2697163899
 40
0.2856902672
 40
0.3171636213
 40
0.348165221
 40
0.3635874067
 40
0.3790169943
 40
0.3944979908
 40
0.4100333005
 40
0.4411951034
 40
0.4567898404
 40
0.4723538485
 40
0.5034153089
 40
0.5344846031
 40
0.5500308902
 40
0.5655737469
 40
0.5811080544
 40
0.5966334857
 40
0.6121505775
 40
0.6276607246
 40
0.6431663109
 40
0.6586708043
 40
0.6896807894
 40
0.7206952331
 40
0.7516968521
 40
0.7827171978
 40
0.8137781015
 40
0.8293249334
 40
0.8448781138
 40
0.8759815496
 40
0.907057296
 40
0.938083839
 40
0.9690557558
 40
1.0
 40
1.0
 40
1.0
 40
1.0
 10
4.58182793
 20
5.2920023667
 30
0.0
 10
4.5793345662
 20
5.2901402181
 30
0.0
 10
4.5744707228
 20
5.2862385609
 30
0.0
 10
4.5676182404
 20
5.2798726592
 30
0.0
 10
4.5623302033
 20
5.2741403559
 30
0.0
 10
4.5583969329
 20
5.2693093767
 30
0.0
 10
4.5546772282
 20
5.2643178028
 30
0.0
 10
4.5504298272
 20
5.2577781132
 30
0.0
 10
4.5444760093
 20
5.2467453493
 30
0.0
 10
4.5385994694
 20
5.2320125372
 30
0.0
 10
4.5339697404
 20
5.2133823617
 30
0.0
 10
4.5316007804
 20
5.1941179142
 30
0.0
 10
4.5313699071
 20
5.1745995225
 30
0.0
 10
4.5328636865
 20
5.1583915855
 30
0.0
 10
4.5350280047
 20
5.1456326823
 30
0.0
 10
4.537794751
 20
5.133188479
 30
0.0
 10
4.5423966713
 20
5.1181121115
 30
0.0
 10
4.5487024699
 20
5.1037736037
 30
0.0
 10
4.5547899961
 20
5.0929584961
 30
0.0
 10
4.5598940606
 20
5.0851864857
 30
0.0
 10
4.5655447195
 20
5.0777739312
 30
0.0
 10
4.5737482965
 20
5.0683762145
 30
0.0
 10
4.5828459306
 20
5.0597637258
 30
0.0
 10
4.5926459998
 20
5.0520022313
 30
0.0
 10
4.6028613716
 20
5.0448287722
 30
0.0
 10
4.616333526
 20
5.0369443527
 30
0.0
 10
4.6305052268
 20
5.0304272138
 30
0.0
 10
4.6421475341
 20
5.0259695007
 30
0.0
 10
4.6510094286
 20
5.0229837782
 30
0.0
 10
4.6599791621
 20
5.0203550836
 30
0.0
 10
4.6690431144
 20
5.0180930692
 30
0.0
 10
4.6781872561
 20
5.0162044189
 30
0.0
 10
4.6873978557
 20
5.0146966569
 30
0.0
 10
4.6966613139
 20
5.0135766462
 30
0.0
 10
4.7090629675
 20
5.0126119792
 30
0.0
 10
4.7246253009
 20
5.0123732862
 30
0.0
 10
4.7432591752
 20
5.0135382304
 30
0.0
 10
4.7617585169
 20
5.0160648267
 30
0.0
 10
4.7800476379
 20
5.0198558057
 30
0.0
 10
4.7950663581
 20
5.0239858379
 30
0.0
 10
4.8069260671
 20
5.0278250782
 30
0.0
 10
4.8186790269
 20
5.0320051003
 30
0.0
 10
4.8331354178
 20
5.037857534
 30
0.0
 10
4.8500194418
 20
5.0458972628
 30
0.0
 10
4.8663481888
 20
5.0549610233
 30
0.0
 10
4.882026309
 20
5.0650614565
 30
0.0
 10
4.8919898661
 20
5.0724863729
 30
0.0
 10
4.8968450669
 20
5.0763498408
 30
0.0
  0
SPLINE
  5
328
100
AcDbEntity
  8
0
100
AcDbSpline
 62
7
  6
CONTINUOUS
 70
0
 71
3
 72
73
 73
69
 74
0
 42
0.0000001
 43
0.0000001
 44
0.0000000001
 40
0.0
 40
0.0
 40
0.0
 40
0.0
 40
0.015562211
 40
0.0311657558
 40
0.0468227116
 40
0.0625345637
 40
0.0782933748
 40
0.0940829189
 40
0.1019825551
 40
0.1098806561
 40
0.1256614041
 40
0.1414102695
 40
0.1571159914
 40
0.1883664532
 40
0.2039230552
 40
0.2194421783
 40
0.2271935264
 40
0.2349429985
 40
0.2504548861
 40
0.266017901
 40
0.281665123
 40
0.2895297465
 40
0.2974247551
 40
0.3132798448
 40
0.329160523
 40
0.344999992
 40
0.3607438857
 40
0.3763533081
 40
0.3841019832
 40
0.3918114451
 40
0.3994828737
 40
0.407119492
 40
0.4147318413
 40
0.4223345454
 40
0.4375563836
 40
0.4682820168
 40
0.4838554214
 40
0.4995647174
 40
0.5312918136
 40
0.5472379358
 40
0.5631837199
 40
0.5790890898
 40
0.5870157906
 40
0.5949204068
 40
0.6028003675
 40
0.6106548486
 40
0.6262977828
 40
0.6418750636
 40
0.6574117442
 40
0.6729319765
 40
0.6884584876
 40
0.7040039051
 40
0.7195698604
 40
0.7351544455
 40
0.7507527883
 40
0.7663573208
 40
0.7819586948
 40
0.7975530678
 40
0.8131407885
 40
0.844296119
 40
0.859867009
 40
0.875433607
 40
0.8909967406
 40
0.9065579351
 40
0.9221208082
 40
0.9376881018
 40
0.968837735
 40
1.0
 40
1.0
 40
1.0
 40
1.0
 10
4.8968450669
 20
5.0763498408
 30
0.0
 10
4.9018265209
 20
5.0803137731
 30
0.0
 10
4.9115460072
 20
5.0885800101
 30
0.0
 10
4.9253614659
 20
5.1018618872
 30
0.0
 10
4.9384438488
 20
5.1159491538
 30
0.0
 10
4.9508078719
 20
5.1307518252
 30
0.0
 10
4.9624689449
 20
5.146180832
 30
0.0
 10
4.9716123357
 20
5.1594843759
 30
0.0
 10
4.9785945452
 20
5.1703579974
 30
0.0
 10
4.9853558421
 20
5.1813661423
 30
0.0
 10
4.9933785225
 20
5.1953638376
 30
0.0
 10
5.0022683633
 20
5.2125277578
 30
0.0
 10
5.0130392139
 20
5.2358144932
 30
0.0
 10
5.0221327972
 20
5.2597695644
 30
0.0
 10
5.0292890126
 20
5.2842508883
 30
0.0
 10
5.0329033174
 20
5.2997273118
 30
0.0
 10
5.0352509434
 20
5.3121993711
 30
0.0
 10
5.0372291996
 20
5.3247323722
 30
0.0
 10
5.0390230041
 20
5.3405223211
 30
0.0
 10
5.0401207451
 20
5.3596127102
 30
0.0
 10
5.0401885875
 20
5.3756049699
 30
0.0
 10
5.0397557056
 20
5.3884465798
 30
0.0
 10
5.0390029495
 20
5.4013585758
 30
0.0
 10
5.0374574801
 20
5.4175044077
 30
0.0
 10
5.0345779496
 20
5.4367618105
 30
0.0
 10
5.0306109702
 20
5.4557805931
 30
0.0
 10
5.025495888
 20
5.4744097282
 30
0.0
 10
5.0202114423
 20
5.4895234852
 30
0.0
 10
5.0153434262
 20
5.5012661835
 30
0.0
 10
5.0113757022
 20
5.5098587571
 30
0.0
 10
5.0070761734
 20
5.5182389387
 30
0.0
 10
5.0024323469
 20
5.5263878948
 30
0.0
 10
4.9974518373
 20
5.5343020945
 30
0.0
 10
4.9903924448
 20
5.5445621129
 30
0.0
 10
4.9769396377
 20
5.5618757269
 30
0.0
 10
4.9595481093
 20
5.5801519533
 30
0.0
 10
4.9408744012
 20
5.5973217122
 30
0.0
 10
4.9213093949
 20
5.6141105531
 30
0.0
 10
4.9010283182
 20
5.6302717305
 30
0.0
 10
4.8805523277
 20
5.6463341912
 30
0.0
 10
4.865217411
 20
5.6584651385
 30
0.0
 10
4.8525914733
 20
5.668731733
 30
0.0
 10
4.8426608019
 20
5.6770948678
 30
0.0
 10
4.8353288623
 20
5.6834457914
 30
0.0
 10
4.8281238373
 20
5.6898964106
 30
0.0
 10
4.8187231498
 20
5.6986371026
 30
0.0
 10
4.8073242858
 20
5.7098487503
 30
0.0
 10
4.7941945231
 20
5.7237635317
 30
0.0
 10
4.7816206469
 20
5.7381159369
 30
0.0
 10
4.7695906842
 20
5.7529002756
 30
0.0
 10
4.7580978065
 20
5.7681101265
 30
0.0
 10
4.7471244141
 20
5.7837212161
 30
0.0
 10
4.7366436674
 20
5.7996950897
 30
0.0
 10
4.7266336892
 20
5.8159930477
 30
0.0
 10
4.7170716029
 20
5.8325755599
 30
0.0
 10
4.707935859
 20
5.8494041246
 30
0.0
 10
4.6991988235
 20
5.8664409707
 30
0.0
 10
4.6908583812
 20
5.8836679842
 30
0.0
 10
4.6802800047
 20
5.9068730145
 30
0.0
 10
4.6705154282
 20
5.9304318016
 30
0.0
 10
4.6615892511
 20
5.9543016915
 30
0.0
 10
4.6553191022
 20
5.9723495186
 30
0.0
 10
4.6494773769
 20
5.9905362763
 30
0.0
 10
4.6440696046
 20
6.0088550831
 30
0.0
 10
4.639067165
 20
6.0272902008
 30
0.0
 10
4.6328957066
 20
6.0520101396
 30
0.0
 10
4.6260421171
 20
6.0831295823
 30
0.0
 10
4.6213147225
 20
6.1081810083
 30
0.0
 10
4.6190978892
 20
6.1207345208
 30
0.0
  0
SPLINE
  5
329
100
AcDbEntity
  8
0
100
AcDbSpline
 62
7
  6
CONTINUOUS
 70
0
 71
3
 72
12
 73
8
 74
0
 42
0.0000001
 43
0.0000001
 44
0.0000000001
 40
0.0
 40
0.0
 40
0.0
 40
0.0
 40
0.2500444691
 40
0.4991430401
 40
0.6238207951
 40
0.7488001197
 40
1.0
 40
1.0
 40
1.0
 40
1.0
 10
4.7508312803
 20
5.1366920527
 30
0.0
 10
4.7464055581
 20
5.1359905207
 30
0.0
 10
4.7374983667
 20
5.1350060695
 30
0.0
 10
4.7262961073
 20
5.1349320402
 30
0.0
 10
4.7173807535
 20
5.1356273849
 30
0.0
 10
4.7084803055
 20
5.1368126517
 30
0.0
 10
4.7018728332
 20
5.1382195989
 30
0.0
 10
4.6975176068
 20
5.1393585284
 30
0.0
  0
SPLINE
  5
32A
100
AcDbEntity
  8
0
100
AcDbSpline
 62
7
  6
CONTINUOUS
 70
0
 71
3
 72
12
 73
8
 74
0
 42
0.0000001
 43
0.0000001
 44
0.0000000001
 40
0.0
 40
0.0
 40
0.0
 40
0.0
 40
0.2500444691
 40
0.4991430401
 40
0.6238207951
 40
0.7488001197
 40
1.0
 40
1.0
 40
1.0
 40
1.0
 10
4.7540841305
 20
3.8119585685
 30
0.0
 10
4.7496584083
 20
3.8126601004
 30
0.0
 10
4.7407512169
 20
3.8136445516
 30
0.0
 10
4.7295489575
 20
3.8137185809
 30
0.0
 10
4.7206336037
 20
3.8130232362
 30
0.0
 10
4.7117331557
 20
3.8118379694
 30
0.0
 10
4.7051256834
 20
3.8104310222
 30
0.0
 10
4.700770457
 20
3.8092920927
 30
0.0
  0
SPLINE
  5
32B
100
AcDbEntity
  8
0
100
AcDbSpline
 62
7
  6
CONTINUOUS
 70
0
 71
3
 72
52
 73
48
 74
0
 42
0.0000001
 43
0.0000001
 44
0.0000000001
 40
0.0
 40
0.0
 40
0.0
 40
0.0
 40
0.0155199689
 40
0.0310661102
 40
0.046605443
 40
0.0543686723
 40
0.062126346
 40
0.0776427043
 40
0.0932073144
 40
0.124593879
 40
0.1564405766
 40
0.1886951134
 40
0.2211746229
 40
0.2536094327
 40
0.2697163899
 40
0.2856902673
 40
0.3171636213
 40
0.348165221
 40
0.3635874067
 40
0.3790169943
 40
0.3944979908
 40
0.4100333005
 40
0.4411951034
 40
0.4567898404
 40
0.4723538485
 40
0.5034153089
 40
0.5344846031
 40
0.5500308902
 40
0.5655737469
 40
0.5811080544
 40
0.5966334857
 40
0.6121505775
 40
0.6276607246
 40
0.6431663109
 40
0.6586708043
 40
0.6896807894
 40
0.7206952331
 40
0.7516968521
 40
0.7827171978
 40
0.8137781015
 40
0.8293249334
 40
0.8448781138
 40
0.8759815497
 40
0.907057296
 40
0.938083839
 40
0.9690557558
 40
1.0
 40
1.0
 40
1.0
 40
1.0
 10
4.5850807799
 20
3.6566482546
 30
0.0
 10
4.5825874162
 20
3.6585104032
 30
0.0
 10
4.5777235728
 20
3.6624120605
 30
0.0
 10
4.5708710903
 20
3.6687779623
 30
0.0
 10
4.5655830532
 20
3.6745102655
 30
0.0
 10
4.5616497828
 20
3.6793412447
 30
0.0
 10
4.5579300781
 20
3.6843328187
 30
0.0
 10
4.5536826772
 20
3.6908725084
 30
0.0
 10
4.5477288593
 20
3.7019052723
 30
0.0
 10
4.5418523194
 20
3.7166380844
 30
0.0
 10
4.5372225905
 20
3.7352682601
 30
0.0
 10
4.5348536306
 20
3.7545327076
 30
0.0
 10
4.5346227574
 20
3.7740510994
 30
0.0
 10
4.5361165368
 20
3.7902590364
 30
0.0
 10
4.5382808551
 20
3.8030179396
 30
0.0
 10
4.5410476015
 20
3.8154621429
 30
0.0
 10
4.5456495218
 20
3.8305385104
 30
0.0
 10
4.5519553205
 20
3.8448770182
 30
0.0
 10
4.5580428468
 20
3.8556921258
 30
0.0
 10
4.5631469114
 20
3.8634641362
 30
0.0
 10
4.5687975704
 20
3.8708766907
 30
0.0
 10
4.5770011474
 20
3.8802744073
 30
0.0
 10
4.5860987816
 20
3.888886896
 30
0.0
 10
4.5958988509
 20
3.8966483904
 30
0.0
 10
4.6061142227
 20
3.9038218495
 30
0.0
 10
4.6195863772
 20
3.911706269
 30
0.0
 10
4.6337580781
 20
3.9182234078
 30
0.0
 10
4.6454003855
 20
3.9226811209
 30
0.0
 10
4.65426228
 20
3.9256668433
 30
0.0
 10
4.6632320135
 20
3.9282955378
 30
0.0
 10
4.6722959658
 20
3.9305575522
 30
0.0
 10
4.6814401076
 20
3.9324462024
 30
0.0
 10
4.6906507072
 20
3.9339539644
 30
0.0
 10
4.6999141655
 20
3.9350739751
 30
0.0
 10
4.7123158191
 20
3.936038642
 30
0.0
 10
4.7278781525
 20
3.9362773349
 30
0.0
 10
4.7465120269
 20
3.9351123906
 30
0.0
 10
4.7650113686
 20
3.9325857942
 30
0.0
 10
4.7833004896
 20
3.928794815
 30
0.0
 10
4.7983192098
 20
3.9246647828
 30
0.0
 10
4.8101789189
 20
3.9208255424
 30
0.0
 10
4.8219318787
 20
3.9166455202
 30
0.0
 10
4.8363882696
 20
3.9107930864
 30
0.0
 10
4.8532722936
 20
3.9027533575
 30
0.0
 10
4.8696010406
 20
3.8936895969
 30
0.0
 10
4.8852791608
 20
3.8835891636
 30
0.0
 10
4.8952427178
 20
3.8761642471
 30
0.0
 10
4.9000979186
 20
3.8723007792
 30
0.0
  0
SPLINE
  5
32C
100
AcDbEntity
  8
0
100
AcDbSpline
 62
7
  6
CONTINUOUS
 70
0
 71
3
 72
73
 73
69
 74
0
 42
0.0000001
 43
0.0000001
 44
0.0000000001
 40
0.0
 40
0.0
 40
0.0
 40
0.0
 40
0.015562211
 40
0.0311657558
 40
0.0468227116
 40
0.0625345637
 40
0.0782933748
 40
0.0940829189
 40
0.1019825551
 40
0.1098806561
 40
0.1256614041
 40
0.1414102695
 40
0.1571159914
 40
0.1883664532
 40
0.2039230552
 40
0.2194421783
 40
0.2271935264
 40
0.2349429985
 40
0.2504548861
 40
0.266017901
 40
0.281665123
 40
0.2895297465
 40
0.2974247552
 40
0.3132798449
 40
0.3291605231
 40
0.344999992
 40
0.3607438857
 40
0.3763533081
 40
0.3841019832
 40
0.391811445
 40
0.3994828737
 40
0.407119492
 40
0.4147318413
 40
0.4223345454
 40
0.4375563836
 40
0.4682820168
 40
0.4838554214
 40
0.4995647174
 40
0.5312918136
 40
0.5472379358
 40
0.5631837199
 40
0.5790890898
 40
0.5870157906
 40
0.5949204068
 40
0.6028003675
 40
0.6106548486
 40
0.6262977828
 40
0.6418750636
 40
0.6574117442
 40
0.6729319765
 40
0.6884584876
 40
0.7040039051
 40
0.7195698604
 40
0.7351544455
 40
0.7507527883
 40
0.7663573208
 40
0.7819586948
 40
0.7975530678
 40
0.8131407885
 40
0.844296119
 40
0.859867009
 40
0.875433607
 40
0.8909967406
 40
0.9065579351
 40
0.9221208082
 40
0.9376881018
 40
0.968837735
 40
1.0
 40
1.0
 40
1.0
 40
1.0
 10
4.9000979186
 20
3.8723007792
 30
0.0
 10
4.9050793726
 20
3.8683368468
 30
0.0
 10
4.9147988588
 20
3.8600706097
 30
0.0
 10
4.9286143174
 20
3.8467887327
 30
0.0
 10
4.9416967002
 20
3.8327014659
 30
0.0
 10
4.9540607232
 20
3.8178987945
 30
0.0
 10
4.9657217961
 20
3.8024697877
 30
0.0
 10
4.9748651869
 20
3.7891662438
 30
0.0
 10
4.9818473964
 20
3.7782926222
 30
0.0
 10
4.9886086932
 20
3.7672844773
 30
0.0
 10
4.9966313735
 20
3.7532867821
 30
0.0
 10
5.0055212143
 20
3.7361228618
 30
0.0
 10
5.0162920648
 20
3.7128361264
 30
0.0
 10
5.0253856479
 20
3.6888810552
 30
0.0
 10
5.0325418632
 20
3.6643997314
 30
0.0
 10
5.0361561679
 20
3.6489233079
 30
0.0
 10
5.0385037939
 20
3.6364512486
 30
0.0
 10
5.04048205
 20
3.6239182475
 30
0.0
 10
5.0422758544
 20
3.6081282986
 30
0.0
 10
5.0433735954
 20
3.5890379095
 30
0.0
 10
5.0434414377
 20
3.5730456498
 30
0.0
 10
5.0430085558
 20
3.56020404
 30
0.0
 10
5.0422557996
 20
3.547292044
 30
0.0
 10
5.0407103301
 20
3.5311462121
 30
0.0
 10
5.0378307996
 20
3.5118888094
 30
0.0
 10
5.0338638201
 20
3.4928700268
 30
0.0
 10
5.0287487379
 20
3.4742408917
 30
0.0
 10
5.0234642921
 20
3.4591271348
 30
0.0
 10
5.018596276
 20
3.4473844365
 30
0.0
 10
5.0146285519
 20
3.438791863
 30
0.0
 10
5.0103290231
 20
3.4304116814
 30
0.0
 10
5.0056851966
 20
3.4222627253
 30
0.0
 10
5.0007046869
 20
3.4143485257
 30
0.0
 10
4.9936452943
 20
3.4040885074
 30
0.0
 10
4.9801924872
 20
3.3867748935
 30
0.0
 10
4.9628009588
 20
3.3684986671
 30
0.0
 10
4.9441272507
 20
3.3513289083
 30
0.0
 10
4.9245622443
 20
3.3345400674
 30
0.0
 10
4.9042811677
 20
3.31837889
 30
0.0
 10
4.8838051772
 20
3.3023164294
 30
0.0
 10
4.8684702606
 20
3.2901854821
 30
0.0
 10
4.8558443229
 20
3.2799188876
 30
0.0
 10
4.8459136515
 20
3.2715557528
 30
0.0
 10
4.838581712
 20
3.2652048293
 30
0.0
 10
4.8313766869
 20
3.25875421
 30
0.0
 10
4.8219759995
 20
3.250013518
 30
0.0
 10
4.8105771355
 20
3.2388018703
 30
0.0
 10
4.7974473729
 20
3.2248870889
 30
0.0
 10
4.7848734967
 20
3.2105346837
 30
0.0
 10
4.772843534
 20
3.195750345
 30
0.0
 10
4.7613506563
 20
3.1805404941
 30
0.0
 10
4.750377264
 20
3.1649294045
 30
0.0
 10
4.7398965173
 20
3.1489555309
 30
0.0
 10
4.7298865391
 20
3.132657573
 30
0.0
 10
4.7203244528
 20
3.1160750608
 30
0.0
 10
4.711188709
 20
3.0992464961
 30
0.0
 10
4.7024516735
 20
3.08220965
 30
0.0
 10
4.6941112312
 20
3.0649826366
 30
0.0
 10
4.6835328547
 20
3.0417776063
 30
0.0
 10
4.6737682783
 20
3.0182188192
 30
0.0
 10
4.6648421012
 20
2.9943489293
 30
0.0
 10
4.6585719523
 20
2.9763011023
 30
0.0
 10
4.6527302271
 20
2.9581143446
 30
0.0
 10
4.6473224547
 20
2.9397955379
 30
0.0
 10
4.6423200152
 20
2.9213604201
 30
0.0
 10
4.6361485568
 20
2.8966404814
 30
0.0
 10
4.6292949674
 20
2.8655210387
 30
0.0
 10
4.6245675727
 20
2.8404696128
 30
0.0
 10
4.6223507394
 20
2.8279161004
 30
0.0
  0
SPLINE
  5
32D
100
AcDbEntity
  8
0
100
AcDbSpline
 62
7
  6
CONTINUOUS
 70
0
 71
3
 72
52
 73
48
 74
0
 42
0.0000001
 43
0.0000001
 44
0.0000000001
 40
0.0
 40
0.0
 40
0.0
 40
0.0
 40
0.0155199689
 40
0.0310661102
 40
0.046605443
 40
0.0543686723
 40
0.062126346
 40
0.0776427043
 40
0.0932073144
 40
0.124593879
 40
0.1564405766
 40
0.1886951134
 40
0.2211746229
 40
0.2536094327
 40
0.2697163899
 40
0.2856902673
 40
0.3171636213
 40
0.348165221
 40
0.3635874067
 40
0.3790169943
 40
0.3944979908
 40
0.4100333005
 40
0.4411951034
 40
0.4567898404
 40
0.4723538485
 40
0.5034153089
 40
0.5344846031
 40
0.5500308902
 40
0.5655737469
 40
0.5811080544
 40
0.5966334857
 40
0.6121505775
 40
0.6276607246
 40
0.6431663109
 40
0.6586708043
 40
0.6896807894
 40
0.7206952331
 40
0.7516968521
 40
0.7827171978
 40
0.8137781015
 40
0.8293249334
 40
0.8448781138
 40
0.8759815497
 40
0.907057296
 40
0.938083839
 40
0.9690557558
 40
1.0
 40
1.0
 40
1.0
 40
1.0
 10
5.2454332671
 20
4.320253592
 30
0.0
 10
5.2435711185
 20
4.3227469558
 30
0.0
 10
5.2396694613
 20
4.3276107992
 30
0.0
 10
5.2333035595
 20
4.3344632816
 30
0.0
 10
5.2275712562
 20
4.3397513187
 30
0.0
 10
5.222740277
 20
4.3436845891
 30
0.0
 10
5.217748703
 20
4.3474042938
 30
0.0
 10
5.2112090134
 20
4.3516516948
 30
0.0
 10
5.2001762495
 20
4.3576055126
 30
0.0
 10
5.1854434373
 20
4.3634820525
 30
0.0
 10
5.1668132617
 20
4.3681117815
 30
0.0
 10
5.1475488141
 20
4.3704807414
 30
0.0
 10
5.1280304223
 20
4.3707116146
 30
0.0
 10
5.1118224853
 20
4.3692178352
 30
0.0
 10
5.0990635822
 20
4.3670535169
 30
0.0
 10
5.0866193788
 20
4.3642867705
 30
0.0
 10
5.0715430114
 20
4.3596848501
 30
0.0
 10
5.0572045036
 20
4.3533790515
 30
0.0
 10
5.0463893959
 20
4.3472915252
 30
0.0
 10
5.0386173856
 20
4.3421874606
 30
0.0
 10
5.0312048311
 20
4.3365368016
 30
0.0
 10
5.0218071144
 20
4.3283332246
 30
0.0
 10
5.0131946257
 20
4.3192355904
 30
0.0
 10
5.0054331313
 20
4.3094355211
 30
0.0
 10
4.9982596722
 20
4.2992201493
 30
0.0
 10
4.9903752528
 20
4.2857479947
 30
0.0
 10
4.9838581139
 20
4.2715762939
 30
0.0
 10
4.9794004009
 20
4.2599339865
 30
0.0
 10
4.9764146784
 20
4.251072092
 30
0.0
 10
4.9737859839
 20
4.2421023584
 30
0.0
 10
4.9715239695
 20
4.2330384061
 30
0.0
 10
4.9696353193
 20
4.2238942644
 30
0.0
 10
4.9681275573
 20
4.2146836648
 30
0.0
 10
4.9670075467
 20
4.2054202065
 30
0.0
 10
4.9660428797
 20
4.1930185528
 30
0.0
 10
4.9658041869
 20
4.1774562194
 30
0.0
 10
4.9669691312
 20
4.1588223451
 30
0.0
 10
4.9694957276
 20
4.1403230033
 30
0.0
 10
4.9732867067
 20
4.1220338823
 30
0.0
 10
4.9774167389
 20
4.1070151621
 30
0.0
 10
4.9812559793
 20
4.0951554531
 30
0.0
 10
4.9854360015
 20
4.0834024933
 30
0.0
 10
4.9912884353
 20
4.0689461023
 30
0.0
 10
4.9993281643
 20
4.0520620784
 30
0.0
 10
5.0083919249
 20
4.0357333314
 30
0.0
 10
5.0184923582
 20
4.0200552112
 30
0.0
 10
5.0259172747
 20
4.0100916542
 30
0.0
 10
5.0297807426
 20
4.0052364534
 30
0.0
  0
SPLINE
  5
32E
100
AcDbEntity
  8
0
100
AcDbSpline
 62
7
  6
CONTINUOUS
 70
0
 71
3
 72
73
 73
69
 74
0
 42
0.0000001
 43
0.0000001
 44
0.0000000001
 40
0.0
 40
0.0
 40
0.0
 40
0.0
 40
0.015562211
 40
0.0311657558
 40
0.0468227116
 40
0.0625345637
 40
0.0782933748
 40
0.0940829189
 40
0.1019825551
 40
0.1098806561
 40
0.1256614041
 40
0.1414102695
 40
0.1571159914
 40
0.1883664532
 40
0.2039230552
 40
0.2194421783
 40
0.2271935264
 40
0.2349429985
 40
0.2504548861
 40
0.266017901
 40
0.281665123
 40
0.2895297465
 40
0.2974247552
 40
0.3132798449
 40
0.3291605231
 40
0.344999992
 40
0.3607438857
 40
0.3763533081
 40
0.3841019832
 40
0.391811445
 40
0.3994828737
 40
0.407119492
 40
0.4147318413
 40
0.4223345454
 40
0.4375563836
 40
0.4682820168
 40
0.4838554214
 40
0.4995647174
 40
0.5312918136
 40
0.5472379358
 40
0.5631837199
 40
0.5790890898
 40
0.5870157906
 40
0.5949204068
 40
0.6028003675
 40
0.6106548486
 40
0.6262977828
 40
0.6418750636
 40
0.6574117442
 40
0.6729319765
 40
0.6884584876
 40
0.7040039051
 40
0.7195698604
 40
0.7351544455
 40
0.7507527883
 40
0.7663573208
 40
0.7819586948
 40
0.7975530678
 40
0.8131407885
 40
0.844296119
 40
0.859867009
 40
0.875433607
 40
0.8909967406
 40
0.9065579351
 40
0.9221208082
 40
0.9376881018
 40
0.968837735
 40
1.0
 40
1.0
 40
1.0
 40
1.0
 10
5.0297807426
 20
4.0052364534
 30
0.0
 10
5.033744675
 20
4.0002549993
 30
0.0
 10
5.042010912
 20
3.9905355132
 30
0.0
 10
5.0552927891
 20
3.9767200546
 30
0.0
 10
5.0693800558
 20
3.9636376717
 30
0.0
 10
5.0841827273
 20
3.9512736488
 30
0.0
 10
5.0996117341
 20
3.9396125758
 30
0.0
 10
5.112915278
 20
3.930469185
 30
0.0
 10
5.1237888995
 20
3.9234869756
 30
0.0
 10
5.1347970444
 20
3.9167256788
 30
0.0
 10
5.1487947396
 20
3.9087029984
 30
0.0
 10
5.1659586599
 20
3.8998131577
 30
0.0
 10
5.1892453953
 20
3.8890423072
 30
0.0
 10
5.2132004665
 20
3.8799487241
 30
0.0
 10
5.2376817904
 20
3.8727925088
 30
0.0
 10
5.2531582139
 20
3.8691782041
 30
0.0
 10
5.2656302732
 20
3.8668305781
 30
0.0
 10
5.2781632742
 20
3.8648523219
 30
0.0
 10
5.2939532231
 20
3.8630585175
 30
0.0
 10
5.3130436123
 20
3.8619607766
 30
0.0
 10
5.3290358719
 20
3.8618929343
 30
0.0
 10
5.3418774817
 20
3.8623258162
 30
0.0
 10
5.3547894778
 20
3.8630785724
 30
0.0
 10
5.3709353096
 20
3.8646240418
 30
0.0
 10
5.3901927124
 20
3.8675035723
 30
0.0
 10
5.4092114949
 20
3.8714705518
 30
0.0
 10
5.42784063
 20
3.8765856341
 30
0.0
 10
5.4429543869
 20
3.8818700798
 30
0.0
 10
5.4546970852
 20
3.886738096
 30
0.0
 10
5.4632896587
 20
3.89070582
 30
0.0
 10
5.4716698403
 20
3.8950053489
 30
0.0
 10
5.4798187964
 20
3.8996491754
 30
0.0
 10
5.487732996
 20
3.904629685
 30
0.0
 10
5.4979930144
 20
3.9116890776
 30
0.0
 10
5.5153066283
 20
3.9251418848
 30
0.0
 10
5.5335828546
 20
3.9425334132
 30
0.0
 10
5.5507526135
 20
3.9612071212
 30
0.0
 10
5.5675414543
 20
3.9807721276
 30
0.0
 10
5.5837026317
 20
4.0010532043
 30
0.0
 10
5.5997650923
 20
4.0215291947
 30
0.0
 10
5.6118960396
 20
4.0368641113
 30
0.0
 10
5.6221626342
 20
4.0494900491
 30
0.0
 10
5.630525769
 20
4.0594207205
 30
0.0
 10
5.6368766925
 20
4.06675266
 30
0.0
 10
5.6433273117
 20
4.073957685
 30
0.0
 10
5.6520680038
 20
4.0833583724
 30
0.0
 10
5.6632796515
 20
4.0947572364
 30
0.0
 10
5.6771944328
 20
4.107886999
 30
0.0
 10
5.691546838
 20
4.1204608753
 30
0.0
 10
5.7063311767
 20
4.1324908379
 30
0.0
 10
5.7215410276
 20
4.1439837156
 30
0.0
 10
5.7371521172
 20
4.154957108
 30
0.0
 10
5.7531259908
 20
4.1654378546
 30
0.0
 10
5.7694239487
 20
4.1754478328
 30
0.0
 10
5.786006461
 20
4.1850099191
 30
0.0
 10
5.8028350256
 20
4.194145663
 30
0.0
 10
5.8198718717
 20
4.2028826985
 30
0.0
 10
5.8370988851
 20
4.2112231407
 30
0.0
 10
5.8603039155
 20
4.2218015172
 30
0.0
 10
5.8838627025
 20
4.2315660937
 30
0.0
 10
5.9077325924
 20
4.2404922707
 30
0.0
 10
5.9257804194
 20
4.2467624196
 30
0.0
 10
5.9439671771
 20
4.2526041449
 30
0.0
 10
5.9622859838
 20
4.2580119172
 30
0.0
 10
5.9807211016
 20
4.2630143567
 30
0.0
 10
6.0054410403
 20
4.2691858152
 30
0.0
 10
6.036560483
 20
4.2760394046
 30
0.0
 10
6.061611909
 20
4.2807667992
 30
0.0
 10
6.0741654214
 20
4.2829836326
 30
0.0
  0
SPLINE
  5
32F
100
AcDbEntity
  8
0
100
AcDbSpline
 62
7
  6
CONTINUOUS
 70
0
 71
3
 72
12
 73
8
 74
0
 42
0.0000001
 43
0.0000001
 44
0.0000000001
 40
0.0
 40
0.0
 40
0.0
 40
0.0
 40
0.2500444691
 40
0.4991430401
 40
0.6238207951
 40
0.7488001197
 40
1.0
 40
1.0
 40
1.0
 40
1.0
 10
5.0901229533
 20
4.1512502414
 30
0.0
 10
5.0894214213
 20
4.1556759637
 30
0.0
 10
5.0884369701
 20
4.164583155
 30
0.0
 10
5.0883629408
 20
4.1757854144
 30
0.0
 10
5.0890582855
 20
4.1847007683
 30
0.0
 10
5.0902435524
 20
4.1936012162
 30
0.0
 10
5.0916504995
 20
4.2002086885
 30
0.0
 10
5.092789429
 20
4.2045639149
 30
0.0
  0
SPLINE
  5
330
100
AcDbEntity
  8
0
100
AcDbSpline
 62
7
  6
CONTINUOUS
 70
0
 71
3
 72
12
 73
8
 74
0
 42
0.0000001
 43
0.0000001
 44
0.0000000001
 40
0.0
 40
0.0
 40
0.0
 40
0.0
 40
0.2500444691
 40
0.4991430401
 40
0.6238207951
 40
0.7488001197
 40
1.0
 40
1.0
 40
1.0
 40
1.0
 10
3.7653894691
 20
4.1479973912
 30
0.0
 10
3.766091001
 20
4.1524231134
 30
0.0
 10
3.7670754522
 20
4.1613303048
 30
0.0
 10
3.7671494815
 20
4.1725325642
 30
0.0
 10
3.7664541369
 20
4.1814479181
 30
0.0
 10
3.76526887
 20
4.190348366
 30
0.0
 10
3.7638619229
 20
4.1969558383
 30
0.0
 10
3.7627229934
 20
4.2013110647
 30
0.0
  0
SPLINE
  5
331
100
AcDbEntity
  8
0
100
AcDbSpline
 62
7
  6
CONTINUOUS
 70
0
 71
3
 72
52
 73
48
 74
0
 42
0.0000001
 43
0.0000001
 44
0.0000000001
 40
0.0
 40
0.0
 40
0.0
 40
0.0
 40
0.0155199689
 40
0.0310661102
 40
0.046605443
 40
0.0543686723
 40
0.062126346
 40
0.0776427043
 40
0.0932073144
 40
0.124593879
 40
0.1564405766
 40
0.1886951134
 40
0.2211746229
 40
0.2536094327
 40
0.2697163899
 40
0.2856902673
 40
0.3171636213
 40
0.348165221
 40
0.3635874067
 40
0.3790169943
 40
0.3944979908
 40
0.4100333005
 40
0.4411951034
 40
0.4567898404
 40
0.4723538485
 40
0.5034153089
 40
0.5344846031
 40
0.5500308902
 40
0.5655737469
 40
0.5811080544
 40
0.5966334857
 40
0.6121505775
 40
0.6276607246
 40
0.6431663109
 40
0.6586708043
 40
0.6896807894
 40
0.7206952331
 40
0.7516968521
 40
0.7827171978
 40
0.8137781015
 40
0.8293249334
 40
0.8448781138
 40
0.8759815497
 40
0.907057296
 40
0.938083839
 40
0.9690557558
 40
1.0
 40
1.0
 40
1.0
 40
1.0
 10
3.6100791552
 20
4.3170007418
 30
0.0
 10
3.6119413039
 20
4.3194941056
 30
0.0
 10
3.6158429611
 20
4.324357949
 30
0.0
 10
3.6222088629
 20
4.3312104314
 30
0.0
 10
3.6279411662
 20
4.3364984685
 30
0.0
 10
3.6327721454
 20
4.3404317389
 30
0.0
 10
3.6377637193
 20
4.3441514436
 30
0.0
 10
3.644303409
 20
4.3483988446
 30
0.0
 10
3.6553361729
 20
4.3543526624
 30
0.0
 10
3.670068985
 20
4.3602292023
 30
0.0
 10
3.6886991607
 20
4.3648589313
 30
0.0
 10
3.7079636083
 20
4.3672278912
 30
0.0
 10
3.727482
 20
4.3674587644
 30
0.0
 10
3.743689937
 20
4.365964985
 30
0.0
 10
3.7564488402
 20
4.3638006666
 30
0.0
 10
3.7688930435
 20
4.3610339203
 30
0.0
 10
3.783969411
 20
4.3564319999
 30
0.0
 10
3.7983079188
 20
4.3501262013
 30
0.0
 10
3.8091230265
 20
4.344038675
 30
0.0
 10
3.8168950368
 20
4.3389346104
 30
0.0
 10
3.8243075913
 20
4.3332839514
 30
0.0
 10
3.833705308
 20
4.3250803744
 30
0.0
 10
3.8423177967
 20
4.3159827402
 30
0.0
 10
3.8500792911
 20
4.3061826709
 30
0.0
 10
3.8572527502
 20
4.295967299
 30
0.0
 10
3.8651371696
 20
4.2824951445
 30
0.0
 10
3.8716543084
 20
4.2683234437
 30
0.0
 10
3.8761120215
 20
4.2566811362
 30
0.0
 10
3.8790977439
 20
4.2478192418
 30
0.0
 10
3.8817264384
 20
4.2388495082
 30
0.0
 10
3.8839884528
 20
4.2297855559
 30
0.0
 10
3.8858771031
 20
4.2206414142
 30
0.0
 10
3.887384865
 20
4.2114308146
 30
0.0
 10
3.8885048757
 20
4.2021673563
 30
0.0
 10
3.8894695426
 20
4.1897657026
 30
0.0
 10
3.8897082355
 20
4.1742033692
 30
0.0
 10
3.8885432912
 20
4.1555694948
 30
0.0
 10
3.8860166948
 20
4.1370701531
 30
0.0
 10
3.8822257156
 20
4.1187810321
 30
0.0
 10
3.8780956834
 20
4.1037623119
 30
0.0
 10
3.874256443
 20
4.0919026028
 30
0.0
 10
3.8700764209
 20
4.080149643
 30
0.0
 10
3.864223987
 20
4.0656932521
 30
0.0
 10
3.8561842581
 20
4.0488092282
 30
0.0
 10
3.8471204975
 20
4.0324804811
 30
0.0
 10
3.8370200642
 20
4.016802361
 30
0.0
 10
3.8295951477
 20
4.006838804
 30
0.0
 10
3.8257316798
 20
4.0019836031
 30
0.0
  0
SPLINE
  5
332
100
AcDbEntity
  8
0
100
AcDbSpline
 62
7
  6
CONTINUOUS
 70
0
 71
3
 72
73
 73
69
 74
0
 42
0.0000001
 43
0.0000001
 44
0.0000000001
 40
0.0
 40
0.0
 40
0.0
 40
0.0
 40
0.015562211
 40
0.0311657558
 40
0.0468227116
 40
0.0625345637
 40
0.0782933748
 40
0.0940829189
 40
0.1019825551
 40
0.1098806561
 40
0.1256614041
 40
0.1414102695
 40
0.1571159914
 40
0.1883664532
 40
0.2039230552
 40
0.2194421783
 40
0.2271935264
 40
0.2349429985
 40
0.2504548861
 40
0.266017901
 40
0.281665123
 40
0.2895297465
 40
0.2974247552
 40
0.3132798449
 40
0.3291605231
 40
0.344999992
 40
0.3607438857
 40
0.3763533081
 40
0.3841019832
 40
0.391811445
 40
0.3994828737
 40
0.407119492
 40
0.4147318413
 40
0.4223345454
 40
0.4375563836
 40
0.4682820168
 40
0.4838554214
 40
0.4995647174
 40
0.5312918136
 40
0.5472379358
 40
0.5631837199
 40
0.5790890898
 40
0.5870157906
 40
0.5949204068
 40
0.6028003675
 40
0.6106548486
 40
0.6262977828
 40
0.6418750636
 40
0.6574117442
 40
0.6729319765
 40
0.6884584876
 40
0.7040039051
 40
0.7195698604
 40
0.7351544455
 40
0.7507527883
 40
0.7663573208
 40
0.7819586948
 40
0.7975530678
 40
0.8131407885
 40
0.844296119
 40
0.859867009
 40
0.875433607
 40
0.8909967406
 40
0.9065579351
 40
0.9221208082
 40
0.9376881018
 40
0.968837735
 40
1.0
 40
1.0
 40
1.0
 40
1.0
 10
3.8257316798
 20
4.0019836031
 30
0.0
 10
3.8217677474
 20
3.9970021491
 30
0.0
 10
3.8135015103
 20
3.987282663
 30
0.0
 10
3.8002196333
 20
3.9734672044
 30
0.0
 10
3.7861323666
 20
3.9603848215
 30
0.0
 10
3.7713296951
 20
3.9480207986
 30
0.0
 10
3.7559006883
 20
3.9363597256
 30
0.0
 10
3.7425971444
 20
3.9272163348
 30
0.0
 10
3.7317235229
 20
3.9202341254
 30
0.0
 10
3.7207153779
 20
3.9134728286
 30
0.0
 10
3.7067176827
 20
3.9054501482
 30
0.0
 10
3.6895537624
 20
3.8965603075
 30
0.0
 10
3.666267027
 20
3.885789457
 30
0.0
 10
3.6423119559
 20
3.8766958739
 30
0.0
 10
3.617830632
 20
3.8695396586
 30
0.0
 10
3.6023542085
 20
3.8659253538
 30
0.0
 10
3.5898821492
 20
3.8635777279
 30
0.0
 10
3.5773491481
 20
3.8615994717
 30
0.0
 10
3.5615591993
 20
3.8598056673
 30
0.0
 10
3.5424688101
 20
3.8587079264
 30
0.0
 10
3.5264765505
 20
3.858640084
 30
0.0
 10
3.5136349406
 20
3.859072966
 30
0.0
 10
3.5007229446
 20
3.8598257221
 30
0.0
 10
3.4845771127
 20
3.8613711916
 30
0.0
 10
3.46531971
 20
3.8642507221
 30
0.0
 10
3.4463009274
 20
3.8682177016
 30
0.0
 10
3.4276717924
 20
3.8733327838
 30
0.0
 10
3.4125580355
 20
3.8786172296
 30
0.0
 10
3.4008153371
 20
3.8834852458
 30
0.0
 10
3.3922227636
 20
3.8874529698
 30
0.0
 10
3.3838425821
 20
3.8917524987
 30
0.0
 10
3.375693626
 20
3.8963963252
 30
0.0
 10
3.3677794263
 20
3.9013768348
 30
0.0
 10
3.357519408
 20
3.9084362274
 30
0.0
 10
3.3402057941
 20
3.9218890346
 30
0.0
 10
3.3219295678
 20
3.939280563
 30
0.0
 10
3.3047598089
 20
3.957954271
 30
0.0
 10
3.287970968
 20
3.9775192774
 30
0.0
 10
3.2718097906
 20
3.997800354
 30
0.0
 10
3.25574733
 20
4.0182763445
 30
0.0
 10
3.2436163828
 20
4.0336112611
 30
0.0
 10
3.2333497882
 20
4.0462371989
 30
0.0
 10
3.2249866534
 20
4.0561678703
 30
0.0
 10
3.2186357299
 20
4.0634998098
 30
0.0
 10
3.2121851106
 20
4.0707048348
 30
0.0
 10
3.2034444186
 20
4.0801055222
 30
0.0
 10
3.1922327709
 20
4.0915043862
 30
0.0
 10
3.1783179895
 20
4.1046341488
 30
0.0
 10
3.1639655843
 20
4.117208025
 30
0.0
 10
3.1491812456
 20
4.1292379877
 30
0.0
 10
3.1339713947
 20
4.1407308654
 30
0.0
 10
3.1183603051
 20
4.1517042578
 30
0.0
 10
3.1023864315
 20
4.1621850044
 30
0.0
 10
3.0860884736
 20
4.1721949826
 30
0.0
 10
3.0695059614
 20
4.1817570689
 30
0.0
 10
3.0526773968
 20
4.1908928127
 30
0.0
 10
3.0356405506
 20
4.1996298482
 30
0.0
 10
3.0184135372
 20
4.2079702905
 30
0.0
 10
2.9952085069
 20
4.218548667
 30
0.0
 10
2.9716497198
 20
4.2283132435
 30
0.0
 10
2.94777983
 20
4.2372394205
 30
0.0
 10
2.9297320029
 20
4.2435095694
 30
0.0
 10
2.9115452452
 20
4.2493512947
 30
0.0
 10
2.8932264385
 20
4.254759067
 30
0.0
 10
2.8747913207
 20
4.2597615065
 30
0.0
 10
2.850071382
 20
4.265932965
 30
0.0
 10
2.8189519394
 20
4.2727865544
 30
0.0
 10
2.7939005134
 20
4.277513949
 30
0.0
 10
2.781347001
 20
4.2797307823
 30
0.0
  0
SPLINE
  5
333
100
AcDbEntity
  8
0
100
AcDbSpline
 62
7
  6
CONTINUOUS
 70
0
 71
3
 72
52
 73
48
 74
0
 42
0.0000001
 43
0.0000001
 44
0.0000000001
 40
0.0
 40
0.0
 40
0.0
 40
0.0
 40
0.0155199689
 40
0.0310661102
 40
0.046605443
 40
0.0543686723
 40
0.062126346
 40
0.0776427043
 40
0.0932073144
 40
0.124593879
 40
0.1564405766
 40
0.1886951134
 40
0.2211746229
 40
0.2536094327
 40
0.2697163899
 40
0.2856902673
 40
0.3171636213
 40
0.348165221
 40
0.3635874067
 40
0.3790169943
 40
0.3944979908
 40
0.4100333005
 40
0.4411951034
 40
0.4567898404
 40
0.4723538485
 40
0.5034153089
 40
0.5344846031
 40
0.5500308902
 40
0.5655737469
 40
0.5811080544
 40
0.5966334857
 40
0.6121505775
 40
0.6276607246
 40
0.6431663109
 40
0.6586708043
 40
0.6896807894
 40
0.7206952331
 40
0.7516968521
 40
0.7827171978
 40
0.8137781015
 40
0.8293249334
 40
0.8448781138
 40
0.8759815497
 40
0.907057296
 40
0.938083839
 40
0.9690557558
 40
1.0
 40
1.0
 40
1.0
 40
1.0
 10
4.2736844926
 20
3.6566482546
 30
0.0
 10
4.2761778564
 20
3.6585104032
 30
0.0
 10
4.2810416998
 20
3.6624120605
 30
0.0
 10
4.2878941822
 20
3.6687779623
 30
0.0
 10
4.2931822193
 20
3.6745102655
 30
0.0
 10
4.2971154898
 20
3.6793412447
 30
0.0
 10
4.3008351945
 20
3.6843328187
 30
0.0
 10
4.3050825954
 20
3.6908725084
 30
0.0
 10
4.3110364133
 20
3.7019052723
 30
0.0
 10
4.3169129531
 20
3.7166380844
 30
0.0
 10
4.3215426821
 20
3.7352682601
 30
0.0
 10
4.323911642
 20
3.7545327076
 30
0.0
 10
4.3241425152
 20
3.7740510994
 30
0.0
 10
4.3226487358
 20
3.7902590364
 30
0.0
 10
4.3204844175
 20
3.8030179396
 30
0.0
 10
4.3177176711
 20
3.8154621429
 30
0.0
 10
4.3131157507
 20
3.8305385104
 30
0.0
 10
4.3068099521
 20
3.8448770182
 30
0.0
 10
4.3007224258
 20
3.8556921258
 30
0.0
 10
4.2956183612
 20
3.8634641362
 30
0.0
 10
4.2899677022
 20
3.8708766907
 30
0.0
 10
4.2817641252
 20
3.8802744073
 30
0.0
 10
4.272666491
 20
3.888886896
 30
0.0
 10
4.2628664217
 20
3.8966483904
 30
0.0
 10
4.2526510499
 20
3.9038218495
 30
0.0
 10
4.2391788953
 20
3.911706269
 30
0.0
 10
4.2250071945
 20
3.9182234078
 30
0.0
 10
4.2133648871
 20
3.9226811209
 30
0.0
 10
4.2045029926
 20
3.9256668433
 30
0.0
 10
4.195533259
 20
3.9282955378
 30
0.0
 10
4.1864693068
 20
3.9305575522
 30
0.0
 10
4.177325165
 20
3.9324462024
 30
0.0
 10
4.1681145654
 20
3.9339539644
 30
0.0
 10
4.1588511071
 20
3.9350739751
 30
0.0
 10
4.1464494534
 20
3.936038642
 30
0.0
 10
4.1308871201
 20
3.9362773349
 30
0.0
 10
4.1122532457
 20
3.9351123906
 30
0.0
 10
4.0937539039
 20
3.9325857942
 30
0.0
 10
4.075464783
 20
3.928794815
 30
0.0
 10
4.0604460628
 20
3.9246647828
 30
0.0
 10
4.0485863537
 20
3.9208255424
 30
0.0
 10
4.0368333939
 20
3.9166455202
 30
0.0
 10
4.022377003
 20
3.9107930864
 30
0.0
 10
4.005492979
 20
3.9027533575
 30
0.0
 10
3.989164232
 20
3.8936895969
 30
0.0
 10
3.9734861118
 20
3.8835891636
 30
0.0
 10
3.9635225548
 20
3.8761642471
 30
0.0
 10
3.958667354
 20
3.8723007792
 30
0.0
  0
SPLINE
  5
334
100
AcDbEntity
  8
0
100
AcDbSpline
 62
7
  6
CONTINUOUS
 70
0
 71
3
 72
73
 73
69
 74
0
 42
0.0000001
 43
0.0000001
 44
0.0000000001
 40
0.0
 40
0.0
 40
0.0
 40
0.0
 40
0.015562211
 40
0.0311657558
 40
0.0468227116
 40
0.0625345637
 40
0.0782933748
 40
0.0940829189
 40
0.1019825551
 40
0.1098806561
 40
0.1256614041
 40
0.1414102695
 40
0.1571159914
 40
0.1883664532
 40
0.2039230552
 40
0.2194421783
 40
0.2271935264
 40
0.2349429985
 40
0.2504548861
 40
0.266017901
 40
0.281665123
 40
0.2895297465
 40
0.2974247552
 40
0.3132798449
 40
0.3291605231
 40
0.344999992
 40
0.3607438857
 40
0.3763533081
 40
0.3841019832
 40
0.391811445
 40
0.3994828737
 40
0.407119492
 40
0.4147318413
 40
0.4223345454
 40
0.4375563836
 40
0.4682820168
 40
0.4838554214
 40
0.4995647174
 40
0.5312918136
 40
0.5472379358
 40
0.5631837199
 40
0.5790890898
 40
0.5870157906
 40
0.5949204068
 40
0.6028003675
 40
0.6106548486
 40
0.6262977828
 40
0.6418750636
 40
0.6574117442
 40
0.6729319765
 40
0.6884584876
 40
0.7040039051
 40
0.7195698604
 40
0.7351544455
 40
0.7507527883
 40
0.7663573208
 40
0.7819586948
 40
0.7975530678
 40
0.8131407885
 40
0.844296119
 40
0.859867009
 40
0.875433607
 40
0.8909967406
 40
0.9065579351
 40
0.9221208082
 40
0.9376881018
 40
0.968837735
 40
1.0
 40
1.0
 40
1.0
 40
1.0
 10
3.958667354
 20
3.8723007792
 30
0.0
 10
3.9536859
 20
3.8683368468
 30
0.0
 10
3.9439664138
 20
3.8600706097
 30
0.0
 10
3.9301509552
 20
3.8467887327
 30
0.0
 10
3.9170685723
 20
3.8327014659
 30
0.0
 10
3.9047045494
 20
3.8178987945
 30
0.0
 10
3.8930434764
 20
3.8024697877
 30
0.0
 10
3.8839000857
 20
3.7891662438
 30
0.0
 10
3.8769178762
 20
3.7782926222
 30
0.0
 10
3.8701565794
 20
3.7672844773
 30
0.0
 10
3.862133899
 20
3.7532867821
 30
0.0
 10
3.8532440583
 20
3.7361228618
 30
0.0
 10
3.8424732078
 20
3.7128361264
 30
0.0
 10
3.8333796247
 20
3.6888810552
 30
0.0
 10
3.8262234094
 20
3.6643997314
 30
0.0
 10
3.8226091047
 20
3.6489233079
 30
0.0
 10
3.8202614787
 20
3.6364512486
 30
0.0
 10
3.8182832226
 20
3.6239182475
 30
0.0
 10
3.8164894181
 20
3.6081282986
 30
0.0
 10
3.8153916772
 20
3.5890379095
 30
0.0
 10
3.8153238349
 20
3.5730456498
 30
0.0
 10
3.8157567168
 20
3.56020404
 30
0.0
 10
3.816509473
 20
3.547292044
 30
0.0
 10
3.8180549424
 20
3.5311462121
 30
0.0
 10
3.820934473
 20
3.5118888094
 30
0.0
 10
3.8249014524
 20
3.4928700268
 30
0.0
 10
3.8300165347
 20
3.4742408917
 30
0.0
 10
3.8353009804
 20
3.4591271348
 30
0.0
 10
3.8401689966
 20
3.4473844365
 30
0.0
 10
3.8441367207
 20
3.438791863
 30
0.0
 10
3.8484362495
 20
3.4304116814
 30
0.0
 10
3.853080076
 20
3.4222627253
 30
0.0
 10
3.8580605856
 20
3.4143485257
 30
0.0
 10
3.8651199782
 20
3.4040885074
 30
0.0
 10
3.8785727854
 20
3.3867748935
 30
0.0
 10
3.8959643138
 20
3.3684986671
 30
0.0
 10
3.9146380219
 20
3.3513289083
 30
0.0
 10
3.9342030282
 20
3.3345400674
 30
0.0
 10
3.9544841049
 20
3.31837889
 30
0.0
 10
3.9749600953
 20
3.3023164294
 30
0.0
 10
3.990295012
 20
3.2901854821
 30
0.0
 10
4.0029209497
 20
3.2799188876
 30
0.0
 10
4.0128516211
 20
3.2715557528
 30
0.0
 10
4.0201835606
 20
3.2652048292
 30
0.0
 10
4.0273885857
 20
3.25875421
 30
0.0
 10
4.0367892731
 20
3.250013518
 30
0.0
 10
4.048188137
 20
3.2388018703
 30
0.0
 10
4.0613178997
 20
3.2248870889
 30
0.0
 10
4.0738917759
 20
3.2105346837
 30
0.0
 10
4.0859217386
 20
3.195750345
 30
0.0
 10
4.0974146163
 20
3.1805404941
 30
0.0
 10
4.1083880086
 20
3.1649294045
 30
0.0
 10
4.1188687553
 20
3.1489555309
 30
0.0
 10
4.1288787334
 20
3.132657573
 30
0.0
 10
4.1384408197
 20
3.1160750608
 30
0.0
 10
4.1475765636
 20
3.0992464961
 30
0.0
 10
4.1563135991
 20
3.08220965
 30
0.0
 10
4.1646540413
 20
3.0649826366
 30
0.0
 10
4.1752324178
 20
3.0417776063
 30
0.0
 10
4.1849969943
 20
3.0182188192
 30
0.0
 10
4.1939231713
 20
2.9943489293
 30
0.0
 10
4.2001933202
 20
2.9763011023
 30
0.0
 10
4.2060350455
 20
2.9581143446
 30
0.0
 10
4.2114428178
 20
2.9397955379
 30
0.0
 10
4.2164452574
 20
2.9213604201
 30
0.0
 10
4.2226167158
 20
2.8966404814
 30
0.0
 10
4.2294703052
 20
2.8655210387
 30
0.0
 10
4.2341976999
 20
2.8404696128
 30
0.0
 10
4.2364145332
 20
2.8279161004
 30
0.0
  0
SPLINE
  5
335
100
AcDbEntity
  8
0
100
AcDbSpline
 62
7
  6
CONTINUOUS
 70
0
 71
3
 72
12
 73
8
 74
0
 42
0.0000001
 43
0.0000001
 44
0.0000000001
 40
0.0
 40
0.0
 40
0.0
 40
0.0
 40
0.2500444691
 40
0.4991430401
 40
0.6238207951
 40
0.7488001197
 40
1.0
 40
1.0
 40
1.0
 40
1.0
 10
4.1046811421
 20
3.8119585685
 30
0.0
 10
4.1091068643
 20
3.8126601004
 30
0.0
 10
4.1180140557
 20
3.8136445516
 30
0.0
 10
4.129216315
 20
3.8137185809
 30
0.0
 10
4.1381316689
 20
3.8130232362
 30
0.0
 10
4.1470321169
 20
3.8118379694
 30
0.0
 10
4.1536395892
 20
3.8104310222
 30
0.0
 10
4.1579948156
 20
3.8092920927
 30
0.0
  0
ENDSEC
  0
SECTION
  2
OBJECTS
  0
DICTIONARY
  5
C
100
AcDbDictionary
280
0
281
1
  3
ACAD_GROUP
350
D
  3
ACAD_MLINESTYLE
350
17
  3
ACAD_LAYOUT
350
1A
  3
ACAD_PLOTSETTINGS
350
19
  3
ACAD_PLOTSTYLENAME
350
E
  0
DICTIONARY
  5
D
102
{ACAD_REACTORS
330
C
102
}
100
AcDbDictionary
280
0
281
1
  0
ACDBDICTIONARYWDFLT
  5
E
102
{ACAD_REACTORS
330
C
102
}
100
AcDbDictionary
281
1
  3
Normal
350
F
100
AcDbDictionaryWithDefault
340
F
  0
DICTIONARY
  5
17
102
{ACAD_REACTORS
330
C
102
}
100
AcDbDictionary
280
0
281
1
  3
Standard
350
18
  0
DICTIONARY
  5
19
102
{ACAD_REACTORS
330
C
102
}
100
AcDbDictionary
281
1
  0
DICTIONARY
  5
1A
102
{ACAD_REACTORS
330
C
102
}
100
AcDbDictionary
281
1
  3
Model
350
336
  3
Layout1
350
337
  0
ACDBPLACEHOLDER
  5
F
102
{ACAD_REACTORS
330
E
102
}
  0
MLINESTYLE
  5
18
102
{ACAD_REACTORS
330
17
102
}
100
AcDbMlineStyle
  2
STANDARD
 70
0
  3

 62
256
 51
90.0
 52
90.0
 71
2
 49
0.5
 62
256
  6
BYLAYER
 49
-0.5
 62
256
  6
BYLAYER
  0
LAYOUT
  5
336
102
{ACAD_REACTORS
330
1A
102
}
100
AcDbPlotSettings
  1

  2
none_device
  4
ANSI_A_(11.00_x_8.50_Inches)
  6

 40
0.0
 41
0.0
 42
0.0
 43
0.0
 44
279.4
 45
215.9
 46
0.0
 47
0.0
 48
0.0
 49
0.0
140
0.0
141
0.0
142
1.0
143
1.0
 70
1024
 72
0
 73
0
 74
0
  7

 75
0
147
1.0
148
0.0
149
0.0
100
AcDbLayout
  1
Model
 70
0
 71
0
 10
0.0
 20
0.0
 11
11.0
 21
8.5
 12
0.0
 22
0.0
 32
0.0
 14
0.0
 24
0.0
 34
0.0
 15
0.0
 25
0.0
 35
0.0
146
0.0
 13
0.0
 23
0.0
 33
0.0
 16
1.0
 26
0.0
 36
0.0
 17
0.0
 27
1.0
 37
0.0
 76
0
330
206
345
0
346
0
  0
LAYOUT
  5
337
102
{ACAD_REACTORS
330
1A
102
}
100
AcDbPlotSettings
  1

  2
none_device
  4
ANSI_A_(11.00_x_8.50_Inches)
  6

 40
0.0
 41
0.0
 42
0.0
 43
0.0
 44
279.4
 45
215.9
 46
0.0
 47
0.0
 48
0.0
 49
0.0
140
0.0
141
0.0
142
1.0
143
1.0
 70
0
 72
0
 73
0
 74
0
  7

 75
0
147
1.0
148
0.0
149
0.0
100
AcDbLayout
  1
Layout1
 70
0
 71
1
 10
0.0
 20
0.0
 11
11.0
 21
8.5
 12
0.0
 22
0.0
 32
0.0
 14
0.0
 24
0.0
 34
0.0
 15
0.0
 25
0.0
 35
0.0
146
0.0
 13
0.0
 23
0.0
 33
0.0
 16
1.0
 26
0.0
 36
0.0
 17
0.0
 27
1.0
 37
0.0
 76
0
330
207
345
0
346
0
  0
ENDSEC
  0
EOF
