999
DXF file: 233-407_front.dxf
999
Pro/ENGINEER 2018400 by Parametric Technology Corporation
  0
SECTION
  2
HEADER
  9
$ACADVER
  1
AC1027
  9
$DWGCODEPAGE
  3
ANSI_1252
  9
$EXTMAX
 10
11.0
 20
8.5
 30
0.0
  9
$EXTMIN
 10
0.0
 20
0.0
 30
0.0
  9
$LIMMIN
 10
0.0
 20
0.0
  9
$LIMMAX
 10
11.0
 20
8.5
  9
$VIEWCTR
 10
5.5
 20
4.25
  9
$VIEWSIZE
 40
8.5
  9
$CLAYER
  8
0
  9
$LTSCALE
 40
0.605
  9
$CELTYPE
  6
BYLAYER
  9
$DIMSCALE
 40
1.0
  9
$DIMASZ
 40
0.1
  9
$DIMEXO
 40
0.0625
  9
$DIMDLI
 40
0.418
  9
$DIMEXE
 40
0.125
  9
$DIMCEN
 40
0.099
  9
$DIMLFAC
 40
1.0
  9
$DIMBLK
  1
_FILLED
  9
$DIMALT
 70
1
  9
$DIMALTD
 70
1
  9
$DIMALTTD
 70
2
  9
$DIMALTF
 40
25.4
  9
$DIMTXT
 40
0.08
  9
$DIMTOL
 70
1
  9
$DIMLIM
 70
0
  9
$DIMTFAC
 40
1.0
  9
$DIMTP
 40
0.01
  9
$DIMTM
 40
0.01
  9
$DIMGAP
 40
0.09
  9
$DIMDSEP
 70
46
  9
$AUNITS
 70
0
  9
$PDMODE
 70
3
  9
$PDSIZE
 40
0.3125
  9
$HANDSEED
  5
57D
  9
$TILEMODE
 70
1
  9
$MEASUREMENT
 70
0
  9
$INSUNITS
 70
1
  0
ENDSEC
  0
SECTION
  2
CLASSES
  0
CLASS
  1
ACDBDICTIONARYWDFLT
  2
AcDbDictionaryWithDefault
  3
AutoCAD 2000
 90
0
 91
1
280
0
281
0
  0
CLASS
  1
ACDBPLACEHOLDER
  2
AcDbPlaceHolder
  3
AutoCAD 2000
 90
0
 91
1
280
0
281
0
  0
CLASS
  1
LAYOUT
  2
AcDbLayout
  3
AutoCAD 2000
 90
0
 91
0
280
0
281
0
  0
ENDSEC
  0
SECTION
  2
TABLES
  0
TABLE
  2
VPORT
  5
8
100
AcDbSymbolTable
 70
2
  0
VPORT
  5
1F4
100
AcDbSymbolTableRecord
100
AcDbViewportTableRecord
  2
*ACTIVE
 70
0
 10
0.0
 20
0.0
 11
1.0
 21
1.0
 12
5.5
 22
4.25
 13
0.0
 23
0.0
 14
1.0
 24
1.0
 15
0.0
 25
0.0
 16
0.0
 26
0.0
 36
1.0
 17
0.0
 27
0.0
 37
0.0
 40
8.5
 41
1.2941176471
 42
50.0
 43
0.0
 44
0.0
 50
0.0
 51
0.0
 71
0
 72
100
 73
1
 74
1
 75
0
 76
0
 77
0
 78
0
  0
ENDTAB
  0
TABLE
  2
LTYPE
  5
5
100
AcDbSymbolTable
 70
6
  0
LTYPE
  5
14
100
AcDbSymbolTableRecord
100
AcDbLinetypeTableRecord
  2
BYBLOCK
 70
0
  3

 72
65
 73
0
 40
0.0
  0
LTYPE
  5
15
100
AcDbSymbolTableRecord
100
AcDbLinetypeTableRecord
  2
BYLAYER
 70
0
  3

 72
65
 73
0
 40
0.0
  0
LTYPE
  5
16
100
AcDbSymbolTableRecord
100
AcDbLinetypeTableRecord
  2
CONTINUOUS
 70
64
  3
Solid line
 72
65
 73
0
 40
0.0
  0
LTYPE
  5
1F5
100
AcDbSymbolTableRecord
100
AcDbLinetypeTableRecord
  2
CENTER
 70
64
  3
____ _ ____ _ ____ _ ____ _ ____ _ ____ _ ____
 72
65
 73
4
 40
0.6
 49
0.375
 74
0
 49
-0.075
 74
0
 49
0.075
 74
0
 49
-0.075
 74
0
  0
LTYPE
  5
1F6
100
AcDbSymbolTableRecord
100
AcDbLinetypeTableRecord
  2
HIDDEN
 70
64
  3
- - - - - - - - - - - - - - - - - - - -
 72
65
 73
2
 40
0.2
 49
0.1
 74
0
 49
-0.1
 74
0
  0
LTYPE
  5
1F7
100
AcDbSymbolTableRecord
100
AcDbLinetypeTableRecord
  2
PHANTOM
 70
64
  3
_____ _ _ _____ _ _ _____ _ _ _____
 72
65
 73
6
 40
0.8
 49
0.45
 74
0
 49
-0.05
 74
0
 49
0.1
 74
0
 49
-0.05
 74
0
 49
0.1
 74
0
 49
-0.05
 74
0
  0
LTYPE
  5
1F8
100
AcDbSymbolTableRecord
100
AcDbLinetypeTableRecord
  2
DOT
 70
64
  3
. . . . . . . . . . . . . . . . . . . .
 72
65
 73
2
 40
0.2
 49
0.1
 74
0
 49
-0.1
 74
0
  0
LTYPE
  5
1F9
100
AcDbSymbolTableRecord
100
AcDbLinetypeTableRecord
  2
DASHED
 70
64
  3
- - - - - - - - - - - - - - - - - - - -
 72
65
 73
2
 40
0.2
 49
0.1
 74
0
 49
-0.1
 74
0
  0
ENDTAB
  0
TABLE
  2
LAYER
  5
2
100
AcDbSymbolTable
 70
36
  0
LAYER
  5
10
100
AcDbSymbolTableRecord
100
AcDbLayerTableRecord
  2
0
 70
0
 62
7
  6
CONTINUOUS
370
-3
390
F
  0
LAYER
  5
1FA
100
AcDbSymbolTableRecord
100
AcDbLayerTableRecord
  2
DEFAULT_1
 70
0
 62
7
  6
CENTER
370
-3
390
F
  0
LAYER
  5
1FB
100
AcDbSymbolTableRecord
100
AcDbLayerTableRecord
  2
DEFAULT_2
 70
0
 62
8
  6
HIDDEN
370
-3
390
F
  0
LAYER
  5
1FC
100
AcDbSymbolTableRecord
100
AcDbLayerTableRecord
  2
DEFAULT_3
 70
0
 62
7
  6
PHANTOM
370
-3
390
F
  0
LAYER
  5
1FD
100
AcDbSymbolTableRecord
100
AcDbLayerTableRecord
  2
DEFAULT_COORDINATE_SYSTEM
 70
0
 62
7
  6
CONTINUOUS
370
-3
390
F
  0
LAYER
  5
1FE
100
AcDbSymbolTableRecord
100
AcDbLayerTableRecord
  2
DEFAULT_DATUM_AXES
 70
0
 62
7
  6
CONTINUOUS
370
-3
390
F
  0
LAYER
  5
1FF
100
AcDbSymbolTableRecord
100
AcDbLayerTableRecord
  2
DEFAULT_DATUM_CURVES
 70
0
 62
7
  6
CONTINUOUS
370
-3
390
F
  0
LAYER
  5
200
100
AcDbSymbolTableRecord
100
AcDbLayerTableRecord
  2
DEFAULT_DATUM_PLANES
 70
0
 62
7
  6
CONTINUOUS
370
-3
390
F
  0
LAYER
  5
201
100
AcDbSymbolTableRecord
100
AcDbLayerTableRecord
  2
DEFAULT_SURFACES
 70
0
 62
7
  6
CONTINUOUS
370
-3
390
F
  0
LAYER
  5
202
100
AcDbSymbolTableRecord
100
AcDbLayerTableRecord
  2
INTF_1
 70
0
 62
7
  6
CONTINUOUS
370
-3
390
F
  0
LAYER
  5
203
100
AcDbSymbolTableRecord
100
AcDbLayerTableRecord
  2
PLATTED_SURFACE_AREA
 70
0
 62
7
  6
CONTINUOUS
370
-3
390
F
  0
LAYER
  5
204
100
AcDbSymbolTableRecord
100
AcDbLayerTableRecord
  2
RGB____0____0____0__
 70
0
 62
7
  6
CONTINUOUS
370
-3
390
F
  0
ENDTAB
  0
TABLE
  2
STYLE
  5
3
100
AcDbSymbolTable
 70
1
  0
STYLE
  5
11
100
AcDbSymbolTableRecord
100
AcDbTextStyleTableRecord
  2
STANDARD
 70
0
 40
0.0
 41
0.8
 50
0.0
 71
0
 42
0.2
  3
txt
  4

  0
STYLE
  5
205
100
AcDbSymbolTableRecord
100
AcDbTextStyleTableRecord
  2
TEXTSTYLE_1
 70
0
 40
0.0
 41
0.8
 50
0.0
 71
0
 42
0.2
  3
gdt
  4

  0
ENDTAB
  0
TABLE
  2
VIEW
  5
6
100
AcDbSymbolTable
 70
0
  0
ENDTAB
  0
TABLE
  2
UCS
  5
7
100
AcDbSymbolTable
 70
0
  0
ENDTAB
  0
TABLE
  2
APPID
  5
9
100
AcDbSymbolTable
 70
1
  0
APPID
  5
206
100
AcDbSymbolTableRecord
100
AcDbRegAppTableRecord
  2
ACAD
 70
0
  0
ENDTAB
  0
TABLE
  2
BLOCK_RECORD
  5
1
100
AcDbSymbolTable
 70
0
  0
BLOCK_RECORD
  5
207
100
AcDbSymbolTableRecord
100
AcDbBlockTableRecord
  2
*Model_Space
  0
BLOCK_RECORD
  5
208
100
AcDbSymbolTableRecord
100
AcDbBlockTableRecord
  2
*Paper_Space
  0
BLOCK_RECORD
  5
209
100
AcDbSymbolTableRecord
100
AcDbBlockTableRecord
  2
_FILLED
  0
ENDTAB
  0
TABLE
  2
DIMSTYLE
  5
A
100
AcDbSymbolTable
 70
1
100
AcDbDimStyleTable
 71
0
  0
DIMSTYLE
105
20A
100
AcDbSymbolTableRecord
100
AcDbDimStyleTableRecord
  2
STANDARD
 70
0
  3

  4

 40
1.0
 41
0.1
 42
0.0625
 43
0.38
 44
0.125
 45
0.0
 46
0.0
 47
0.01
 48
0.01
140
0.08
141
0.09
142
0.0
143
25.4
144
1.0
145
0.0
146
1.0
147
0.09
 71
1.0
 72
0.0
 73
1
 74
1
 75
0
 76
0
 77
0
 78
4
 79
1
170
1
171
1
172
0
173
0
174
0
175
0
176
0
177
0
178
0
270
2
179
2
271
2
272
2
273
2
274
2
275
0
280
0
281
0
282
0
283
1
284
4
285
0
286
0
287
3
288
0
340
11
278
46
341
209
342
209
343
209
344
209
  0
ENDTAB
  0
ENDSEC
  0
SECTION
  2
BLOCKS
  0
BLOCK
  5
20
100
AcDbEntity
  8
0
100
AcDbBlockBegin
  2
*Model_Space
 70
0
 10
0.0
 20
0.0
 30
0.0
  3
*Model_Space
  1

  0
ENDBLK
  5
21
100
AcDbEntity
  8
0
100
AcDbBlockEnd
  0
BLOCK
  5
1C
100
AcDbEntity
  8
0
100
AcDbBlockBegin
  2
*Paper_Space
 70
0
 10
0.0
 20
0.0
 30
0.0
  3
*Paper_Space
  1

  0
ENDBLK
  5
1D
100
AcDbEntity
  8
0
100
AcDbBlockEnd
  0
BLOCK
  5
20B
100
AcDbEntity
  8
0
100
AcDbBlockBegin
  2
_FILLED
 70
64
 10
0.0
 20
0.0
  3
_FILLED
  1

  0
SOLID
  5
20C
100
AcDbEntity
  8
0
  6
BYBLOCK
 62
0
100
AcDbTrace
 10
0.0
 20
0.0
 11
-1.0
 21
0.2
 12
-1.0
 22
-0.2
 13
-1.0
 23
-0.2
  0
ENDBLK
  5
20D
100
AcDbEntity
  8
0
  6
BYBLOCK
 62
0
100
AcDbBlockEnd
  0
ENDSEC
  0
SECTION
  2
ENTITIES
  0
MTEXT
  5
20E
100
AcDbEntity
  8
0
100
AcDbMText
 62
2
  6
CONTINUOUS
  7
STANDARD
 71
3
 72
1
 10
4.9465838509
 20
1.1697864907
 30
0.0
 11
1.0
 21
0.0
 31
0.0
 73
2
 44
0.9
  1
SCALE  1.000
 40
0.08
 41
0.768
  0
LINE
  5
20F
100
AcDbEntity
  8
0
100
AcDbLine
 62
7
  6
CONTINUOUS
 10
0.0
 20
0.0
 11
0.0
 21
8.5
  0
LINE
  5
210
100
AcDbEntity
  8
0
100
AcDbLine
 62
7
  6
CONTINUOUS
 10
0.0
 20
0.0
 11
11.0
 21
0.0
  0
LINE
  5
211
100
AcDbEntity
  8
0
100
AcDbLine
 62
7
  6
CONTINUOUS
 10
0.0
 20
8.5
 11
11.0
 21
8.5
  0
LINE
  5
212
100
AcDbEntity
  8
0
100
AcDbLine
 62
7
  6
CONTINUOUS
 10
11.0
 20
0.0
 11
11.0
 21
8.5
  0
LINE
  5
213
100
AcDbEntity
  8
0
100
AcDbLine
 62
7
  6
CONTINUOUS
 10
2.954462697
 20
5.7599487673
 11
2.8793632222
 21
5.6298726613
  0
LINE
  5
214
100
AcDbEntity
  8
0
100
AcDbLine
 62
7
  6
CONTINUOUS
 10
2.954462697
 20
2.4798726613
 11
2.8793632222
 21
2.6099487673
  0
LINE
  5
215
100
AcDbEntity
  8
0
100
AcDbLine
 62
7
  6
CONTINUOUS
 10
2.6243167702
 20
6.0599107143
 11
2.6243167702
 21
2.1749107143
  0
LINE
  5
216
100
AcDbEntity
  8
0
100
AcDbLine
 62
7
  6
CONTINUOUS
 10
2.8793632222
 20
5.1298726613
 11
2.954462697
 21
5.2599487673
  0
LINE
  5
217
100
AcDbEntity
  8
0
100
AcDbLine
 62
7
  6
CONTINUOUS
 10
3.1391708433
 20
5.4798726613
 11
3.2142703182
 21
5.6099487673
  0
LINE
  5
218
100
AcDbEntity
  8
0
100
AcDbLine
 62
7
  6
CONTINUOUS
 10
2.7043167702
 20
2.0949107143
 11
6.5893167702
 21
2.0949107143
  0
LINE
  5
219
100
AcDbEntity
  8
0
100
AcDbLine
 62
7
  6
CONTINUOUS
 10
2.954462697
 20
2.9798726613
 11
2.8793632222
 21
3.1099487673
  0
LINE
  5
21A
100
AcDbEntity
  8
0
100
AcDbLine
 62
7
  6
CONTINUOUS
 10
3.1391708433
 20
2.7599487673
 11
3.2142703182
 21
2.6298726613
  0
LINE
  5
21B
100
AcDbEntity
  8
0
100
AcDbLine
 62
7
  6
CONTINUOUS
 10
3.281962697
 20
5.5049487673
 11
3.2068632222
 21
5.3748726613
  0
LINE
  5
21C
100
AcDbEntity
  8
0
100
AcDbLine
 62
7
  6
CONTINUOUS
 10
2.8793632222
 20
4.6298726613
 11
2.954462697
 21
4.7599487673
  0
LINE
  5
21D
100
AcDbEntity
  8
0
100
AcDbLine
 62
7
  6
CONTINUOUS
 10
3.2142703182
 20
5.1099487673
 11
3.1391708433
 21
4.9798726613
  0
LINE
  5
21E
100
AcDbEntity
  8
0
100
AcDbLine
 62
7
  6
CONTINUOUS
 10
3.5163632222
 20
5.6298726613
 11
3.591462697
 21
5.7599487673
  0
LINE
  5
21F
100
AcDbEntity
  8
0
100
AcDbLine
 62
7
  6
CONTINUOUS
 10
3.281962697
 20
2.7248726613
 11
3.2068632222
 21
2.8549487673
  0
LINE
  5
220
100
AcDbEntity
  8
0
100
AcDbLine
 62
7
  6
CONTINUOUS
 10
2.954462697
 20
3.4798726613
 11
2.8793632222
 21
3.6099487673
  0
LINE
  5
221
100
AcDbEntity
  8
0
100
AcDbLine
 62
7
  6
CONTINUOUS
 10
3.1391708433
 20
3.2599487673
 11
3.2142703182
 21
3.1298726613
  0
LINE
  5
222
100
AcDbEntity
  8
0
100
AcDbLine
 62
7
  6
CONTINUOUS
 10
3.591462697
 20
2.4798726613
 11
3.5163632222
 21
2.6099487673
  0
LINE
  5
223
100
AcDbEntity
  8
0
100
AcDbLine
 62
7
  6
CONTINUOUS
 10
3.2068632222
 20
4.8748726613
 11
3.281962697
 21
5.0049487673
  0
LINE
  5
224
100
AcDbEntity
  8
0
100
AcDbLine
 62
7
  6
CONTINUOUS
 10
3.4666708433
 20
5.2248726613
 11
3.5417703182
 21
5.3549487673
  0
LINE
  5
225
100
AcDbEntity
  8
0
100
AcDbLine
 62
7
  6
CONTINUOUS
 10
2.8793632222
 20
4.1298726613
 11
2.954462697
 21
4.2599487673
  0
LINE
  5
226
100
AcDbEntity
  8
0
100
AcDbLine
 62
7
  6
CONTINUOUS
 10
6.306916245
 20
2.4699107143
 11
6.1567172954
 21
2.4699107143
  0
LINE
  5
227
100
AcDbEntity
  8
0
100
AcDbLine
 62
7
  6
CONTINUOUS
 10
5.669916245
 20
2.4699107143
 11
5.5197172954
 21
2.4699107143
  0
LINE
  5
228
100
AcDbEntity
  8
0
100
AcDbLine
 62
7
  6
CONTINUOUS
 10
5.032916245
 20
2.4699107143
 11
4.8827172954
 21
2.4699107143
  0
LINE
  5
229
100
AcDbEntity
  8
0
100
AcDbLine
 62
7
  6
CONTINUOUS
 10
4.395916245
 20
2.4699107143
 11
4.2457172954
 21
2.4699107143
  0
LINE
  5
22A
100
AcDbEntity
  8
0
100
AcDbLine
 62
7
  6
CONTINUOUS
 10
3.758916245
 20
2.4699107143
 11
3.6087172954
 21
2.4699107143
  0
LINE
  5
22B
100
AcDbEntity
  8
0
100
AcDbLine
 62
7
  6
CONTINUOUS
 10
3.121916245
 20
2.4699107143
 11
2.9717172954
 21
2.4699107143
  0
LINE
  5
22C
100
AcDbEntity
  8
0
100
AcDbLine
 62
7
  6
CONTINUOUS
 10
3.281962697
 20
3.2248726613
 11
3.2068632222
 21
3.3549487673
  0
LINE
  5
22D
100
AcDbEntity
  8
0
100
AcDbLine
 62
7
  6
CONTINUOUS
 10
3.4666708433
 20
3.0049487673
 11
3.5417703182
 21
2.8748726613
  0
LINE
  5
22E
100
AcDbEntity
  8
0
100
AcDbLine
 62
7
  6
CONTINUOUS
 10
2.954462697
 20
3.9798726613
 11
2.8793632222
 21
4.1099487673
  0
LINE
  5
22F
100
AcDbEntity
  8
0
100
AcDbLine
 62
7
  6
CONTINUOUS
 10
3.2142703182
 20
4.6099487673
 11
3.1391708433
 21
4.4798726613
  0
LINE
  5
230
100
AcDbEntity
  8
0
100
AcDbLine
 62
7
  6
CONTINUOUS
 10
3.5163632222
 20
5.1298726613
 11
3.591462697
 21
5.2599487673
  0
LINE
  5
231
100
AcDbEntity
  8
0
100
AcDbLine
 62
7
  6
CONTINUOUS
 10
3.8512703182
 20
5.6099487673
 11
3.7761708433
 21
5.4798726613
  0
LINE
  5
232
100
AcDbEntity
  8
0
100
AcDbLine
 62
7
  6
CONTINUOUS
 10
3.2068632222
 20
4.3748726613
 11
3.281962697
 21
4.5049487673
  0
LINE
  5
233
100
AcDbEntity
  8
0
100
AcDbLine
 62
7
  6
CONTINUOUS
 10
3.5417703182
 20
4.8549487673
 11
3.4666708433
 21
4.7248726613
  0
LINE
  5
234
100
AcDbEntity
  8
0
100
AcDbLine
 62
7
  6
CONTINUOUS
 10
3.8438632222
 20
5.3748726613
 11
3.918962697
 21
5.5049487673
  0
LINE
  5
235
100
AcDbEntity
  8
0
100
AcDbLine
 62
7
  6
CONTINUOUS
 10
5.997416245
 20
2.7149107143
 11
5.8472172954
 21
2.7149107143
  0
LINE
  5
236
100
AcDbEntity
  8
0
100
AcDbLine
 62
7
  6
CONTINUOUS
 10
5.360416245
 20
2.7149107143
 11
5.2102172954
 21
2.7149107143
  0
LINE
  5
237
100
AcDbEntity
  8
0
100
AcDbLine
 62
7
  6
CONTINUOUS
 10
4.723416245
 20
2.7149107143
 11
4.5732172954
 21
2.7149107143
  0
LINE
  5
238
100
AcDbEntity
  8
0
100
AcDbLine
 62
7
  6
CONTINUOUS
 10
4.086416245
 20
2.7149107143
 11
3.9362172954
 21
2.7149107143
  0
LINE
  5
239
100
AcDbEntity
  8
0
100
AcDbLine
 62
7
  6
CONTINUOUS
 10
3.449416245
 20
2.7149107143
 11
3.2992172954
 21
2.7149107143
  0
LINE
  5
23A
100
AcDbEntity
  8
0
100
AcDbLine
 62
7
  6
CONTINUOUS
 10
2.9717172954
 20
2.7699107143
 11
3.121916245
 21
2.7699107143
  0
LINE
  5
23B
100
AcDbEntity
  8
0
100
AcDbLine
 62
7
  6
CONTINUOUS
 10
3.6087172954
 20
2.7699107143
 11
3.758916245
 21
2.7699107143
  0
LINE
  5
23C
100
AcDbEntity
  8
0
100
AcDbLine
 62
7
  6
CONTINUOUS
 10
4.2457172954
 20
2.7699107143
 11
4.395916245
 21
2.7699107143
  0
LINE
  5
23D
100
AcDbEntity
  8
0
100
AcDbLine
 62
7
  6
CONTINUOUS
 10
4.8827172954
 20
2.7699107143
 11
5.032916245
 21
2.7699107143
  0
LINE
  5
23E
100
AcDbEntity
  8
0
100
AcDbLine
 62
7
  6
CONTINUOUS
 10
5.5197172954
 20
2.7699107143
 11
5.669916245
 21
2.7699107143
  0
LINE
  5
23F
100
AcDbEntity
  8
0
100
AcDbLine
 62
7
  6
CONTINUOUS
 10
6.1567172954
 20
2.7699107143
 11
6.306916245
 21
2.7699107143
  0
LINE
  5
240
100
AcDbEntity
  8
0
100
AcDbLine
 62
7
  6
CONTINUOUS
 10
3.1391708433
 20
3.7599487673
 11
3.2142703182
 21
3.6298726613
  0
LINE
  5
241
100
AcDbEntity
  8
0
100
AcDbLine
 62
7
  6
CONTINUOUS
 10
3.591462697
 20
2.9798726613
 11
3.5163632222
 21
3.1099487673
  0
LINE
  5
242
100
AcDbEntity
  8
0
100
AcDbLine
 62
7
  6
CONTINUOUS
 10
3.7761708433
 20
2.7599487673
 11
3.8512703182
 21
2.6298726613
  0
LINE
  5
243
100
AcDbEntity
  8
0
100
AcDbLine
 62
7
  6
CONTINUOUS
 10
3.281962697
 20
3.7248726613
 11
3.2068632222
 21
3.8549487673
  0
LINE
  5
244
100
AcDbEntity
  8
0
100
AcDbLine
 62
7
  6
CONTINUOUS
 10
3.4666708433
 20
3.5049487673
 11
3.5417703182
 21
3.3748726613
  0
LINE
  5
245
100
AcDbEntity
  8
0
100
AcDbLine
 62
7
  6
CONTINUOUS
 10
3.918962697
 20
2.7248726613
 11
3.8438632222
 21
2.8549487673
  0
LINE
  5
246
100
AcDbEntity
  8
0
100
AcDbLine
 62
7
  6
CONTINUOUS
 10
2.8793632222
 20
3.6298726613
 11
2.954462697
 21
3.7599487673
  0
LINE
  5
247
100
AcDbEntity
  8
0
100
AcDbLine
 62
7
  6
CONTINUOUS
 10
3.2142703182
 20
4.1099487673
 11
3.1391708433
 21
3.9798726613
  0
LINE
  5
248
100
AcDbEntity
  8
0
100
AcDbLine
 62
7
  6
CONTINUOUS
 10
3.5163632222
 20
4.6298726613
 11
3.591462697
 21
4.7599487673
  0
LINE
  5
249
100
AcDbEntity
  8
0
100
AcDbLine
 62
7
  6
CONTINUOUS
 10
3.8512703182
 20
5.1099487673
 11
3.7761708433
 21
4.9798726613
  0
LINE
  5
24A
100
AcDbEntity
  8
0
100
AcDbLine
 62
7
  6
CONTINUOUS
 10
4.1533632222
 20
5.6298726613
 11
4.228462697
 21
5.7599487673
  0
LINE
  5
24B
100
AcDbEntity
  8
0
100
AcDbLine
 62
7
  6
CONTINUOUS
 10
3.2068632222
 20
3.8748726613
 11
3.281962697
 21
4.0049487673
  0
LINE
  5
24C
100
AcDbEntity
  8
0
100
AcDbLine
 62
7
  6
CONTINUOUS
 10
6.306916245
 20
2.9699107143
 11
6.1567172954
 21
2.9699107143
  0
LINE
  5
24D
100
AcDbEntity
  8
0
100
AcDbLine
 62
7
  6
CONTINUOUS
 10
5.669916245
 20
2.9699107143
 11
5.5197172954
 21
2.9699107143
  0
LINE
  5
24E
100
AcDbEntity
  8
0
100
AcDbLine
 62
7
  6
CONTINUOUS
 10
5.032916245
 20
2.9699107143
 11
4.8827172954
 21
2.9699107143
  0
LINE
  5
24F
100
AcDbEntity
  8
0
100
AcDbLine
 62
7
  6
CONTINUOUS
 10
4.395916245
 20
2.9699107143
 11
4.2457172954
 21
2.9699107143
  0
LINE
  5
250
100
AcDbEntity
  8
0
100
AcDbLine
 62
7
  6
CONTINUOUS
 10
3.758916245
 20
2.9699107143
 11
3.6087172954
 21
2.9699107143
  0
LINE
  5
251
100
AcDbEntity
  8
0
100
AcDbLine
 62
7
  6
CONTINUOUS
 10
3.121916245
 20
2.9699107143
 11
2.9717172954
 21
2.9699107143
  0
LINE
  5
252
100
AcDbEntity
  8
0
100
AcDbLine
 62
7
  6
CONTINUOUS
 10
2.954462697
 20
4.4798726613
 11
2.8793632222
 21
4.6099487673
  0
LINE
  5
253
100
AcDbEntity
  8
0
100
AcDbLine
 62
7
  6
CONTINUOUS
 10
3.1391708433
 20
4.2599487673
 11
3.2142703182
 21
4.1298726613
  0
LINE
  5
254
100
AcDbEntity
  8
0
100
AcDbLine
 62
7
  6
CONTINUOUS
 10
3.591462697
 20
3.4798726613
 11
3.5163632222
 21
3.6099487673
  0
LINE
  5
255
100
AcDbEntity
  8
0
100
AcDbLine
 62
7
  6
CONTINUOUS
 10
3.7761708433
 20
3.2599487673
 11
3.8512703182
 21
3.1298726613
  0
LINE
  5
256
100
AcDbEntity
  8
0
100
AcDbLine
 62
7
  6
CONTINUOUS
 10
4.228462697
 20
2.4798726613
 11
4.1533632222
 21
2.6099487673
  0
LINE
  5
257
100
AcDbEntity
  8
0
100
AcDbLine
 62
7
  6
CONTINUOUS
 10
3.281962697
 20
4.2248726613
 11
3.2068632222
 21
4.3549487673
  0
LINE
  5
258
100
AcDbEntity
  8
0
100
AcDbLine
 62
7
  6
CONTINUOUS
 10
3.5417703182
 20
4.3549487673
 11
3.4666708433
 21
4.2248726613
  0
LINE
  5
259
100
AcDbEntity
  8
0
100
AcDbLine
 62
7
  6
CONTINUOUS
 10
3.8438632222
 20
4.8748726613
 11
3.918962697
 21
5.0049487673
  0
LINE
  5
25A
100
AcDbEntity
  8
0
100
AcDbLine
 62
7
  6
CONTINUOUS
 10
2.8793632222
 20
3.1298726613
 11
2.954462697
 21
3.2599487673
  0
LINE
  5
25B
100
AcDbEntity
  8
0
100
AcDbLine
 62
7
  6
CONTINUOUS
 10
4.1787703182
 20
5.3549487673
 11
4.1036708433
 21
5.2248726613
  0
LINE
  5
25C
100
AcDbEntity
  8
0
100
AcDbLine
 62
7
  6
CONTINUOUS
 10
3.2142703182
 20
3.6099487673
 11
3.1391708433
 21
3.4798726613
  0
LINE
  5
25D
100
AcDbEntity
  8
0
100
AcDbLine
 62
7
  6
CONTINUOUS
 10
3.5163632222
 20
4.1298726613
 11
3.591462697
 21
4.2599487673
  0
LINE
  5
25E
100
AcDbEntity
  8
0
100
AcDbLine
 62
7
  6
CONTINUOUS
 10
3.8512703182
 20
4.6099487673
 11
3.7761708433
 21
4.4798726613
  0
LINE
  5
25F
100
AcDbEntity
  8
0
100
AcDbLine
 62
7
  6
CONTINUOUS
 10
4.1533632222
 20
5.1298726613
 11
4.228462697
 21
5.2599487673
  0
LINE
  5
260
100
AcDbEntity
  8
0
100
AcDbLine
 62
7
  6
CONTINUOUS
 10
3.2992172954
 20
3.0149107143
 11
3.449416245
 21
3.0149107143
  0
LINE
  5
261
100
AcDbEntity
  8
0
100
AcDbLine
 62
7
  6
CONTINUOUS
 10
3.9362172954
 20
3.0149107143
 11
4.086416245
 21
3.0149107143
  0
LINE
  5
262
100
AcDbEntity
  8
0
100
AcDbLine
 62
7
  6
CONTINUOUS
 10
4.5732172954
 20
3.0149107143
 11
4.723416245
 21
3.0149107143
  0
LINE
  5
263
100
AcDbEntity
  8
0
100
AcDbLine
 62
7
  6
CONTINUOUS
 10
5.2102172954
 20
3.0149107143
 11
5.360416245
 21
3.0149107143
  0
LINE
  5
264
100
AcDbEntity
  8
0
100
AcDbLine
 62
7
  6
CONTINUOUS
 10
5.8472172954
 20
3.0149107143
 11
5.997416245
 21
3.0149107143
  0
LINE
  5
265
100
AcDbEntity
  8
0
100
AcDbLine
 62
7
  6
CONTINUOUS
 10
3.4666708433
 20
4.0049487673
 11
3.5417703182
 21
3.8748726613
  0
LINE
  5
266
100
AcDbEntity
  8
0
100
AcDbLine
 62
7
  6
CONTINUOUS
 10
3.918962697
 20
3.2248726613
 11
3.8438632222
 21
3.3549487673
  0
LINE
  5
267
100
AcDbEntity
  8
0
100
AcDbLine
 62
7
  6
CONTINUOUS
 10
2.954462697
 20
4.9798726613
 11
2.8793632222
 21
5.1099487673
  0
LINE
  5
268
100
AcDbEntity
  8
0
100
AcDbLine
 62
7
  6
CONTINUOUS
 10
4.1036708433
 20
3.0049487673
 11
4.1787703182
 21
2.8748726613
  0
LINE
  5
269
100
AcDbEntity
  8
0
100
AcDbLine
 62
7
  6
CONTINUOUS
 10
3.1391708433
 20
4.7599487673
 11
3.2142703182
 21
4.6298726613
  0
LINE
  5
26A
100
AcDbEntity
  8
0
100
AcDbLine
 62
7
  6
CONTINUOUS
 10
3.591462697
 20
3.9798726613
 11
3.5163632222
 21
4.1099487673
  0
LINE
  5
26B
100
AcDbEntity
  8
0
100
AcDbLine
 62
7
  6
CONTINUOUS
 10
3.7761708433
 20
3.7599487673
 11
3.8512703182
 21
3.6298726613
  0
LINE
  5
26C
100
AcDbEntity
  8
0
100
AcDbLine
 62
7
  6
CONTINUOUS
 10
4.228462697
 20
2.9798726613
 11
4.1533632222
 21
3.1099487673
  0
LINE
  5
26D
100
AcDbEntity
  8
0
100
AcDbLine
 62
7
  6
CONTINUOUS
 10
4.4882703182
 20
5.6099487673
 11
4.4131708433
 21
5.4798726613
  0
LINE
  5
26E
100
AcDbEntity
  8
0
100
AcDbLine
 62
7
  6
CONTINUOUS
 10
3.2068632222
 20
3.3748726613
 11
3.281962697
 21
3.5049487673
  0
LINE
  5
26F
100
AcDbEntity
  8
0
100
AcDbLine
 62
7
  6
CONTINUOUS
 10
3.5417703182
 20
3.8549487673
 11
3.4666708433
 21
3.7248726613
  0
LINE
  5
270
100
AcDbEntity
  8
0
100
AcDbLine
 62
7
  6
CONTINUOUS
 10
3.8438632222
 20
4.3748726613
 11
3.918962697
 21
4.5049487673
  0
LINE
  5
271
100
AcDbEntity
  8
0
100
AcDbLine
 62
7
  6
CONTINUOUS
 10
2.8793632222
 20
2.6298726613
 11
2.954462697
 21
2.7599487673
  0
LINE
  5
272
100
AcDbEntity
  8
0
100
AcDbLine
 62
7
  6
CONTINUOUS
 10
4.1787703182
 20
4.8549487673
 11
4.1036708433
 21
4.7248726613
  0
LINE
  5
273
100
AcDbEntity
  8
0
100
AcDbLine
 62
7
  6
CONTINUOUS
 10
4.4808632222
 20
5.3748726613
 11
4.555962697
 21
5.5049487673
  0
LINE
  5
274
100
AcDbEntity
  8
0
100
AcDbLine
 62
7
  6
CONTINUOUS
 10
5.997416245
 20
3.2149107143
 11
5.8472172954
 21
3.2149107143
  0
LINE
  5
275
100
AcDbEntity
  8
0
100
AcDbLine
 62
7
  6
CONTINUOUS
 10
5.360416245
 20
3.2149107143
 11
5.2102172954
 21
3.2149107143
  0
LINE
  5
276
100
AcDbEntity
  8
0
100
AcDbLine
 62
7
  6
CONTINUOUS
 10
4.723416245
 20
3.2149107143
 11
4.5732172954
 21
3.2149107143
  0
LINE
  5
277
100
AcDbEntity
  8
0
100
AcDbLine
 62
7
  6
CONTINUOUS
 10
4.086416245
 20
3.2149107143
 11
3.9362172954
 21
3.2149107143
  0
LINE
  5
278
100
AcDbEntity
  8
0
100
AcDbLine
 62
7
  6
CONTINUOUS
 10
3.449416245
 20
3.2149107143
 11
3.2992172954
 21
3.2149107143
  0
LINE
  5
279
100
AcDbEntity
  8
0
100
AcDbLine
 62
7
  6
CONTINUOUS
 10
2.9717172954
 20
3.2699107143
 11
3.121916245
 21
3.2699107143
  0
LINE
  5
27A
100
AcDbEntity
  8
0
100
AcDbLine
 62
7
  6
CONTINUOUS
 10
3.6087172954
 20
3.2699107143
 11
3.758916245
 21
3.2699107143
  0
LINE
  5
27B
100
AcDbEntity
  8
0
100
AcDbLine
 62
7
  6
CONTINUOUS
 10
4.2457172954
 20
3.2699107143
 11
4.395916245
 21
3.2699107143
  0
LINE
  5
27C
100
AcDbEntity
  8
0
100
AcDbLine
 62
7
  6
CONTINUOUS
 10
4.8827172954
 20
3.2699107143
 11
5.032916245
 21
3.2699107143
  0
LINE
  5
27D
100
AcDbEntity
  8
0
100
AcDbLine
 62
7
  6
CONTINUOUS
 10
5.5197172954
 20
3.2699107143
 11
5.669916245
 21
3.2699107143
  0
LINE
  5
27E
100
AcDbEntity
  8
0
100
AcDbLine
 62
7
  6
CONTINUOUS
 10
6.1567172954
 20
3.2699107143
 11
6.306916245
 21
3.2699107143
  0
LINE
  5
27F
100
AcDbEntity
  8
0
100
AcDbLine
 62
7
  6
CONTINUOUS
 10
4.4131708433
 20
2.7599487673
 11
4.4882703182
 21
2.6298726613
  0
LINE
  5
280
100
AcDbEntity
  8
0
100
AcDbLine
 62
7
  6
CONTINUOUS
 10
3.281962697
 20
4.7248726613
 11
3.2068632222
 21
4.8549487673
  0
LINE
  5
281
100
AcDbEntity
  8
0
100
AcDbLine
 62
7
  6
CONTINUOUS
 10
3.4666708433
 20
4.5049487673
 11
3.5417703182
 21
4.3748726613
  0
LINE
  5
282
100
AcDbEntity
  8
0
100
AcDbLine
 62
7
  6
CONTINUOUS
 10
3.918962697
 20
3.7248726613
 11
3.8438632222
 21
3.8549487673
  0
LINE
  5
283
100
AcDbEntity
  8
0
100
AcDbLine
 62
7
  6
CONTINUOUS
 10
2.8793632222
 20
5.6099487673
 11
2.954462697
 21
5.4798726613
  0
LINE
  5
284
100
AcDbEntity
  8
0
100
AcDbLine
 62
7
  6
CONTINUOUS
 10
4.1036708433
 20
3.5049487673
 11
4.1787703182
 21
3.3748726613
  0
LINE
  5
285
100
AcDbEntity
  8
0
100
AcDbLine
 62
7
  6
CONTINUOUS
 10
4.555962697
 20
2.7248726613
 11
4.4808632222
 21
2.8549487673
  0
LINE
  5
286
100
AcDbEntity
  8
0
100
AcDbLine
 62
7
  6
CONTINUOUS
 10
3.2142703182
 20
3.1099487673
 11
3.1391708433
 21
2.9798726613
  0
LINE
  5
287
100
AcDbEntity
  8
0
100
AcDbLine
 62
7
  6
CONTINUOUS
 10
3.5163632222
 20
3.6298726613
 11
3.591462697
 21
3.7599487673
  0
LINE
  5
288
100
AcDbEntity
  8
0
100
AcDbLine
 62
7
  6
CONTINUOUS
 10
3.8512703182
 20
4.1099487673
 11
3.7761708433
 21
3.9798726613
  0
LINE
  5
289
100
AcDbEntity
  8
0
100
AcDbLine
 62
7
  6
CONTINUOUS
 10
4.1533632222
 20
4.6298726613
 11
4.228462697
 21
4.7599487673
  0
LINE
  5
28A
100
AcDbEntity
  8
0
100
AcDbLine
 62
7
  6
CONTINUOUS
 10
4.4882703182
 20
5.1099487673
 11
4.4131708433
 21
4.9798726613
  0
LINE
  5
28B
100
AcDbEntity
  8
0
100
AcDbLine
 62
7
  6
CONTINUOUS
 10
4.7903632222
 20
5.6298726613
 11
4.865462697
 21
5.7599487673
  0
LINE
  5
28C
100
AcDbEntity
  8
0
100
AcDbLine
 62
7
  6
CONTINUOUS
 10
3.2068632222
 20
2.8748726613
 11
3.281962697
 21
3.0049487673
  0
LINE
  5
28D
100
AcDbEntity
  8
0
100
AcDbLine
 62
7
  6
CONTINUOUS
 10
3.5417703182
 20
3.3549487673
 11
3.4666708433
 21
3.2248726613
  0
LINE
  5
28E
100
AcDbEntity
  8
0
100
AcDbLine
 62
7
  6
CONTINUOUS
 10
3.8438632222
 20
3.8748726613
 11
3.918962697
 21
4.0049487673
  0
LINE
  5
28F
100
AcDbEntity
  8
0
100
AcDbLine
 62
7
  6
CONTINUOUS
 10
6.306916245
 20
3.4699107143
 11
6.1567172954
 21
3.4699107143
  0
LINE
  5
290
100
AcDbEntity
  8
0
100
AcDbLine
 62
7
  6
CONTINUOUS
 10
5.669916245
 20
3.4699107143
 11
5.5197172954
 21
3.4699107143
  0
LINE
  5
291
100
AcDbEntity
  8
0
100
AcDbLine
 62
7
  6
CONTINUOUS
 10
5.032916245
 20
3.4699107143
 11
4.8827172954
 21
3.4699107143
  0
LINE
  5
292
100
AcDbEntity
  8
0
100
AcDbLine
 62
7
  6
CONTINUOUS
 10
4.395916245
 20
3.4699107143
 11
4.2457172954
 21
3.4699107143
  0
LINE
  5
293
100
AcDbEntity
  8
0
100
AcDbLine
 62
7
  6
CONTINUOUS
 10
3.758916245
 20
3.4699107143
 11
3.6087172954
 21
3.4699107143
  0
LINE
  5
294
100
AcDbEntity
  8
0
100
AcDbLine
 62
7
  6
CONTINUOUS
 10
3.121916245
 20
3.4699107143
 11
2.9717172954
 21
3.4699107143
  0
LINE
  5
295
100
AcDbEntity
  8
0
100
AcDbLine
 62
7
  6
CONTINUOUS
 10
3.2992172954
 20
3.5149107143
 11
3.449416245
 21
3.5149107143
  0
LINE
  5
296
100
AcDbEntity
  8
0
100
AcDbLine
 62
7
  6
CONTINUOUS
 10
3.9362172954
 20
3.5149107143
 11
4.086416245
 21
3.5149107143
  0
LINE
  5
297
100
AcDbEntity
  8
0
100
AcDbLine
 62
7
  6
CONTINUOUS
 10
4.5732172954
 20
3.5149107143
 11
4.723416245
 21
3.5149107143
  0
LINE
  5
298
100
AcDbEntity
  8
0
100
AcDbLine
 62
7
  6
CONTINUOUS
 10
5.2102172954
 20
3.5149107143
 11
5.360416245
 21
3.5149107143
  0
LINE
  5
299
100
AcDbEntity
  8
0
100
AcDbLine
 62
7
  6
CONTINUOUS
 10
5.8472172954
 20
3.5149107143
 11
5.997416245
 21
3.5149107143
  0
LINE
  5
29A
100
AcDbEntity
  8
0
100
AcDbLine
 62
7
  6
CONTINUOUS
 10
3.1391708433
 20
5.2599487673
 11
3.2142703182
 21
5.1298726613
  0
LINE
  5
29B
100
AcDbEntity
  8
0
100
AcDbLine
 62
7
  6
CONTINUOUS
 10
3.591462697
 20
4.4798726613
 11
3.5163632222
 21
4.6099487673
  0
LINE
  5
29C
100
AcDbEntity
  8
0
100
AcDbLine
 62
7
  6
CONTINUOUS
 10
3.7761708433
 20
4.2599487673
 11
3.8512703182
 21
4.1298726613
  0
LINE
  5
29D
100
AcDbEntity
  8
0
100
AcDbLine
 62
7
  6
CONTINUOUS
 10
4.228462697
 20
3.4798726613
 11
4.1533632222
 21
3.6099487673
  0
LINE
  5
29E
100
AcDbEntity
  8
0
100
AcDbLine
 62
7
  6
CONTINUOUS
 10
4.4131708433
 20
3.2599487673
 11
4.4882703182
 21
3.1298726613
  0
LINE
  5
29F
100
AcDbEntity
  8
0
100
AcDbLine
 62
7
  6
CONTINUOUS
 10
4.865462697
 20
2.4798726613
 11
4.7903632222
 21
2.6099487673
  0
LINE
  5
2A0
100
AcDbEntity
  8
0
100
AcDbLine
 62
7
  6
CONTINUOUS
 10
3.2068632222
 20
5.3549487673
 11
3.281962697
 21
5.2248726613
  0
LINE
  5
2A1
100
AcDbEntity
  8
0
100
AcDbLine
 62
7
  6
CONTINUOUS
 10
3.4666708433
 20
5.0049487673
 11
3.5417703182
 21
4.8748726613
  0
LINE
  5
2A2
100
AcDbEntity
  8
0
100
AcDbLine
 62
7
  6
CONTINUOUS
 10
3.918962697
 20
4.2248726613
 11
3.8438632222
 21
4.3549487673
  0
LINE
  5
2A3
100
AcDbEntity
  8
0
100
AcDbLine
 62
7
  6
CONTINUOUS
 10
4.1787703182
 20
4.3549487673
 11
4.1036708433
 21
4.2248726613
  0
LINE
  5
2A4
100
AcDbEntity
  8
0
100
AcDbLine
 62
7
  6
CONTINUOUS
 10
4.4808632222
 20
4.8748726613
 11
4.555962697
 21
5.0049487673
  0
LINE
  5
2A5
100
AcDbEntity
  8
0
100
AcDbLine
 62
7
  6
CONTINUOUS
 10
3.2142703182
 20
2.6099487673
 11
3.1391708433
 21
2.4798726613
  0
LINE
  5
2A6
100
AcDbEntity
  8
0
100
AcDbLine
 62
7
  6
CONTINUOUS
 10
3.5163632222
 20
3.1298726613
 11
3.591462697
 21
3.2599487673
  0
LINE
  5
2A7
100
AcDbEntity
  8
0
100
AcDbLine
 62
7
  6
CONTINUOUS
 10
4.8157703182
 20
5.3549487673
 11
4.7406708433
 21
5.2248726613
  0
LINE
  5
2A8
100
AcDbEntity
  8
0
100
AcDbLine
 62
7
  6
CONTINUOUS
 10
3.8512703182
 20
3.6099487673
 11
3.7761708433
 21
3.4798726613
  0
LINE
  5
2A9
100
AcDbEntity
  8
0
100
AcDbLine
 62
7
  6
CONTINUOUS
 10
4.1533632222
 20
4.1298726613
 11
4.228462697
 21
4.2599487673
  0
LINE
  5
2AA
100
AcDbEntity
  8
0
100
AcDbLine
 62
7
  6
CONTINUOUS
 10
4.4882703182
 20
4.6099487673
 11
4.4131708433
 21
4.4798726613
  0
LINE
  5
2AB
100
AcDbEntity
  8
0
100
AcDbLine
 62
7
  6
CONTINUOUS
 10
4.7903632222
 20
5.1298726613
 11
4.865462697
 21
5.2599487673
  0
LINE
  5
2AC
100
AcDbEntity
  8
0
100
AcDbLine
 62
7
  6
CONTINUOUS
 10
5.997416245
 20
3.7149107143
 11
5.8472172954
 21
3.7149107143
  0
LINE
  5
2AD
100
AcDbEntity
  8
0
100
AcDbLine
 62
7
  6
CONTINUOUS
 10
5.360416245
 20
3.7149107143
 11
5.2102172954
 21
3.7149107143
  0
LINE
  5
2AE
100
AcDbEntity
  8
0
100
AcDbLine
 62
7
  6
CONTINUOUS
 10
4.723416245
 20
3.7149107143
 11
4.5732172954
 21
3.7149107143
  0
LINE
  5
2AF
100
AcDbEntity
  8
0
100
AcDbLine
 62
7
  6
CONTINUOUS
 10
4.086416245
 20
3.7149107143
 11
3.9362172954
 21
3.7149107143
  0
LINE
  5
2B0
100
AcDbEntity
  8
0
100
AcDbLine
 62
7
  6
CONTINUOUS
 10
3.449416245
 20
3.7149107143
 11
3.2992172954
 21
3.7149107143
  0
LINE
  5
2B1
100
AcDbEntity
  8
0
100
AcDbLine
 62
7
  6
CONTINUOUS
 10
4.1036708433
 20
4.0049487673
 11
4.1787703182
 21
3.8748726613
  0
LINE
  5
2B2
100
AcDbEntity
  8
0
100
AcDbLine
 62
7
  6
CONTINUOUS
 10
4.555962697
 20
3.2248726613
 11
4.4808632222
 21
3.3549487673
  0
LINE
  5
2B3
100
AcDbEntity
  8
0
100
AcDbLine
 62
7
  6
CONTINUOUS
 10
3.2142703182
 20
5.6298726613
 11
3.1391708433
 21
5.7599487673
  0
LINE
  5
2B4
100
AcDbEntity
  8
0
100
AcDbLine
 62
7
  6
CONTINUOUS
 10
3.591462697
 20
4.9798726613
 11
3.5163632222
 21
5.1099487673
  0
LINE
  5
2B5
100
AcDbEntity
  8
0
100
AcDbLine
 62
7
  6
CONTINUOUS
 10
4.7406708433
 20
3.0049487673
 11
4.8157703182
 21
2.8748726613
  0
LINE
  5
2B6
100
AcDbEntity
  8
0
100
AcDbLine
 62
7
  6
CONTINUOUS
 10
3.7761708433
 20
4.7599487673
 11
3.8512703182
 21
4.6298726613
  0
LINE
  5
2B7
100
AcDbEntity
  8
0
100
AcDbLine
 62
7
  6
CONTINUOUS
 10
4.228462697
 20
3.9798726613
 11
4.1533632222
 21
4.1099487673
  0
LINE
  5
2B8
100
AcDbEntity
  8
0
100
AcDbLine
 62
7
  6
CONTINUOUS
 10
4.4131708433
 20
3.7599487673
 11
4.4882703182
 21
3.6298726613
  0
LINE
  5
2B9
100
AcDbEntity
  8
0
100
AcDbLine
 62
7
  6
CONTINUOUS
 10
4.865462697
 20
2.9798726613
 11
4.7903632222
 21
3.1099487673
  0
LINE
  5
2BA
100
AcDbEntity
  8
0
100
AcDbLine
 62
7
  6
CONTINUOUS
 10
5.1252703182
 20
5.6099487673
 11
5.0501708433
 21
5.4798726613
  0
LINE
  5
2BB
100
AcDbEntity
  8
0
100
AcDbLine
 62
7
  6
CONTINUOUS
 10
3.5417703182
 20
2.8549487673
 11
3.4666708433
 21
2.7248726613
  0
LINE
  5
2BC
100
AcDbEntity
  8
0
100
AcDbLine
 62
7
  6
CONTINUOUS
 10
3.8438632222
 20
3.3748726613
 11
3.918962697
 21
3.5049487673
  0
LINE
  5
2BD
100
AcDbEntity
  8
0
100
AcDbLine
 62
7
  6
CONTINUOUS
 10
4.1787703182
 20
3.8549487673
 11
4.1036708433
 21
3.7248726613
  0
LINE
  5
2BE
100
AcDbEntity
  8
0
100
AcDbLine
 62
7
  6
CONTINUOUS
 10
4.4808632222
 20
4.3748726613
 11
4.555962697
 21
4.5049487673
  0
LINE
  5
2BF
100
AcDbEntity
  8
0
100
AcDbLine
 62
7
  6
CONTINUOUS
 10
3.5163632222
 20
2.6298726613
 11
3.591462697
 21
2.7599487673
  0
LINE
  5
2C0
100
AcDbEntity
  8
0
100
AcDbLine
 62
7
  6
CONTINUOUS
 10
4.8157703182
 20
4.8549487673
 11
4.7406708433
 21
4.7248726613
  0
LINE
  5
2C1
100
AcDbEntity
  8
0
100
AcDbLine
 62
7
  6
CONTINUOUS
 10
5.1178632222
 20
5.3748726613
 11
5.192962697
 21
5.5049487673
  0
LINE
  5
2C2
100
AcDbEntity
  8
0
100
AcDbLine
 62
7
  6
CONTINUOUS
 10
3.8512703182
 20
3.1099487673
 11
3.7761708433
 21
2.9798726613
  0
LINE
  5
2C3
100
AcDbEntity
  8
0
100
AcDbLine
 62
7
  6
CONTINUOUS
 10
4.1533632222
 20
3.6298726613
 11
4.228462697
 21
3.7599487673
  0
LINE
  5
2C4
100
AcDbEntity
  8
0
100
AcDbLine
 62
7
  6
CONTINUOUS
 10
2.9717172954
 20
3.7699107143
 11
3.121916245
 21
3.7699107143
  0
LINE
  5
2C5
100
AcDbEntity
  8
0
100
AcDbLine
 62
7
  6
CONTINUOUS
 10
3.6087172954
 20
3.7699107143
 11
3.758916245
 21
3.7699107143
  0
LINE
  5
2C6
100
AcDbEntity
  8
0
100
AcDbLine
 62
7
  6
CONTINUOUS
 10
4.2457172954
 20
3.7699107143
 11
4.395916245
 21
3.7699107143
  0
LINE
  5
2C7
100
AcDbEntity
  8
0
100
AcDbLine
 62
7
  6
CONTINUOUS
 10
4.8827172954
 20
3.7699107143
 11
5.032916245
 21
3.7699107143
  0
LINE
  5
2C8
100
AcDbEntity
  8
0
100
AcDbLine
 62
7
  6
CONTINUOUS
 10
5.5197172954
 20
3.7699107143
 11
5.669916245
 21
3.7699107143
  0
LINE
  5
2C9
100
AcDbEntity
  8
0
100
AcDbLine
 62
7
  6
CONTINUOUS
 10
6.1567172954
 20
3.7699107143
 11
6.306916245
 21
3.7699107143
  0
LINE
  5
2CA
100
AcDbEntity
  8
0
100
AcDbLine
 62
7
  6
CONTINUOUS
 10
5.0501708433
 20
2.7599487673
 11
5.1252703182
 21
2.6298726613
  0
LINE
  5
2CB
100
AcDbEntity
  8
0
100
AcDbLine
 62
7
  6
CONTINUOUS
 10
3.5417703182
 20
5.3748726613
 11
3.4666708433
 21
5.5049487673
  0
LINE
  5
2CC
100
AcDbEntity
  8
0
100
AcDbLine
 62
7
  6
CONTINUOUS
 10
3.918962697
 20
4.7248726613
 11
3.8438632222
 21
4.8549487673
  0
LINE
  5
2CD
100
AcDbEntity
  8
0
100
AcDbLine
 62
7
  6
CONTINUOUS
 10
4.1036708433
 20
4.5049487673
 11
4.1787703182
 21
4.3748726613
  0
LINE
  5
2CE
100
AcDbEntity
  8
0
100
AcDbLine
 62
7
  6
CONTINUOUS
 10
4.555962697
 20
3.7248726613
 11
4.4808632222
 21
3.8549487673
  0
LINE
  5
2CF
100
AcDbEntity
  8
0
100
AcDbLine
 62
7
  6
CONTINUOUS
 10
3.591462697
 20
5.4798726613
 11
3.5163632222
 21
5.6099487673
  0
LINE
  5
2D0
100
AcDbEntity
  8
0
100
AcDbLine
 62
7
  6
CONTINUOUS
 10
4.7406708433
 20
3.5049487673
 11
4.8157703182
 21
3.3748726613
  0
LINE
  5
2D1
100
AcDbEntity
  8
0
100
AcDbLine
 62
7
  6
CONTINUOUS
 10
5.192962697
 20
2.7248726613
 11
5.1178632222
 21
2.8549487673
  0
LINE
  5
2D2
100
AcDbEntity
  8
0
100
AcDbLine
 62
7
  6
CONTINUOUS
 10
3.7761708433
 20
5.2599487673
 11
3.8512703182
 21
5.1298726613
  0
LINE
  5
2D3
100
AcDbEntity
  8
0
100
AcDbLine
 62
7
  6
CONTINUOUS
 10
4.228462697
 20
4.4798726613
 11
4.1533632222
 21
4.6099487673
  0
LINE
  5
2D4
100
AcDbEntity
  8
0
100
AcDbLine
 62
7
  6
CONTINUOUS
 10
4.4882703182
 20
4.1099487673
 11
4.4131708433
 21
3.9798726613
  0
LINE
  5
2D5
100
AcDbEntity
  8
0
100
AcDbLine
 62
7
  6
CONTINUOUS
 10
4.7903632222
 20
4.6298726613
 11
4.865462697
 21
4.7599487673
  0
LINE
  5
2D6
100
AcDbEntity
  8
0
100
AcDbLine
 62
7
  6
CONTINUOUS
 10
5.1252703182
 20
5.1099487673
 11
5.0501708433
 21
4.9798726613
  0
LINE
  5
2D7
100
AcDbEntity
  8
0
100
AcDbLine
 62
7
  6
CONTINUOUS
 10
5.4273632222
 20
5.6298726613
 11
5.502462697
 21
5.7599487673
  0
LINE
  5
2D8
100
AcDbEntity
  8
0
100
AcDbLine
 62
7
  6
CONTINUOUS
 10
3.8438632222
 20
2.8748726613
 11
3.918962697
 21
3.0049487673
  0
LINE
  5
2D9
100
AcDbEntity
  8
0
100
AcDbLine
 62
7
  6
CONTINUOUS
 10
4.1787703182
 20
3.3549487673
 11
4.1036708433
 21
3.2248726613
  0
LINE
  5
2DA
100
AcDbEntity
  8
0
100
AcDbLine
 62
7
  6
CONTINUOUS
 10
4.4808632222
 20
3.8748726613
 11
4.555962697
 21
4.0049487673
  0
LINE
  5
2DB
100
AcDbEntity
  8
0
100
AcDbLine
 62
7
  6
CONTINUOUS
 10
6.306916245
 20
3.9699107143
 11
6.1567172954
 21
3.9699107143
  0
LINE
  5
2DC
100
AcDbEntity
  8
0
100
AcDbLine
 62
7
  6
CONTINUOUS
 10
5.669916245
 20
3.9699107143
 11
5.5197172954
 21
3.9699107143
  0
LINE
  5
2DD
100
AcDbEntity
  8
0
100
AcDbLine
 62
7
  6
CONTINUOUS
 10
5.032916245
 20
3.9699107143
 11
4.8827172954
 21
3.9699107143
  0
LINE
  5
2DE
100
AcDbEntity
  8
0
100
AcDbLine
 62
7
  6
CONTINUOUS
 10
4.395916245
 20
3.9699107143
 11
4.2457172954
 21
3.9699107143
  0
LINE
  5
2DF
100
AcDbEntity
  8
0
100
AcDbLine
 62
7
  6
CONTINUOUS
 10
3.758916245
 20
3.9699107143
 11
3.6087172954
 21
3.9699107143
  0
LINE
  5
2E0
100
AcDbEntity
  8
0
100
AcDbLine
 62
7
  6
CONTINUOUS
 10
3.121916245
 20
3.9699107143
 11
2.9717172954
 21
3.9699107143
  0
LINE
  5
2E1
100
AcDbEntity
  8
0
100
AcDbLine
 62
7
  6
CONTINUOUS
 10
3.2992172954
 20
4.0149107143
 11
3.449416245
 21
4.0149107143
  0
LINE
  5
2E2
100
AcDbEntity
  8
0
100
AcDbLine
 62
7
  6
CONTINUOUS
 10
3.9362172954
 20
4.0149107143
 11
4.086416245
 21
4.0149107143
  0
LINE
  5
2E3
100
AcDbEntity
  8
0
100
AcDbLine
 62
7
  6
CONTINUOUS
 10
4.5732172954
 20
4.0149107143
 11
4.723416245
 21
4.0149107143
  0
LINE
  5
2E4
100
AcDbEntity
  8
0
100
AcDbLine
 62
7
  6
CONTINUOUS
 10
5.2102172954
 20
4.0149107143
 11
5.360416245
 21
4.0149107143
  0
LINE
  5
2E5
100
AcDbEntity
  8
0
100
AcDbLine
 62
7
  6
CONTINUOUS
 10
5.8472172954
 20
4.0149107143
 11
5.997416245
 21
4.0149107143
  0
LINE
  5
2E6
100
AcDbEntity
  8
0
100
AcDbLine
 62
7
  6
CONTINUOUS
 10
4.4131708433
 20
4.2599487673
 11
4.4882703182
 21
4.1298726613
  0
LINE
  5
2E7
100
AcDbEntity
  8
0
100
AcDbLine
 62
7
  6
CONTINUOUS
 10
4.865462697
 20
3.4798726613
 11
4.7903632222
 21
3.6099487673
  0
LINE
  5
2E8
100
AcDbEntity
  8
0
100
AcDbLine
 62
7
  6
CONTINUOUS
 10
5.0501708433
 20
3.2599487673
 11
5.1252703182
 21
3.1298726613
  0
LINE
  5
2E9
100
AcDbEntity
  8
0
100
AcDbLine
 62
7
  6
CONTINUOUS
 10
5.502462697
 20
2.4798726613
 11
5.4273632222
 21
2.6099487673
  0
LINE
  5
2EA
100
AcDbEntity
  8
0
100
AcDbLine
 62
7
  6
CONTINUOUS
 10
3.918962697
 20
5.2248726613
 11
3.8438632222
 21
5.3549487673
  0
LINE
  5
2EB
100
AcDbEntity
  8
0
100
AcDbLine
 62
7
  6
CONTINUOUS
 10
4.1036708433
 20
5.0049487673
 11
4.1787703182
 21
4.8748726613
  0
LINE
  5
2EC
100
AcDbEntity
  8
0
100
AcDbLine
 62
7
  6
CONTINUOUS
 10
4.555962697
 20
4.2248726613
 11
4.4808632222
 21
4.3549487673
  0
LINE
  5
2ED
100
AcDbEntity
  8
0
100
AcDbLine
 62
7
  6
CONTINUOUS
 10
4.7406708433
 20
4.0049487673
 11
4.8157703182
 21
3.8748726613
  0
LINE
  5
2EE
100
AcDbEntity
  8
0
100
AcDbLine
 62
7
  6
CONTINUOUS
 10
4.8157703182
 20
4.3549487673
 11
4.7406708433
 21
4.2248726613
  0
LINE
  5
2EF
100
AcDbEntity
  8
0
100
AcDbLine
 62
7
  6
CONTINUOUS
 10
5.1178632222
 20
4.8748726613
 11
5.192962697
 21
5.0049487673
  0
LINE
  5
2F0
100
AcDbEntity
  8
0
100
AcDbLine
 62
7
  6
CONTINUOUS
 10
3.8512703182
 20
2.6099487673
 11
3.7761708433
 21
2.4798726613
  0
LINE
  5
2F1
100
AcDbEntity
  8
0
100
AcDbLine
 62
7
  6
CONTINUOUS
 10
4.1533632222
 20
3.1298726613
 11
4.228462697
 21
3.2599487673
  0
LINE
  5
2F2
100
AcDbEntity
  8
0
100
AcDbLine
 62
7
  6
CONTINUOUS
 10
5.4527703182
 20
5.3549487673
 11
5.3776708433
 21
5.2248726613
  0
LINE
  5
2F3
100
AcDbEntity
  8
0
100
AcDbLine
 62
7
  6
CONTINUOUS
 10
4.4882703182
 20
3.6099487673
 11
4.4131708433
 21
3.4798726613
  0
LINE
  5
2F4
100
AcDbEntity
  8
0
100
AcDbLine
 62
7
  6
CONTINUOUS
 10
4.7903632222
 20
4.1298726613
 11
4.865462697
 21
4.2599487673
  0
LINE
  5
2F5
100
AcDbEntity
  8
0
100
AcDbLine
 62
7
  6
CONTINUOUS
 10
5.1252703182
 20
4.6099487673
 11
5.0501708433
 21
4.4798726613
  0
LINE
  5
2F6
100
AcDbEntity
  8
0
100
AcDbLine
 62
7
  6
CONTINUOUS
 10
5.4273632222
 20
5.1298726613
 11
5.502462697
 21
5.2599487673
  0
LINE
  5
2F7
100
AcDbEntity
  8
0
100
AcDbLine
 62
7
  6
CONTINUOUS
 10
5.997416245
 20
4.2149107143
 11
5.8472172954
 21
4.2149107143
  0
LINE
  5
2F8
100
AcDbEntity
  8
0
100
AcDbLine
 62
7
  6
CONTINUOUS
 10
5.360416245
 20
4.2149107143
 11
5.2102172954
 21
4.2149107143
  0
LINE
  5
2F9
100
AcDbEntity
  8
0
100
AcDbLine
 62
7
  6
CONTINUOUS
 10
4.723416245
 20
4.2149107143
 11
4.5732172954
 21
4.2149107143
  0
LINE
  5
2FA
100
AcDbEntity
  8
0
100
AcDbLine
 62
7
  6
CONTINUOUS
 10
4.086416245
 20
4.2149107143
 11
3.9362172954
 21
4.2149107143
  0
LINE
  5
2FB
100
AcDbEntity
  8
0
100
AcDbLine
 62
7
  6
CONTINUOUS
 10
3.449416245
 20
4.2149107143
 11
3.2992172954
 21
4.2149107143
  0
LINE
  5
2FC
100
AcDbEntity
  8
0
100
AcDbLine
 62
7
  6
CONTINUOUS
 10
2.9717172954
 20
4.2699107143
 11
3.121916245
 21
4.2699107143
  0
LINE
  5
2FD
100
AcDbEntity
  8
0
100
AcDbLine
 62
7
  6
CONTINUOUS
 10
3.6087172954
 20
4.2699107143
 11
3.758916245
 21
4.2699107143
  0
LINE
  5
2FE
100
AcDbEntity
  8
0
100
AcDbLine
 62
7
  6
CONTINUOUS
 10
4.2457172954
 20
4.2699107143
 11
4.395916245
 21
4.2699107143
  0
LINE
  5
2FF
100
AcDbEntity
  8
0
100
AcDbLine
 62
7
  6
CONTINUOUS
 10
4.8827172954
 20
4.2699107143
 11
5.032916245
 21
4.2699107143
  0
LINE
  5
300
100
AcDbEntity
  8
0
100
AcDbLine
 62
7
  6
CONTINUOUS
 10
5.5197172954
 20
4.2699107143
 11
5.669916245
 21
4.2699107143
  0
LINE
  5
301
100
AcDbEntity
  8
0
100
AcDbLine
 62
7
  6
CONTINUOUS
 10
6.1567172954
 20
4.2699107143
 11
6.306916245
 21
4.2699107143
  0
LINE
  5
302
100
AcDbEntity
  8
0
100
AcDbLine
 62
7
  6
CONTINUOUS
 10
5.192962697
 20
3.2248726613
 11
5.1178632222
 21
3.3549487673
  0
LINE
  5
303
100
AcDbEntity
  8
0
100
AcDbLine
 62
7
  6
CONTINUOUS
 10
3.7761708433
 20
5.7599487673
 11
3.8512703182
 21
5.6298726613
  0
LINE
  5
304
100
AcDbEntity
  8
0
100
AcDbLine
 62
7
  6
CONTINUOUS
 10
4.228462697
 20
4.9798726613
 11
4.1533632222
 21
5.1099487673
  0
LINE
  5
305
100
AcDbEntity
  8
0
100
AcDbLine
 62
7
  6
CONTINUOUS
 10
5.3776708433
 20
3.0049487673
 11
5.4527703182
 21
2.8748726613
  0
LINE
  5
306
100
AcDbEntity
  8
0
100
AcDbLine
 62
7
  6
CONTINUOUS
 10
4.4131708433
 20
4.7599487673
 11
4.4882703182
 21
4.6298726613
  0
LINE
  5
307
100
AcDbEntity
  8
0
100
AcDbLine
 62
7
  6
CONTINUOUS
 10
4.865462697
 20
3.9798726613
 11
4.7903632222
 21
4.1099487673
  0
LINE
  5
308
100
AcDbEntity
  8
0
100
AcDbLine
 62
7
  6
CONTINUOUS
 10
5.0501708433
 20
3.7599487673
 11
5.1252703182
 21
3.6298726613
  0
LINE
  5
309
100
AcDbEntity
  8
0
100
AcDbLine
 62
7
  6
CONTINUOUS
 10
5.502462697
 20
2.9798726613
 11
5.4273632222
 21
3.1099487673
  0
LINE
  5
30A
100
AcDbEntity
  8
0
100
AcDbLine
 62
7
  6
CONTINUOUS
 10
5.7622703182
 20
5.6099487673
 11
5.6871708433
 21
5.4798726613
  0
LINE
  5
30B
100
AcDbEntity
  8
0
100
AcDbLine
 62
7
  6
CONTINUOUS
 10
4.1787703182
 20
2.8549487673
 11
4.1036708433
 21
2.7248726613
  0
LINE
  5
30C
100
AcDbEntity
  8
0
100
AcDbLine
 62
7
  6
CONTINUOUS
 10
4.4808632222
 20
3.3748726613
 11
4.555962697
 21
3.5049487673
  0
LINE
  5
30D
100
AcDbEntity
  8
0
100
AcDbLine
 62
7
  6
CONTINUOUS
 10
4.8157703182
 20
3.8549487673
 11
4.7406708433
 21
3.7248726613
  0
LINE
  5
30E
100
AcDbEntity
  8
0
100
AcDbLine
 62
7
  6
CONTINUOUS
 10
5.1178632222
 20
4.3748726613
 11
5.192962697
 21
4.5049487673
  0
LINE
  5
30F
100
AcDbEntity
  8
0
100
AcDbLine
 62
7
  6
CONTINUOUS
 10
4.1533632222
 20
2.6298726613
 11
4.228462697
 21
2.7599487673
  0
LINE
  5
310
100
AcDbEntity
  8
0
100
AcDbLine
 62
7
  6
CONTINUOUS
 10
5.4527703182
 20
4.8549487673
 11
5.3776708433
 21
4.7248726613
  0
LINE
  5
311
100
AcDbEntity
  8
0
100
AcDbLine
 62
7
  6
CONTINUOUS
 10
5.7548632222
 20
5.3748726613
 11
5.829962697
 21
5.5049487673
  0
LINE
  5
312
100
AcDbEntity
  8
0
100
AcDbLine
 62
7
  6
CONTINUOUS
 10
4.4882703182
 20
3.1099487673
 11
4.4131708433
 21
2.9798726613
  0
LINE
  5
313
100
AcDbEntity
  8
0
100
AcDbLine
 62
7
  6
CONTINUOUS
 10
4.7903632222
 20
3.6298726613
 11
4.865462697
 21
3.7599487673
  0
LINE
  5
314
100
AcDbEntity
  8
0
100
AcDbLine
 62
7
  6
CONTINUOUS
 10
6.306916245
 20
4.4699107143
 11
6.1567172954
 21
4.4699107143
  0
LINE
  5
315
100
AcDbEntity
  8
0
100
AcDbLine
 62
7
  6
CONTINUOUS
 10
5.669916245
 20
4.4699107143
 11
5.5197172954
 21
4.4699107143
  0
LINE
  5
316
100
AcDbEntity
  8
0
100
AcDbLine
 62
7
  6
CONTINUOUS
 10
5.032916245
 20
4.4699107143
 11
4.8827172954
 21
4.4699107143
  0
LINE
  5
317
100
AcDbEntity
  8
0
100
AcDbLine
 62
7
  6
CONTINUOUS
 10
4.395916245
 20
4.4699107143
 11
4.2457172954
 21
4.4699107143
  0
LINE
  5
318
100
AcDbEntity
  8
0
100
AcDbLine
 62
7
  6
CONTINUOUS
 10
3.758916245
 20
4.4699107143
 11
3.6087172954
 21
4.4699107143
  0
LINE
  5
319
100
AcDbEntity
  8
0
100
AcDbLine
 62
7
  6
CONTINUOUS
 10
3.121916245
 20
4.4699107143
 11
2.9717172954
 21
4.4699107143
  0
LINE
  5
31A
100
AcDbEntity
  8
0
100
AcDbLine
 62
7
  6
CONTINUOUS
 10
3.2992172954
 20
4.5149107143
 11
3.449416245
 21
4.5149107143
  0
LINE
  5
31B
100
AcDbEntity
  8
0
100
AcDbLine
 62
7
  6
CONTINUOUS
 10
3.9362172954
 20
4.5149107143
 11
4.086416245
 21
4.5149107143
  0
LINE
  5
31C
100
AcDbEntity
  8
0
100
AcDbLine
 62
7
  6
CONTINUOUS
 10
4.5732172954
 20
4.5149107143
 11
4.723416245
 21
4.5149107143
  0
LINE
  5
31D
100
AcDbEntity
  8
0
100
AcDbLine
 62
7
  6
CONTINUOUS
 10
5.2102172954
 20
4.5149107143
 11
5.360416245
 21
4.5149107143
  0
LINE
  5
31E
100
AcDbEntity
  8
0
100
AcDbLine
 62
7
  6
CONTINUOUS
 10
5.8472172954
 20
4.5149107143
 11
5.997416245
 21
4.5149107143
  0
LINE
  5
31F
100
AcDbEntity
  8
0
100
AcDbLine
 62
7
  6
CONTINUOUS
 10
5.6871708433
 20
2.7599487673
 11
5.7622703182
 21
2.6298726613
  0
LINE
  5
320
100
AcDbEntity
  8
0
100
AcDbLine
 62
7
  6
CONTINUOUS
 10
4.1036708433
 20
5.5049487673
 11
4.1787703182
 21
5.3748726613
  0
LINE
  5
321
100
AcDbEntity
  8
0
100
AcDbLine
 62
7
  6
CONTINUOUS
 10
4.555962697
 20
4.7248726613
 11
4.4808632222
 21
4.8549487673
  0
LINE
  5
322
100
AcDbEntity
  8
0
100
AcDbLine
 62
7
  6
CONTINUOUS
 10
4.7406708433
 20
4.5049487673
 11
4.8157703182
 21
4.3748726613
  0
LINE
  5
323
100
AcDbEntity
  8
0
100
AcDbLine
 62
7
  6
CONTINUOUS
 10
5.192962697
 20
3.7248726613
 11
5.1178632222
 21
3.8549487673
  0
LINE
  5
324
100
AcDbEntity
  8
0
100
AcDbLine
 62
7
  6
CONTINUOUS
 10
4.228462697
 20
5.4798726613
 11
4.1533632222
 21
5.6099487673
  0
LINE
  5
325
100
AcDbEntity
  8
0
100
AcDbLine
 62
7
  6
CONTINUOUS
 10
5.3776708433
 20
3.5049487673
 11
5.4527703182
 21
3.3748726613
  0
LINE
  5
326
100
AcDbEntity
  8
0
100
AcDbLine
 62
7
  6
CONTINUOUS
 10
5.829962697
 20
2.7248726613
 11
5.7548632222
 21
2.8549487673
  0
LINE
  5
327
100
AcDbEntity
  8
0
100
AcDbLine
 62
7
  6
CONTINUOUS
 10
4.4131708433
 20
5.2599487673
 11
4.4882703182
 21
5.1298726613
  0
LINE
  5
328
100
AcDbEntity
  8
0
100
AcDbLine
 62
7
  6
CONTINUOUS
 10
4.865462697
 20
4.4798726613
 11
4.7903632222
 21
4.6099487673
  0
LINE
  5
329
100
AcDbEntity
  8
0
100
AcDbLine
 62
7
  6
CONTINUOUS
 10
5.1252703182
 20
4.1099487673
 11
5.0501708433
 21
3.9798726613
  0
LINE
  5
32A
100
AcDbEntity
  8
0
100
AcDbLine
 62
7
  6
CONTINUOUS
 10
5.4273632222
 20
4.6298726613
 11
5.502462697
 21
4.7599487673
  0
LINE
  5
32B
100
AcDbEntity
  8
0
100
AcDbLine
 62
7
  6
CONTINUOUS
 10
5.7622703182
 20
5.1099487673
 11
5.6871708433
 21
4.9798726613
  0
LINE
  5
32C
100
AcDbEntity
  8
0
100
AcDbLine
 62
7
  6
CONTINUOUS
 10
6.0643632222
 20
5.6298726613
 11
6.139462697
 21
5.7599487673
  0
LINE
  5
32D
100
AcDbEntity
  8
0
100
AcDbLine
 62
7
  6
CONTINUOUS
 10
4.4808632222
 20
2.8748726613
 11
4.555962697
 21
3.0049487673
  0
LINE
  5
32E
100
AcDbEntity
  8
0
100
AcDbLine
 62
7
  6
CONTINUOUS
 10
4.8157703182
 20
3.3549487673
 11
4.7406708433
 21
3.2248726613
  0
LINE
  5
32F
100
AcDbEntity
  8
0
100
AcDbLine
 62
7
  6
CONTINUOUS
 10
5.1178632222
 20
3.8748726613
 11
5.192962697
 21
4.0049487673
  0
LINE
  5
330
100
AcDbEntity
  8
0
100
AcDbLine
 62
7
  6
CONTINUOUS
 10
5.4527703182
 20
4.3549487673
 11
5.3776708433
 21
4.2248726613
  0
LINE
  5
331
100
AcDbEntity
  8
0
100
AcDbLine
 62
7
  6
CONTINUOUS
 10
5.7548632222
 20
4.8748726613
 11
5.829962697
 21
5.0049487673
  0
LINE
  5
332
100
AcDbEntity
  8
0
100
AcDbLine
 62
7
  6
CONTINUOUS
 10
5.997416245
 20
4.7149107143
 11
5.8472172954
 21
4.7149107143
  0
LINE
  5
333
100
AcDbEntity
  8
0
100
AcDbLine
 62
7
  6
CONTINUOUS
 10
5.360416245
 20
4.7149107143
 11
5.2102172954
 21
4.7149107143
  0
LINE
  5
334
100
AcDbEntity
  8
0
100
AcDbLine
 62
7
  6
CONTINUOUS
 10
4.723416245
 20
4.7149107143
 11
4.5732172954
 21
4.7149107143
  0
LINE
  5
335
100
AcDbEntity
  8
0
100
AcDbLine
 62
7
  6
CONTINUOUS
 10
4.086416245
 20
4.7149107143
 11
3.9362172954
 21
4.7149107143
  0
LINE
  5
336
100
AcDbEntity
  8
0
100
AcDbLine
 62
7
  6
CONTINUOUS
 10
3.449416245
 20
4.7149107143
 11
3.2992172954
 21
4.7149107143
  0
LINE
  5
337
100
AcDbEntity
  8
0
100
AcDbLine
 62
7
  6
CONTINUOUS
 10
5.0501708433
 20
4.2599487673
 11
5.1252703182
 21
4.1298726613
  0
LINE
  5
338
100
AcDbEntity
  8
0
100
AcDbLine
 62
7
  6
CONTINUOUS
 10
5.502462697
 20
3.4798726613
 11
5.4273632222
 21
3.6099487673
  0
LINE
  5
339
100
AcDbEntity
  8
0
100
AcDbLine
 62
7
  6
CONTINUOUS
 10
5.6871708433
 20
3.2599487673
 11
5.7622703182
 21
3.1298726613
  0
LINE
  5
33A
100
AcDbEntity
  8
0
100
AcDbLine
 62
7
  6
CONTINUOUS
 10
6.139462697
 20
2.4798726613
 11
6.0643632222
 21
2.6099487673
  0
LINE
  5
33B
100
AcDbEntity
  8
0
100
AcDbLine
 62
7
  6
CONTINUOUS
 10
4.555962697
 20
5.2248726613
 11
4.4808632222
 21
5.3549487673
  0
LINE
  5
33C
100
AcDbEntity
  8
0
100
AcDbLine
 62
7
  6
CONTINUOUS
 10
4.7406708433
 20
5.0049487673
 11
4.8157703182
 21
4.8748726613
  0
LINE
  5
33D
100
AcDbEntity
  8
0
100
AcDbLine
 62
7
  6
CONTINUOUS
 10
5.192962697
 20
4.2248726613
 11
5.1178632222
 21
4.3549487673
  0
LINE
  5
33E
100
AcDbEntity
  8
0
100
AcDbLine
 62
7
  6
CONTINUOUS
 10
5.3776708433
 20
4.0049487673
 11
5.4527703182
 21
3.8748726613
  0
LINE
  5
33F
100
AcDbEntity
  8
0
100
AcDbLine
 62
7
  6
CONTINUOUS
 10
5.829962697
 20
3.2248726613
 11
5.7548632222
 21
3.3549487673
  0
LINE
  5
340
100
AcDbEntity
  8
0
100
AcDbLine
 62
7
  6
CONTINUOUS
 10
4.4882703182
 20
2.6099487673
 11
4.4131708433
 21
2.4798726613
  0
LINE
  5
341
100
AcDbEntity
  8
0
100
AcDbLine
 62
7
  6
CONTINUOUS
 10
4.7903632222
 20
3.1298726613
 11
4.865462697
 21
3.2599487673
  0
LINE
  5
342
100
AcDbEntity
  8
0
100
AcDbLine
 62
7
  6
CONTINUOUS
 10
6.0897703182
 20
5.3549487673
 11
6.0146708433
 21
5.2248726613
  0
LINE
  5
343
100
AcDbEntity
  8
0
100
AcDbLine
 62
7
  6
CONTINUOUS
 10
5.1252703182
 20
3.6099487673
 11
5.0501708433
 21
3.4798726613
  0
LINE
  5
344
100
AcDbEntity
  8
0
100
AcDbLine
 62
7
  6
CONTINUOUS
 10
5.4273632222
 20
4.1298726613
 11
5.502462697
 21
4.2599487673
  0
LINE
  5
345
100
AcDbEntity
  8
0
100
AcDbLine
 62
7
  6
CONTINUOUS
 10
5.7622703182
 20
4.6099487673
 11
5.6871708433
 21
4.4798726613
  0
LINE
  5
346
100
AcDbEntity
  8
0
100
AcDbLine
 62
7
  6
CONTINUOUS
 10
6.0643632222
 20
5.1298726613
 11
6.139462697
 21
5.2599487673
  0
LINE
  5
347
100
AcDbEntity
  8
0
100
AcDbLine
 62
7
  6
CONTINUOUS
 10
6.3992703182
 20
5.6099487673
 11
6.3241708433
 21
5.4798726613
  0
LINE
  5
348
100
AcDbEntity
  8
0
100
AcDbLine
 62
7
  6
CONTINUOUS
 10
4.8157703182
 20
2.8549487673
 11
4.7406708433
 21
2.7248726613
  0
LINE
  5
349
100
AcDbEntity
  8
0
100
AcDbLine
 62
7
  6
CONTINUOUS
 10
5.1178632222
 20
3.3748726613
 11
5.192962697
 21
3.5049487673
  0
LINE
  5
34A
100
AcDbEntity
  8
0
100
AcDbLine
 62
7
  6
CONTINUOUS
 10
2.9717172954
 20
4.7699107143
 11
3.121916245
 21
4.7699107143
  0
LINE
  5
34B
100
AcDbEntity
  8
0
100
AcDbLine
 62
7
  6
CONTINUOUS
 10
3.6087172954
 20
4.7699107143
 11
3.758916245
 21
4.7699107143
  0
LINE
  5
34C
100
AcDbEntity
  8
0
100
AcDbLine
 62
7
  6
CONTINUOUS
 10
4.2457172954
 20
4.7699107143
 11
4.395916245
 21
4.7699107143
  0
LINE
  5
34D
100
AcDbEntity
  8
0
100
AcDbLine
 62
7
  6
CONTINUOUS
 10
4.8827172954
 20
4.7699107143
 11
5.032916245
 21
4.7699107143
  0
LINE
  5
34E
100
AcDbEntity
  8
0
100
AcDbLine
 62
7
  6
CONTINUOUS
 10
5.5197172954
 20
4.7699107143
 11
5.669916245
 21
4.7699107143
  0
LINE
  5
34F
100
AcDbEntity
  8
0
100
AcDbLine
 62
7
  6
CONTINUOUS
 10
6.1567172954
 20
4.7699107143
 11
6.306916245
 21
4.7699107143
  0
LINE
  5
350
100
AcDbEntity
  8
0
100
AcDbLine
 62
7
  6
CONTINUOUS
 10
4.4131708433
 20
5.7599487673
 11
4.4882703182
 21
5.6298726613
  0
LINE
  5
351
100
AcDbEntity
  8
0
100
AcDbLine
 62
7
  6
CONTINUOUS
 10
4.865462697
 20
4.9798726613
 11
4.7903632222
 21
5.1099487673
  0
LINE
  5
352
100
AcDbEntity
  8
0
100
AcDbLine
 62
7
  6
CONTINUOUS
 10
6.0146708433
 20
3.0049487673
 11
6.0897703182
 21
2.8748726613
  0
LINE
  5
353
100
AcDbEntity
  8
0
100
AcDbLine
 62
7
  6
CONTINUOUS
 10
5.0501708433
 20
4.7599487673
 11
5.1252703182
 21
4.6298726613
  0
LINE
  5
354
100
AcDbEntity
  8
0
100
AcDbLine
 62
7
  6
CONTINUOUS
 10
5.502462697
 20
3.9798726613
 11
5.4273632222
 21
4.1099487673
  0
LINE
  5
355
100
AcDbEntity
  8
0
100
AcDbLine
 62
7
  6
CONTINUOUS
 10
5.6871708433
 20
3.7599487673
 11
5.7622703182
 21
3.6298726613
  0
LINE
  5
356
100
AcDbEntity
  8
0
100
AcDbLine
 62
7
  6
CONTINUOUS
 10
6.139462697
 20
2.9798726613
 11
6.0643632222
 21
3.1099487673
  0
LINE
  5
357
100
AcDbEntity
  8
0
100
AcDbLine
 62
7
  6
CONTINUOUS
 10
6.3241708433
 20
2.7599487673
 11
6.3992703182
 21
2.6298726613
  0
LINE
  5
358
100
AcDbEntity
  8
0
100
AcDbLine
 62
7
  6
CONTINUOUS
 10
4.7406708433
 20
5.5049487673
 11
4.8157703182
 21
5.3748726613
  0
LINE
  5
359
100
AcDbEntity
  8
0
100
AcDbLine
 62
7
  6
CONTINUOUS
 10
5.192962697
 20
4.7248726613
 11
5.1178632222
 21
4.8549487673
  0
LINE
  5
35A
100
AcDbEntity
  8
0
100
AcDbLine
 62
7
  6
CONTINUOUS
 10
5.4527703182
 20
3.8549487673
 11
5.3776708433
 21
3.7248726613
  0
LINE
  5
35B
100
AcDbEntity
  8
0
100
AcDbLine
 62
7
  6
CONTINUOUS
 10
5.7548632222
 20
4.3748726613
 11
5.829962697
 21
4.5049487673
  0
LINE
  5
35C
100
AcDbEntity
  8
0
100
AcDbLine
 62
7
  6
CONTINUOUS
 10
4.7903632222
 20
2.6298726613
 11
4.865462697
 21
2.7599487673
  0
LINE
  5
35D
100
AcDbEntity
  8
0
100
AcDbLine
 62
7
  6
CONTINUOUS
 10
6.0897703182
 20
4.8549487673
 11
6.0146708433
 21
4.7248726613
  0
LINE
  5
35E
100
AcDbEntity
  8
0
100
AcDbLine
 62
7
  6
CONTINUOUS
 10
5.1252703182
 20
3.1099487673
 11
5.0501708433
 21
2.9798726613
  0
LINE
  5
35F
100
AcDbEntity
  8
0
100
AcDbLine
 62
7
  6
CONTINUOUS
 10
5.4273632222
 20
3.6298726613
 11
5.502462697
 21
3.7599487673
  0
LINE
  5
360
100
AcDbEntity
  8
0
100
AcDbLine
 62
7
  6
CONTINUOUS
 10
5.7622703182
 20
4.1099487673
 11
5.6871708433
 21
3.9798726613
  0
LINE
  5
361
100
AcDbEntity
  8
0
100
AcDbLine
 62
7
  6
CONTINUOUS
 10
6.0643632222
 20
4.6298726613
 11
6.139462697
 21
4.7599487673
  0
LINE
  5
362
100
AcDbEntity
  8
0
100
AcDbLine
 62
7
  6
CONTINUOUS
 10
6.306916245
 20
4.9699107143
 11
6.1567172954
 21
4.9699107143
  0
LINE
  5
363
100
AcDbEntity
  8
0
100
AcDbLine
 62
7
  6
CONTINUOUS
 10
5.669916245
 20
4.9699107143
 11
5.5197172954
 21
4.9699107143
  0
LINE
  5
364
100
AcDbEntity
  8
0
100
AcDbLine
 62
7
  6
CONTINUOUS
 10
5.032916245
 20
4.9699107143
 11
4.8827172954
 21
4.9699107143
  0
LINE
  5
365
100
AcDbEntity
  8
0
100
AcDbLine
 62
7
  6
CONTINUOUS
 10
4.395916245
 20
4.9699107143
 11
4.2457172954
 21
4.9699107143
  0
LINE
  5
366
100
AcDbEntity
  8
0
100
AcDbLine
 62
7
  6
CONTINUOUS
 10
3.758916245
 20
4.9699107143
 11
3.6087172954
 21
4.9699107143
  0
LINE
  5
367
100
AcDbEntity
  8
0
100
AcDbLine
 62
7
  6
CONTINUOUS
 10
3.121916245
 20
4.9699107143
 11
2.9717172954
 21
4.9699107143
  0
LINE
  5
368
100
AcDbEntity
  8
0
100
AcDbLine
 62
7
  6
CONTINUOUS
 10
3.2992172954
 20
5.0149107143
 11
3.449416245
 21
5.0149107143
  0
LINE
  5
369
100
AcDbEntity
  8
0
100
AcDbLine
 62
7
  6
CONTINUOUS
 10
3.9362172954
 20
5.0149107143
 11
4.086416245
 21
5.0149107143
  0
LINE
  5
36A
100
AcDbEntity
  8
0
100
AcDbLine
 62
7
  6
CONTINUOUS
 10
4.5732172954
 20
5.0149107143
 11
4.723416245
 21
5.0149107143
  0
LINE
  5
36B
100
AcDbEntity
  8
0
100
AcDbLine
 62
7
  6
CONTINUOUS
 10
5.2102172954
 20
5.0149107143
 11
5.360416245
 21
5.0149107143
  0
LINE
  5
36C
100
AcDbEntity
  8
0
100
AcDbLine
 62
7
  6
CONTINUOUS
 10
5.8472172954
 20
5.0149107143
 11
5.997416245
 21
5.0149107143
  0
LINE
  5
36D
100
AcDbEntity
  8
0
100
AcDbLine
 62
7
  6
CONTINUOUS
 10
5.3776708433
 20
4.5049487673
 11
5.4527703182
 21
4.3748726613
  0
LINE
  5
36E
100
AcDbEntity
  8
0
100
AcDbLine
 62
7
  6
CONTINUOUS
 10
5.829962697
 20
3.7248726613
 11
5.7548632222
 21
3.8549487673
  0
LINE
  5
36F
100
AcDbEntity
  8
0
100
AcDbLine
 62
7
  6
CONTINUOUS
 10
4.865462697
 20
5.4798726613
 11
4.7903632222
 21
5.6099487673
  0
LINE
  5
370
100
AcDbEntity
  8
0
100
AcDbLine
 62
7
  6
CONTINUOUS
 10
6.0146708433
 20
3.5049487673
 11
6.0897703182
 21
3.3748726613
  0
LINE
  5
371
100
AcDbEntity
  8
0
100
AcDbLine
 62
7
  6
CONTINUOUS
 10
5.0501708433
 20
5.2599487673
 11
5.1252703182
 21
5.1298726613
  0
LINE
  5
372
100
AcDbEntity
  8
0
100
AcDbLine
 62
7
  6
CONTINUOUS
 10
5.502462697
 20
4.4798726613
 11
5.4273632222
 21
4.6099487673
  0
LINE
  5
373
100
AcDbEntity
  8
0
100
AcDbLine
 62
7
  6
CONTINUOUS
 10
5.6871708433
 20
4.2599487673
 11
5.7622703182
 21
4.1298726613
  0
LINE
  5
374
100
AcDbEntity
  8
0
100
AcDbLine
 62
7
  6
CONTINUOUS
 10
6.139462697
 20
3.4798726613
 11
6.0643632222
 21
3.6099487673
  0
LINE
  5
375
100
AcDbEntity
  8
0
100
AcDbLine
 62
7
  6
CONTINUOUS
 10
6.3992703182
 20
5.1099487673
 11
6.3241708433
 21
4.9798726613
  0
LINE
  5
376
100
AcDbEntity
  8
0
100
AcDbLine
 62
7
  6
CONTINUOUS
 10
5.1178632222
 20
2.8748726613
 11
5.192962697
 21
3.0049487673
  0
LINE
  5
377
100
AcDbEntity
  8
0
100
AcDbLine
 62
7
  6
CONTINUOUS
 10
5.4527703182
 20
3.3549487673
 11
5.3776708433
 21
3.2248726613
  0
LINE
  5
378
100
AcDbEntity
  8
0
100
AcDbLine
 62
7
  6
CONTINUOUS
 10
5.7548632222
 20
3.8748726613
 11
5.829962697
 21
4.0049487673
  0
LINE
  5
379
100
AcDbEntity
  8
0
100
AcDbLine
 62
7
  6
CONTINUOUS
 10
6.0897703182
 20
4.3549487673
 11
6.0146708433
 21
4.2248726613
  0
LINE
  5
37A
100
AcDbEntity
  8
0
100
AcDbLine
 62
7
  6
CONTINUOUS
 10
5.1252703182
 20
2.6099487673
 11
5.0501708433
 21
2.4798726613
  0
LINE
  5
37B
100
AcDbEntity
  8
0
100
AcDbLine
 62
7
  6
CONTINUOUS
 10
5.997416245
 20
5.2149107143
 11
5.8472172954
 21
5.2149107143
  0
LINE
  5
37C
100
AcDbEntity
  8
0
100
AcDbLine
 62
7
  6
CONTINUOUS
 10
5.360416245
 20
5.2149107143
 11
5.2102172954
 21
5.2149107143
  0
LINE
  5
37D
100
AcDbEntity
  8
0
100
AcDbLine
 62
7
  6
CONTINUOUS
 10
4.723416245
 20
5.2149107143
 11
4.5732172954
 21
5.2149107143
  0
LINE
  5
37E
100
AcDbEntity
  8
0
100
AcDbLine
 62
7
  6
CONTINUOUS
 10
4.086416245
 20
5.2149107143
 11
3.9362172954
 21
5.2149107143
  0
LINE
  5
37F
100
AcDbEntity
  8
0
100
AcDbLine
 62
7
  6
CONTINUOUS
 10
3.2992172954
 20
5.2149107143
 11
3.449416245
 21
5.2149107143
  0
LINE
  5
380
100
AcDbEntity
  8
0
100
AcDbLine
 62
7
  6
CONTINUOUS
 10
2.9717172954
 20
5.2699107143
 11
3.121916245
 21
5.2699107143
  0
LINE
  5
381
100
AcDbEntity
  8
0
100
AcDbLine
 62
7
  6
CONTINUOUS
 10
3.6087172954
 20
5.2699107143
 11
3.758916245
 21
5.2699107143
  0
LINE
  5
382
100
AcDbEntity
  8
0
100
AcDbLine
 62
7
  6
CONTINUOUS
 10
4.2457172954
 20
5.2699107143
 11
4.395916245
 21
5.2699107143
  0
LINE
  5
383
100
AcDbEntity
  8
0
100
AcDbLine
 62
7
  6
CONTINUOUS
 10
4.8827172954
 20
5.2699107143
 11
5.032916245
 21
5.2699107143
  0
LINE
  5
384
100
AcDbEntity
  8
0
100
AcDbLine
 62
7
  6
CONTINUOUS
 10
5.5197172954
 20
5.2699107143
 11
5.669916245
 21
5.2699107143
  0
LINE
  5
385
100
AcDbEntity
  8
0
100
AcDbLine
 62
7
  6
CONTINUOUS
 10
6.1567172954
 20
5.2699107143
 11
6.306916245
 21
5.2699107143
  0
LINE
  5
386
100
AcDbEntity
  8
0
100
AcDbLine
 62
7
  6
CONTINUOUS
 10
6.3241708433
 20
3.2599487673
 11
6.3992703182
 21
3.1298726613
  0
LINE
  5
387
100
AcDbEntity
  8
0
100
AcDbLine
 62
7
  6
CONTINUOUS
 10
5.192962697
 20
5.2248726613
 11
5.1178632222
 21
5.3549487673
  0
LINE
  5
388
100
AcDbEntity
  8
0
100
AcDbLine
 62
7
  6
CONTINUOUS
 10
5.3776708433
 20
5.0049487673
 11
5.4527703182
 21
4.8748726613
  0
LINE
  5
389
100
AcDbEntity
  8
0
100
AcDbLine
 62
7
  6
CONTINUOUS
 10
5.829962697
 20
4.2248726613
 11
5.7548632222
 21
4.3549487673
  0
LINE
  5
38A
100
AcDbEntity
  8
0
100
AcDbLine
 62
7
  6
CONTINUOUS
 10
6.0146708433
 20
4.0049487673
 11
6.0897703182
 21
3.8748726613
  0
LINE
  5
38B
100
AcDbEntity
  8
0
100
AcDbLine
 62
7
  6
CONTINUOUS
 10
5.4273632222
 20
3.1298726613
 11
5.502462697
 21
3.2599487673
  0
LINE
  5
38C
100
AcDbEntity
  8
0
100
AcDbLine
 62
7
  6
CONTINUOUS
 10
5.7622703182
 20
3.6099487673
 11
5.6871708433
 21
3.4798726613
  0
LINE
  5
38D
100
AcDbEntity
  8
0
100
AcDbLine
 62
7
  6
CONTINUOUS
 10
6.0643632222
 20
4.1298726613
 11
6.139462697
 21
4.2599487673
  0
LINE
  5
38E
100
AcDbEntity
  8
0
100
AcDbLine
 62
7
  6
CONTINUOUS
 10
6.3992703182
 20
4.6099487673
 11
6.3241708433
 21
4.4798726613
  0
LINE
  5
38F
100
AcDbEntity
  8
0
100
AcDbLine
 62
7
  6
CONTINUOUS
 10
5.4527703182
 20
2.8549487673
 11
5.3776708433
 21
2.7248726613
  0
LINE
  5
390
100
AcDbEntity
  8
0
100
AcDbLine
 62
7
  6
CONTINUOUS
 10
5.7548632222
 20
3.3748726613
 11
5.829962697
 21
3.5049487673
  0
LINE
  5
391
100
AcDbEntity
  8
0
100
AcDbLine
 62
7
  6
CONTINUOUS
 10
6.306916245
 20
5.4699107143
 11
6.1567172954
 21
5.4699107143
  0
LINE
  5
392
100
AcDbEntity
  8
0
100
AcDbLine
 62
7
  6
CONTINUOUS
 10
5.669916245
 20
5.4699107143
 11
5.5197172954
 21
5.4699107143
  0
LINE
  5
393
100
AcDbEntity
  8
0
100
AcDbLine
 62
7
  6
CONTINUOUS
 10
5.032916245
 20
5.4699107143
 11
4.8827172954
 21
5.4699107143
  0
LINE
  5
394
100
AcDbEntity
  8
0
100
AcDbLine
 62
7
  6
CONTINUOUS
 10
4.395916245
 20
5.4699107143
 11
4.2457172954
 21
5.4699107143
  0
LINE
  5
395
100
AcDbEntity
  8
0
100
AcDbLine
 62
7
  6
CONTINUOUS
 10
3.758916245
 20
5.4699107143
 11
3.6087172954
 21
5.4699107143
  0
LINE
  5
396
100
AcDbEntity
  8
0
100
AcDbLine
 62
7
  6
CONTINUOUS
 10
2.9717172954
 20
5.4699107143
 11
3.121916245
 21
5.4699107143
  0
LINE
  5
397
100
AcDbEntity
  8
0
100
AcDbLine
 62
7
  6
CONTINUOUS
 10
5.0501708433
 20
5.7599487673
 11
5.1252703182
 21
5.6298726613
  0
LINE
  5
398
100
AcDbEntity
  8
0
100
AcDbLine
 62
7
  6
CONTINUOUS
 10
5.502462697
 20
4.9798726613
 11
5.4273632222
 21
5.1099487673
  0
LINE
  5
399
100
AcDbEntity
  8
0
100
AcDbLine
 62
7
  6
CONTINUOUS
 10
5.6871708433
 20
4.7599487673
 11
5.7622703182
 21
4.6298726613
  0
LINE
  5
39A
100
AcDbEntity
  8
0
100
AcDbLine
 62
7
  6
CONTINUOUS
 10
6.139462697
 20
3.9798726613
 11
6.0643632222
 21
4.1099487673
  0
LINE
  5
39B
100
AcDbEntity
  8
0
100
AcDbLine
 62
7
  6
CONTINUOUS
 10
6.3241708433
 20
3.7599487673
 11
6.3992703182
 21
3.6298726613
  0
LINE
  5
39C
100
AcDbEntity
  8
0
100
AcDbLine
 62
7
  6
CONTINUOUS
 10
5.3776708433
 20
5.5049487673
 11
5.4527703182
 21
5.3748726613
  0
LINE
  5
39D
100
AcDbEntity
  8
0
100
AcDbLine
 62
7
  6
CONTINUOUS
 10
5.829962697
 20
4.7248726613
 11
5.7548632222
 21
4.8549487673
  0
LINE
  5
39E
100
AcDbEntity
  8
0
100
AcDbLine
 62
7
  6
CONTINUOUS
 10
6.0897703182
 20
3.8549487673
 11
6.0146708433
 21
3.7248726613
  0
LINE
  5
39F
100
AcDbEntity
  8
0
100
AcDbLine
 62
7
  6
CONTINUOUS
 10
5.4273632222
 20
2.6298726613
 11
5.502462697
 21
2.7599487673
  0
LINE
  5
3A0
100
AcDbEntity
  8
0
100
AcDbLine
 62
7
  6
CONTINUOUS
 10
5.7622703182
 20
3.1099487673
 11
5.6871708433
 21
2.9798726613
  0
LINE
  5
3A1
100
AcDbEntity
  8
0
100
AcDbLine
 62
7
  6
CONTINUOUS
 10
6.0643632222
 20
3.6298726613
 11
6.139462697
 21
3.7599487673
  0
LINE
  5
3A2
100
AcDbEntity
  8
0
100
AcDbLine
 62
7
  6
CONTINUOUS
 10
6.3992703182
 20
4.1099487673
 11
6.3241708433
 21
3.9798726613
  0
LINE
  5
3A3
100
AcDbEntity
  8
0
100
AcDbLine
 62
7
  6
CONTINUOUS
 10
3.449416245
 20
5.5149107143
 11
3.2992172954
 21
5.5149107143
  0
LINE
  5
3A4
100
AcDbEntity
  8
0
100
AcDbLine
 62
7
  6
CONTINUOUS
 10
3.9362172954
 20
5.5149107143
 11
4.086416245
 21
5.5149107143
  0
LINE
  5
3A5
100
AcDbEntity
  8
0
100
AcDbLine
 62
7
  6
CONTINUOUS
 10
4.5732172954
 20
5.5149107143
 11
4.723416245
 21
5.5149107143
  0
LINE
  5
3A6
100
AcDbEntity
  8
0
100
AcDbLine
 62
7
  6
CONTINUOUS
 10
5.2102172954
 20
5.5149107143
 11
5.360416245
 21
5.5149107143
  0
LINE
  5
3A7
100
AcDbEntity
  8
0
100
AcDbLine
 62
7
  6
CONTINUOUS
 10
5.8472172954
 20
5.5149107143
 11
5.997416245
 21
5.5149107143
  0
LINE
  5
3A8
100
AcDbEntity
  8
0
100
AcDbLine
 62
7
  6
CONTINUOUS
 10
6.0146708433
 20
4.5049487673
 11
6.0897703182
 21
4.3748726613
  0
LINE
  5
3A9
100
AcDbEntity
  8
0
100
AcDbLine
 62
7
  6
CONTINUOUS
 10
5.502462697
 20
5.4798726613
 11
5.4273632222
 21
5.6099487673
  0
LINE
  5
3AA
100
AcDbEntity
  8
0
100
AcDbLine
 62
7
  6
CONTINUOUS
 10
5.6871708433
 20
5.2599487673
 11
5.7622703182
 21
5.1298726613
  0
LINE
  5
3AB
100
AcDbEntity
  8
0
100
AcDbLine
 62
7
  6
CONTINUOUS
 10
6.139462697
 20
4.4798726613
 11
6.0643632222
 21
4.6099487673
  0
LINE
  5
3AC
100
AcDbEntity
  8
0
100
AcDbLine
 62
7
  6
CONTINUOUS
 10
6.3241708433
 20
4.2599487673
 11
6.3992703182
 21
4.1298726613
  0
LINE
  5
3AD
100
AcDbEntity
  8
0
100
AcDbLine
 62
7
  6
CONTINUOUS
 10
5.7548632222
 20
2.8748726613
 11
5.829962697
 21
3.0049487673
  0
LINE
  5
3AE
100
AcDbEntity
  8
0
100
AcDbLine
 62
7
  6
CONTINUOUS
 10
6.0897703182
 20
3.3549487673
 11
6.0146708433
 21
3.2248726613
  0
LINE
  5
3AF
100
AcDbEntity
  8
0
100
AcDbLine
 62
7
  6
CONTINUOUS
 10
5.7622703182
 20
2.6099487673
 11
5.6871708433
 21
2.4798726613
  0
LINE
  5
3B0
100
AcDbEntity
  8
0
100
AcDbLine
 62
7
  6
CONTINUOUS
 10
6.0643632222
 20
3.1298726613
 11
6.139462697
 21
3.2599487673
  0
LINE
  5
3B1
100
AcDbEntity
  8
0
100
AcDbLine
 62
7
  6
CONTINUOUS
 10
3.121916245
 20
5.7699107143
 11
2.9717172954
 21
5.7699107143
  0
LINE
  5
3B2
100
AcDbEntity
  8
0
100
AcDbLine
 62
7
  6
CONTINUOUS
 10
3.6087172954
 20
5.7699107143
 11
3.758916245
 21
5.7699107143
  0
LINE
  5
3B3
100
AcDbEntity
  8
0
100
AcDbLine
 62
7
  6
CONTINUOUS
 10
4.2457172954
 20
5.7699107143
 11
4.395916245
 21
5.7699107143
  0
LINE
  5
3B4
100
AcDbEntity
  8
0
100
AcDbLine
 62
7
  6
CONTINUOUS
 10
4.8827172954
 20
5.7699107143
 11
5.032916245
 21
5.7699107143
  0
LINE
  5
3B5
100
AcDbEntity
  8
0
100
AcDbLine
 62
7
  6
CONTINUOUS
 10
5.5197172954
 20
5.7699107143
 11
5.669916245
 21
5.7699107143
  0
LINE
  5
3B6
100
AcDbEntity
  8
0
100
AcDbLine
 62
7
  6
CONTINUOUS
 10
6.1567172954
 20
5.7699107143
 11
6.306916245
 21
5.7699107143
  0
LINE
  5
3B7
100
AcDbEntity
  8
0
100
AcDbLine
 62
7
  6
CONTINUOUS
 10
5.829962697
 20
5.2248726613
 11
5.7548632222
 21
5.3549487673
  0
LINE
  5
3B8
100
AcDbEntity
  8
0
100
AcDbLine
 62
7
  6
CONTINUOUS
 10
6.0146708433
 20
5.0049487673
 11
6.0897703182
 21
4.8748726613
  0
LINE
  5
3B9
100
AcDbEntity
  8
0
100
AcDbLine
 62
7
  6
CONTINUOUS
 10
5.6871708433
 20
5.7599487673
 11
5.7622703182
 21
5.6298726613
  0
LINE
  5
3BA
100
AcDbEntity
  8
0
100
AcDbLine
 62
7
  6
CONTINUOUS
 10
6.139462697
 20
4.9798726613
 11
6.0643632222
 21
5.1099487673
  0
LINE
  5
3BB
100
AcDbEntity
  8
0
100
AcDbLine
 62
7
  6
CONTINUOUS
 10
6.3992703182
 20
3.6099487673
 11
6.3241708433
 21
3.4798726613
  0
LINE
  5
3BC
100
AcDbEntity
  8
0
100
AcDbLine
 62
7
  6
CONTINUOUS
 10
6.0897703182
 20
2.8549487673
 11
6.0146708433
 21
2.7248726613
  0
LINE
  5
3BD
100
AcDbEntity
  8
0
100
AcDbLine
 62
7
  6
CONTINUOUS
 10
6.3241708433
 20
4.7599487673
 11
6.3992703182
 21
4.6298726613
  0
LINE
  5
3BE
100
AcDbEntity
  8
0
100
AcDbLine
 62
7
  6
CONTINUOUS
 10
6.0146708433
 20
5.5049487673
 11
6.0897703182
 21
5.3748726613
  0
LINE
  5
3BF
100
AcDbEntity
  8
0
100
AcDbLine
 62
7
  6
CONTINUOUS
 10
6.6693167702
 20
2.1749107143
 11
6.6693167702
 21
6.0599107143
  0
LINE
  5
3C0
100
AcDbEntity
  8
0
100
AcDbLine
 62
7
  6
CONTINUOUS
 10
6.0643632222
 20
2.6298726613
 11
6.139462697
 21
2.7599487673
  0
LINE
  5
3C1
100
AcDbEntity
  8
0
100
AcDbLine
 62
7
  6
CONTINUOUS
 10
6.3992703182
 20
3.1099487673
 11
6.3241708433
 21
2.9798726613
  0
LINE
  5
3C2
100
AcDbEntity
  8
0
100
AcDbLine
 62
7
  6
CONTINUOUS
 10
6.5893167702
 20
6.1399107143
 11
2.7043167702
 21
6.1399107143
  0
LINE
  5
3C3
100
AcDbEntity
  8
0
100
AcDbLine
 62
7
  6
CONTINUOUS
 10
6.139462697
 20
5.4798726613
 11
6.0643632222
 21
5.6099487673
  0
LINE
  5
3C4
100
AcDbEntity
  8
0
100
AcDbLine
 62
7
  6
CONTINUOUS
 10
6.3241708433
 20
5.2599487673
 11
6.3992703182
 21
5.1298726613
  0
LINE
  5
3C5
100
AcDbEntity
  8
0
100
AcDbLine
 62
7
  6
CONTINUOUS
 10
6.3992703182
 20
2.6099487673
 11
6.3241708433
 21
2.4798726613
  0
LINE
  5
3C6
100
AcDbEntity
  8
0
100
AcDbLine
 62
7
  6
CONTINUOUS
 10
6.3241708433
 20
5.7599487673
 11
6.3992703182
 21
5.6298726613
  0
ARC
  5
3C7
100
AcDbEntity
  8
0
100
AcDbCircle
 62
7
  6
CONTINUOUS
 10
2.7043167702
 20
2.1749107143
 40
0.08
100
AcDbArc
 50
180.0
 51
270.0
  0
ARC
  5
3C8
100
AcDbEntity
  8
0
100
AcDbCircle
 62
7
  6
CONTINUOUS
 10
2.7043167702
 20
6.0599107143
 40
0.08
100
AcDbArc
 50
90.0
 51
180.0
  0
ARC
  5
3C9
100
AcDbEntity
  8
0
100
AcDbCircle
 62
7
  6
CONTINUOUS
 10
6.5893167702
 20
6.0599107143
 40
0.08
100
AcDbArc
 50
0.0
 51
90.0
  0
ARC
  5
3CA
100
AcDbEntity
  8
0
100
AcDbCircle
 62
7
  6
CONTINUOUS
 10
6.5893167702
 20
2.1749107143
 40
0.08
100
AcDbArc
 50
270.0
 51
360.0
  0
ELLIPSE
  5
3CB
100
AcDbEntity
  8
0
100
AcDbEllipse
 62
7
  6
CONTINUOUS
 10
6.1568053429
 20
2.489987111
 30
0.0
 11
0.0100508989
 21
0.0174086676
 31
0.0
 40
0.9949358851
 41
-3.6629958269
 42
-2.6201894802
  0
ELLIPSE
  5
3CC
100
AcDbEntity
  8
0
100
AcDbEllipse
 62
7
  6
CONTINUOUS
 10
6.3068281975
 20
2.489987111
 30
0.0
 11
-0.0100508989
 21
0.0174086676
 31
0.0
 40
0.9949358851
 41
-3.6629958269
 42
-2.6201894802
  0
ELLIPSE
  5
3CD
100
AcDbEntity
  8
0
100
AcDbEllipse
 62
7
  6
CONTINUOUS
 10
6.3818396248
 20
2.6199107143
 30
0.0
 11
0.0201017978
 21
-0.0
 31
0.0
 40
0.9949358851
 41
-0.5214031734
 42
0.5214031734
  0
ELLIPSE
  5
3CE
100
AcDbEntity
  8
0
100
AcDbEllipse
 62
7
  6
CONTINUOUS
 10
6.3068281975
 20
2.7498343175
 30
0.0
 11
0.0100508989
 21
0.0174086676
 31
0.0
 40
0.9949358851
 41
-0.5214031734
 42
0.5214031734
  0
ELLIPSE
  5
3CF
100
AcDbEntity
  8
0
100
AcDbEllipse
 62
7
  6
CONTINUOUS
 10
6.1568053429
 20
2.7498343175
 30
0.0
 11
-0.0100508989
 21
0.0174086676
 31
0.0
 40
0.9949358851
 41
-0.5214031734
 42
0.5214031734
  0
ELLIPSE
  5
3D0
100
AcDbEntity
  8
0
100
AcDbEllipse
 62
7
  6
CONTINUOUS
 10
6.0817939156
 20
2.6199107143
 30
0.0
 11
0.0201017978
 21
0.0
 31
0.0
 40
0.9949358851
 41
2.6201894802
 42
3.6629958269
  0
ELLIPSE
  5
3D1
100
AcDbEntity
  8
0
100
AcDbEllipse
 62
7
  6
CONTINUOUS
 10
5.5198053429
 20
2.489987111
 30
0.0
 11
0.0100508989
 21
0.0174086676
 31
0.0
 40
0.9949358851
 41
-3.6629958269
 42
-2.6201894802
  0
ELLIPSE
  5
3D2
100
AcDbEntity
  8
0
100
AcDbEllipse
 62
7
  6
CONTINUOUS
 10
5.6698281975
 20
2.489987111
 30
0.0
 11
-0.0100508989
 21
0.0174086676
 31
0.0
 40
0.9949358851
 41
-3.6629958269
 42
-2.6201894802
  0
ELLIPSE
  5
3D3
100
AcDbEntity
  8
0
100
AcDbEllipse
 62
7
  6
CONTINUOUS
 10
5.7448396248
 20
2.6199107143
 30
0.0
 11
0.0201017978
 21
-0.0
 31
0.0
 40
0.9949358851
 41
-0.5214031734
 42
0.5214031734
  0
ELLIPSE
  5
3D4
100
AcDbEntity
  8
0
100
AcDbEllipse
 62
7
  6
CONTINUOUS
 10
5.6698281975
 20
2.7498343175
 30
0.0
 11
0.0100508989
 21
0.0174086676
 31
0.0
 40
0.9949358851
 41
-0.5214031734
 42
0.5214031734
  0
ELLIPSE
  5
3D5
100
AcDbEntity
  8
0
100
AcDbEllipse
 62
7
  6
CONTINUOUS
 10
5.5198053429
 20
2.7498343175
 30
0.0
 11
-0.0100508989
 21
0.0174086676
 31
0.0
 40
0.9949358851
 41
-0.5214031734
 42
0.5214031734
  0
ELLIPSE
  5
3D6
100
AcDbEntity
  8
0
100
AcDbEllipse
 62
7
  6
CONTINUOUS
 10
5.4447939156
 20
2.6199107143
 30
0.0
 11
0.0201017978
 21
-0.0
 31
0.0
 40
0.9949358851
 41
2.6201894802
 42
3.6629958269
  0
ELLIPSE
  5
3D7
100
AcDbEntity
  8
0
100
AcDbEllipse
 62
7
  6
CONTINUOUS
 10
4.8828053429
 20
2.489987111
 30
0.0
 11
0.0100508989
 21
0.0174086676
 31
0.0
 40
0.9949358851
 41
-3.6629958269
 42
-2.6201894802
  0
ELLIPSE
  5
3D8
100
AcDbEntity
  8
0
100
AcDbEllipse
 62
7
  6
CONTINUOUS
 10
5.0328281975
 20
2.489987111
 30
0.0
 11
-0.0100508989
 21
0.0174086676
 31
0.0
 40
0.9949358851
 41
-3.6629958269
 42
-2.6201894802
  0
ELLIPSE
  5
3D9
100
AcDbEntity
  8
0
100
AcDbEllipse
 62
7
  6
CONTINUOUS
 10
5.1078396248
 20
2.6199107143
 30
0.0
 11
0.0201017978
 21
-0.0
 31
0.0
 40
0.9949358851
 41
-0.5214031734
 42
0.5214031734
  0
ELLIPSE
  5
3DA
100
AcDbEntity
  8
0
100
AcDbEllipse
 62
7
  6
CONTINUOUS
 10
5.0328281975
 20
2.7498343175
 30
0.0
 11
0.0100508989
 21
0.0174086676
 31
0.0
 40
0.9949358851
 41
-0.5214031734
 42
0.5214031734
  0
ELLIPSE
  5
3DB
100
AcDbEntity
  8
0
100
AcDbEllipse
 62
7
  6
CONTINUOUS
 10
4.8828053429
 20
2.7498343175
 30
0.0
 11
-0.0100508989
 21
0.0174086676
 31
0.0
 40
0.9949358851
 41
-0.5214031734
 42
0.5214031734
  0
ELLIPSE
  5
3DC
100
AcDbEntity
  8
0
100
AcDbEllipse
 62
7
  6
CONTINUOUS
 10
4.8077939156
 20
2.6199107143
 30
0.0
 11
0.0201017978
 21
0.0
 31
0.0
 40
0.9949358851
 41
2.6201894802
 42
3.6629958269
  0
ELLIPSE
  5
3DD
100
AcDbEntity
  8
0
100
AcDbEllipse
 62
7
  6
CONTINUOUS
 10
4.2458053429
 20
2.489987111
 30
0.0
 11
0.0100508989
 21
0.0174086676
 31
0.0
 40
0.9949358851
 41
-3.6629958269
 42
-2.6201894802
  0
ELLIPSE
  5
3DE
100
AcDbEntity
  8
0
100
AcDbEllipse
 62
7
  6
CONTINUOUS
 10
4.3958281975
 20
2.489987111
 30
0.0
 11
-0.0100508989
 21
0.0174086676
 31
0.0
 40
0.9949358851
 41
-3.6629958269
 42
-2.6201894802
  0
ELLIPSE
  5
3DF
100
AcDbEntity
  8
0
100
AcDbEllipse
 62
7
  6
CONTINUOUS
 10
4.4708396248
 20
2.6199107143
 30
0.0
 11
0.0201017978
 21
0.0
 31
0.0
 40
0.9949358851
 41
-0.5214031734
 42
0.5214031734
  0
ELLIPSE
  5
3E0
100
AcDbEntity
  8
0
100
AcDbEllipse
 62
7
  6
CONTINUOUS
 10
4.3958281975
 20
2.7498343175
 30
0.0
 11
0.0100508989
 21
0.0174086676
 31
0.0
 40
0.9949358851
 41
-0.5214031734
 42
0.5214031734
  0
ELLIPSE
  5
3E1
100
AcDbEntity
  8
0
100
AcDbEllipse
 62
7
  6
CONTINUOUS
 10
4.2458053429
 20
2.7498343175
 30
0.0
 11
-0.0100508989
 21
0.0174086676
 31
0.0
 40
0.9949358851
 41
-0.5214031734
 42
0.5214031734
  0
ELLIPSE
  5
3E2
100
AcDbEntity
  8
0
100
AcDbEllipse
 62
7
  6
CONTINUOUS
 10
4.1707939156
 20
2.6199107143
 30
0.0
 11
0.0201017978
 21
0.0
 31
0.0
 40
0.9949358851
 41
2.6201894802
 42
3.6629958269
  0
ELLIPSE
  5
3E3
100
AcDbEntity
  8
0
100
AcDbEllipse
 62
7
  6
CONTINUOUS
 10
3.6088053429
 20
2.489987111
 30
0.0
 11
0.0100508989
 21
0.0174086676
 31
0.0
 40
0.9949358851
 41
-3.6629958269
 42
-2.6201894802
  0
ELLIPSE
  5
3E4
100
AcDbEntity
  8
0
100
AcDbEllipse
 62
7
  6
CONTINUOUS
 10
3.7588281975
 20
2.489987111
 30
0.0
 11
-0.0100508989
 21
0.0174086676
 31
0.0
 40
0.9949358851
 41
-3.6629958269
 42
-2.6201894802
  0
ELLIPSE
  5
3E5
100
AcDbEntity
  8
0
100
AcDbEllipse
 62
7
  6
CONTINUOUS
 10
3.8338396248
 20
2.6199107143
 30
0.0
 11
0.0201017978
 21
0.0
 31
0.0
 40
0.9949358851
 41
-0.5214031734
 42
0.5214031734
  0
ELLIPSE
  5
3E6
100
AcDbEntity
  8
0
100
AcDbEllipse
 62
7
  6
CONTINUOUS
 10
3.7588281975
 20
2.7498343175
 30
0.0
 11
0.0100508989
 21
0.0174086676
 31
0.0
 40
0.9949358851
 41
-0.5214031734
 42
0.5214031734
  0
ELLIPSE
  5
3E7
100
AcDbEntity
  8
0
100
AcDbEllipse
 62
7
  6
CONTINUOUS
 10
3.6088053429
 20
2.7498343175
 30
0.0
 11
-0.0100508989
 21
0.0174086676
 31
0.0
 40
0.9949358851
 41
-0.5214031734
 42
0.5214031734
  0
ELLIPSE
  5
3E8
100
AcDbEntity
  8
0
100
AcDbEllipse
 62
7
  6
CONTINUOUS
 10
3.5337939156
 20
2.6199107143
 30
0.0
 11
0.0201017978
 21
0.0
 31
0.0
 40
0.9949358851
 41
2.6201894802
 42
3.6629958269
  0
ELLIPSE
  5
3E9
100
AcDbEntity
  8
0
100
AcDbEllipse
 62
7
  6
CONTINUOUS
 10
2.9718053429
 20
2.489987111
 30
0.0
 11
0.0100508989
 21
0.0174086676
 31
0.0
 40
0.9949358851
 41
-3.6629958269
 42
-2.6201894802
  0
ELLIPSE
  5
3EA
100
AcDbEntity
  8
0
100
AcDbEllipse
 62
7
  6
CONTINUOUS
 10
3.1218281975
 20
2.489987111
 30
0.0
 11
-0.0100508989
 21
0.0174086676
 31
0.0
 40
0.9949358851
 41
-3.6629958269
 42
-2.6201894802
  0
ELLIPSE
  5
3EB
100
AcDbEntity
  8
0
100
AcDbEllipse
 62
7
  6
CONTINUOUS
 10
3.1968396248
 20
2.6199107143
 30
0.0
 11
0.0201017978
 21
-0.0
 31
0.0
 40
0.9949358851
 41
-0.5214031734
 42
0.5214031734
  0
ELLIPSE
  5
3EC
100
AcDbEntity
  8
0
100
AcDbEllipse
 62
7
  6
CONTINUOUS
 10
3.1218281975
 20
2.7498343175
 30
0.0
 11
0.0100508989
 21
0.0174086676
 31
0.0
 40
0.9949358851
 41
-0.5214031734
 42
0.5214031734
  0
ELLIPSE
  5
3ED
100
AcDbEntity
  8
0
100
AcDbEllipse
 62
7
  6
CONTINUOUS
 10
2.9718053429
 20
2.7498343175
 30
0.0
 11
-0.0100508989
 21
0.0174086676
 31
0.0
 40
0.9949358851
 41
-0.5214031734
 42
0.5214031734
  0
ELLIPSE
  5
3EE
100
AcDbEntity
  8
0
100
AcDbEllipse
 62
7
  6
CONTINUOUS
 10
2.8967939156
 20
2.6199107143
 30
0.0
 11
0.0201017978
 21
0.0
 31
0.0
 40
0.9949358851
 41
2.6201894802
 42
3.6629958269
  0
ELLIPSE
  5
3EF
100
AcDbEntity
  8
0
100
AcDbEllipse
 62
7
  6
CONTINUOUS
 10
6.1568053429
 20
2.989987111
 30
0.0
 11
0.0100508989
 21
0.0174086676
 31
0.0
 40
0.9949358851
 41
-3.6629958269
 42
-2.6201894802
  0
ELLIPSE
  5
3F0
100
AcDbEntity
  8
0
100
AcDbEllipse
 62
7
  6
CONTINUOUS
 10
6.3068281975
 20
2.989987111
 30
0.0
 11
-0.0100508989
 21
0.0174086676
 31
0.0
 40
0.9949358851
 41
-3.6629958269
 42
-2.6201894802
  0
ELLIPSE
  5
3F1
100
AcDbEntity
  8
0
100
AcDbEllipse
 62
7
  6
CONTINUOUS
 10
6.3818396248
 20
3.1199107143
 30
0.0
 11
0.0201017978
 21
0.0
 31
0.0
 40
0.9949358851
 41
-0.5214031734
 42
0.5214031734
  0
ELLIPSE
  5
3F2
100
AcDbEntity
  8
0
100
AcDbEllipse
 62
7
  6
CONTINUOUS
 10
6.3068281975
 20
3.2498343175
 30
0.0
 11
0.0100508989
 21
0.0174086676
 31
0.0
 40
0.9949358851
 41
-0.5214031734
 42
0.5214031734
  0
ELLIPSE
  5
3F3
100
AcDbEntity
  8
0
100
AcDbEllipse
 62
7
  6
CONTINUOUS
 10
6.1568053429
 20
3.2498343175
 30
0.0
 11
-0.0100508989
 21
0.0174086676
 31
0.0
 40
0.9949358851
 41
-0.5214031734
 42
0.5214031734
  0
ELLIPSE
  5
3F4
100
AcDbEntity
  8
0
100
AcDbEllipse
 62
7
  6
CONTINUOUS
 10
6.0817939156
 20
3.1199107143
 30
0.0
 11
0.0201017978
 21
-0.0
 31
0.0
 40
0.9949358851
 41
2.6201894802
 42
3.6629958269
  0
ELLIPSE
  5
3F5
100
AcDbEntity
  8
0
100
AcDbEllipse
 62
7
  6
CONTINUOUS
 10
5.5198053429
 20
2.989987111
 30
0.0
 11
0.0100508989
 21
0.0174086676
 31
0.0
 40
0.9949358851
 41
-3.6629958269
 42
-2.6201894802
  0
ELLIPSE
  5
3F6
100
AcDbEntity
  8
0
100
AcDbEllipse
 62
7
  6
CONTINUOUS
 10
5.6698281975
 20
2.989987111
 30
0.0
 11
-0.0100508989
 21
0.0174086676
 31
0.0
 40
0.9949358851
 41
-3.6629958269
 42
-2.6201894802
  0
ELLIPSE
  5
3F7
100
AcDbEntity
  8
0
100
AcDbEllipse
 62
7
  6
CONTINUOUS
 10
5.7448396248
 20
3.1199107143
 30
0.0
 11
0.0201017978
 21
-0.0
 31
0.0
 40
0.9949358851
 41
-0.5214031734
 42
0.5214031734
  0
ELLIPSE
  5
3F8
100
AcDbEntity
  8
0
100
AcDbEllipse
 62
7
  6
CONTINUOUS
 10
5.6698281975
 20
3.2498343175
 30
0.0
 11
0.0100508989
 21
0.0174086676
 31
0.0
 40
0.9949358851
 41
-0.5214031734
 42
0.5214031734
  0
ELLIPSE
  5
3F9
100
AcDbEntity
  8
0
100
AcDbEllipse
 62
7
  6
CONTINUOUS
 10
5.5198053429
 20
3.2498343175
 30
0.0
 11
-0.0100508989
 21
0.0174086676
 31
0.0
 40
0.9949358851
 41
-0.5214031734
 42
0.5214031734
  0
ELLIPSE
  5
3FA
100
AcDbEntity
  8
0
100
AcDbEllipse
 62
7
  6
CONTINUOUS
 10
5.4447939156
 20
3.1199107143
 30
0.0
 11
0.0201017978
 21
-0.0
 31
0.0
 40
0.9949358851
 41
2.6201894802
 42
3.6629958269
  0
ELLIPSE
  5
3FB
100
AcDbEntity
  8
0
100
AcDbEllipse
 62
7
  6
CONTINUOUS
 10
4.8828053429
 20
2.989987111
 30
0.0
 11
0.0100508989
 21
0.0174086676
 31
0.0
 40
0.9949358851
 41
-3.6629958269
 42
-2.6201894802
  0
ELLIPSE
  5
3FC
100
AcDbEntity
  8
0
100
AcDbEllipse
 62
7
  6
CONTINUOUS
 10
5.0328281975
 20
2.989987111
 30
0.0
 11
-0.0100508989
 21
0.0174086676
 31
0.0
 40
0.9949358851
 41
-3.6629958269
 42
-2.6201894802
  0
ELLIPSE
  5
3FD
100
AcDbEntity
  8
0
100
AcDbEllipse
 62
7
  6
CONTINUOUS
 10
5.1078396248
 20
3.1199107143
 30
0.0
 11
0.0201017978
 21
0.0
 31
0.0
 40
0.9949358851
 41
-0.5214031734
 42
0.5214031734
  0
ELLIPSE
  5
3FE
100
AcDbEntity
  8
0
100
AcDbEllipse
 62
7
  6
CONTINUOUS
 10
5.0328281975
 20
3.2498343175
 30
0.0
 11
0.0100508989
 21
0.0174086676
 31
0.0
 40
0.9949358851
 41
-0.5214031734
 42
0.5214031734
  0
ELLIPSE
  5
3FF
100
AcDbEntity
  8
0
100
AcDbEllipse
 62
7
  6
CONTINUOUS
 10
4.8828053429
 20
3.2498343175
 30
0.0
 11
-0.0100508989
 21
0.0174086676
 31
0.0
 40
0.9949358851
 41
-0.5214031734
 42
0.5214031734
  0
ELLIPSE
  5
400
100
AcDbEntity
  8
0
100
AcDbEllipse
 62
7
  6
CONTINUOUS
 10
4.8077939156
 20
3.1199107143
 30
0.0
 11
0.0201017978
 21
0.0
 31
0.0
 40
0.9949358851
 41
2.6201894802
 42
3.6629958269
  0
ELLIPSE
  5
401
100
AcDbEntity
  8
0
100
AcDbEllipse
 62
7
  6
CONTINUOUS
 10
4.2458053429
 20
2.989987111
 30
0.0
 11
0.0100508989
 21
0.0174086676
 31
0.0
 40
0.9949358851
 41
-3.6629958269
 42
-2.6201894802
  0
ELLIPSE
  5
402
100
AcDbEntity
  8
0
100
AcDbEllipse
 62
7
  6
CONTINUOUS
 10
4.3958281975
 20
2.989987111
 30
0.0
 11
-0.0100508989
 21
0.0174086676
 31
0.0
 40
0.9949358851
 41
-3.6629958269
 42
-2.6201894802
  0
ELLIPSE
  5
403
100
AcDbEntity
  8
0
100
AcDbEllipse
 62
7
  6
CONTINUOUS
 10
4.4708396248
 20
3.1199107143
 30
0.0
 11
0.0201017978
 21
0.0
 31
0.0
 40
0.9949358851
 41
-0.5214031734
 42
0.5214031734
  0
ELLIPSE
  5
404
100
AcDbEntity
  8
0
100
AcDbEllipse
 62
7
  6
CONTINUOUS
 10
4.3958281975
 20
3.2498343175
 30
0.0
 11
0.0100508989
 21
0.0174086676
 31
0.0
 40
0.9949358851
 41
-0.5214031734
 42
0.5214031734
  0
ELLIPSE
  5
405
100
AcDbEntity
  8
0
100
AcDbEllipse
 62
7
  6
CONTINUOUS
 10
4.2458053429
 20
3.2498343175
 30
0.0
 11
-0.0100508989
 21
0.0174086676
 31
0.0
 40
0.9949358851
 41
-0.5214031734
 42
0.5214031734
  0
ELLIPSE
  5
406
100
AcDbEntity
  8
0
100
AcDbEllipse
 62
7
  6
CONTINUOUS
 10
4.1707939156
 20
3.1199107143
 30
0.0
 11
0.0201017978
 21
0.0
 31
0.0
 40
0.9949358851
 41
2.6201894802
 42
3.6629958269
  0
ELLIPSE
  5
407
100
AcDbEntity
  8
0
100
AcDbEllipse
 62
7
  6
CONTINUOUS
 10
3.6088053429
 20
2.989987111
 30
0.0
 11
0.0100508989
 21
0.0174086676
 31
0.0
 40
0.9949358851
 41
-3.6629958269
 42
-2.6201894802
  0
ELLIPSE
  5
408
100
AcDbEntity
  8
0
100
AcDbEllipse
 62
7
  6
CONTINUOUS
 10
3.7588281975
 20
2.989987111
 30
0.0
 11
-0.0100508989
 21
0.0174086676
 31
0.0
 40
0.9949358851
 41
-3.6629958269
 42
-2.6201894802
  0
ELLIPSE
  5
409
100
AcDbEntity
  8
0
100
AcDbEllipse
 62
7
  6
CONTINUOUS
 10
3.8338396248
 20
3.1199107143
 30
0.0
 11
0.0201017978
 21
0.0
 31
0.0
 40
0.9949358851
 41
-0.5214031734
 42
0.5214031734
  0
ELLIPSE
  5
40A
100
AcDbEntity
  8
0
100
AcDbEllipse
 62
7
  6
CONTINUOUS
 10
3.7588281975
 20
3.2498343175
 30
0.0
 11
0.0100508989
 21
0.0174086676
 31
0.0
 40
0.9949358851
 41
-0.5214031734
 42
0.5214031734
  0
ELLIPSE
  5
40B
100
AcDbEntity
  8
0
100
AcDbEllipse
 62
7
  6
CONTINUOUS
 10
3.6088053429
 20
3.2498343175
 30
0.0
 11
-0.0100508989
 21
0.0174086676
 31
0.0
 40
0.9949358851
 41
-0.5214031734
 42
0.5214031734
  0
ELLIPSE
  5
40C
100
AcDbEntity
  8
0
100
AcDbEllipse
 62
7
  6
CONTINUOUS
 10
3.5337939156
 20
3.1199107143
 30
0.0
 11
0.0201017978
 21
0.0
 31
0.0
 40
0.9949358851
 41
2.6201894802
 42
3.6629958269
  0
ELLIPSE
  5
40D
100
AcDbEntity
  8
0
100
AcDbEllipse
 62
7
  6
CONTINUOUS
 10
2.9718053429
 20
2.989987111
 30
0.0
 11
0.0100508989
 21
0.0174086676
 31
0.0
 40
0.9949358851
 41
-3.6629958269
 42
-2.6201894802
  0
ELLIPSE
  5
40E
100
AcDbEntity
  8
0
100
AcDbEllipse
 62
7
  6
CONTINUOUS
 10
3.1218281975
 20
2.989987111
 30
0.0
 11
-0.0100508989
 21
0.0174086676
 31
0.0
 40
0.9949358851
 41
-3.6629958269
 42
-2.6201894802
  0
ELLIPSE
  5
40F
100
AcDbEntity
  8
0
100
AcDbEllipse
 62
7
  6
CONTINUOUS
 10
3.1968396248
 20
3.1199107143
 30
0.0
 11
0.0201017978
 21
-0.0
 31
0.0
 40
0.9949358851
 41
-0.5214031734
 42
0.5214031734
  0
ELLIPSE
  5
410
100
AcDbEntity
  8
0
100
AcDbEllipse
 62
7
  6
CONTINUOUS
 10
3.1218281975
 20
3.2498343175
 30
0.0
 11
0.0100508989
 21
0.0174086676
 31
0.0
 40
0.9949358851
 41
-0.5214031734
 42
0.5214031734
  0
ELLIPSE
  5
411
100
AcDbEntity
  8
0
100
AcDbEllipse
 62
7
  6
CONTINUOUS
 10
2.9718053429
 20
3.2498343175
 30
0.0
 11
-0.0100508989
 21
0.0174086676
 31
0.0
 40
0.9949358851
 41
-0.5214031734
 42
0.5214031734
  0
ELLIPSE
  5
412
100
AcDbEntity
  8
0
100
AcDbEllipse
 62
7
  6
CONTINUOUS
 10
2.8967939156
 20
3.1199107143
 30
0.0
 11
0.0201017978
 21
0.0
 31
0.0
 40
0.9949358851
 41
2.6201894802
 42
3.6629958269
  0
ELLIPSE
  5
413
100
AcDbEntity
  8
0
100
AcDbEllipse
 62
7
  6
CONTINUOUS
 10
6.1568053429
 20
3.489987111
 30
0.0
 11
0.0100508989
 21
0.0174086676
 31
0.0
 40
0.9949358851
 41
-3.6629958269
 42
-2.6201894802
  0
ELLIPSE
  5
414
100
AcDbEntity
  8
0
100
AcDbEllipse
 62
7
  6
CONTINUOUS
 10
6.3068281975
 20
3.489987111
 30
0.0
 11
-0.0100508989
 21
0.0174086676
 31
0.0
 40
0.9949358851
 41
-3.6629958269
 42
-2.6201894802
  0
ELLIPSE
  5
415
100
AcDbEntity
  8
0
100
AcDbEllipse
 62
7
  6
CONTINUOUS
 10
6.3818396248
 20
3.6199107143
 30
0.0
 11
0.0201017978
 21
0.0
 31
0.0
 40
0.9949358851
 41
-0.5214031734
 42
0.5214031734
  0
ELLIPSE
  5
416
100
AcDbEntity
  8
0
100
AcDbEllipse
 62
7
  6
CONTINUOUS
 10
6.3068281975
 20
3.7498343175
 30
0.0
 11
0.0100508989
 21
0.0174086676
 31
0.0
 40
0.9949358851
 41
-0.5214031734
 42
0.5214031734
  0
ELLIPSE
  5
417
100
AcDbEntity
  8
0
100
AcDbEllipse
 62
7
  6
CONTINUOUS
 10
6.1568053429
 20
3.7498343175
 30
0.0
 11
-0.0100508989
 21
0.0174086676
 31
0.0
 40
0.9949358851
 41
-0.5214031734
 42
0.5214031734
  0
ELLIPSE
  5
418
100
AcDbEntity
  8
0
100
AcDbEllipse
 62
7
  6
CONTINUOUS
 10
6.0817939156
 20
3.6199107143
 30
0.0
 11
0.0201017978
 21
0.0
 31
0.0
 40
0.9949358851
 41
2.6201894802
 42
3.6629958269
  0
ELLIPSE
  5
419
100
AcDbEntity
  8
0
100
AcDbEllipse
 62
7
  6
CONTINUOUS
 10
5.5198053429
 20
3.489987111
 30
0.0
 11
0.0100508989
 21
0.0174086676
 31
0.0
 40
0.9949358851
 41
-3.6629958269
 42
-2.6201894802
  0
ELLIPSE
  5
41A
100
AcDbEntity
  8
0
100
AcDbEllipse
 62
7
  6
CONTINUOUS
 10
5.6698281975
 20
3.489987111
 30
0.0
 11
-0.0100508989
 21
0.0174086676
 31
0.0
 40
0.9949358851
 41
-3.6629958269
 42
-2.6201894802
  0
ELLIPSE
  5
41B
100
AcDbEntity
  8
0
100
AcDbEllipse
 62
7
  6
CONTINUOUS
 10
5.7448396248
 20
3.6199107143
 30
0.0
 11
0.0201017978
 21
0.0
 31
0.0
 40
0.9949358851
 41
-0.5214031734
 42
0.5214031734
  0
ELLIPSE
  5
41C
100
AcDbEntity
  8
0
100
AcDbEllipse
 62
7
  6
CONTINUOUS
 10
5.6698281975
 20
3.7498343175
 30
0.0
 11
0.0100508989
 21
0.0174086676
 31
0.0
 40
0.9949358851
 41
-0.5214031734
 42
0.5214031734
  0
ELLIPSE
  5
41D
100
AcDbEntity
  8
0
100
AcDbEllipse
 62
7
  6
CONTINUOUS
 10
5.5198053429
 20
3.7498343175
 30
0.0
 11
-0.0100508989
 21
0.0174086676
 31
0.0
 40
0.9949358851
 41
-0.5214031734
 42
0.5214031734
  0
ELLIPSE
  5
41E
100
AcDbEntity
  8
0
100
AcDbEllipse
 62
7
  6
CONTINUOUS
 10
5.4447939156
 20
3.6199107143
 30
0.0
 11
0.0201017978
 21
0.0
 31
0.0
 40
0.9949358851
 41
2.6201894802
 42
3.6629958269
  0
ELLIPSE
  5
41F
100
AcDbEntity
  8
0
100
AcDbEllipse
 62
7
  6
CONTINUOUS
 10
4.8828053429
 20
3.489987111
 30
0.0
 11
0.0100508989
 21
0.0174086676
 31
0.0
 40
0.9949358851
 41
-3.6629958269
 42
-2.6201894802
  0
ELLIPSE
  5
420
100
AcDbEntity
  8
0
100
AcDbEllipse
 62
7
  6
CONTINUOUS
 10
5.0328281975
 20
3.489987111
 30
0.0
 11
-0.0100508989
 21
0.0174086676
 31
0.0
 40
0.9949358851
 41
-3.6629958269
 42
-2.6201894802
  0
ELLIPSE
  5
421
100
AcDbEntity
  8
0
100
AcDbEllipse
 62
7
  6
CONTINUOUS
 10
5.1078396248
 20
3.6199107143
 30
0.0
 11
0.0201017978
 21
-0.0
 31
0.0
 40
0.9949358851
 41
-0.5214031734
 42
0.5214031734
  0
ELLIPSE
  5
422
100
AcDbEntity
  8
0
100
AcDbEllipse
 62
7
  6
CONTINUOUS
 10
5.0328281975
 20
3.7498343175
 30
0.0
 11
0.0100508989
 21
0.0174086676
 31
0.0
 40
0.9949358851
 41
-0.5214031734
 42
0.5214031734
  0
ELLIPSE
  5
423
100
AcDbEntity
  8
0
100
AcDbEllipse
 62
7
  6
CONTINUOUS
 10
4.8828053429
 20
3.7498343175
 30
0.0
 11
-0.0100508989
 21
0.0174086676
 31
0.0
 40
0.9949358851
 41
-0.5214031734
 42
0.5214031734
  0
ELLIPSE
  5
424
100
AcDbEntity
  8
0
100
AcDbEllipse
 62
7
  6
CONTINUOUS
 10
4.8077939156
 20
3.6199107143
 30
0.0
 11
0.0201017978
 21
0.0
 31
0.0
 40
0.9949358851
 41
2.6201894802
 42
3.6629958269
  0
ELLIPSE
  5
425
100
AcDbEntity
  8
0
100
AcDbEllipse
 62
7
  6
CONTINUOUS
 10
4.2458053429
 20
3.489987111
 30
0.0
 11
0.0100508989
 21
0.0174086676
 31
0.0
 40
0.9949358851
 41
-3.6629958269
 42
-2.6201894802
  0
ELLIPSE
  5
426
100
AcDbEntity
  8
0
100
AcDbEllipse
 62
7
  6
CONTINUOUS
 10
4.3958281975
 20
3.489987111
 30
0.0
 11
-0.0100508989
 21
0.0174086676
 31
0.0
 40
0.9949358851
 41
-3.6629958269
 42
-2.6201894802
  0
ELLIPSE
  5
427
100
AcDbEntity
  8
0
100
AcDbEllipse
 62
7
  6
CONTINUOUS
 10
4.4708396248
 20
3.6199107143
 30
0.0
 11
0.0201017978
 21
-0.0
 31
0.0
 40
0.9949358851
 41
-0.5214031734
 42
0.5214031734
  0
ELLIPSE
  5
428
100
AcDbEntity
  8
0
100
AcDbEllipse
 62
7
  6
CONTINUOUS
 10
4.3958281975
 20
3.7498343175
 30
0.0
 11
0.0100508989
 21
0.0174086676
 31
0.0
 40
0.9949358851
 41
-0.5214031734
 42
0.5214031734
  0
ELLIPSE
  5
429
100
AcDbEntity
  8
0
100
AcDbEllipse
 62
7
  6
CONTINUOUS
 10
4.2458053429
 20
3.7498343175
 30
0.0
 11
-0.0100508989
 21
0.0174086676
 31
0.0
 40
0.9949358851
 41
-0.5214031734
 42
0.5214031734
  0
ELLIPSE
  5
42A
100
AcDbEntity
  8
0
100
AcDbEllipse
 62
7
  6
CONTINUOUS
 10
4.1707939156
 20
3.6199107143
 30
0.0
 11
0.0201017978
 21
0.0
 31
0.0
 40
0.9949358851
 41
2.6201894802
 42
3.6629958269
  0
ELLIPSE
  5
42B
100
AcDbEntity
  8
0
100
AcDbEllipse
 62
7
  6
CONTINUOUS
 10
3.6088053429
 20
3.489987111
 30
0.0
 11
0.0100508989
 21
0.0174086676
 31
0.0
 40
0.9949358851
 41
-3.6629958269
 42
-2.6201894802
  0
ELLIPSE
  5
42C
100
AcDbEntity
  8
0
100
AcDbEllipse
 62
7
  6
CONTINUOUS
 10
3.7588281975
 20
3.489987111
 30
0.0
 11
-0.0100508989
 21
0.0174086676
 31
0.0
 40
0.9949358851
 41
-3.6629958269
 42
-2.6201894802
  0
ELLIPSE
  5
42D
100
AcDbEntity
  8
0
100
AcDbEllipse
 62
7
  6
CONTINUOUS
 10
3.8338396248
 20
3.6199107143
 30
0.0
 11
0.0201017978
 21
0.0
 31
0.0
 40
0.9949358851
 41
-0.5214031734
 42
0.5214031734
  0
ELLIPSE
  5
42E
100
AcDbEntity
  8
0
100
AcDbEllipse
 62
7
  6
CONTINUOUS
 10
3.7588281975
 20
3.7498343175
 30
0.0
 11
0.0100508989
 21
0.0174086676
 31
0.0
 40
0.9949358851
 41
-0.5214031734
 42
0.5214031734
  0
ELLIPSE
  5
42F
100
AcDbEntity
  8
0
100
AcDbEllipse
 62
7
  6
CONTINUOUS
 10
3.6088053429
 20
3.7498343175
 30
0.0
 11
-0.0100508989
 21
0.0174086676
 31
0.0
 40
0.9949358851
 41
-0.5214031734
 42
0.5214031734
  0
ELLIPSE
  5
430
100
AcDbEntity
  8
0
100
AcDbEllipse
 62
7
  6
CONTINUOUS
 10
3.5337939156
 20
3.6199107143
 30
0.0
 11
0.0201017978
 21
0.0
 31
0.0
 40
0.9949358851
 41
2.6201894802
 42
3.6629958269
  0
ELLIPSE
  5
431
100
AcDbEntity
  8
0
100
AcDbEllipse
 62
7
  6
CONTINUOUS
 10
2.9718053429
 20
3.489987111
 30
0.0
 11
0.0100508989
 21
0.0174086676
 31
0.0
 40
0.9949358851
 41
-3.6629958269
 42
-2.6201894802
  0
ELLIPSE
  5
432
100
AcDbEntity
  8
0
100
AcDbEllipse
 62
7
  6
CONTINUOUS
 10
3.1218281975
 20
3.489987111
 30
0.0
 11
-0.0100508989
 21
0.0174086676
 31
0.0
 40
0.9949358851
 41
-3.6629958269
 42
-2.6201894802
  0
ELLIPSE
  5
433
100
AcDbEntity
  8
0
100
AcDbEllipse
 62
7
  6
CONTINUOUS
 10
3.1968396248
 20
3.6199107143
 30
0.0
 11
0.0201017978
 21
0.0
 31
0.0
 40
0.9949358851
 41
-0.5214031734
 42
0.5214031734
  0
ELLIPSE
  5
434
100
AcDbEntity
  8
0
100
AcDbEllipse
 62
7
  6
CONTINUOUS
 10
3.1218281975
 20
3.7498343175
 30
0.0
 11
0.0100508989
 21
0.0174086676
 31
0.0
 40
0.9949358851
 41
-0.5214031734
 42
0.5214031734
  0
ELLIPSE
  5
435
100
AcDbEntity
  8
0
100
AcDbEllipse
 62
7
  6
CONTINUOUS
 10
2.9718053429
 20
3.7498343175
 30
0.0
 11
-0.0100508989
 21
0.0174086676
 31
0.0
 40
0.9949358851
 41
-0.5214031734
 42
0.5214031734
  0
ELLIPSE
  5
436
100
AcDbEntity
  8
0
100
AcDbEllipse
 62
7
  6
CONTINUOUS
 10
2.8967939156
 20
3.6199107143
 30
0.0
 11
0.0201017978
 21
0.0
 31
0.0
 40
0.9949358851
 41
2.6201894802
 42
3.6629958269
  0
ELLIPSE
  5
437
100
AcDbEntity
  8
0
100
AcDbEllipse
 62
7
  6
CONTINUOUS
 10
6.1568053429
 20
3.989987111
 30
0.0
 11
0.0100508989
 21
0.0174086676
 31
0.0
 40
0.9949358851
 41
-3.6629958269
 42
-2.6201894802
  0
ELLIPSE
  5
438
100
AcDbEntity
  8
0
100
AcDbEllipse
 62
7
  6
CONTINUOUS
 10
6.3068281975
 20
3.989987111
 30
0.0
 11
-0.0100508989
 21
0.0174086676
 31
0.0
 40
0.9949358851
 41
-3.6629958269
 42
-2.6201894802
  0
ELLIPSE
  5
439
100
AcDbEntity
  8
0
100
AcDbEllipse
 62
7
  6
CONTINUOUS
 10
6.3818396248
 20
4.1199107143
 30
0.0
 11
0.0201017978
 21
-0.0
 31
0.0
 40
0.9949358851
 41
-0.5214031734
 42
0.5214031734
  0
ELLIPSE
  5
43A
100
AcDbEntity
  8
0
100
AcDbEllipse
 62
7
  6
CONTINUOUS
 10
6.3068281975
 20
4.2498343175
 30
0.0
 11
0.0100508989
 21
0.0174086676
 31
0.0
 40
0.9949358851
 41
-0.5214031734
 42
0.5214031734
  0
ELLIPSE
  5
43B
100
AcDbEntity
  8
0
100
AcDbEllipse
 62
7
  6
CONTINUOUS
 10
6.1568053429
 20
4.2498343175
 30
0.0
 11
-0.0100508989
 21
0.0174086676
 31
0.0
 40
0.9949358851
 41
-0.5214031734
 42
0.5214031734
  0
ELLIPSE
  5
43C
100
AcDbEntity
  8
0
100
AcDbEllipse
 62
7
  6
CONTINUOUS
 10
6.0817939156
 20
4.1199107143
 30
0.0
 11
0.0201017978
 21
-0.0
 31
0.0
 40
0.9949358851
 41
2.6201894802
 42
3.6629958269
  0
ELLIPSE
  5
43D
100
AcDbEntity
  8
0
100
AcDbEllipse
 62
7
  6
CONTINUOUS
 10
5.5198053429
 20
3.989987111
 30
0.0
 11
0.0100508989
 21
0.0174086676
 31
0.0
 40
0.9949358851
 41
-3.6629958269
 42
-2.6201894802
  0
ELLIPSE
  5
43E
100
AcDbEntity
  8
0
100
AcDbEllipse
 62
7
  6
CONTINUOUS
 10
5.6698281975
 20
3.989987111
 30
0.0
 11
-0.0100508989
 21
0.0174086676
 31
0.0
 40
0.9949358851
 41
-3.6629958269
 42
-2.6201894802
  0
ELLIPSE
  5
43F
100
AcDbEntity
  8
0
100
AcDbEllipse
 62
7
  6
CONTINUOUS
 10
5.7448396248
 20
4.1199107143
 30
0.0
 11
0.0201017978
 21
0.0
 31
0.0
 40
0.9949358851
 41
-0.5214031734
 42
0.5214031734
  0
ELLIPSE
  5
440
100
AcDbEntity
  8
0
100
AcDbEllipse
 62
7
  6
CONTINUOUS
 10
5.6698281975
 20
4.2498343175
 30
0.0
 11
0.0100508989
 21
0.0174086676
 31
0.0
 40
0.9949358851
 41
-0.5214031734
 42
0.5214031734
  0
ELLIPSE
  5
441
100
AcDbEntity
  8
0
100
AcDbEllipse
 62
7
  6
CONTINUOUS
 10
5.5198053429
 20
4.2498343175
 30
0.0
 11
-0.0100508989
 21
0.0174086676
 31
0.0
 40
0.9949358851
 41
-0.5214031734
 42
0.5214031734
  0
ELLIPSE
  5
442
100
AcDbEntity
  8
0
100
AcDbEllipse
 62
7
  6
CONTINUOUS
 10
5.4447939156
 20
4.1199107143
 30
0.0
 11
0.0201017978
 21
0.0
 31
0.0
 40
0.9949358851
 41
2.6201894802
 42
3.6629958269
  0
ELLIPSE
  5
443
100
AcDbEntity
  8
0
100
AcDbEllipse
 62
7
  6
CONTINUOUS
 10
4.8828053429
 20
3.989987111
 30
0.0
 11
0.0100508989
 21
0.0174086676
 31
0.0
 40
0.9949358851
 41
-3.6629958269
 42
-2.6201894802
  0
ELLIPSE
  5
444
100
AcDbEntity
  8
0
100
AcDbEllipse
 62
7
  6
CONTINUOUS
 10
5.0328281975
 20
3.989987111
 30
0.0
 11
-0.0100508989
 21
0.0174086676
 31
0.0
 40
0.9949358851
 41
-3.6629958269
 42
-2.6201894802
  0
ELLIPSE
  5
445
100
AcDbEntity
  8
0
100
AcDbEllipse
 62
7
  6
CONTINUOUS
 10
5.1078396248
 20
4.1199107143
 30
0.0
 11
0.0201017978
 21
0.0
 31
0.0
 40
0.9949358851
 41
-0.5214031734
 42
0.5214031734
  0
ELLIPSE
  5
446
100
AcDbEntity
  8
0
100
AcDbEllipse
 62
7
  6
CONTINUOUS
 10
5.0328281975
 20
4.2498343175
 30
0.0
 11
0.0100508989
 21
0.0174086676
 31
0.0
 40
0.9949358851
 41
-0.5214031734
 42
0.5214031734
  0
ELLIPSE
  5
447
100
AcDbEntity
  8
0
100
AcDbEllipse
 62
7
  6
CONTINUOUS
 10
4.8828053429
 20
4.2498343175
 30
0.0
 11
-0.0100508989
 21
0.0174086676
 31
0.0
 40
0.9949358851
 41
-0.5214031734
 42
0.5214031734
  0
ELLIPSE
  5
448
100
AcDbEntity
  8
0
100
AcDbEllipse
 62
7
  6
CONTINUOUS
 10
4.8077939156
 20
4.1199107143
 30
0.0
 11
0.0201017978
 21
-0.0
 31
0.0
 40
0.9949358851
 41
2.6201894802
 42
3.6629958269
  0
ELLIPSE
  5
449
100
AcDbEntity
  8
0
100
AcDbEllipse
 62
7
  6
CONTINUOUS
 10
4.2458053429
 20
3.989987111
 30
0.0
 11
0.0100508989
 21
0.0174086676
 31
0.0
 40
0.9949358851
 41
-3.6629958269
 42
-2.6201894802
  0
ELLIPSE
  5
44A
100
AcDbEntity
  8
0
100
AcDbEllipse
 62
7
  6
CONTINUOUS
 10
4.3958281975
 20
3.989987111
 30
0.0
 11
-0.0100508989
 21
0.0174086676
 31
0.0
 40
0.9949358851
 41
-3.6629958269
 42
-2.6201894802
  0
ELLIPSE
  5
44B
100
AcDbEntity
  8
0
100
AcDbEllipse
 62
7
  6
CONTINUOUS
 10
4.4708396248
 20
4.1199107143
 30
0.0
 11
0.0201017978
 21
0.0
 31
0.0
 40
0.9949358851
 41
-0.5214031734
 42
0.5214031734
  0
ELLIPSE
  5
44C
100
AcDbEntity
  8
0
100
AcDbEllipse
 62
7
  6
CONTINUOUS
 10
4.3958281975
 20
4.2498343175
 30
0.0
 11
0.0100508989
 21
0.0174086676
 31
0.0
 40
0.9949358851
 41
-0.5214031734
 42
0.5214031734
  0
ELLIPSE
  5
44D
100
AcDbEntity
  8
0
100
AcDbEllipse
 62
7
  6
CONTINUOUS
 10
4.2458053429
 20
4.2498343175
 30
0.0
 11
-0.0100508989
 21
0.0174086676
 31
0.0
 40
0.9949358851
 41
-0.5214031734
 42
0.5214031734
  0
ELLIPSE
  5
44E
100
AcDbEntity
  8
0
100
AcDbEllipse
 62
7
  6
CONTINUOUS
 10
4.1707939156
 20
4.1199107143
 30
0.0
 11
0.0201017978
 21
0.0
 31
0.0
 40
0.9949358851
 41
2.6201894802
 42
3.6629958269
  0
ELLIPSE
  5
44F
100
AcDbEntity
  8
0
100
AcDbEllipse
 62
7
  6
CONTINUOUS
 10
3.6088053429
 20
3.989987111
 30
0.0
 11
0.0100508989
 21
0.0174086676
 31
0.0
 40
0.9949358851
 41
-3.6629958269
 42
-2.6201894802
  0
ELLIPSE
  5
450
100
AcDbEntity
  8
0
100
AcDbEllipse
 62
7
  6
CONTINUOUS
 10
3.7588281975
 20
3.989987111
 30
0.0
 11
-0.0100508989
 21
0.0174086676
 31
0.0
 40
0.9949358851
 41
-3.6629958269
 42
-2.6201894802
  0
ELLIPSE
  5
451
100
AcDbEntity
  8
0
100
AcDbEllipse
 62
7
  6
CONTINUOUS
 10
3.8338396248
 20
4.1199107143
 30
0.0
 11
0.0201017978
 21
0.0
 31
0.0
 40
0.9949358851
 41
-0.5214031734
 42
0.5214031734
  0
ELLIPSE
  5
452
100
AcDbEntity
  8
0
100
AcDbEllipse
 62
7
  6
CONTINUOUS
 10
3.7588281975
 20
4.2498343175
 30
0.0
 11
0.0100508989
 21
0.0174086676
 31
0.0
 40
0.9949358851
 41
-0.5214031734
 42
0.5214031734
  0
ELLIPSE
  5
453
100
AcDbEntity
  8
0
100
AcDbEllipse
 62
7
  6
CONTINUOUS
 10
3.6088053429
 20
4.2498343175
 30
0.0
 11
-0.0100508989
 21
0.0174086676
 31
0.0
 40
0.9949358851
 41
-0.5214031734
 42
0.5214031734
  0
ELLIPSE
  5
454
100
AcDbEntity
  8
0
100
AcDbEllipse
 62
7
  6
CONTINUOUS
 10
3.5337939156
 20
4.1199107143
 30
0.0
 11
0.0201017978
 21
-0.0
 31
0.0
 40
0.9949358851
 41
2.6201894802
 42
3.6629958269
  0
ELLIPSE
  5
455
100
AcDbEntity
  8
0
100
AcDbEllipse
 62
7
  6
CONTINUOUS
 10
2.9718053429
 20
3.989987111
 30
0.0
 11
0.0100508989
 21
0.0174086676
 31
0.0
 40
0.9949358851
 41
-3.6629958269
 42
-2.6201894802
  0
ELLIPSE
  5
456
100
AcDbEntity
  8
0
100
AcDbEllipse
 62
7
  6
CONTINUOUS
 10
3.1218281975
 20
3.989987111
 30
0.0
 11
-0.0100508989
 21
0.0174086676
 31
0.0
 40
0.9949358851
 41
-3.6629958269
 42
-2.6201894802
  0
ELLIPSE
  5
457
100
AcDbEntity
  8
0
100
AcDbEllipse
 62
7
  6
CONTINUOUS
 10
3.1968396248
 20
4.1199107143
 30
0.0
 11
0.0201017978
 21
0.0
 31
0.0
 40
0.9949358851
 41
-0.5214031734
 42
0.5214031734
  0
ELLIPSE
  5
458
100
AcDbEntity
  8
0
100
AcDbEllipse
 62
7
  6
CONTINUOUS
 10
3.1218281975
 20
4.2498343175
 30
0.0
 11
0.0100508989
 21
0.0174086676
 31
0.0
 40
0.9949358851
 41
-0.5214031734
 42
0.5214031734
  0
ELLIPSE
  5
459
100
AcDbEntity
  8
0
100
AcDbEllipse
 62
7
  6
CONTINUOUS
 10
2.9718053429
 20
4.2498343175
 30
0.0
 11
-0.0100508989
 21
0.0174086676
 31
0.0
 40
0.9949358851
 41
-0.5214031734
 42
0.5214031734
  0
ELLIPSE
  5
45A
100
AcDbEntity
  8
0
100
AcDbEllipse
 62
7
  6
CONTINUOUS
 10
2.8967939156
 20
4.1199107143
 30
0.0
 11
0.0201017978
 21
0.0
 31
0.0
 40
0.9949358851
 41
2.6201894802
 42
3.6629958269
  0
ELLIPSE
  5
45B
100
AcDbEntity
  8
0
100
AcDbEllipse
 62
7
  6
CONTINUOUS
 10
6.1568053429
 20
4.489987111
 30
0.0
 11
0.0100508989
 21
0.0174086676
 31
0.0
 40
0.9949358851
 41
-3.6629958269
 42
-2.6201894802
  0
ELLIPSE
  5
45C
100
AcDbEntity
  8
0
100
AcDbEllipse
 62
7
  6
CONTINUOUS
 10
6.3068281975
 20
4.489987111
 30
0.0
 11
-0.0100508989
 21
0.0174086676
 31
0.0
 40
0.9949358851
 41
-3.6629958269
 42
-2.6201894802
  0
ELLIPSE
  5
45D
100
AcDbEntity
  8
0
100
AcDbEllipse
 62
7
  6
CONTINUOUS
 10
6.3818396248
 20
4.6199107143
 30
0.0
 11
0.0201017978
 21
-0.0
 31
0.0
 40
0.9949358851
 41
-0.5214031734
 42
0.5214031734
  0
ELLIPSE
  5
45E
100
AcDbEntity
  8
0
100
AcDbEllipse
 62
7
  6
CONTINUOUS
 10
6.3068281975
 20
4.7498343175
 30
0.0
 11
0.0100508989
 21
0.0174086676
 31
0.0
 40
0.9949358851
 41
-0.5214031734
 42
0.5214031734
  0
ELLIPSE
  5
45F
100
AcDbEntity
  8
0
100
AcDbEllipse
 62
7
  6
CONTINUOUS
 10
6.1568053429
 20
4.7498343175
 30
0.0
 11
-0.0100508989
 21
0.0174086676
 31
0.0
 40
0.9949358851
 41
-0.5214031734
 42
0.5214031734
  0
ELLIPSE
  5
460
100
AcDbEntity
  8
0
100
AcDbEllipse
 62
7
  6
CONTINUOUS
 10
6.0817939156
 20
4.6199107143
 30
0.0
 11
0.0201017978
 21
0.0
 31
0.0
 40
0.9949358851
 41
2.6201894802
 42
3.6629958269
  0
ELLIPSE
  5
461
100
AcDbEntity
  8
0
100
AcDbEllipse
 62
7
  6
CONTINUOUS
 10
5.5198053429
 20
4.489987111
 30
0.0
 11
0.0100508989
 21
0.0174086676
 31
0.0
 40
0.9949358851
 41
-3.6629958269
 42
-2.6201894802
  0
ELLIPSE
  5
462
100
AcDbEntity
  8
0
100
AcDbEllipse
 62
7
  6
CONTINUOUS
 10
5.6698281975
 20
4.489987111
 30
0.0
 11
-0.0100508989
 21
0.0174086676
 31
0.0
 40
0.9949358851
 41
-3.6629958269
 42
-2.6201894802
  0
ELLIPSE
  5
463
100
AcDbEntity
  8
0
100
AcDbEllipse
 62
7
  6
CONTINUOUS
 10
5.7448396248
 20
4.6199107143
 30
0.0
 11
0.0201017978
 21
0.0
 31
0.0
 40
0.9949358851
 41
-0.5214031734
 42
0.5214031734
  0
ELLIPSE
  5
464
100
AcDbEntity
  8
0
100
AcDbEllipse
 62
7
  6
CONTINUOUS
 10
5.6698281975
 20
4.7498343175
 30
0.0
 11
0.0100508989
 21
0.0174086676
 31
0.0
 40
0.9949358851
 41
-0.5214031734
 42
0.5214031734
  0
ELLIPSE
  5
465
100
AcDbEntity
  8
0
100
AcDbEllipse
 62
7
  6
CONTINUOUS
 10
5.5198053429
 20
4.7498343175
 30
0.0
 11
-0.0100508989
 21
0.0174086676
 31
0.0
 40
0.9949358851
 41
-0.5214031734
 42
0.5214031734
  0
ELLIPSE
  5
466
100
AcDbEntity
  8
0
100
AcDbEllipse
 62
7
  6
CONTINUOUS
 10
5.4447939156
 20
4.6199107143
 30
0.0
 11
0.0201017978
 21
0.0
 31
0.0
 40
0.9949358851
 41
2.6201894802
 42
3.6629958269
  0
ELLIPSE
  5
467
100
AcDbEntity
  8
0
100
AcDbEllipse
 62
7
  6
CONTINUOUS
 10
4.8828053429
 20
4.489987111
 30
0.0
 11
0.0100508989
 21
0.0174086676
 31
0.0
 40
0.9949358851
 41
-3.6629958269
 42
-2.6201894802
  0
ELLIPSE
  5
468
100
AcDbEntity
  8
0
100
AcDbEllipse
 62
7
  6
CONTINUOUS
 10
5.0328281975
 20
4.489987111
 30
0.0
 11
-0.0100508989
 21
0.0174086676
 31
0.0
 40
0.9949358851
 41
-3.6629958269
 42
-2.6201894802
  0
ELLIPSE
  5
469
100
AcDbEntity
  8
0
100
AcDbEllipse
 62
7
  6
CONTINUOUS
 10
5.1078396248
 20
4.6199107143
 30
0.0
 11
0.0201017978
 21
0.0
 31
0.0
 40
0.9949358851
 41
-0.5214031734
 42
0.5214031734
  0
ELLIPSE
  5
46A
100
AcDbEntity
  8
0
100
AcDbEllipse
 62
7
  6
CONTINUOUS
 10
5.0328281975
 20
4.7498343175
 30
0.0
 11
0.0100508989
 21
0.0174086676
 31
0.0
 40
0.9949358851
 41
-0.5214031734
 42
0.5214031734
  0
ELLIPSE
  5
46B
100
AcDbEntity
  8
0
100
AcDbEllipse
 62
7
  6
CONTINUOUS
 10
4.8828053429
 20
4.7498343175
 30
0.0
 11
-0.0100508989
 21
0.0174086676
 31
0.0
 40
0.9949358851
 41
-0.5214031734
 42
0.5214031734
  0
ELLIPSE
  5
46C
100
AcDbEntity
  8
0
100
AcDbEllipse
 62
7
  6
CONTINUOUS
 10
4.8077939156
 20
4.6199107143
 30
0.0
 11
0.0201017978
 21
0.0
 31
0.0
 40
0.9949358851
 41
2.6201894802
 42
3.6629958269
  0
ELLIPSE
  5
46D
100
AcDbEntity
  8
0
100
AcDbEllipse
 62
7
  6
CONTINUOUS
 10
4.2458053429
 20
4.489987111
 30
0.0
 11
0.0100508989
 21
0.0174086676
 31
0.0
 40
0.9949358851
 41
-3.6629958269
 42
-2.6201894802
  0
ELLIPSE
  5
46E
100
AcDbEntity
  8
0
100
AcDbEllipse
 62
7
  6
CONTINUOUS
 10
4.3958281975
 20
4.489987111
 30
0.0
 11
-0.0100508989
 21
0.0174086676
 31
0.0
 40
0.9949358851
 41
-3.6629958269
 42
-2.6201894802
  0
ELLIPSE
  5
46F
100
AcDbEntity
  8
0
100
AcDbEllipse
 62
7
  6
CONTINUOUS
 10
4.4708396248
 20
4.6199107143
 30
0.0
 11
0.0201017978
 21
-0.0
 31
0.0
 40
0.9949358851
 41
-0.5214031734
 42
0.5214031734
  0
ELLIPSE
  5
470
100
AcDbEntity
  8
0
100
AcDbEllipse
 62
7
  6
CONTINUOUS
 10
4.3958281975
 20
4.7498343175
 30
0.0
 11
0.0100508989
 21
0.0174086676
 31
0.0
 40
0.9949358851
 41
-0.5214031734
 42
0.5214031734
  0
ELLIPSE
  5
471
100
AcDbEntity
  8
0
100
AcDbEllipse
 62
7
  6
CONTINUOUS
 10
4.2458053429
 20
4.7498343175
 30
0.0
 11
-0.0100508989
 21
0.0174086676
 31
0.0
 40
0.9949358851
 41
-0.5214031734
 42
0.5214031734
  0
ELLIPSE
  5
472
100
AcDbEntity
  8
0
100
AcDbEllipse
 62
7
  6
CONTINUOUS
 10
4.1707939156
 20
4.6199107143
 30
0.0
 11
0.0201017978
 21
0.0
 31
0.0
 40
0.9949358851
 41
2.6201894802
 42
3.6629958269
  0
ELLIPSE
  5
473
100
AcDbEntity
  8
0
100
AcDbEllipse
 62
7
  6
CONTINUOUS
 10
3.6088053429
 20
4.489987111
 30
0.0
 11
0.0100508989
 21
0.0174086676
 31
0.0
 40
0.9949358851
 41
-3.6629958269
 42
-2.6201894802
  0
ELLIPSE
  5
474
100
AcDbEntity
  8
0
100
AcDbEllipse
 62
7
  6
CONTINUOUS
 10
3.7588281975
 20
4.489987111
 30
0.0
 11
-0.0100508989
 21
0.0174086676
 31
0.0
 40
0.9949358851
 41
-3.6629958269
 42
-2.6201894802
  0
ELLIPSE
  5
475
100
AcDbEntity
  8
0
100
AcDbEllipse
 62
7
  6
CONTINUOUS
 10
3.8338396248
 20
4.6199107143
 30
0.0
 11
0.0201017978
 21
0.0
 31
0.0
 40
0.9949358851
 41
-0.5214031734
 42
0.5214031734
  0
ELLIPSE
  5
476
100
AcDbEntity
  8
0
100
AcDbEllipse
 62
7
  6
CONTINUOUS
 10
3.7588281975
 20
4.7498343175
 30
0.0
 11
0.0100508989
 21
0.0174086676
 31
0.0
 40
0.9949358851
 41
-0.5214031734
 42
0.5214031734
  0
ELLIPSE
  5
477
100
AcDbEntity
  8
0
100
AcDbEllipse
 62
7
  6
CONTINUOUS
 10
3.6088053429
 20
4.7498343175
 30
0.0
 11
-0.0100508989
 21
0.0174086676
 31
0.0
 40
0.9949358851
 41
-0.5214031734
 42
0.5214031734
  0
ELLIPSE
  5
478
100
AcDbEntity
  8
0
100
AcDbEllipse
 62
7
  6
CONTINUOUS
 10
3.5337939156
 20
4.6199107143
 30
0.0
 11
0.0201017978
 21
0.0
 31
0.0
 40
0.9949358851
 41
2.6201894802
 42
3.6629958269
  0
ELLIPSE
  5
479
100
AcDbEntity
  8
0
100
AcDbEllipse
 62
7
  6
CONTINUOUS
 10
2.9718053429
 20
4.489987111
 30
0.0
 11
0.0100508989
 21
0.0174086676
 31
0.0
 40
0.9949358851
 41
-3.6629958269
 42
-2.6201894802
  0
ELLIPSE
  5
47A
100
AcDbEntity
  8
0
100
AcDbEllipse
 62
7
  6
CONTINUOUS
 10
3.1218281975
 20
4.489987111
 30
0.0
 11
-0.0100508989
 21
0.0174086676
 31
0.0
 40
0.9949358851
 41
-3.6629958269
 42
-2.6201894802
  0
ELLIPSE
  5
47B
100
AcDbEntity
  8
0
100
AcDbEllipse
 62
7
  6
CONTINUOUS
 10
3.1968396248
 20
4.6199107143
 30
0.0
 11
0.0201017978
 21
0.0
 31
0.0
 40
0.9949358851
 41
-0.5214031734
 42
0.5214031734
  0
ELLIPSE
  5
47C
100
AcDbEntity
  8
0
100
AcDbEllipse
 62
7
  6
CONTINUOUS
 10
3.1218281975
 20
4.7498343175
 30
0.0
 11
0.0100508989
 21
0.0174086676
 31
0.0
 40
0.9949358851
 41
-0.5214031734
 42
0.5214031734
  0
ELLIPSE
  5
47D
100
AcDbEntity
  8
0
100
AcDbEllipse
 62
7
  6
CONTINUOUS
 10
2.9718053429
 20
4.7498343175
 30
0.0
 11
-0.0100508989
 21
0.0174086676
 31
0.0
 40
0.9949358851
 41
-0.5214031734
 42
0.5214031734
  0
ELLIPSE
  5
47E
100
AcDbEntity
  8
0
100
AcDbEllipse
 62
7
  6
CONTINUOUS
 10
2.8967939156
 20
4.6199107143
 30
0.0
 11
0.0201017978
 21
0.0
 31
0.0
 40
0.9949358851
 41
2.6201894802
 42
3.6629958269
  0
ELLIPSE
  5
47F
100
AcDbEntity
  8
0
100
AcDbEllipse
 62
7
  6
CONTINUOUS
 10
6.1568053429
 20
4.989987111
 30
0.0
 11
0.0100508989
 21
0.0174086676
 31
0.0
 40
0.9949358851
 41
-3.6629958269
 42
-2.6201894802
  0
ELLIPSE
  5
480
100
AcDbEntity
  8
0
100
AcDbEllipse
 62
7
  6
CONTINUOUS
 10
6.3068281975
 20
4.989987111
 30
0.0
 11
-0.0100508989
 21
0.0174086676
 31
0.0
 40
0.9949358851
 41
-3.6629958269
 42
-2.6201894802
  0
ELLIPSE
  5
481
100
AcDbEntity
  8
0
100
AcDbEllipse
 62
7
  6
CONTINUOUS
 10
6.3818396248
 20
5.1199107143
 30
0.0
 11
0.0201017978
 21
0.0
 31
0.0
 40
0.9949358851
 41
-0.5214031734
 42
0.5214031734
  0
ELLIPSE
  5
482
100
AcDbEntity
  8
0
100
AcDbEllipse
 62
7
  6
CONTINUOUS
 10
6.3068281975
 20
5.2498343175
 30
0.0
 11
0.0100508989
 21
0.0174086676
 31
0.0
 40
0.9949358851
 41
-0.5214031734
 42
0.5214031734
  0
ELLIPSE
  5
483
100
AcDbEntity
  8
0
100
AcDbEllipse
 62
7
  6
CONTINUOUS
 10
6.1568053429
 20
5.2498343175
 30
0.0
 11
-0.0100508989
 21
0.0174086676
 31
0.0
 40
0.9949358851
 41
-0.5214031734
 42
0.5214031734
  0
ELLIPSE
  5
484
100
AcDbEntity
  8
0
100
AcDbEllipse
 62
7
  6
CONTINUOUS
 10
6.0817939156
 20
5.1199107143
 30
0.0
 11
0.0201017978
 21
-0.0
 31
0.0
 40
0.9949358851
 41
2.6201894802
 42
3.6629958269
  0
ELLIPSE
  5
485
100
AcDbEntity
  8
0
100
AcDbEllipse
 62
7
  6
CONTINUOUS
 10
5.5198053429
 20
4.989987111
 30
0.0
 11
0.0100508989
 21
0.0174086676
 31
0.0
 40
0.9949358851
 41
-3.6629958269
 42
-2.6201894802
  0
ELLIPSE
  5
486
100
AcDbEntity
  8
0
100
AcDbEllipse
 62
7
  6
CONTINUOUS
 10
5.6698281975
 20
4.989987111
 30
0.0
 11
-0.0100508989
 21
0.0174086676
 31
0.0
 40
0.9949358851
 41
-3.6629958269
 42
-2.6201894802
  0
ELLIPSE
  5
487
100
AcDbEntity
  8
0
100
AcDbEllipse
 62
7
  6
CONTINUOUS
 10
5.7448396248
 20
5.1199107143
 30
0.0
 11
0.0201017978
 21
0.0
 31
0.0
 40
0.9949358851
 41
-0.5214031734
 42
0.5214031734
  0
ELLIPSE
  5
488
100
AcDbEntity
  8
0
100
AcDbEllipse
 62
7
  6
CONTINUOUS
 10
5.6698281975
 20
5.2498343175
 30
0.0
 11
0.0100508989
 21
0.0174086676
 31
0.0
 40
0.9949358851
 41
-0.5214031734
 42
0.5214031734
  0
ELLIPSE
  5
489
100
AcDbEntity
  8
0
100
AcDbEllipse
 62
7
  6
CONTINUOUS
 10
5.5198053429
 20
5.2498343175
 30
0.0
 11
-0.0100508989
 21
0.0174086676
 31
0.0
 40
0.9949358851
 41
-0.5214031734
 42
0.5214031734
  0
ELLIPSE
  5
48A
100
AcDbEntity
  8
0
100
AcDbEllipse
 62
7
  6
CONTINUOUS
 10
5.4447939156
 20
5.1199107143
 30
0.0
 11
0.0201017978
 21
0.0
 31
0.0
 40
0.9949358851
 41
2.6201894802
 42
3.6629958269
  0
ELLIPSE
  5
48B
100
AcDbEntity
  8
0
100
AcDbEllipse
 62
7
  6
CONTINUOUS
 10
4.8828053429
 20
4.989987111
 30
0.0
 11
0.0100508989
 21
0.0174086676
 31
0.0
 40
0.9949358851
 41
-3.6629958269
 42
-2.6201894802
  0
ELLIPSE
  5
48C
100
AcDbEntity
  8
0
100
AcDbEllipse
 62
7
  6
CONTINUOUS
 10
5.0328281975
 20
4.989987111
 30
0.0
 11
-0.0100508989
 21
0.0174086676
 31
0.0
 40
0.9949358851
 41
-3.6629958269
 42
-2.6201894802
  0
ELLIPSE
  5
48D
100
AcDbEntity
  8
0
100
AcDbEllipse
 62
7
  6
CONTINUOUS
 10
5.1078396248
 20
5.1199107143
 30
0.0
 11
0.0201017978
 21
0.0
 31
0.0
 40
0.9949358851
 41
-0.5214031734
 42
0.5214031734
  0
ELLIPSE
  5
48E
100
AcDbEntity
  8
0
100
AcDbEllipse
 62
7
  6
CONTINUOUS
 10
5.0328281975
 20
5.2498343175
 30
0.0
 11
0.0100508989
 21
0.0174086676
 31
0.0
 40
0.9949358851
 41
-0.5214031734
 42
0.5214031734
  0
ELLIPSE
  5
48F
100
AcDbEntity
  8
0
100
AcDbEllipse
 62
7
  6
CONTINUOUS
 10
4.8828053429
 20
5.2498343175
 30
0.0
 11
-0.0100508989
 21
0.0174086676
 31
0.0
 40
0.9949358851
 41
-0.5214031734
 42
0.5214031734
  0
ELLIPSE
  5
490
100
AcDbEntity
  8
0
100
AcDbEllipse
 62
7
  6
CONTINUOUS
 10
4.8077939156
 20
5.1199107143
 30
0.0
 11
0.0201017978
 21
-0.0
 31
0.0
 40
0.9949358851
 41
2.6201894802
 42
3.6629958269
  0
ELLIPSE
  5
491
100
AcDbEntity
  8
0
100
AcDbEllipse
 62
7
  6
CONTINUOUS
 10
4.2458053429
 20
4.989987111
 30
0.0
 11
0.0100508989
 21
0.0174086676
 31
0.0
 40
0.9949358851
 41
-3.6629958269
 42
-2.6201894802
  0
ELLIPSE
  5
492
100
AcDbEntity
  8
0
100
AcDbEllipse
 62
7
  6
CONTINUOUS
 10
4.3958281975
 20
4.989987111
 30
0.0
 11
-0.0100508989
 21
0.0174086676
 31
0.0
 40
0.9949358851
 41
-3.6629958269
 42
-2.6201894802
  0
ELLIPSE
  5
493
100
AcDbEntity
  8
0
100
AcDbEllipse
 62
7
  6
CONTINUOUS
 10
4.4708396248
 20
5.1199107143
 30
0.0
 11
0.0201017978
 21
-0.0
 31
0.0
 40
0.9949358851
 41
-0.5214031734
 42
0.5214031734
  0
ELLIPSE
  5
494
100
AcDbEntity
  8
0
100
AcDbEllipse
 62
7
  6
CONTINUOUS
 10
4.3958281975
 20
5.2498343175
 30
0.0
 11
0.0100508989
 21
0.0174086676
 31
0.0
 40
0.9949358851
 41
-0.5214031734
 42
0.5214031734
  0
ELLIPSE
  5
495
100
AcDbEntity
  8
0
100
AcDbEllipse
 62
7
  6
CONTINUOUS
 10
4.2458053429
 20
5.2498343175
 30
0.0
 11
-0.0100508989
 21
0.0174086676
 31
0.0
 40
0.9949358851
 41
-0.5214031734
 42
0.5214031734
  0
ELLIPSE
  5
496
100
AcDbEntity
  8
0
100
AcDbEllipse
 62
7
  6
CONTINUOUS
 10
4.1707939156
 20
5.1199107143
 30
0.0
 11
0.0201017978
 21
0.0
 31
0.0
 40
0.9949358851
 41
2.6201894802
 42
3.6629958269
  0
ELLIPSE
  5
497
100
AcDbEntity
  8
0
100
AcDbEllipse
 62
7
  6
CONTINUOUS
 10
3.6088053429
 20
4.989987111
 30
0.0
 11
0.0100508989
 21
0.0174086676
 31
0.0
 40
0.9949358851
 41
-3.6629958269
 42
-2.6201894802
  0
ELLIPSE
  5
498
100
AcDbEntity
  8
0
100
AcDbEllipse
 62
7
  6
CONTINUOUS
 10
3.7588281975
 20
4.989987111
 30
0.0
 11
-0.0100508989
 21
0.0174086676
 31
0.0
 40
0.9949358851
 41
-3.6629958269
 42
-2.6201894802
  0
ELLIPSE
  5
499
100
AcDbEntity
  8
0
100
AcDbEllipse
 62
7
  6
CONTINUOUS
 10
3.8338396248
 20
5.1199107143
 30
0.0
 11
0.0201017978
 21
0.0
 31
0.0
 40
0.9949358851
 41
-0.5214031734
 42
0.5214031734
  0
ELLIPSE
  5
49A
100
AcDbEntity
  8
0
100
AcDbEllipse
 62
7
  6
CONTINUOUS
 10
3.7588281975
 20
5.2498343175
 30
0.0
 11
0.0100508989
 21
0.0174086676
 31
0.0
 40
0.9949358851
 41
-0.5214031734
 42
0.5214031734
  0
ELLIPSE
  5
49B
100
AcDbEntity
  8
0
100
AcDbEllipse
 62
7
  6
CONTINUOUS
 10
3.6088053429
 20
5.2498343175
 30
0.0
 11
-0.0100508989
 21
0.0174086676
 31
0.0
 40
0.9949358851
 41
-0.5214031734
 42
0.5214031734
  0
ELLIPSE
  5
49C
100
AcDbEntity
  8
0
100
AcDbEllipse
 62
7
  6
CONTINUOUS
 10
3.5337939156
 20
5.1199107143
 30
0.0
 11
0.0201017978
 21
0.0
 31
0.0
 40
0.9949358851
 41
2.6201894802
 42
3.6629958269
  0
ELLIPSE
  5
49D
100
AcDbEntity
  8
0
100
AcDbEllipse
 62
7
  6
CONTINUOUS
 10
2.9718053429
 20
4.989987111
 30
0.0
 11
0.0100508989
 21
0.0174086676
 31
0.0
 40
0.9949358851
 41
-3.6629958269
 42
-2.6201894802
  0
ELLIPSE
  5
49E
100
AcDbEntity
  8
0
100
AcDbEllipse
 62
7
  6
CONTINUOUS
 10
3.1218281975
 20
4.989987111
 30
0.0
 11
-0.0100508989
 21
0.0174086676
 31
0.0
 40
0.9949358851
 41
-3.6629958269
 42
-2.6201894802
  0
ELLIPSE
  5
49F
100
AcDbEntity
  8
0
100
AcDbEllipse
 62
7
  6
CONTINUOUS
 10
3.1968396248
 20
5.1199107143
 30
0.0
 11
0.0201017978
 21
-0.0
 31
0.0
 40
0.9949358851
 41
-0.5214031734
 42
0.5214031734
  0
ELLIPSE
  5
4A0
100
AcDbEntity
  8
0
100
AcDbEllipse
 62
7
  6
CONTINUOUS
 10
3.1218281975
 20
5.2498343175
 30
0.0
 11
0.0100508989
 21
0.0174086676
 31
0.0
 40
0.9949358851
 41
-0.5214031734
 42
0.5214031734
  0
ELLIPSE
  5
4A1
100
AcDbEntity
  8
0
100
AcDbEllipse
 62
7
  6
CONTINUOUS
 10
2.9718053429
 20
5.2498343175
 30
0.0
 11
-0.0100508989
 21
0.0174086676
 31
0.0
 40
0.9949358851
 41
-0.5214031734
 42
0.5214031734
  0
ELLIPSE
  5
4A2
100
AcDbEntity
  8
0
100
AcDbEllipse
 62
7
  6
CONTINUOUS
 10
2.8967939156
 20
5.1199107143
 30
0.0
 11
0.0201017978
 21
0.0
 31
0.0
 40
0.9949358851
 41
2.6201894802
 42
3.6629958269
  0
ELLIPSE
  5
4A3
100
AcDbEntity
  8
0
100
AcDbEllipse
 62
7
  6
CONTINUOUS
 10
6.1568053429
 20
5.489987111
 30
0.0
 11
0.0100508989
 21
0.0174086676
 31
0.0
 40
0.9949358851
 41
-3.6629958269
 42
-2.6201894802
  0
ELLIPSE
  5
4A4
100
AcDbEntity
  8
0
100
AcDbEllipse
 62
7
  6
CONTINUOUS
 10
6.3068281975
 20
5.489987111
 30
0.0
 11
-0.0100508989
 21
0.0174086676
 31
0.0
 40
0.9949358851
 41
-3.6629958269
 42
-2.6201894802
  0
ELLIPSE
  5
4A5
100
AcDbEntity
  8
0
100
AcDbEllipse
 62
7
  6
CONTINUOUS
 10
6.3818396248
 20
5.6199107143
 30
0.0
 11
0.0201017978
 21
-0.0
 31
0.0
 40
0.9949358851
 41
-0.5214031734
 42
0.5214031734
  0
ELLIPSE
  5
4A6
100
AcDbEntity
  8
0
100
AcDbEllipse
 62
7
  6
CONTINUOUS
 10
6.3068281975
 20
5.7498343175
 30
0.0
 11
0.0100508989
 21
0.0174086676
 31
0.0
 40
0.9949358851
 41
-0.5214031734
 42
0.5214031734
  0
ELLIPSE
  5
4A7
100
AcDbEntity
  8
0
100
AcDbEllipse
 62
7
  6
CONTINUOUS
 10
6.1568053429
 20
5.7498343175
 30
0.0
 11
-0.0100508989
 21
0.0174086676
 31
0.0
 40
0.9949358851
 41
-0.5214031734
 42
0.5214031734
  0
ELLIPSE
  5
4A8
100
AcDbEntity
  8
0
100
AcDbEllipse
 62
7
  6
CONTINUOUS
 10
6.0817939156
 20
5.6199107143
 30
0.0
 11
0.0201017978
 21
-0.0
 31
0.0
 40
0.9949358851
 41
2.6201894802
 42
3.6629958269
  0
ELLIPSE
  5
4A9
100
AcDbEntity
  8
0
100
AcDbEllipse
 62
7
  6
CONTINUOUS
 10
5.5198053429
 20
5.489987111
 30
0.0
 11
0.0100508989
 21
0.0174086676
 31
0.0
 40
0.9949358851
 41
-3.6629958269
 42
-2.6201894802
  0
ELLIPSE
  5
4AA
100
AcDbEntity
  8
0
100
AcDbEllipse
 62
7
  6
CONTINUOUS
 10
5.6698281975
 20
5.489987111
 30
0.0
 11
-0.0100508989
 21
0.0174086676
 31
0.0
 40
0.9949358851
 41
-3.6629958269
 42
-2.6201894802
  0
ELLIPSE
  5
4AB
100
AcDbEntity
  8
0
100
AcDbEllipse
 62
7
  6
CONTINUOUS
 10
5.7448396248
 20
5.6199107143
 30
0.0
 11
0.0201017978
 21
-0.0
 31
0.0
 40
0.9949358851
 41
-0.5214031734
 42
0.5214031734
  0
ELLIPSE
  5
4AC
100
AcDbEntity
  8
0
100
AcDbEllipse
 62
7
  6
CONTINUOUS
 10
5.6698281975
 20
5.7498343175
 30
0.0
 11
0.0100508989
 21
0.0174086676
 31
0.0
 40
0.9949358851
 41
-0.5214031734
 42
0.5214031734
  0
ELLIPSE
  5
4AD
100
AcDbEntity
  8
0
100
AcDbEllipse
 62
7
  6
CONTINUOUS
 10
5.5198053429
 20
5.7498343175
 30
0.0
 11
-0.0100508989
 21
0.0174086676
 31
0.0
 40
0.9949358851
 41
-0.5214031734
 42
0.5214031734
  0
ELLIPSE
  5
4AE
100
AcDbEntity
  8
0
100
AcDbEllipse
 62
7
  6
CONTINUOUS
 10
5.4447939156
 20
5.6199107143
 30
0.0
 11
0.0201017978
 21
0.0
 31
0.0
 40
0.9949358851
 41
2.6201894802
 42
3.6629958269
  0
ELLIPSE
  5
4AF
100
AcDbEntity
  8
0
100
AcDbEllipse
 62
7
  6
CONTINUOUS
 10
4.8828053429
 20
5.489987111
 30
0.0
 11
0.0100508989
 21
0.0174086676
 31
0.0
 40
0.9949358851
 41
-3.6629958269
 42
-2.6201894802
  0
ELLIPSE
  5
4B0
100
AcDbEntity
  8
0
100
AcDbEllipse
 62
7
  6
CONTINUOUS
 10
5.0328281975
 20
5.489987111
 30
0.0
 11
-0.0100508989
 21
0.0174086676
 31
0.0
 40
0.9949358851
 41
-3.6629958269
 42
-2.6201894802
  0
ELLIPSE
  5
4B1
100
AcDbEntity
  8
0
100
AcDbEllipse
 62
7
  6
CONTINUOUS
 10
5.1078396248
 20
5.6199107143
 30
0.0
 11
0.0201017978
 21
0.0
 31
0.0
 40
0.9949358851
 41
-0.5214031734
 42
0.5214031734
  0
ELLIPSE
  5
4B2
100
AcDbEntity
  8
0
100
AcDbEllipse
 62
7
  6
CONTINUOUS
 10
5.0328281975
 20
5.7498343175
 30
0.0
 11
0.0100508989
 21
0.0174086676
 31
0.0
 40
0.9949358851
 41
-0.5214031734
 42
0.5214031734
  0
ELLIPSE
  5
4B3
100
AcDbEntity
  8
0
100
AcDbEllipse
 62
7
  6
CONTINUOUS
 10
4.8828053429
 20
5.7498343175
 30
0.0
 11
-0.0100508989
 21
0.0174086676
 31
0.0
 40
0.9949358851
 41
-0.5214031734
 42
0.5214031734
  0
ELLIPSE
  5
4B4
100
AcDbEntity
  8
0
100
AcDbEllipse
 62
7
  6
CONTINUOUS
 10
4.8077939156
 20
5.6199107143
 30
0.0
 11
0.0201017978
 21
0.0
 31
0.0
 40
0.9949358851
 41
2.6201894802
 42
3.6629958269
  0
ELLIPSE
  5
4B5
100
AcDbEntity
  8
0
100
AcDbEllipse
 62
7
  6
CONTINUOUS
 10
4.2458053429
 20
5.489987111
 30
0.0
 11
0.0100508989
 21
0.0174086676
 31
0.0
 40
0.9949358851
 41
-3.6629958269
 42
-2.6201894802
  0
ELLIPSE
  5
4B6
100
AcDbEntity
  8
0
100
AcDbEllipse
 62
7
  6
CONTINUOUS
 10
4.3958281975
 20
5.489987111
 30
0.0
 11
-0.0100508989
 21
0.0174086676
 31
0.0
 40
0.9949358851
 41
-3.6629958269
 42
-2.6201894802
  0
ELLIPSE
  5
4B7
100
AcDbEntity
  8
0
100
AcDbEllipse
 62
7
  6
CONTINUOUS
 10
4.4708396248
 20
5.6199107143
 30
0.0
 11
0.0201017978
 21
-0.0
 31
0.0
 40
0.9949358851
 41
-0.5214031734
 42
0.5214031734
  0
ELLIPSE
  5
4B8
100
AcDbEntity
  8
0
100
AcDbEllipse
 62
7
  6
CONTINUOUS
 10
4.3958281975
 20
5.7498343175
 30
0.0
 11
0.0100508989
 21
0.0174086676
 31
0.0
 40
0.9949358851
 41
-0.5214031734
 42
0.5214031734
  0
ELLIPSE
  5
4B9
100
AcDbEntity
  8
0
100
AcDbEllipse
 62
7
  6
CONTINUOUS
 10
4.2458053429
 20
5.7498343175
 30
0.0
 11
-0.0100508989
 21
0.0174086676
 31
0.0
 40
0.9949358851
 41
-0.5214031734
 42
0.5214031734
  0
ELLIPSE
  5
4BA
100
AcDbEntity
  8
0
100
AcDbEllipse
 62
7
  6
CONTINUOUS
 10
4.1707939156
 20
5.6199107143
 30
0.0
 11
0.0201017978
 21
0.0
 31
0.0
 40
0.9949358851
 41
2.6201894802
 42
3.6629958269
  0
ELLIPSE
  5
4BB
100
AcDbEntity
  8
0
100
AcDbEllipse
 62
7
  6
CONTINUOUS
 10
3.6088053429
 20
5.489987111
 30
0.0
 11
0.0100508989
 21
0.0174086676
 31
0.0
 40
0.9949358851
 41
-3.6629958269
 42
-2.6201894802
  0
ELLIPSE
  5
4BC
100
AcDbEntity
  8
0
100
AcDbEllipse
 62
7
  6
CONTINUOUS
 10
3.7588281975
 20
5.489987111
 30
0.0
 11
-0.0100508989
 21
0.0174086676
 31
0.0
 40
0.9949358851
 41
-3.6629958269
 42
-2.6201894802
  0
ELLIPSE
  5
4BD
100
AcDbEntity
  8
0
100
AcDbEllipse
 62
7
  6
CONTINUOUS
 10
3.8338396248
 20
5.6199107143
 30
0.0
 11
0.0201017978
 21
-0.0
 31
0.0
 40
0.9949358851
 41
-0.5214031734
 42
0.5214031734
  0
ELLIPSE
  5
4BE
100
AcDbEntity
  8
0
100
AcDbEllipse
 62
7
  6
CONTINUOUS
 10
3.7588281975
 20
5.7498343175
 30
0.0
 11
0.0100508989
 21
0.0174086676
 31
0.0
 40
0.9949358851
 41
-0.5214031734
 42
0.5214031734
  0
ELLIPSE
  5
4BF
100
AcDbEntity
  8
0
100
AcDbEllipse
 62
7
  6
CONTINUOUS
 10
3.6088053429
 20
5.7498343175
 30
0.0
 11
-0.0100508989
 21
0.0174086676
 31
0.0
 40
0.9949358851
 41
-0.5214031734
 42
0.5214031734
  0
ELLIPSE
  5
4C0
100
AcDbEntity
  8
0
100
AcDbEllipse
 62
7
  6
CONTINUOUS
 10
3.5337939156
 20
5.6199107143
 30
0.0
 11
0.0201017978
 21
-0.0
 31
0.0
 40
0.9949358851
 41
2.6201894802
 42
3.6629958269
  0
ELLIPSE
  5
4C1
100
AcDbEntity
  8
0
100
AcDbEllipse
 62
7
  6
CONTINUOUS
 10
2.9718053429
 20
5.489987111
 30
0.0
 11
0.0100508989
 21
0.0174086676
 31
0.0
 40
0.9949358851
 41
-3.6629958269
 42
-2.6201894802
  0
ELLIPSE
  5
4C2
100
AcDbEntity
  8
0
100
AcDbEllipse
 62
7
  6
CONTINUOUS
 10
3.1218281975
 20
5.489987111
 30
0.0
 11
-0.0100508989
 21
0.0174086676
 31
0.0
 40
0.9949358851
 41
-3.6629958269
 42
-2.6201894802
  0
ELLIPSE
  5
4C3
100
AcDbEntity
  8
0
100
AcDbEllipse
 62
7
  6
CONTINUOUS
 10
3.1968396248
 20
5.6199107143
 30
0.0
 11
0.0201017978
 21
0.0
 31
0.0
 40
0.9949358851
 41
-0.5214031734
 42
0.5214031734
  0
ELLIPSE
  5
4C4
100
AcDbEntity
  8
0
100
AcDbEllipse
 62
7
  6
CONTINUOUS
 10
3.1218281975
 20
5.7498343175
 30
0.0
 11
0.0100508989
 21
0.0174086676
 31
0.0
 40
0.9949358851
 41
-0.5214031734
 42
0.5214031734
  0
ELLIPSE
  5
4C5
100
AcDbEntity
  8
0
100
AcDbEllipse
 62
7
  6
CONTINUOUS
 10
2.9718053429
 20
5.7498343175
 30
0.0
 11
-0.0100508989
 21
0.0174086676
 31
0.0
 40
0.9949358851
 41
-0.5214031734
 42
0.5214031734
  0
ELLIPSE
  5
4C6
100
AcDbEntity
  8
0
100
AcDbEllipse
 62
7
  6
CONTINUOUS
 10
2.8967939156
 20
5.6199107143
 30
0.0
 11
0.0201017978
 21
0.0
 31
0.0
 40
0.9949358851
 41
2.6201894802
 42
3.6629958269
  0
ELLIPSE
  5
4C7
100
AcDbEntity
  8
0
100
AcDbEllipse
 62
7
  6
CONTINUOUS
 10
5.7722939156
 20
2.8649107143
 30
0.0
 11
0.0201017978
 21
0.0
 31
0.0
 40
0.9949358851
 41
2.6201894802
 42
3.6629958269
  0
ELLIPSE
  5
4C8
100
AcDbEntity
  8
0
100
AcDbEllipse
 62
7
  6
CONTINUOUS
 10
5.8473053429
 20
2.734987111
 30
0.0
 11
0.0100508989
 21
0.0174086676
 31
0.0
 40
0.9949358851
 41
-3.6629958269
 42
-2.6201894802
  0
ELLIPSE
  5
4C9
100
AcDbEntity
  8
0
100
AcDbEllipse
 62
7
  6
CONTINUOUS
 10
5.9973281975
 20
2.734987111
 30
0.0
 11
-0.0100508989
 21
0.0174086676
 31
0.0
 40
0.9949358851
 41
-3.6629958269
 42
-2.6201894802
  0
ELLIPSE
  5
4CA
100
AcDbEntity
  8
0
100
AcDbEllipse
 62
7
  6
CONTINUOUS
 10
6.0723396248
 20
2.8649107143
 30
0.0
 11
0.0201017978
 21
0.0
 31
0.0
 40
0.9949358851
 41
-0.5214031734
 42
0.5214031734
  0
ELLIPSE
  5
4CB
100
AcDbEntity
  8
0
100
AcDbEllipse
 62
7
  6
CONTINUOUS
 10
5.9973281975
 20
2.9948343175
 30
0.0
 11
0.0100508989
 21
0.0174086676
 31
0.0
 40
0.9949358851
 41
-0.5214031734
 42
0.5214031734
  0
ELLIPSE
  5
4CC
100
AcDbEntity
  8
0
100
AcDbEllipse
 62
7
  6
CONTINUOUS
 10
5.8473053429
 20
2.9948343175
 30
0.0
 11
-0.0100508989
 21
0.0174086676
 31
0.0
 40
0.9949358851
 41
-0.5214031734
 42
0.5214031734
  0
ELLIPSE
  5
4CD
100
AcDbEntity
  8
0
100
AcDbEllipse
 62
7
  6
CONTINUOUS
 10
5.1352939156
 20
2.8649107143
 30
0.0
 11
0.0201017978
 21
0.0
 31
0.0
 40
0.9949358851
 41
2.6201894802
 42
3.6629958269
  0
ELLIPSE
  5
4CE
100
AcDbEntity
  8
0
100
AcDbEllipse
 62
7
  6
CONTINUOUS
 10
5.2103053429
 20
2.734987111
 30
0.0
 11
0.0100508989
 21
0.0174086676
 31
0.0
 40
0.9949358851
 41
-3.6629958269
 42
-2.6201894802
  0
ELLIPSE
  5
4CF
100
AcDbEntity
  8
0
100
AcDbEllipse
 62
7
  6
CONTINUOUS
 10
5.3603281975
 20
2.734987111
 30
0.0
 11
-0.0100508989
 21
0.0174086676
 31
0.0
 40
0.9949358851
 41
-3.6629958269
 42
-2.6201894802
  0
ELLIPSE
  5
4D0
100
AcDbEntity
  8
0
100
AcDbEllipse
 62
7
  6
CONTINUOUS
 10
5.4353396248
 20
2.8649107143
 30
0.0
 11
0.0201017978
 21
0.0
 31
0.0
 40
0.9949358851
 41
-0.5214031734
 42
0.5214031734
  0
ELLIPSE
  5
4D1
100
AcDbEntity
  8
0
100
AcDbEllipse
 62
7
  6
CONTINUOUS
 10
5.3603281975
 20
2.9948343175
 30
0.0
 11
0.0100508989
 21
0.0174086676
 31
0.0
 40
0.9949358851
 41
-0.5214031734
 42
0.5214031734
  0
ELLIPSE
  5
4D2
100
AcDbEntity
  8
0
100
AcDbEllipse
 62
7
  6
CONTINUOUS
 10
5.2103053429
 20
2.9948343175
 30
0.0
 11
-0.0100508989
 21
0.0174086676
 31
0.0
 40
0.9949358851
 41
-0.5214031734
 42
0.5214031734
  0
ELLIPSE
  5
4D3
100
AcDbEntity
  8
0
100
AcDbEllipse
 62
7
  6
CONTINUOUS
 10
4.4982939156
 20
2.8649107143
 30
0.0
 11
0.0201017978
 21
0.0
 31
0.0
 40
0.9949358851
 41
2.6201894802
 42
3.6629958269
  0
ELLIPSE
  5
4D4
100
AcDbEntity
  8
0
100
AcDbEllipse
 62
7
  6
CONTINUOUS
 10
4.5733053429
 20
2.734987111
 30
0.0
 11
0.0100508989
 21
0.0174086676
 31
0.0
 40
0.9949358851
 41
-3.6629958269
 42
-2.6201894802
  0
ELLIPSE
  5
4D5
100
AcDbEntity
  8
0
100
AcDbEllipse
 62
7
  6
CONTINUOUS
 10
4.7233281975
 20
2.734987111
 30
0.0
 11
-0.0100508989
 21
0.0174086676
 31
0.0
 40
0.9949358851
 41
-3.6629958269
 42
-2.6201894802
  0
ELLIPSE
  5
4D6
100
AcDbEntity
  8
0
100
AcDbEllipse
 62
7
  6
CONTINUOUS
 10
4.7983396248
 20
2.8649107143
 30
0.0
 11
0.0201017978
 21
0.0
 31
0.0
 40
0.9949358851
 41
-0.5214031734
 42
0.5214031734
  0
ELLIPSE
  5
4D7
100
AcDbEntity
  8
0
100
AcDbEllipse
 62
7
  6
CONTINUOUS
 10
4.7233281975
 20
2.9948343175
 30
0.0
 11
0.0100508989
 21
0.0174086676
 31
0.0
 40
0.9949358851
 41
-0.5214031734
 42
0.5214031734
  0
ELLIPSE
  5
4D8
100
AcDbEntity
  8
0
100
AcDbEllipse
 62
7
  6
CONTINUOUS
 10
4.5733053429
 20
2.9948343175
 30
0.0
 11
-0.0100508989
 21
0.0174086676
 31
0.0
 40
0.9949358851
 41
-0.5214031734
 42
0.5214031734
  0
ELLIPSE
  5
4D9
100
AcDbEntity
  8
0
100
AcDbEllipse
 62
7
  6
CONTINUOUS
 10
3.8612939156
 20
2.8649107143
 30
0.0
 11
0.0201017978
 21
0.0
 31
0.0
 40
0.9949358851
 41
2.6201894802
 42
3.6629958269
  0
ELLIPSE
  5
4DA
100
AcDbEntity
  8
0
100
AcDbEllipse
 62
7
  6
CONTINUOUS
 10
3.9363053429
 20
2.734987111
 30
0.0
 11
0.0100508989
 21
0.0174086676
 31
0.0
 40
0.9949358851
 41
-3.6629958269
 42
-2.6201894802
  0
ELLIPSE
  5
4DB
100
AcDbEntity
  8
0
100
AcDbEllipse
 62
7
  6
CONTINUOUS
 10
4.0863281975
 20
2.734987111
 30
0.0
 11
-0.0100508989
 21
0.0174086676
 31
0.0
 40
0.9949358851
 41
-3.6629958269
 42
-2.6201894802
  0
ELLIPSE
  5
4DC
100
AcDbEntity
  8
0
100
AcDbEllipse
 62
7
  6
CONTINUOUS
 10
4.1613396248
 20
2.8649107143
 30
0.0
 11
0.0201017978
 21
-0.0
 31
0.0
 40
0.9949358851
 41
-0.5214031734
 42
0.5214031734
  0
ELLIPSE
  5
4DD
100
AcDbEntity
  8
0
100
AcDbEllipse
 62
7
  6
CONTINUOUS
 10
4.0863281975
 20
2.9948343175
 30
0.0
 11
0.0100508989
 21
0.0174086676
 31
0.0
 40
0.9949358851
 41
-0.5214031734
 42
0.5214031734
  0
ELLIPSE
  5
4DE
100
AcDbEntity
  8
0
100
AcDbEllipse
 62
7
  6
CONTINUOUS
 10
3.9363053429
 20
2.9948343175
 30
0.0
 11
-0.0100508989
 21
0.0174086676
 31
0.0
 40
0.9949358851
 41
-0.5214031734
 42
0.5214031734
  0
ELLIPSE
  5
4DF
100
AcDbEntity
  8
0
100
AcDbEllipse
 62
7
  6
CONTINUOUS
 10
3.2242939156
 20
2.8649107143
 30
0.0
 11
0.0201017978
 21
0.0
 31
0.0
 40
0.9949358851
 41
2.6201894802
 42
3.6629958269
  0
ELLIPSE
  5
4E0
100
AcDbEntity
  8
0
100
AcDbEllipse
 62
7
  6
CONTINUOUS
 10
3.2993053429
 20
2.734987111
 30
0.0
 11
0.0100508989
 21
0.0174086676
 31
0.0
 40
0.9949358851
 41
-3.6629958269
 42
-2.6201894802
  0
ELLIPSE
  5
4E1
100
AcDbEntity
  8
0
100
AcDbEllipse
 62
7
  6
CONTINUOUS
 10
3.4493281975
 20
2.734987111
 30
0.0
 11
-0.0100508989
 21
0.0174086676
 31
0.0
 40
0.9949358851
 41
-3.6629958269
 42
-2.6201894802
  0
ELLIPSE
  5
4E2
100
AcDbEntity
  8
0
100
AcDbEllipse
 62
7
  6
CONTINUOUS
 10
3.5243396248
 20
2.8649107143
 30
0.0
 11
0.0201017978
 21
0.0
 31
0.0
 40
0.9949358851
 41
-0.5214031734
 42
0.5214031734
  0
ELLIPSE
  5
4E3
100
AcDbEntity
  8
0
100
AcDbEllipse
 62
7
  6
CONTINUOUS
 10
3.4493281975
 20
2.9948343175
 30
0.0
 11
0.0100508989
 21
0.0174086676
 31
0.0
 40
0.9949358851
 41
-0.5214031734
 42
0.5214031734
  0
ELLIPSE
  5
4E4
100
AcDbEntity
  8
0
100
AcDbEllipse
 62
7
  6
CONTINUOUS
 10
3.2993053429
 20
2.9948343175
 30
0.0
 11
-0.0100508989
 21
0.0174086676
 31
0.0
 40
0.9949358851
 41
-0.5214031734
 42
0.5214031734
  0
ELLIPSE
  5
4E5
100
AcDbEntity
  8
0
100
AcDbEllipse
 62
7
  6
CONTINUOUS
 10
5.7722939156
 20
3.3649107143
 30
0.0
 11
0.0201017978
 21
0.0
 31
0.0
 40
0.9949358851
 41
2.6201894802
 42
3.6629958269
  0
ELLIPSE
  5
4E6
100
AcDbEntity
  8
0
100
AcDbEllipse
 62
7
  6
CONTINUOUS
 10
5.8473053429
 20
3.234987111
 30
0.0
 11
0.0100508989
 21
0.0174086676
 31
0.0
 40
0.9949358851
 41
-3.6629958269
 42
-2.6201894802
  0
ELLIPSE
  5
4E7
100
AcDbEntity
  8
0
100
AcDbEllipse
 62
7
  6
CONTINUOUS
 10
5.9973281975
 20
3.234987111
 30
0.0
 11
-0.0100508989
 21
0.0174086676
 31
0.0
 40
0.9949358851
 41
-3.6629958269
 42
-2.6201894802
  0
ELLIPSE
  5
4E8
100
AcDbEntity
  8
0
100
AcDbEllipse
 62
7
  6
CONTINUOUS
 10
6.0723396248
 20
3.3649107143
 30
0.0
 11
0.0201017978
 21
-0.0
 31
0.0
 40
0.9949358851
 41
-0.5214031734
 42
0.5214031734
  0
ELLIPSE
  5
4E9
100
AcDbEntity
  8
0
100
AcDbEllipse
 62
7
  6
CONTINUOUS
 10
5.9973281975
 20
3.4948343175
 30
0.0
 11
0.0100508989
 21
0.0174086676
 31
0.0
 40
0.9949358851
 41
-0.5214031734
 42
0.5214031734
  0
ELLIPSE
  5
4EA
100
AcDbEntity
  8
0
100
AcDbEllipse
 62
7
  6
CONTINUOUS
 10
5.8473053429
 20
3.4948343175
 30
0.0
 11
-0.0100508989
 21
0.0174086676
 31
0.0
 40
0.9949358851
 41
-0.5214031734
 42
0.5214031734
  0
ELLIPSE
  5
4EB
100
AcDbEntity
  8
0
100
AcDbEllipse
 62
7
  6
CONTINUOUS
 10
5.1352939156
 20
3.3649107143
 30
0.0
 11
0.0201017978
 21
0.0
 31
0.0
 40
0.9949358851
 41
2.6201894802
 42
3.6629958269
  0
ELLIPSE
  5
4EC
100
AcDbEntity
  8
0
100
AcDbEllipse
 62
7
  6
CONTINUOUS
 10
5.2103053429
 20
3.234987111
 30
0.0
 11
0.0100508989
 21
0.0174086676
 31
0.0
 40
0.9949358851
 41
-3.6629958269
 42
-2.6201894802
  0
ELLIPSE
  5
4ED
100
AcDbEntity
  8
0
100
AcDbEllipse
 62
7
  6
CONTINUOUS
 10
5.3603281975
 20
3.234987111
 30
0.0
 11
-0.0100508989
 21
0.0174086676
 31
0.0
 40
0.9949358851
 41
-3.6629958269
 42
-2.6201894802
  0
ELLIPSE
  5
4EE
100
AcDbEntity
  8
0
100
AcDbEllipse
 62
7
  6
CONTINUOUS
 10
5.4353396248
 20
3.3649107143
 30
0.0
 11
0.0201017978
 21
-0.0
 31
0.0
 40
0.9949358851
 41
-0.5214031734
 42
0.5214031734
  0
ELLIPSE
  5
4EF
100
AcDbEntity
  8
0
100
AcDbEllipse
 62
7
  6
CONTINUOUS
 10
5.3603281975
 20
3.4948343175
 30
0.0
 11
0.0100508989
 21
0.0174086676
 31
0.0
 40
0.9949358851
 41
-0.5214031734
 42
0.5214031734
  0
ELLIPSE
  5
4F0
100
AcDbEntity
  8
0
100
AcDbEllipse
 62
7
  6
CONTINUOUS
 10
5.2103053429
 20
3.4948343175
 30
0.0
 11
-0.0100508989
 21
0.0174086676
 31
0.0
 40
0.9949358851
 41
-0.5214031734
 42
0.5214031734
  0
ELLIPSE
  5
4F1
100
AcDbEntity
  8
0
100
AcDbEllipse
 62
7
  6
CONTINUOUS
 10
4.4982939156
 20
3.3649107143
 30
0.0
 11
0.0201017978
 21
0.0
 31
0.0
 40
0.9949358851
 41
2.6201894802
 42
3.6629958269
  0
ELLIPSE
  5
4F2
100
AcDbEntity
  8
0
100
AcDbEllipse
 62
7
  6
CONTINUOUS
 10
4.5733053429
 20
3.234987111
 30
0.0
 11
0.0100508989
 21
0.0174086676
 31
0.0
 40
0.9949358851
 41
-3.6629958269
 42
-2.6201894802
  0
ELLIPSE
  5
4F3
100
AcDbEntity
  8
0
100
AcDbEllipse
 62
7
  6
CONTINUOUS
 10
4.7233281975
 20
3.234987111
 30
0.0
 11
-0.0100508989
 21
0.0174086676
 31
0.0
 40
0.9949358851
 41
-3.6629958269
 42
-2.6201894802
  0
ELLIPSE
  5
4F4
100
AcDbEntity
  8
0
100
AcDbEllipse
 62
7
  6
CONTINUOUS
 10
4.7983396248
 20
3.3649107143
 30
0.0
 11
0.0201017978
 21
-0.0
 31
0.0
 40
0.9949358851
 41
-0.5214031734
 42
0.5214031734
  0
ELLIPSE
  5
4F5
100
AcDbEntity
  8
0
100
AcDbEllipse
 62
7
  6
CONTINUOUS
 10
4.7233281975
 20
3.4948343175
 30
0.0
 11
0.0100508989
 21
0.0174086676
 31
0.0
 40
0.9949358851
 41
-0.5214031734
 42
0.5214031734
  0
ELLIPSE
  5
4F6
100
AcDbEntity
  8
0
100
AcDbEllipse
 62
7
  6
CONTINUOUS
 10
4.5733053429
 20
3.4948343175
 30
0.0
 11
-0.0100508989
 21
0.0174086676
 31
0.0
 40
0.9949358851
 41
-0.5214031734
 42
0.5214031734
  0
ELLIPSE
  5
4F7
100
AcDbEntity
  8
0
100
AcDbEllipse
 62
7
  6
CONTINUOUS
 10
3.8612939156
 20
3.3649107143
 30
0.0
 11
0.0201017978
 21
0.0
 31
0.0
 40
0.9949358851
 41
2.6201894802
 42
3.6629958269
  0
ELLIPSE
  5
4F8
100
AcDbEntity
  8
0
100
AcDbEllipse
 62
7
  6
CONTINUOUS
 10
3.9363053429
 20
3.234987111
 30
0.0
 11
0.0100508989
 21
0.0174086676
 31
0.0
 40
0.9949358851
 41
-3.6629958269
 42
-2.6201894802
  0
ELLIPSE
  5
4F9
100
AcDbEntity
  8
0
100
AcDbEllipse
 62
7
  6
CONTINUOUS
 10
4.0863281975
 20
3.234987111
 30
0.0
 11
-0.0100508989
 21
0.0174086676
 31
0.0
 40
0.9949358851
 41
-3.6629958269
 42
-2.6201894802
  0
ELLIPSE
  5
4FA
100
AcDbEntity
  8
0
100
AcDbEllipse
 62
7
  6
CONTINUOUS
 10
4.1613396248
 20
3.3649107143
 30
0.0
 11
0.0201017978
 21
-0.0
 31
0.0
 40
0.9949358851
 41
-0.5214031734
 42
0.5214031734
  0
ELLIPSE
  5
4FB
100
AcDbEntity
  8
0
100
AcDbEllipse
 62
7
  6
CONTINUOUS
 10
4.0863281975
 20
3.4948343175
 30
0.0
 11
0.0100508989
 21
0.0174086676
 31
0.0
 40
0.9949358851
 41
-0.5214031734
 42
0.5214031734
  0
ELLIPSE
  5
4FC
100
AcDbEntity
  8
0
100
AcDbEllipse
 62
7
  6
CONTINUOUS
 10
3.9363053429
 20
3.4948343175
 30
0.0
 11
-0.0100508989
 21
0.0174086676
 31
0.0
 40
0.9949358851
 41
-0.5214031734
 42
0.5214031734
  0
ELLIPSE
  5
4FD
100
AcDbEntity
  8
0
100
AcDbEllipse
 62
7
  6
CONTINUOUS
 10
3.2242939156
 20
3.3649107143
 30
0.0
 11
0.0201017978
 21
-0.0
 31
0.0
 40
0.9949358851
 41
2.6201894802
 42
3.6629958269
  0
ELLIPSE
  5
4FE
100
AcDbEntity
  8
0
100
AcDbEllipse
 62
7
  6
CONTINUOUS
 10
3.2993053429
 20
3.234987111
 30
0.0
 11
0.0100508989
 21
0.0174086676
 31
0.0
 40
0.9949358851
 41
-3.6629958269
 42
-2.6201894802
  0
ELLIPSE
  5
4FF
100
AcDbEntity
  8
0
100
AcDbEllipse
 62
7
  6
CONTINUOUS
 10
3.4493281975
 20
3.234987111
 30
0.0
 11
-0.0100508989
 21
0.0174086676
 31
0.0
 40
0.9949358851
 41
-3.6629958269
 42
-2.6201894802
  0
ELLIPSE
  5
500
100
AcDbEntity
  8
0
100
AcDbEllipse
 62
7
  6
CONTINUOUS
 10
3.5243396248
 20
3.3649107143
 30
0.0
 11
0.0201017978
 21
-0.0
 31
0.0
 40
0.9949358851
 41
-0.5214031734
 42
0.5214031734
  0
ELLIPSE
  5
501
100
AcDbEntity
  8
0
100
AcDbEllipse
 62
7
  6
CONTINUOUS
 10
3.4493281975
 20
3.4948343175
 30
0.0
 11
0.0100508989
 21
0.0174086676
 31
0.0
 40
0.9949358851
 41
-0.5214031734
 42
0.5214031734
  0
ELLIPSE
  5
502
100
AcDbEntity
  8
0
100
AcDbEllipse
 62
7
  6
CONTINUOUS
 10
3.2993053429
 20
3.4948343175
 30
0.0
 11
-0.0100508989
 21
0.0174086676
 31
0.0
 40
0.9949358851
 41
-0.5214031734
 42
0.5214031734
  0
ELLIPSE
  5
503
100
AcDbEntity
  8
0
100
AcDbEllipse
 62
7
  6
CONTINUOUS
 10
5.7722939156
 20
3.8649107143
 30
0.0
 11
0.0201017978
 21
0.0
 31
0.0
 40
0.9949358851
 41
2.6201894802
 42
3.6629958269
  0
ELLIPSE
  5
504
100
AcDbEntity
  8
0
100
AcDbEllipse
 62
7
  6
CONTINUOUS
 10
5.8473053429
 20
3.734987111
 30
0.0
 11
0.0100508989
 21
0.0174086676
 31
0.0
 40
0.9949358851
 41
-3.6629958269
 42
-2.6201894802
  0
ELLIPSE
  5
505
100
AcDbEntity
  8
0
100
AcDbEllipse
 62
7
  6
CONTINUOUS
 10
5.9973281975
 20
3.734987111
 30
0.0
 11
-0.0100508989
 21
0.0174086676
 31
0.0
 40
0.9949358851
 41
-3.6629958269
 42
-2.6201894802
  0
ELLIPSE
  5
506
100
AcDbEntity
  8
0
100
AcDbEllipse
 62
7
  6
CONTINUOUS
 10
6.0723396248
 20
3.8649107143
 30
0.0
 11
0.0201017978
 21
0.0
 31
0.0
 40
0.9949358851
 41
-0.5214031734
 42
0.5214031734
  0
ELLIPSE
  5
507
100
AcDbEntity
  8
0
100
AcDbEllipse
 62
7
  6
CONTINUOUS
 10
5.9973281975
 20
3.9948343175
 30
0.0
 11
0.0100508989
 21
0.0174086676
 31
0.0
 40
0.9949358851
 41
-0.5214031734
 42
0.5214031734
  0
ELLIPSE
  5
508
100
AcDbEntity
  8
0
100
AcDbEllipse
 62
7
  6
CONTINUOUS
 10
5.8473053429
 20
3.9948343175
 30
0.0
 11
-0.0100508989
 21
0.0174086676
 31
0.0
 40
0.9949358851
 41
-0.5214031734
 42
0.5214031734
  0
ELLIPSE
  5
509
100
AcDbEntity
  8
0
100
AcDbEllipse
 62
7
  6
CONTINUOUS
 10
5.1352939156
 20
3.8649107143
 30
0.0
 11
0.0201017978
 21
0.0
 31
0.0
 40
0.9949358851
 41
2.6201894802
 42
3.6629958269
  0
ELLIPSE
  5
50A
100
AcDbEntity
  8
0
100
AcDbEllipse
 62
7
  6
CONTINUOUS
 10
5.2103053429
 20
3.734987111
 30
0.0
 11
0.0100508989
 21
0.0174086676
 31
0.0
 40
0.9949358851
 41
-3.6629958269
 42
-2.6201894802
  0
ELLIPSE
  5
50B
100
AcDbEntity
  8
0
100
AcDbEllipse
 62
7
  6
CONTINUOUS
 10
5.3603281975
 20
3.734987111
 30
0.0
 11
-0.0100508989
 21
0.0174086676
 31
0.0
 40
0.9949358851
 41
-3.6629958269
 42
-2.6201894802
  0
ELLIPSE
  5
50C
100
AcDbEntity
  8
0
100
AcDbEllipse
 62
7
  6
CONTINUOUS
 10
5.4353396248
 20
3.8649107143
 30
0.0
 11
0.0201017978
 21
0.0
 31
0.0
 40
0.9949358851
 41
-0.5214031734
 42
0.5214031734
  0
ELLIPSE
  5
50D
100
AcDbEntity
  8
0
100
AcDbEllipse
 62
7
  6
CONTINUOUS
 10
5.3603281975
 20
3.9948343175
 30
0.0
 11
0.0100508989
 21
0.0174086676
 31
0.0
 40
0.9949358851
 41
-0.5214031734
 42
0.5214031734
  0
ELLIPSE
  5
50E
100
AcDbEntity
  8
0
100
AcDbEllipse
 62
7
  6
CONTINUOUS
 10
5.2103053429
 20
3.9948343175
 30
0.0
 11
-0.0100508989
 21
0.0174086676
 31
0.0
 40
0.9949358851
 41
-0.5214031734
 42
0.5214031734
  0
ELLIPSE
  5
50F
100
AcDbEntity
  8
0
100
AcDbEllipse
 62
7
  6
CONTINUOUS
 10
4.4982939156
 20
3.8649107143
 30
0.0
 11
0.0201017978
 21
0.0
 31
0.0
 40
0.9949358851
 41
2.6201894802
 42
3.6629958269
  0
ELLIPSE
  5
510
100
AcDbEntity
  8
0
100
AcDbEllipse
 62
7
  6
CONTINUOUS
 10
4.5733053429
 20
3.734987111
 30
0.0
 11
0.0100508989
 21
0.0174086676
 31
0.0
 40
0.9949358851
 41
-3.6629958269
 42
-2.6201894802
  0
ELLIPSE
  5
511
100
AcDbEntity
  8
0
100
AcDbEllipse
 62
7
  6
CONTINUOUS
 10
4.7233281975
 20
3.734987111
 30
0.0
 11
-0.0100508989
 21
0.0174086676
 31
0.0
 40
0.9949358851
 41
-3.6629958269
 42
-2.6201894802
  0
ELLIPSE
  5
512
100
AcDbEntity
  8
0
100
AcDbEllipse
 62
7
  6
CONTINUOUS
 10
4.7983396248
 20
3.8649107143
 30
0.0
 11
0.0201017978
 21
-0.0
 31
0.0
 40
0.9949358851
 41
-0.5214031734
 42
0.5214031734
  0
ELLIPSE
  5
513
100
AcDbEntity
  8
0
100
AcDbEllipse
 62
7
  6
CONTINUOUS
 10
4.7233281975
 20
3.9948343175
 30
0.0
 11
0.0100508989
 21
0.0174086676
 31
0.0
 40
0.9949358851
 41
-0.5214031734
 42
0.5214031734
  0
ELLIPSE
  5
514
100
AcDbEntity
  8
0
100
AcDbEllipse
 62
7
  6
CONTINUOUS
 10
4.5733053429
 20
3.9948343175
 30
0.0
 11
-0.0100508989
 21
0.0174086676
 31
0.0
 40
0.9949358851
 41
-0.5214031734
 42
0.5214031734
  0
ELLIPSE
  5
515
100
AcDbEntity
  8
0
100
AcDbEllipse
 62
7
  6
CONTINUOUS
 10
3.8612939156
 20
3.8649107143
 30
0.0
 11
0.0201017978
 21
0.0
 31
0.0
 40
0.9949358851
 41
2.6201894802
 42
3.6629958269
  0
ELLIPSE
  5
516
100
AcDbEntity
  8
0
100
AcDbEllipse
 62
7
  6
CONTINUOUS
 10
3.9363053429
 20
3.734987111
 30
0.0
 11
0.0100508989
 21
0.0174086676
 31
0.0
 40
0.9949358851
 41
-3.6629958269
 42
-2.6201894802
  0
ELLIPSE
  5
517
100
AcDbEntity
  8
0
100
AcDbEllipse
 62
7
  6
CONTINUOUS
 10
4.0863281975
 20
3.734987111
 30
0.0
 11
-0.0100508989
 21
0.0174086676
 31
0.0
 40
0.9949358851
 41
-3.6629958269
 42
-2.6201894802
  0
ELLIPSE
  5
518
100
AcDbEntity
  8
0
100
AcDbEllipse
 62
7
  6
CONTINUOUS
 10
4.1613396248
 20
3.8649107143
 30
0.0
 11
0.0201017978
 21
-0.0
 31
0.0
 40
0.9949358851
 41
-0.5214031734
 42
0.5214031734
  0
ELLIPSE
  5
519
100
AcDbEntity
  8
0
100
AcDbEllipse
 62
7
  6
CONTINUOUS
 10
4.0863281975
 20
3.9948343175
 30
0.0
 11
0.0100508989
 21
0.0174086676
 31
0.0
 40
0.9949358851
 41
-0.5214031734
 42
0.5214031734
  0
ELLIPSE
  5
51A
100
AcDbEntity
  8
0
100
AcDbEllipse
 62
7
  6
CONTINUOUS
 10
3.9363053429
 20
3.9948343175
 30
0.0
 11
-0.0100508989
 21
0.0174086676
 31
0.0
 40
0.9949358851
 41
-0.5214031734
 42
0.5214031734
  0
ELLIPSE
  5
51B
100
AcDbEntity
  8
0
100
AcDbEllipse
 62
7
  6
CONTINUOUS
 10
3.2242939156
 20
3.8649107143
 30
0.0
 11
0.0201017978
 21
0.0
 31
0.0
 40
0.9949358851
 41
2.6201894802
 42
3.6629958269
  0
ELLIPSE
  5
51C
100
AcDbEntity
  8
0
100
AcDbEllipse
 62
7
  6
CONTINUOUS
 10
3.2993053429
 20
3.734987111
 30
0.0
 11
0.0100508989
 21
0.0174086676
 31
0.0
 40
0.9949358851
 41
-3.6629958269
 42
-2.6201894802
  0
ELLIPSE
  5
51D
100
AcDbEntity
  8
0
100
AcDbEllipse
 62
7
  6
CONTINUOUS
 10
3.4493281975
 20
3.734987111
 30
0.0
 11
-0.0100508989
 21
0.0174086676
 31
0.0
 40
0.9949358851
 41
-3.6629958269
 42
-2.6201894802
  0
ELLIPSE
  5
51E
100
AcDbEntity
  8
0
100
AcDbEllipse
 62
7
  6
CONTINUOUS
 10
3.5243396248
 20
3.8649107143
 30
0.0
 11
0.0201017978
 21
0.0
 31
0.0
 40
0.9949358851
 41
-0.5214031734
 42
0.5214031734
  0
ELLIPSE
  5
51F
100
AcDbEntity
  8
0
100
AcDbEllipse
 62
7
  6
CONTINUOUS
 10
3.4493281975
 20
3.9948343175
 30
0.0
 11
0.0100508989
 21
0.0174086676
 31
0.0
 40
0.9949358851
 41
-0.5214031734
 42
0.5214031734
  0
ELLIPSE
  5
520
100
AcDbEntity
  8
0
100
AcDbEllipse
 62
7
  6
CONTINUOUS
 10
3.2993053429
 20
3.9948343175
 30
0.0
 11
-0.0100508989
 21
0.0174086676
 31
0.0
 40
0.9949358851
 41
-0.5214031734
 42
0.5214031734
  0
ELLIPSE
  5
521
100
AcDbEntity
  8
0
100
AcDbEllipse
 62
7
  6
CONTINUOUS
 10
5.7722939156
 20
4.3649107143
 30
0.0
 11
0.0201017978
 21
0.0
 31
0.0
 40
0.9949358851
 41
2.6201894802
 42
3.6629958269
  0
ELLIPSE
  5
522
100
AcDbEntity
  8
0
100
AcDbEllipse
 62
7
  6
CONTINUOUS
 10
5.8473053429
 20
4.234987111
 30
0.0
 11
0.0100508989
 21
0.0174086676
 31
0.0
 40
0.9949358851
 41
-3.6629958269
 42
-2.6201894802
  0
ELLIPSE
  5
523
100
AcDbEntity
  8
0
100
AcDbEllipse
 62
7
  6
CONTINUOUS
 10
5.9973281975
 20
4.234987111
 30
0.0
 11
-0.0100508989
 21
0.0174086676
 31
0.0
 40
0.9949358851
 41
-3.6629958269
 42
-2.6201894802
  0
ELLIPSE
  5
524
100
AcDbEntity
  8
0
100
AcDbEllipse
 62
7
  6
CONTINUOUS
 10
6.0723396248
 20
4.3649107143
 30
0.0
 11
0.0201017978
 21
0.0
 31
0.0
 40
0.9949358851
 41
-0.5214031734
 42
0.5214031734
  0
ELLIPSE
  5
525
100
AcDbEntity
  8
0
100
AcDbEllipse
 62
7
  6
CONTINUOUS
 10
5.9973281975
 20
4.4948343175
 30
0.0
 11
0.0100508989
 21
0.0174086676
 31
0.0
 40
0.9949358851
 41
-0.5214031734
 42
0.5214031734
  0
ELLIPSE
  5
526
100
AcDbEntity
  8
0
100
AcDbEllipse
 62
7
  6
CONTINUOUS
 10
5.8473053429
 20
4.4948343175
 30
0.0
 11
-0.0100508989
 21
0.0174086676
 31
0.0
 40
0.9949358851
 41
-0.5214031734
 42
0.5214031734
  0
ELLIPSE
  5
527
100
AcDbEntity
  8
0
100
AcDbEllipse
 62
7
  6
CONTINUOUS
 10
5.1352939156
 20
4.3649107143
 30
0.0
 11
0.0201017978
 21
0.0
 31
0.0
 40
0.9949358851
 41
2.6201894802
 42
3.6629958269
  0
ELLIPSE
  5
528
100
AcDbEntity
  8
0
100
AcDbEllipse
 62
7
  6
CONTINUOUS
 10
5.2103053429
 20
4.234987111
 30
0.0
 11
0.0100508989
 21
0.0174086676
 31
0.0
 40
0.9949358851
 41
-3.6629958269
 42
-2.6201894802
  0
ELLIPSE
  5
529
100
AcDbEntity
  8
0
100
AcDbEllipse
 62
7
  6
CONTINUOUS
 10
5.3603281975
 20
4.234987111
 30
0.0
 11
-0.0100508989
 21
0.0174086676
 31
0.0
 40
0.9949358851
 41
-3.6629958269
 42
-2.6201894802
  0
ELLIPSE
  5
52A
100
AcDbEntity
  8
0
100
AcDbEllipse
 62
7
  6
CONTINUOUS
 10
5.4353396248
 20
4.3649107143
 30
0.0
 11
0.0201017978
 21
0.0
 31
0.0
 40
0.9949358851
 41
-0.5214031734
 42
0.5214031734
  0
ELLIPSE
  5
52B
100
AcDbEntity
  8
0
100
AcDbEllipse
 62
7
  6
CONTINUOUS
 10
5.3603281975
 20
4.4948343175
 30
0.0
 11
0.0100508989
 21
0.0174086676
 31
0.0
 40
0.9949358851
 41
-0.5214031734
 42
0.5214031734
  0
ELLIPSE
  5
52C
100
AcDbEntity
  8
0
100
AcDbEllipse
 62
7
  6
CONTINUOUS
 10
5.2103053429
 20
4.4948343175
 30
0.0
 11
-0.0100508989
 21
0.0174086676
 31
0.0
 40
0.9949358851
 41
-0.5214031734
 42
0.5214031734
  0
ELLIPSE
  5
52D
100
AcDbEntity
  8
0
100
AcDbEllipse
 62
7
  6
CONTINUOUS
 10
4.4982939156
 20
4.3649107143
 30
0.0
 11
0.0201017978
 21
0.0
 31
0.0
 40
0.9949358851
 41
2.6201894802
 42
3.6629958269
  0
ELLIPSE
  5
52E
100
AcDbEntity
  8
0
100
AcDbEllipse
 62
7
  6
CONTINUOUS
 10
4.5733053429
 20
4.234987111
 30
0.0
 11
0.0100508989
 21
0.0174086676
 31
0.0
 40
0.9949358851
 41
-3.6629958269
 42
-2.6201894802
  0
ELLIPSE
  5
52F
100
AcDbEntity
  8
0
100
AcDbEllipse
 62
7
  6
CONTINUOUS
 10
4.7233281975
 20
4.234987111
 30
0.0
 11
-0.0100508989
 21
0.0174086676
 31
0.0
 40
0.9949358851
 41
-3.6629958269
 42
-2.6201894802
  0
ELLIPSE
  5
530
100
AcDbEntity
  8
0
100
AcDbEllipse
 62
7
  6
CONTINUOUS
 10
4.7983396248
 20
4.3649107143
 30
0.0
 11
0.0201017978
 21
-0.0
 31
0.0
 40
0.9949358851
 41
-0.5214031734
 42
0.5214031734
  0
ELLIPSE
  5
531
100
AcDbEntity
  8
0
100
AcDbEllipse
 62
7
  6
CONTINUOUS
 10
4.7233281975
 20
4.4948343175
 30
0.0
 11
0.0100508989
 21
0.0174086676
 31
0.0
 40
0.9949358851
 41
-0.5214031734
 42
0.5214031734
  0
ELLIPSE
  5
532
100
AcDbEntity
  8
0
100
AcDbEllipse
 62
7
  6
CONTINUOUS
 10
4.5733053429
 20
4.4948343175
 30
0.0
 11
-0.0100508989
 21
0.0174086676
 31
0.0
 40
0.9949358851
 41
-0.5214031734
 42
0.5214031734
  0
ELLIPSE
  5
533
100
AcDbEntity
  8
0
100
AcDbEllipse
 62
7
  6
CONTINUOUS
 10
3.8612939156
 20
4.3649107143
 30
0.0
 11
0.0201017978
 21
0.0
 31
0.0
 40
0.9949358851
 41
2.6201894802
 42
3.6629958269
  0
ELLIPSE
  5
534
100
AcDbEntity
  8
0
100
AcDbEllipse
 62
7
  6
CONTINUOUS
 10
3.9363053429
 20
4.234987111
 30
0.0
 11
0.0100508989
 21
0.0174086676
 31
0.0
 40
0.9949358851
 41
-3.6629958269
 42
-2.6201894802
  0
ELLIPSE
  5
535
100
AcDbEntity
  8
0
100
AcDbEllipse
 62
7
  6
CONTINUOUS
 10
4.0863281975
 20
4.234987111
 30
0.0
 11
-0.0100508989
 21
0.0174086676
 31
0.0
 40
0.9949358851
 41
-3.6629958269
 42
-2.6201894802
  0
ELLIPSE
  5
536
100
AcDbEntity
  8
0
100
AcDbEllipse
 62
7
  6
CONTINUOUS
 10
4.1613396248
 20
4.3649107143
 30
0.0
 11
0.0201017978
 21
-0.0
 31
0.0
 40
0.9949358851
 41
-0.5214031734
 42
0.5214031734
  0
ELLIPSE
  5
537
100
AcDbEntity
  8
0
100
AcDbEllipse
 62
7
  6
CONTINUOUS
 10
4.0863281975
 20
4.4948343175
 30
0.0
 11
0.0100508989
 21
0.0174086676
 31
0.0
 40
0.9949358851
 41
-0.5214031734
 42
0.5214031734
  0
ELLIPSE
  5
538
100
AcDbEntity
  8
0
100
AcDbEllipse
 62
7
  6
CONTINUOUS
 10
3.9363053429
 20
4.4948343175
 30
0.0
 11
-0.0100508989
 21
0.0174086676
 31
0.0
 40
0.9949358851
 41
-0.5214031734
 42
0.5214031734
  0
ELLIPSE
  5
539
100
AcDbEntity
  8
0
100
AcDbEllipse
 62
7
  6
CONTINUOUS
 10
3.2242939156
 20
4.3649107143
 30
0.0
 11
0.0201017978
 21
-0.0
 31
0.0
 40
0.9949358851
 41
2.6201894802
 42
3.6629958269
  0
ELLIPSE
  5
53A
100
AcDbEntity
  8
0
100
AcDbEllipse
 62
7
  6
CONTINUOUS
 10
3.2993053429
 20
4.234987111
 30
0.0
 11
0.0100508989
 21
0.0174086676
 31
0.0
 40
0.9949358851
 41
-3.6629958269
 42
-2.6201894802
  0
ELLIPSE
  5
53B
100
AcDbEntity
  8
0
100
AcDbEllipse
 62
7
  6
CONTINUOUS
 10
3.4493281975
 20
4.234987111
 30
0.0
 11
-0.0100508989
 21
0.0174086676
 31
0.0
 40
0.9949358851
 41
-3.6629958269
 42
-2.6201894802
  0
ELLIPSE
  5
53C
100
AcDbEntity
  8
0
100
AcDbEllipse
 62
7
  6
CONTINUOUS
 10
3.5243396248
 20
4.3649107143
 30
0.0
 11
0.0201017978
 21
0.0
 31
0.0
 40
0.9949358851
 41
-0.5214031734
 42
0.5214031734
  0
ELLIPSE
  5
53D
100
AcDbEntity
  8
0
100
AcDbEllipse
 62
7
  6
CONTINUOUS
 10
3.4493281975
 20
4.4948343175
 30
0.0
 11
0.0100508989
 21
0.0174086676
 31
0.0
 40
0.9949358851
 41
-0.5214031734
 42
0.5214031734
  0
ELLIPSE
  5
53E
100
AcDbEntity
  8
0
100
AcDbEllipse
 62
7
  6
CONTINUOUS
 10
3.2993053429
 20
4.4948343175
 30
0.0
 11
-0.0100508989
 21
0.0174086676
 31
0.0
 40
0.9949358851
 41
-0.5214031734
 42
0.5214031734
  0
ELLIPSE
  5
53F
100
AcDbEntity
  8
0
100
AcDbEllipse
 62
7
  6
CONTINUOUS
 10
5.7722939156
 20
4.8649107143
 30
0.0
 11
0.0201017978
 21
0.0
 31
0.0
 40
0.9949358851
 41
2.6201894802
 42
3.6629958269
  0
ELLIPSE
  5
540
100
AcDbEntity
  8
0
100
AcDbEllipse
 62
7
  6
CONTINUOUS
 10
5.8473053429
 20
4.734987111
 30
0.0
 11
0.0100508989
 21
0.0174086676
 31
0.0
 40
0.9949358851
 41
-3.6629958269
 42
-2.6201894802
  0
ELLIPSE
  5
541
100
AcDbEntity
  8
0
100
AcDbEllipse
 62
7
  6
CONTINUOUS
 10
5.9973281975
 20
4.734987111
 30
0.0
 11
-0.0100508989
 21
0.0174086676
 31
0.0
 40
0.9949358851
 41
-3.6629958269
 42
-2.6201894802
  0
ELLIPSE
  5
542
100
AcDbEntity
  8
0
100
AcDbEllipse
 62
7
  6
CONTINUOUS
 10
6.0723396248
 20
4.8649107143
 30
0.0
 11
0.0201017978
 21
-0.0
 31
0.0
 40
0.9949358851
 41
-0.5214031734
 42
0.5214031734
  0
ELLIPSE
  5
543
100
AcDbEntity
  8
0
100
AcDbEllipse
 62
7
  6
CONTINUOUS
 10
5.9973281975
 20
4.9948343175
 30
0.0
 11
0.0100508989
 21
0.0174086676
 31
0.0
 40
0.9949358851
 41
-0.5214031734
 42
0.5214031734
  0
ELLIPSE
  5
544
100
AcDbEntity
  8
0
100
AcDbEllipse
 62
7
  6
CONTINUOUS
 10
5.8473053429
 20
4.9948343175
 30
0.0
 11
-0.0100508989
 21
0.0174086676
 31
0.0
 40
0.9949358851
 41
-0.5214031734
 42
0.5214031734
  0
ELLIPSE
  5
545
100
AcDbEntity
  8
0
100
AcDbEllipse
 62
7
  6
CONTINUOUS
 10
5.1352939156
 20
4.8649107143
 30
0.0
 11
0.0201017978
 21
0.0
 31
0.0
 40
0.9949358851
 41
2.6201894802
 42
3.6629958269
  0
ELLIPSE
  5
546
100
AcDbEntity
  8
0
100
AcDbEllipse
 62
7
  6
CONTINUOUS
 10
5.2103053429
 20
4.734987111
 30
0.0
 11
0.0100508989
 21
0.0174086676
 31
0.0
 40
0.9949358851
 41
-3.6629958269
 42
-2.6201894802
  0
ELLIPSE
  5
547
100
AcDbEntity
  8
0
100
AcDbEllipse
 62
7
  6
CONTINUOUS
 10
5.3603281975
 20
4.734987111
 30
0.0
 11
-0.0100508989
 21
0.0174086676
 31
0.0
 40
0.9949358851
 41
-3.6629958269
 42
-2.6201894802
  0
ELLIPSE
  5
548
100
AcDbEntity
  8
0
100
AcDbEllipse
 62
7
  6
CONTINUOUS
 10
5.4353396248
 20
4.8649107143
 30
0.0
 11
0.0201017978
 21
0.0
 31
0.0
 40
0.9949358851
 41
-0.5214031734
 42
0.5214031734
  0
ELLIPSE
  5
549
100
AcDbEntity
  8
0
100
AcDbEllipse
 62
7
  6
CONTINUOUS
 10
5.3603281975
 20
4.9948343175
 30
0.0
 11
0.0100508989
 21
0.0174086676
 31
0.0
 40
0.9949358851
 41
-0.5214031734
 42
0.5214031734
  0
ELLIPSE
  5
54A
100
AcDbEntity
  8
0
100
AcDbEllipse
 62
7
  6
CONTINUOUS
 10
5.2103053429
 20
4.9948343175
 30
0.0
 11
-0.0100508989
 21
0.0174086676
 31
0.0
 40
0.9949358851
 41
-0.5214031734
 42
0.5214031734
  0
ELLIPSE
  5
54B
100
AcDbEntity
  8
0
100
AcDbEllipse
 62
7
  6
CONTINUOUS
 10
4.4982939156
 20
4.8649107143
 30
0.0
 11
0.0201017978
 21
0.0
 31
0.0
 40
0.9949358851
 41
2.6201894802
 42
3.6629958269
  0
ELLIPSE
  5
54C
100
AcDbEntity
  8
0
100
AcDbEllipse
 62
7
  6
CONTINUOUS
 10
4.5733053429
 20
4.734987111
 30
0.0
 11
0.0100508989
 21
0.0174086676
 31
0.0
 40
0.9949358851
 41
-3.6629958269
 42
-2.6201894802
  0
ELLIPSE
  5
54D
100
AcDbEntity
  8
0
100
AcDbEllipse
 62
7
  6
CONTINUOUS
 10
4.7233281975
 20
4.734987111
 30
0.0
 11
-0.0100508989
 21
0.0174086676
 31
0.0
 40
0.9949358851
 41
-3.6629958269
 42
-2.6201894802
  0
ELLIPSE
  5
54E
100
AcDbEntity
  8
0
100
AcDbEllipse
 62
7
  6
CONTINUOUS
 10
4.7983396248
 20
4.8649107143
 30
0.0
 11
0.0201017978
 21
-0.0
 31
0.0
 40
0.9949358851
 41
-0.5214031734
 42
0.5214031734
  0
ELLIPSE
  5
54F
100
AcDbEntity
  8
0
100
AcDbEllipse
 62
7
  6
CONTINUOUS
 10
4.7233281975
 20
4.9948343175
 30
0.0
 11
0.0100508989
 21
0.0174086676
 31
0.0
 40
0.9949358851
 41
-0.5214031734
 42
0.5214031734
  0
ELLIPSE
  5
550
100
AcDbEntity
  8
0
100
AcDbEllipse
 62
7
  6
CONTINUOUS
 10
4.5733053429
 20
4.9948343175
 30
0.0
 11
-0.0100508989
 21
0.0174086676
 31
0.0
 40
0.9949358851
 41
-0.5214031734
 42
0.5214031734
  0
ELLIPSE
  5
551
100
AcDbEntity
  8
0
100
AcDbEllipse
 62
7
  6
CONTINUOUS
 10
3.8612939156
 20
4.8649107143
 30
0.0
 11
0.0201017978
 21
-0.0
 31
0.0
 40
0.9949358851
 41
2.6201894802
 42
3.6629958269
  0
ELLIPSE
  5
552
100
AcDbEntity
  8
0
100
AcDbEllipse
 62
7
  6
CONTINUOUS
 10
3.9363053429
 20
4.734987111
 30
0.0
 11
0.0100508989
 21
0.0174086676
 31
0.0
 40
0.9949358851
 41
-3.6629958269
 42
-2.6201894802
  0
ELLIPSE
  5
553
100
AcDbEntity
  8
0
100
AcDbEllipse
 62
7
  6
CONTINUOUS
 10
4.0863281975
 20
4.734987111
 30
0.0
 11
-0.0100508989
 21
0.0174086676
 31
0.0
 40
0.9949358851
 41
-3.6629958269
 42
-2.6201894802
  0
ELLIPSE
  5
554
100
AcDbEntity
  8
0
100
AcDbEllipse
 62
7
  6
CONTINUOUS
 10
4.1613396248
 20
4.8649107143
 30
0.0
 11
0.0201017978
 21
-0.0
 31
0.0
 40
0.9949358851
 41
-0.5214031734
 42
0.5214031734
  0
ELLIPSE
  5
555
100
AcDbEntity
  8
0
100
AcDbEllipse
 62
7
  6
CONTINUOUS
 10
4.0863281975
 20
4.9948343175
 30
0.0
 11
0.0100508989
 21
0.0174086676
 31
0.0
 40
0.9949358851
 41
-0.5214031734
 42
0.5214031734
  0
ELLIPSE
  5
556
100
AcDbEntity
  8
0
100
AcDbEllipse
 62
7
  6
CONTINUOUS
 10
3.9363053429
 20
4.9948343175
 30
0.0
 11
-0.0100508989
 21
0.0174086676
 31
0.0
 40
0.9949358851
 41
-0.5214031734
 42
0.5214031734
  0
ELLIPSE
  5
557
100
AcDbEntity
  8
0
100
AcDbEllipse
 62
7
  6
CONTINUOUS
 10
3.2242939156
 20
4.8649107143
 30
0.0
 11
0.0201017978
 21
-0.0
 31
0.0
 40
0.9949358851
 41
2.6201894802
 42
3.6629958269
  0
ELLIPSE
  5
558
100
AcDbEntity
  8
0
100
AcDbEllipse
 62
7
  6
CONTINUOUS
 10
3.2993053429
 20
4.734987111
 30
0.0
 11
0.0100508989
 21
0.0174086676
 31
0.0
 40
0.9949358851
 41
-3.6629958269
 42
-2.6201894802
  0
ELLIPSE
  5
559
100
AcDbEntity
  8
0
100
AcDbEllipse
 62
7
  6
CONTINUOUS
 10
3.4493281975
 20
4.734987111
 30
0.0
 11
-0.0100508989
 21
0.0174086676
 31
0.0
 40
0.9949358851
 41
-3.6629958269
 42
-2.6201894802
  0
ELLIPSE
  5
55A
100
AcDbEntity
  8
0
100
AcDbEllipse
 62
7
  6
CONTINUOUS
 10
3.5243396248
 20
4.8649107143
 30
0.0
 11
0.0201017978
 21
0.0
 31
0.0
 40
0.9949358851
 41
-0.5214031734
 42
0.5214031734
  0
ELLIPSE
  5
55B
100
AcDbEntity
  8
0
100
AcDbEllipse
 62
7
  6
CONTINUOUS
 10
3.4493281975
 20
4.9948343175
 30
0.0
 11
0.0100508989
 21
0.0174086676
 31
0.0
 40
0.9949358851
 41
-0.5214031734
 42
0.5214031734
  0
ELLIPSE
  5
55C
100
AcDbEntity
  8
0
100
AcDbEllipse
 62
7
  6
CONTINUOUS
 10
3.2993053429
 20
4.9948343175
 30
0.0
 11
-0.0100508989
 21
0.0174086676
 31
0.0
 40
0.9949358851
 41
-0.5214031734
 42
0.5214031734
  0
ELLIPSE
  5
55D
100
AcDbEntity
  8
0
100
AcDbEllipse
 62
7
  6
CONTINUOUS
 10
5.7722939156
 20
5.3649107143
 30
0.0
 11
0.0201017978
 21
-0.0
 31
0.0
 40
0.9949358851
 41
2.6201894802
 42
3.6629958269
  0
ELLIPSE
  5
55E
100
AcDbEntity
  8
0
100
AcDbEllipse
 62
7
  6
CONTINUOUS
 10
5.8473053429
 20
5.234987111
 30
0.0
 11
0.0100508989
 21
0.0174086676
 31
0.0
 40
0.9949358851
 41
-3.6629958269
 42
-2.6201894802
  0
ELLIPSE
  5
55F
100
AcDbEntity
  8
0
100
AcDbEllipse
 62
7
  6
CONTINUOUS
 10
5.9973281975
 20
5.234987111
 30
0.0
 11
-0.0100508989
 21
0.0174086676
 31
0.0
 40
0.9949358851
 41
-3.6629958269
 42
-2.6201894802
  0
ELLIPSE
  5
560
100
AcDbEntity
  8
0
100
AcDbEllipse
 62
7
  6
CONTINUOUS
 10
6.0723396248
 20
5.3649107143
 30
0.0
 11
0.0201017978
 21
0.0
 31
0.0
 40
0.9949358851
 41
-0.5214031734
 42
0.5214031734
  0
ELLIPSE
  5
561
100
AcDbEntity
  8
0
100
AcDbEllipse
 62
7
  6
CONTINUOUS
 10
5.9973281975
 20
5.4948343175
 30
0.0
 11
0.0100508989
 21
0.0174086676
 31
0.0
 40
0.9949358851
 41
-0.5214031734
 42
0.5214031734
  0
ELLIPSE
  5
562
100
AcDbEntity
  8
0
100
AcDbEllipse
 62
7
  6
CONTINUOUS
 10
5.8473053429
 20
5.4948343175
 30
0.0
 11
-0.0100508989
 21
0.0174086676
 31
0.0
 40
0.9949358851
 41
-0.5214031734
 42
0.5214031734
  0
ELLIPSE
  5
563
100
AcDbEntity
  8
0
100
AcDbEllipse
 62
7
  6
CONTINUOUS
 10
5.1352939156
 20
5.3649107143
 30
0.0
 11
0.0201017978
 21
0.0
 31
0.0
 40
0.9949358851
 41
2.6201894802
 42
3.6629958269
  0
ELLIPSE
  5
564
100
AcDbEntity
  8
0
100
AcDbEllipse
 62
7
  6
CONTINUOUS
 10
5.2103053429
 20
5.234987111
 30
0.0
 11
0.0100508989
 21
0.0174086676
 31
0.0
 40
0.9949358851
 41
-3.6629958269
 42
-2.6201894802
  0
ELLIPSE
  5
565
100
AcDbEntity
  8
0
100
AcDbEllipse
 62
7
  6
CONTINUOUS
 10
5.3603281975
 20
5.234987111
 30
0.0
 11
-0.0100508989
 21
0.0174086676
 31
0.0
 40
0.9949358851
 41
-3.6629958269
 42
-2.6201894802
  0
ELLIPSE
  5
566
100
AcDbEntity
  8
0
100
AcDbEllipse
 62
7
  6
CONTINUOUS
 10
5.4353396248
 20
5.3649107143
 30
0.0
 11
0.0201017978
 21
0.0
 31
0.0
 40
0.9949358851
 41
-0.5214031734
 42
0.5214031734
  0
ELLIPSE
  5
567
100
AcDbEntity
  8
0
100
AcDbEllipse
 62
7
  6
CONTINUOUS
 10
5.3603281975
 20
5.4948343175
 30
0.0
 11
0.0100508989
 21
0.0174086676
 31
0.0
 40
0.9949358851
 41
-0.5214031734
 42
0.5214031734
  0
ELLIPSE
  5
568
100
AcDbEntity
  8
0
100
AcDbEllipse
 62
7
  6
CONTINUOUS
 10
5.2103053429
 20
5.4948343175
 30
0.0
 11
-0.0100508989
 21
0.0174086676
 31
0.0
 40
0.9949358851
 41
-0.5214031734
 42
0.5214031734
  0
ELLIPSE
  5
569
100
AcDbEntity
  8
0
100
AcDbEllipse
 62
7
  6
CONTINUOUS
 10
4.4982939156
 20
5.3649107143
 30
0.0
 11
0.0201017978
 21
0.0
 31
0.0
 40
0.9949358851
 41
2.6201894802
 42
3.6629958269
  0
ELLIPSE
  5
56A
100
AcDbEntity
  8
0
100
AcDbEllipse
 62
7
  6
CONTINUOUS
 10
4.5733053429
 20
5.234987111
 30
0.0
 11
0.0100508989
 21
0.0174086676
 31
0.0
 40
0.9949358851
 41
-3.6629958269
 42
-2.6201894802
  0
ELLIPSE
  5
56B
100
AcDbEntity
  8
0
100
AcDbEllipse
 62
7
  6
CONTINUOUS
 10
4.7233281975
 20
5.234987111
 30
0.0
 11
-0.0100508989
 21
0.0174086676
 31
0.0
 40
0.9949358851
 41
-3.6629958269
 42
-2.6201894802
  0
ELLIPSE
  5
56C
100
AcDbEntity
  8
0
100
AcDbEllipse
 62
7
  6
CONTINUOUS
 10
4.7983396248
 20
5.3649107143
 30
0.0
 11
0.0201017978
 21
-0.0
 31
0.0
 40
0.9949358851
 41
-0.5214031734
 42
0.5214031734
  0
ELLIPSE
  5
56D
100
AcDbEntity
  8
0
100
AcDbEllipse
 62
7
  6
CONTINUOUS
 10
4.7233281975
 20
5.4948343175
 30
0.0
 11
0.0100508989
 21
0.0174086676
 31
0.0
 40
0.9949358851
 41
-0.5214031734
 42
0.5214031734
  0
ELLIPSE
  5
56E
100
AcDbEntity
  8
0
100
AcDbEllipse
 62
7
  6
CONTINUOUS
 10
4.5733053429
 20
5.4948343175
 30
0.0
 11
-0.0100508989
 21
0.0174086676
 31
0.0
 40
0.9949358851
 41
-0.5214031734
 42
0.5214031734
  0
ELLIPSE
  5
56F
100
AcDbEntity
  8
0
100
AcDbEllipse
 62
7
  6
CONTINUOUS
 10
3.8612939156
 20
5.3649107143
 30
0.0
 11
0.0201017978
 21
-0.0
 31
0.0
 40
0.9949358851
 41
2.6201894802
 42
3.6629958269
  0
ELLIPSE
  5
570
100
AcDbEntity
  8
0
100
AcDbEllipse
 62
7
  6
CONTINUOUS
 10
3.9363053429
 20
5.234987111
 30
0.0
 11
0.0100508989
 21
0.0174086676
 31
0.0
 40
0.9949358851
 41
-3.6629958269
 42
-2.6201894802
  0
ELLIPSE
  5
571
100
AcDbEntity
  8
0
100
AcDbEllipse
 62
7
  6
CONTINUOUS
 10
4.0863281975
 20
5.234987111
 30
0.0
 11
-0.0100508989
 21
0.0174086676
 31
0.0
 40
0.9949358851
 41
-3.6629958269
 42
-2.6201894802
  0
ELLIPSE
  5
572
100
AcDbEntity
  8
0
100
AcDbEllipse
 62
7
  6
CONTINUOUS
 10
4.1613396248
 20
5.3649107143
 30
0.0
 11
0.0201017978
 21
-0.0
 31
0.0
 40
0.9949358851
 41
-0.5214031734
 42
0.5214031734
  0
ELLIPSE
  5
573
100
AcDbEntity
  8
0
100
AcDbEllipse
 62
7
  6
CONTINUOUS
 10
4.0863281975
 20
5.4948343175
 30
0.0
 11
0.0100508989
 21
0.0174086676
 31
0.0
 40
0.9949358851
 41
-0.5214031734
 42
0.5214031734
  0
ELLIPSE
  5
574
100
AcDbEntity
  8
0
100
AcDbEllipse
 62
7
  6
CONTINUOUS
 10
3.9363053429
 20
5.4948343175
 30
0.0
 11
-0.0100508989
 21
0.0174086676
 31
0.0
 40
0.9949358851
 41
-0.5214031734
 42
0.5214031734
  0
ELLIPSE
  5
575
100
AcDbEntity
  8
0
100
AcDbEllipse
 62
7
  6
CONTINUOUS
 10
3.2242939156
 20
5.3649107143
 30
0.0
 11
0.0201017978
 21
-0.0
 31
0.0
 40
0.9949358851
 41
2.6201894802
 42
3.6629958269
  0
ELLIPSE
  5
576
100
AcDbEntity
  8
0
100
AcDbEllipse
 62
7
  6
CONTINUOUS
 10
3.2993053429
 20
5.234987111
 30
0.0
 11
0.0100508989
 21
0.0174086676
 31
0.0
 40
0.9949358851
 41
-3.6629958269
 42
-2.6201894802
  0
ELLIPSE
  5
577
100
AcDbEntity
  8
0
100
AcDbEllipse
 62
7
  6
CONTINUOUS
 10
3.4493281975
 20
5.234987111
 30
0.0
 11
-0.0100508989
 21
0.0174086676
 31
0.0
 40
0.9949358851
 41
-3.6629958269
 42
-2.6201894802
  0
ELLIPSE
  5
578
100
AcDbEntity
  8
0
100
AcDbEllipse
 62
7
  6
CONTINUOUS
 10
3.5243396248
 20
5.3649107143
 30
0.0
 11
0.0201017978
 21
0.0
 31
0.0
 40
0.9949358851
 41
-0.5214031734
 42
0.5214031734
  0
ELLIPSE
  5
579
100
AcDbEntity
  8
0
100
AcDbEllipse
 62
7
  6
CONTINUOUS
 10
3.4493281975
 20
5.4948343175
 30
0.0
 11
0.0100508989
 21
0.0174086676
 31
0.0
 40
0.9949358851
 41
-0.5214031734
 42
0.5214031734
  0
ELLIPSE
  5
57A
100
AcDbEntity
  8
0
100
AcDbEllipse
 62
7
  6
CONTINUOUS
 10
3.2993053429
 20
5.4948343175
 30
0.0
 11
-0.0100508989
 21
0.0174086676
 31
0.0
 40
0.9949358851
 41
-0.5214031734
 42
0.5214031734
  0
ENDSEC
  0
SECTION
  2
OBJECTS
  0
DICTIONARY
  5
C
100
AcDbDictionary
280
0
281
1
  3
ACAD_GROUP
350
D
  3
ACAD_MLINESTYLE
350
17
  3
ACAD_LAYOUT
350
1A
  3
ACAD_PLOTSETTINGS
350
19
  3
ACAD_PLOTSTYLENAME
350
E
  0
DICTIONARY
  5
D
102
{ACAD_REACTORS
330
C
102
}
100
AcDbDictionary
280
0
281
1
  0
ACDBDICTIONARYWDFLT
  5
E
102
{ACAD_REACTORS
330
C
102
}
100
AcDbDictionary
281
1
  3
Normal
350
F
100
AcDbDictionaryWithDefault
340
F
  0
DICTIONARY
  5
17
102
{ACAD_REACTORS
330
C
102
}
100
AcDbDictionary
280
0
281
1
  3
Standard
350
18
  0
DICTIONARY
  5
19
102
{ACAD_REACTORS
330
C
102
}
100
AcDbDictionary
281
1
  0
DICTIONARY
  5
1A
102
{ACAD_REACTORS
330
C
102
}
100
AcDbDictionary
281
1
  3
Model
350
57B
  3
Layout1
350
57C
  0
ACDBPLACEHOLDER
  5
F
102
{ACAD_REACTORS
330
E
102
}
  0
MLINESTYLE
  5
18
102
{ACAD_REACTORS
330
17
102
}
100
AcDbMlineStyle
  2
STANDARD
 70
0
  3

 62
256
 51
90.0
 52
90.0
 71
2
 49
0.5
 62
256
  6
BYLAYER
 49
-0.5
 62
256
  6
BYLAYER
  0
LAYOUT
  5
57B
102
{ACAD_REACTORS
330
1A
102
}
100
AcDbPlotSettings
  1

  2
none_device
  4
ANSI_A_(11.00_x_8.50_Inches)
  6

 40
0.0
 41
0.0
 42
0.0
 43
0.0
 44
279.4
 45
215.9
 46
0.0
 47
0.0
 48
0.0
 49
0.0
140
0.0
141
0.0
142
1.0
143
1.0
 70
1024
 72
0
 73
0
 74
0
  7

 75
0
147
1.0
148
0.0
149
0.0
100
AcDbLayout
  1
Model
 70
0
 71
0
 10
0.0
 20
0.0
 11
11.0
 21
8.5
 12
0.0
 22
0.0
 32
0.0
 14
0.0
 24
0.0
 34
0.0
 15
0.0
 25
0.0
 35
0.0
146
0.0
 13
0.0
 23
0.0
 33
0.0
 16
1.0
 26
0.0
 36
0.0
 17
0.0
 27
1.0
 37
0.0
 76
0
330
207
345
0
346
0
  0
LAYOUT
  5
57C
102
{ACAD_REACTORS
330
1A
102
}
100
AcDbPlotSettings
  1

  2
none_device
  4
ANSI_A_(11.00_x_8.50_Inches)
  6

 40
0.0
 41
0.0
 42
0.0
 43
0.0
 44
279.4
 45
215.9
 46
0.0
 47
0.0
 48
0.0
 49
0.0
140
0.0
141
0.0
142
1.0
143
1.0
 70
0
 72
0
 73
0
 74
0
  7

 75
0
147
1.0
148
0.0
149
0.0
100
AcDbLayout
  1
Layout1
 70
0
 71
1
 10
0.0
 20
0.0
 11
11.0
 21
8.5
 12
0.0
 22
0.0
 32
0.0
 14
0.0
 24
0.0
 34
0.0
 15
0.0
 25
0.0
 35
0.0
146
0.0
 13
0.0
 23
0.0
 33
0.0
 16
1.0
 26
0.0
 36
0.0
 17
0.0
 27
1.0
 37
0.0
 76
0
330
208
345
0
346
0
  0
ENDSEC
  0
EOF
