999
DXF file: 233-601_front.dxf
999
Pro/ENGINEER 2018400 by Parametric Technology Corporation
  0
SECTION
  2
HEADER
  9
$ACADVER
  1
AC1027
  9
$DWGCODEPAGE
  3
ANSI_1252
  9
$EXTMAX
 10
11.0
 20
8.5
 30
0.0
  9
$EXTMIN
 10
0.0
 20
0.0
 30
0.0
  9
$LIMMIN
 10
0.0
 20
0.0
  9
$LIMMAX
 10
11.0
 20
8.5
  9
$VIEWCTR
 10
5.5
 20
4.25
  9
$VIEWSIZE
 40
8.5
  9
$CLAYER
  8
0
  9
$LTSCALE
 40
0.605
  9
$CELTYPE
  6
BYLAYER
  9
$DIMSCALE
 40
1.0
  9
$DIMASZ
 40
0.1
  9
$DIMEXO
 40
0.0625
  9
$DIMDLI
 40
0.418
  9
$DIMEXE
 40
0.125
  9
$DIMCEN
 40
0.099
  9
$DIMLFAC
 40
1.0
  9
$DIMBLK
  1
_FILLED
  9
$DIMALT
 70
1
  9
$DIMALTD
 70
1
  9
$DIMALTTD
 70
2
  9
$DIMALTF
 40
25.4
  9
$DIMTXT
 40
0.08
  9
$DIMTOL
 70
1
  9
$DIMLIM
 70
0
  9
$DIMTFAC
 40
1.0
  9
$DIMTP
 40
0.01
  9
$DIMTM
 40
0.01
  9
$DIMGAP
 40
0.09
  9
$DIMDSEP
 70
46
  9
$AUNITS
 70
0
  9
$PDMODE
 70
3
  9
$PDSIZE
 40
0.3125
  9
$HANDSEED
  5
4A5
  9
$TILEMODE
 70
1
  9
$MEASUREMENT
 70
0
  9
$INSUNITS
 70
1
  0
ENDSEC
  0
SECTION
  2
CLASSES
  0
CLASS
  1
ACDBDICTIONARYWDFLT
  2
AcDbDictionaryWithDefault
  3
AutoCAD 2000
 90
0
 91
1
280
0
281
0
  0
CLASS
  1
ACDBPLACEHOLDER
  2
AcDbPlaceHolder
  3
AutoCAD 2000
 90
0
 91
1
280
0
281
0
  0
CLASS
  1
LAYOUT
  2
AcDbLayout
  3
AutoCAD 2000
 90
0
 91
0
280
0
281
0
  0
ENDSEC
  0
SECTION
  2
TABLES
  0
TABLE
  2
VPORT
  5
8
100
AcDbSymbolTable
 70
2
  0
VPORT
  5
1F4
100
AcDbSymbolTableRecord
100
AcDbViewportTableRecord
  2
*ACTIVE
 70
0
 10
0.0
 20
0.0
 11
1.0
 21
1.0
 12
5.5
 22
4.25
 13
0.0
 23
0.0
 14
1.0
 24
1.0
 15
0.0
 25
0.0
 16
0.0
 26
0.0
 36
1.0
 17
0.0
 27
0.0
 37
0.0
 40
8.5
 41
1.2941176471
 42
50.0
 43
0.0
 44
0.0
 50
0.0
 51
0.0
 71
0
 72
100
 73
1
 74
1
 75
0
 76
0
 77
0
 78
0
  0
ENDTAB
  0
TABLE
  2
LTYPE
  5
5
100
AcDbSymbolTable
 70
6
  0
LTYPE
  5
14
100
AcDbSymbolTableRecord
100
AcDbLinetypeTableRecord
  2
BYBLOCK
 70
0
  3

 72
65
 73
0
 40
0.0
  0
LTYPE
  5
15
100
AcDbSymbolTableRecord
100
AcDbLinetypeTableRecord
  2
BYLAYER
 70
0
  3

 72
65
 73
0
 40
0.0
  0
LTYPE
  5
16
100
AcDbSymbolTableRecord
100
AcDbLinetypeTableRecord
  2
CONTINUOUS
 70
64
  3
Solid line
 72
65
 73
0
 40
0.0
  0
LTYPE
  5
1F5
100
AcDbSymbolTableRecord
100
AcDbLinetypeTableRecord
  2
CENTER
 70
64
  3
____ _ ____ _ ____ _ ____ _ ____ _ ____ _ ____
 72
65
 73
4
 40
0.6
 49
0.375
 74
0
 49
-0.075
 74
0
 49
0.075
 74
0
 49
-0.075
 74
0
  0
LTYPE
  5
1F6
100
AcDbSymbolTableRecord
100
AcDbLinetypeTableRecord
  2
HIDDEN
 70
64
  3
- - - - - - - - - - - - - - - - - - - -
 72
65
 73
2
 40
0.2
 49
0.1
 74
0
 49
-0.1
 74
0
  0
LTYPE
  5
1F7
100
AcDbSymbolTableRecord
100
AcDbLinetypeTableRecord
  2
PHANTOM
 70
64
  3
_____ _ _ _____ _ _ _____ _ _ _____
 72
65
 73
6
 40
0.8
 49
0.45
 74
0
 49
-0.05
 74
0
 49
0.1
 74
0
 49
-0.05
 74
0
 49
0.1
 74
0
 49
-0.05
 74
0
  0
LTYPE
  5
1F8
100
AcDbSymbolTableRecord
100
AcDbLinetypeTableRecord
  2
DOT
 70
64
  3
. . . . . . . . . . . . . . . . . . . .
 72
65
 73
2
 40
0.2
 49
0.1
 74
0
 49
-0.1
 74
0
  0
LTYPE
  5
1F9
100
AcDbSymbolTableRecord
100
AcDbLinetypeTableRecord
  2
DASHED
 70
64
  3
- - - - - - - - - - - - - - - - - - - -
 72
65
 73
2
 40
0.2
 49
0.1
 74
0
 49
-0.1
 74
0
  0
ENDTAB
  0
TABLE
  2
LAYER
  5
2
100
AcDbSymbolTable
 70
36
  0
LAYER
  5
10
100
AcDbSymbolTableRecord
100
AcDbLayerTableRecord
  2
0
 70
0
 62
7
  6
CONTINUOUS
370
-3
390
F
  0
LAYER
  5
1FA
100
AcDbSymbolTableRecord
100
AcDbLayerTableRecord
  2
DEFAULT_1
 70
0
 62
7
  6
CENTER
370
-3
390
F
  0
LAYER
  5
1FB
100
AcDbSymbolTableRecord
100
AcDbLayerTableRecord
  2
DEFAULT_2
 70
0
 62
8
  6
HIDDEN
370
-3
390
F
  0
LAYER
  5
1FC
100
AcDbSymbolTableRecord
100
AcDbLayerTableRecord
  2
DEFAULT_3
 70
0
 62
7
  6
PHANTOM
370
-3
390
F
  0
LAYER
  5
1FD
100
AcDbSymbolTableRecord
100
AcDbLayerTableRecord
  2
DEFAULT_COORDINATE_SYSTEM
 70
0
 62
7
  6
CONTINUOUS
370
-3
390
F
  0
LAYER
  5
1FE
100
AcDbSymbolTableRecord
100
AcDbLayerTableRecord
  2
DEFAULT_DATUM_AXES
 70
0
 62
7
  6
CONTINUOUS
370
-3
390
F
  0
LAYER
  5
1FF
100
AcDbSymbolTableRecord
100
AcDbLayerTableRecord
  2
DEFAULT_DATUM_CURVES
 70
0
 62
7
  6
CONTINUOUS
370
-3
390
F
  0
LAYER
  5
200
100
AcDbSymbolTableRecord
100
AcDbLayerTableRecord
  2
DEFAULT_DATUM_PLANES
 70
0
 62
7
  6
CONTINUOUS
370
-3
390
F
  0
LAYER
  5
201
100
AcDbSymbolTableRecord
100
AcDbLayerTableRecord
  2
DEFAULT_SURFACES
 70
0
 62
7
  6
CONTINUOUS
370
-3
390
F
  0
LAYER
  5
202
100
AcDbSymbolTableRecord
100
AcDbLayerTableRecord
  2
INTF_1
 70
0
 62
7
  6
CONTINUOUS
370
-3
390
F
  0
LAYER
  5
203
100
AcDbSymbolTableRecord
100
AcDbLayerTableRecord
  2
PLATTED_SURFACE_AREA
 70
0
 62
7
  6
CONTINUOUS
370
-3
390
F
  0
LAYER
  5
204
100
AcDbSymbolTableRecord
100
AcDbLayerTableRecord
  2
RGB____0____0____0__
 70
0
 62
7
  6
CONTINUOUS
370
-3
390
F
  0
ENDTAB
  0
TABLE
  2
STYLE
  5
3
100
AcDbSymbolTable
 70
1
  0
STYLE
  5
11
100
AcDbSymbolTableRecord
100
AcDbTextStyleTableRecord
  2
STANDARD
 70
0
 40
0.0
 41
0.8
 50
0.0
 71
0
 42
0.2
  3
txt
  4

  0
STYLE
  5
205
100
AcDbSymbolTableRecord
100
AcDbTextStyleTableRecord
  2
TEXTSTYLE_1
 70
0
 40
0.0
 41
0.8
 50
0.0
 71
0
 42
0.2
  3
gdt
  4

  0
ENDTAB
  0
TABLE
  2
VIEW
  5
6
100
AcDbSymbolTable
 70
0
  0
ENDTAB
  0
TABLE
  2
UCS
  5
7
100
AcDbSymbolTable
 70
0
  0
ENDTAB
  0
TABLE
  2
APPID
  5
9
100
AcDbSymbolTable
 70
1
  0
APPID
  5
206
100
AcDbSymbolTableRecord
100
AcDbRegAppTableRecord
  2
ACAD
 70
0
  0
ENDTAB
  0
TABLE
  2
BLOCK_RECORD
  5
1
100
AcDbSymbolTable
 70
0
  0
BLOCK_RECORD
  5
207
100
AcDbSymbolTableRecord
100
AcDbBlockTableRecord
  2
*Model_Space
  0
BLOCK_RECORD
  5
208
100
AcDbSymbolTableRecord
100
AcDbBlockTableRecord
  2
*Paper_Space
  0
BLOCK_RECORD
  5
209
100
AcDbSymbolTableRecord
100
AcDbBlockTableRecord
  2
_FILLED
  0
ENDTAB
  0
TABLE
  2
DIMSTYLE
  5
A
100
AcDbSymbolTable
 70
1
100
AcDbDimStyleTable
 71
0
  0
DIMSTYLE
105
20A
100
AcDbSymbolTableRecord
100
AcDbDimStyleTableRecord
  2
STANDARD
 70
0
  3

  4

 40
1.0
 41
0.1
 42
0.0625
 43
0.38
 44
0.125
 45
0.0
 46
0.0
 47
0.01
 48
0.01
140
0.08
141
0.09
142
0.0
143
25.4
144
1.0
145
0.0
146
1.0
147
0.09
 71
1.0
 72
0.0
 73
1
 74
1
 75
0
 76
0
 77
0
 78
4
 79
1
170
1
171
1
172
0
173
0
174
0
175
0
176
0
177
0
178
0
270
2
179
2
271
2
272
2
273
2
274
2
275
0
280
0
281
0
282
0
283
1
284
4
285
0
286
0
287
3
288
0
340
11
278
46
341
209
342
209
343
209
344
209
  0
ENDTAB
  0
ENDSEC
  0
SECTION
  2
BLOCKS
  0
BLOCK
  5
20
100
AcDbEntity
  8
0
100
AcDbBlockBegin
  2
*Model_Space
 70
0
 10
0.0
 20
0.0
 30
0.0
  3
*Model_Space
  1

  0
ENDBLK
  5
21
100
AcDbEntity
  8
0
100
AcDbBlockEnd
  0
BLOCK
  5
1C
100
AcDbEntity
  8
0
100
AcDbBlockBegin
  2
*Paper_Space
 70
0
 10
0.0
 20
0.0
 30
0.0
  3
*Paper_Space
  1

  0
ENDBLK
  5
1D
100
AcDbEntity
  8
0
100
AcDbBlockEnd
  0
BLOCK
  5
20B
100
AcDbEntity
  8
0
100
AcDbBlockBegin
  2
_FILLED
 70
64
 10
0.0
 20
0.0
  3
_FILLED
  1

  0
SOLID
  5
20C
100
AcDbEntity
  8
0
  6
BYBLOCK
 62
0
100
AcDbTrace
 10
0.0
 20
0.0
 11
-1.0
 21
0.2
 12
-1.0
 22
-0.2
 13
-1.0
 23
-0.2
  0
ENDBLK
  5
20D
100
AcDbEntity
  8
0
  6
BYBLOCK
 62
0
100
AcDbBlockEnd
  0
ENDSEC
  0
SECTION
  2
ENTITIES
  0
MTEXT
  5
20E
100
AcDbEntity
  8
0
100
AcDbMText
 62
2
  6
CONTINUOUS
  7
STANDARD
 71
3
 72
1
 10
4.8082298137
 20
1.4438548137
 30
0.0
 11
1.0
 21
0.0
 31
0.0
 73
2
 44
0.9
  1
SCALE  1.000
 40
0.08
 41
0.768
  0
LINE
  5
20F
100
AcDbEntity
  8
0
100
AcDbLine
 62
7
  6
CONTINUOUS
 10
0.0
 20
0.0
 11
0.0
 21
8.5
  0
LINE
  5
210
100
AcDbEntity
  8
0
100
AcDbLine
 62
7
  6
CONTINUOUS
 10
0.0
 20
0.0
 11
11.0
 21
0.0
  0
LINE
  5
211
100
AcDbEntity
  8
0
100
AcDbLine
 62
7
  6
CONTINUOUS
 10
0.0
 20
8.5
 11
11.0
 21
8.5
  0
LINE
  5
212
100
AcDbEntity
  8
0
100
AcDbLine
 62
7
  6
CONTINUOUS
 10
11.0
 20
0.0
 11
11.0
 21
8.5
  0
LINE
  5
213
100
AcDbEntity
  8
0
100
AcDbLine
 62
7
  6
CONTINUOUS
 10
1.8607298137
 20
7.3538548137
 11
1.8607298137
 21
1.6188548137
  0
LINE
  5
214
100
AcDbEntity
  8
0
100
AcDbLine
 62
7
  6
CONTINUOUS
 10
1.9407298137
 20
1.5388548137
 11
7.6757298137
 21
1.5388548137
  0
LINE
  5
215
100
AcDbEntity
  8
0
100
AcDbLine
 62
7
  6
CONTINUOUS
 10
2.2282298137
 20
7.0464309197
 11
2.2282298137
 21
6.7262787076
  0
LINE
  5
216
100
AcDbEntity
  8
0
100
AcDbLine
 62
7
  6
CONTINUOUS
 10
2.2282298137
 20
6.4469941481
 11
2.2282298137
 21
6.122336109
  0
LINE
  5
217
100
AcDbEntity
  8
0
100
AcDbLine
 62
7
  6
CONTINUOUS
 10
2.2282298137
 20
5.8475573765
 11
2.2282298137
 21
5.5228993374
  0
LINE
  5
218
100
AcDbEntity
  8
0
100
AcDbLine
 62
7
  6
CONTINUOUS
 10
2.2282298137
 20
5.2481206048
 11
2.2282298137
 21
4.9234625657
  0
LINE
  5
219
100
AcDbEntity
  8
0
100
AcDbLine
 62
7
  6
CONTINUOUS
 10
2.2282298137
 20
4.6486838332
 11
2.2282298137
 21
4.3240257941
  0
LINE
  5
21A
100
AcDbEntity
  8
0
100
AcDbLine
 62
7
  6
CONTINUOUS
 10
2.2282298137
 20
4.0492470616
 11
2.2282298137
 21
3.7245890225
  0
LINE
  5
21B
100
AcDbEntity
  8
0
100
AcDbLine
 62
7
  6
CONTINUOUS
 10
2.2282298137
 20
3.44981029
 11
2.2282298137
 21
3.1251522509
  0
LINE
  5
21C
100
AcDbEntity
  8
0
100
AcDbLine
 62
7
  6
CONTINUOUS
 10
2.2282298137
 20
2.8503735184
 11
2.2282298137
 21
2.5257154792
  0
LINE
  5
21D
100
AcDbEntity
  8
0
100
AcDbLine
 62
7
  6
CONTINUOUS
 10
2.2282298137
 20
2.2517946112
 11
2.2282298137
 21
1.9271365721
  0
LINE
  5
21E
100
AcDbEntity
  8
0
100
AcDbLine
 62
7
  6
CONTINUOUS
 10
2.2481537076
 20
1.9072126782
 11
2.5728117467
 21
1.9072126782
  0
LINE
  5
21F
100
AcDbEntity
  8
0
100
AcDbLine
 62
7
  6
CONTINUOUS
 10
2.8475904792
 20
1.9072126782
 11
3.1722485184
 21
1.9072126782
  0
LINE
  5
220
100
AcDbEntity
  8
0
100
AcDbLine
 62
7
  6
CONTINUOUS
 10
3.4470272509
 20
1.9072126782
 11
3.77168529
 21
1.9072126782
  0
LINE
  5
221
100
AcDbEntity
  8
0
100
AcDbLine
 62
7
  6
CONTINUOUS
 10
4.0464640225
 20
1.9072126782
 11
4.3711220616
 21
1.9072126782
  0
LINE
  5
222
100
AcDbEntity
  8
0
100
AcDbLine
 62
7
  6
CONTINUOUS
 10
4.6459007941
 20
1.9072126782
 11
4.9705588332
 21
1.9072126782
  0
LINE
  5
223
100
AcDbEntity
  8
0
100
AcDbLine
 62
7
  6
CONTINUOUS
 10
5.2453375657
 20
1.9072126782
 11
5.5699956048
 21
1.9072126782
  0
LINE
  5
224
100
AcDbEntity
  8
0
100
AcDbLine
 62
7
  6
CONTINUOUS
 10
5.8447743374
 20
1.9072126782
 11
6.1694323765
 21
1.9072126782
  0
LINE
  5
225
100
AcDbEntity
  8
0
100
AcDbLine
 62
7
  6
CONTINUOUS
 10
6.444211109
 20
1.9072126782
 11
6.7688691481
 21
1.9072126782
  0
LINE
  5
226
100
AcDbEntity
  8
0
100
AcDbLine
 62
7
  6
CONTINUOUS
 10
7.0436478806
 20
1.9072126782
 11
7.3683059197
 21
1.9072126782
  0
LINE
  5
227
100
AcDbEntity
  8
0
100
AcDbLine
 62
7
  6
CONTINUOUS
 10
2.5882298137
 20
6.7262787076
 11
2.5882298137
 21
7.0464309197
  0
LINE
  5
228
100
AcDbEntity
  8
0
100
AcDbLine
 62
7
  6
CONTINUOUS
 10
2.5927356407
 20
1.9271365721
 11
2.5927356407
 21
2.2517946112
  0
LINE
  5
229
100
AcDbEntity
  8
0
100
AcDbLine
 62
7
  6
CONTINUOUS
 10
2.5927356407
 20
2.5257154792
 11
2.5927356407
 21
2.8503735184
  0
LINE
  5
22A
100
AcDbEntity
  8
0
100
AcDbLine
 62
7
  6
CONTINUOUS
 10
2.5927356407
 20
3.1251522509
 11
2.5927356407
 21
3.44981029
  0
LINE
  5
22B
100
AcDbEntity
  8
0
100
AcDbLine
 62
7
  6
CONTINUOUS
 10
2.5927356407
 20
3.7245890225
 11
2.5927356407
 21
4.0492470616
  0
LINE
  5
22C
100
AcDbEntity
  8
0
100
AcDbLine
 62
7
  6
CONTINUOUS
 10
2.5927356407
 20
4.3240257941
 11
2.5927356407
 21
4.6486838332
  0
LINE
  5
22D
100
AcDbEntity
  8
0
100
AcDbLine
 62
7
  6
CONTINUOUS
 10
2.5927356407
 20
4.9234625657
 11
2.5927356407
 21
5.2481206048
  0
LINE
  5
22E
100
AcDbEntity
  8
0
100
AcDbLine
 62
7
  6
CONTINUOUS
 10
2.5927356407
 20
5.5228993374
 11
2.5927356407
 21
5.8475573765
  0
LINE
  5
22F
100
AcDbEntity
  8
0
100
AcDbLine
 62
7
  6
CONTINUOUS
 10
2.5927356407
 20
6.122336109
 11
2.5927356407
 21
6.4469941481
  0
LINE
  5
230
100
AcDbEntity
  8
0
100
AcDbLine
 62
7
  6
CONTINUOUS
 10
7.3683059197
 20
2.2717185052
 11
7.0436478806
 21
2.2717185052
  0
LINE
  5
231
100
AcDbEntity
  8
0
100
AcDbLine
 62
7
  6
CONTINUOUS
 10
6.7688691481
 20
2.2717185052
 11
6.444211109
 21
2.2717185052
  0
LINE
  5
232
100
AcDbEntity
  8
0
100
AcDbLine
 62
7
  6
CONTINUOUS
 10
6.1694323765
 20
2.2717185052
 11
5.8447743374
 21
2.2717185052
  0
LINE
  5
233
100
AcDbEntity
  8
0
100
AcDbLine
 62
7
  6
CONTINUOUS
 10
5.5699956048
 20
2.2717185052
 11
5.2453375657
 21
2.2717185052
  0
LINE
  5
234
100
AcDbEntity
  8
0
100
AcDbLine
 62
7
  6
CONTINUOUS
 10
4.9705588332
 20
2.2717185052
 11
4.6459007941
 21
2.2717185052
  0
LINE
  5
235
100
AcDbEntity
  8
0
100
AcDbLine
 62
7
  6
CONTINUOUS
 10
4.3711220616
 20
2.2717185052
 11
4.0464640225
 21
2.2717185052
  0
LINE
  5
236
100
AcDbEntity
  8
0
100
AcDbLine
 62
7
  6
CONTINUOUS
 10
3.77168529
 20
2.2717185052
 11
3.4470272509
 21
2.2717185052
  0
LINE
  5
237
100
AcDbEntity
  8
0
100
AcDbLine
 62
7
  6
CONTINUOUS
 10
3.1722485184
 20
2.2717185052
 11
2.8475904792
 21
2.2717185052
  0
LINE
  5
238
100
AcDbEntity
  8
0
100
AcDbLine
 62
7
  6
CONTINUOUS
 10
2.5728117467
 20
2.2717185052
 11
2.2481537076
 21
2.2717185052
  0
LINE
  5
239
100
AcDbEntity
  8
0
100
AcDbLine
 62
7
  6
CONTINUOUS
 10
2.8158465658
 20
4.6605038527
 11
2.8158465658
 21
4.3122057746
  0
LINE
  5
23A
100
AcDbEntity
  8
0
100
AcDbLine
 62
7
  6
CONTINUOUS
 10
2.8276665853
 20
7.0464309197
 11
2.8276665853
 21
6.7217728806
  0
LINE
  5
23B
100
AcDbEntity
  8
0
100
AcDbLine
 62
7
  6
CONTINUOUS
 10
2.8276665853
 20
6.4469941481
 11
2.8276665853
 21
6.122336109
  0
LINE
  5
23C
100
AcDbEntity
  8
0
100
AcDbLine
 62
7
  6
CONTINUOUS
 10
2.8276665853
 20
5.8475573765
 11
2.8276665853
 21
5.5228993374
  0
LINE
  5
23D
100
AcDbEntity
  8
0
100
AcDbLine
 62
7
  6
CONTINUOUS
 10
2.8276665853
 20
5.2481206048
 11
2.8276665853
 21
4.9234625657
  0
LINE
  5
23E
100
AcDbEntity
  8
0
100
AcDbLine
 62
7
  6
CONTINUOUS
 10
2.8276665853
 20
4.0492470616
 11
2.8276665853
 21
3.7245890225
  0
LINE
  5
23F
100
AcDbEntity
  8
0
100
AcDbLine
 62
7
  6
CONTINUOUS
 10
2.8276665853
 20
3.44981029
 11
2.8276665853
 21
3.1251522509
  0
LINE
  5
240
100
AcDbEntity
  8
0
100
AcDbLine
 62
7
  6
CONTINUOUS
 10
2.8276665853
 20
2.8503735184
 11
2.8276665853
 21
2.5257154792
  0
LINE
  5
241
100
AcDbEntity
  8
0
100
AcDbLine
 62
7
  6
CONTINUOUS
 10
2.8276665853
 20
2.2517946112
 11
2.8276665853
 21
1.9271365721
  0
LINE
  5
242
100
AcDbEntity
  8
0
100
AcDbLine
 62
7
  6
CONTINUOUS
 10
4.6340807746
 20
2.4939715658
 11
4.9823788527
 21
2.4939715658
  0
LINE
  5
243
100
AcDbEntity
  8
0
100
AcDbLine
 62
7
  6
CONTINUOUS
 10
2.2481537076
 20
2.5057915853
 11
2.5728117467
 21
2.5057915853
  0
LINE
  5
244
100
AcDbEntity
  8
0
100
AcDbLine
 62
7
  6
CONTINUOUS
 10
2.8475904792
 20
2.5057915853
 11
3.1722485184
 21
2.5057915853
  0
LINE
  5
245
100
AcDbEntity
  8
0
100
AcDbLine
 62
7
  6
CONTINUOUS
 10
3.4470272509
 20
2.5057915853
 11
3.77168529
 21
2.5057915853
  0
LINE
  5
246
100
AcDbEntity
  8
0
100
AcDbLine
 62
7
  6
CONTINUOUS
 10
4.0464640225
 20
2.5057915853
 11
4.3711220616
 21
2.5057915853
  0
LINE
  5
247
100
AcDbEntity
  8
0
100
AcDbLine
 62
7
  6
CONTINUOUS
 10
5.2453375657
 20
2.5057915853
 11
5.5699956048
 21
2.5057915853
  0
LINE
  5
248
100
AcDbEntity
  8
0
100
AcDbLine
 62
7
  6
CONTINUOUS
 10
5.8447743374
 20
2.5057915853
 11
6.1694323765
 21
2.5057915853
  0
LINE
  5
249
100
AcDbEntity
  8
0
100
AcDbLine
 62
7
  6
CONTINUOUS
 10
6.444211109
 20
2.5057915853
 11
6.7688691481
 21
2.5057915853
  0
LINE
  5
24A
100
AcDbEntity
  8
0
100
AcDbLine
 62
7
  6
CONTINUOUS
 10
7.0436478806
 20
2.5057915853
 11
7.3683059197
 21
2.5057915853
  0
LINE
  5
24B
100
AcDbEntity
  8
0
100
AcDbLine
 62
7
  6
CONTINUOUS
 10
3.1921724123
 20
1.9271365721
 11
3.1921724123
 21
2.2517946112
  0
LINE
  5
24C
100
AcDbEntity
  8
0
100
AcDbLine
 62
7
  6
CONTINUOUS
 10
3.1921724123
 20
2.5257154792
 11
3.1921724123
 21
2.8503735184
  0
LINE
  5
24D
100
AcDbEntity
  8
0
100
AcDbLine
 62
7
  6
CONTINUOUS
 10
3.1921724123
 20
3.1251522509
 11
3.1921724123
 21
3.44981029
  0
LINE
  5
24E
100
AcDbEntity
  8
0
100
AcDbLine
 62
7
  6
CONTINUOUS
 10
3.1921724123
 20
3.7245890225
 11
3.1921724123
 21
4.0492470616
  0
LINE
  5
24F
100
AcDbEntity
  8
0
100
AcDbLine
 62
7
  6
CONTINUOUS
 10
3.1921724123
 20
4.9234625657
 11
3.1921724123
 21
5.2481206048
  0
LINE
  5
250
100
AcDbEntity
  8
0
100
AcDbLine
 62
7
  6
CONTINUOUS
 10
3.1921724123
 20
5.5228993374
 11
3.1921724123
 21
5.8475573765
  0
LINE
  5
251
100
AcDbEntity
  8
0
100
AcDbLine
 62
7
  6
CONTINUOUS
 10
3.1921724123
 20
6.122336109
 11
3.1921724123
 21
6.4469941481
  0
LINE
  5
252
100
AcDbEntity
  8
0
100
AcDbLine
 62
7
  6
CONTINUOUS
 10
3.1921724123
 20
6.7217728806
 11
3.1921724123
 21
7.0464309197
  0
LINE
  5
253
100
AcDbEntity
  8
0
100
AcDbLine
 62
7
  6
CONTINUOUS
 10
3.2039924318
 20
4.3122057746
 11
3.2039924318
 21
4.6605038527
  0
LINE
  5
254
100
AcDbEntity
  8
0
100
AcDbLine
 62
7
  6
CONTINUOUS
 10
3.3939846682
 20
4.6818025219
 11
3.3939846682
 21
4.2909071054
  0
LINE
  5
255
100
AcDbEntity
  8
0
100
AcDbLine
 62
7
  6
CONTINUOUS
 10
3.4152833374
 20
5.2599406244
 11
3.4152833374
 21
4.9116425462
  0
LINE
  5
256
100
AcDbEntity
  8
0
100
AcDbLine
 62
7
  6
CONTINUOUS
 10
3.4152833374
 20
4.0610670811
 11
3.4152833374
 21
3.712769003
  0
LINE
  5
257
100
AcDbEntity
  8
0
100
AcDbLine
 62
7
  6
CONTINUOUS
 10
3.4271033569
 20
7.0464309197
 11
3.4271033569
 21
6.7217728806
  0
LINE
  5
258
100
AcDbEntity
  8
0
100
AcDbLine
 62
7
  6
CONTINUOUS
 10
3.4271033569
 20
6.4469941481
 11
3.4271033569
 21
6.122336109
  0
LINE
  5
259
100
AcDbEntity
  8
0
100
AcDbLine
 62
7
  6
CONTINUOUS
 10
3.4271033569
 20
5.8475573765
 11
3.4271033569
 21
5.5228993374
  0
LINE
  5
25A
100
AcDbEntity
  8
0
100
AcDbLine
 62
7
  6
CONTINUOUS
 10
3.4271033569
 20
3.44981029
 11
3.4271033569
 21
3.1251522509
  0
LINE
  5
25B
100
AcDbEntity
  8
0
100
AcDbLine
 62
7
  6
CONTINUOUS
 10
3.4271033569
 20
2.8503735184
 11
3.4271033569
 21
2.5257154792
  0
LINE
  5
25C
100
AcDbEntity
  8
0
100
AcDbLine
 62
7
  6
CONTINUOUS
 10
3.4271033569
 20
2.2517946112
 11
3.4271033569
 21
1.9271365721
  0
LINE
  5
25D
100
AcDbEntity
  8
0
100
AcDbLine
 62
7
  6
CONTINUOUS
 10
7.3683059197
 20
2.8702974123
 11
7.0436478806
 21
2.8702974123
  0
LINE
  5
25E
100
AcDbEntity
  8
0
100
AcDbLine
 62
7
  6
CONTINUOUS
 10
6.7688691481
 20
2.8702974123
 11
6.444211109
 21
2.8702974123
  0
LINE
  5
25F
100
AcDbEntity
  8
0
100
AcDbLine
 62
7
  6
CONTINUOUS
 10
6.1694323765
 20
2.8702974123
 11
5.8447743374
 21
2.8702974123
  0
LINE
  5
260
100
AcDbEntity
  8
0
100
AcDbLine
 62
7
  6
CONTINUOUS
 10
5.5699956048
 20
2.8702974123
 11
5.2453375657
 21
2.8702974123
  0
LINE
  5
261
100
AcDbEntity
  8
0
100
AcDbLine
 62
7
  6
CONTINUOUS
 10
4.3711220616
 20
2.8702974123
 11
4.0464640225
 21
2.8702974123
  0
LINE
  5
262
100
AcDbEntity
  8
0
100
AcDbLine
 62
7
  6
CONTINUOUS
 10
3.77168529
 20
2.8702974123
 11
3.4470272509
 21
2.8702974123
  0
LINE
  5
263
100
AcDbEntity
  8
0
100
AcDbLine
 62
7
  6
CONTINUOUS
 10
3.1722485184
 20
2.8702974123
 11
2.8475904792
 21
2.8702974123
  0
LINE
  5
264
100
AcDbEntity
  8
0
100
AcDbLine
 62
7
  6
CONTINUOUS
 10
2.5728117467
 20
2.8702974123
 11
2.2481537076
 21
2.8702974123
  0
LINE
  5
265
100
AcDbEntity
  8
0
100
AcDbLine
 62
7
  6
CONTINUOUS
 10
4.9823788527
 20
2.8821174318
 11
4.6340807746
 21
2.8821174318
  0
LINE
  5
266
100
AcDbEntity
  8
0
100
AcDbLine
 62
7
  6
CONTINUOUS
 10
4.6127821054
 20
3.0721096682
 11
5.0036775219
 21
3.0721096682
  0
LINE
  5
267
100
AcDbEntity
  8
0
100
AcDbLine
 62
7
  6
CONTINUOUS
 10
4.034644003
 20
3.0934083374
 11
4.3829420811
 21
3.0934083374
  0
LINE
  5
268
100
AcDbEntity
  8
0
100
AcDbLine
 62
7
  6
CONTINUOUS
 10
5.2335175462
 20
3.0934083374
 11
5.5818156244
 21
3.0934083374
  0
LINE
  5
269
100
AcDbEntity
  8
0
100
AcDbLine
 62
7
  6
CONTINUOUS
 10
2.2481537076
 20
3.1052283569
 11
2.5728117467
 21
3.1052283569
  0
LINE
  5
26A
100
AcDbEntity
  8
0
100
AcDbLine
 62
7
  6
CONTINUOUS
 10
2.8475904792
 20
3.1052283569
 11
3.1722485184
 21
3.1052283569
  0
LINE
  5
26B
100
AcDbEntity
  8
0
100
AcDbLine
 62
7
  6
CONTINUOUS
 10
3.4470272509
 20
3.1052283569
 11
3.77168529
 21
3.1052283569
  0
LINE
  5
26C
100
AcDbEntity
  8
0
100
AcDbLine
 62
7
  6
CONTINUOUS
 10
5.8447743374
 20
3.1052283569
 11
6.1694323765
 21
3.1052283569
  0
LINE
  5
26D
100
AcDbEntity
  8
0
100
AcDbLine
 62
7
  6
CONTINUOUS
 10
6.444211109
 20
3.1052283569
 11
6.7688691481
 21
3.1052283569
  0
LINE
  5
26E
100
AcDbEntity
  8
0
100
AcDbLine
 62
7
  6
CONTINUOUS
 10
7.0436478806
 20
3.1052283569
 11
7.3683059197
 21
3.1052283569
  0
LINE
  5
26F
100
AcDbEntity
  8
0
100
AcDbLine
 62
7
  6
CONTINUOUS
 10
3.7916091839
 20
1.9271365721
 11
3.7916091839
 21
2.2517946112
  0
LINE
  5
270
100
AcDbEntity
  8
0
100
AcDbLine
 62
7
  6
CONTINUOUS
 10
3.7916091839
 20
2.5257154792
 11
3.7916091839
 21
2.8503735184
  0
LINE
  5
271
100
AcDbEntity
  8
0
100
AcDbLine
 62
7
  6
CONTINUOUS
 10
3.7916091839
 20
3.1251522509
 11
3.7916091839
 21
3.44981029
  0
LINE
  5
272
100
AcDbEntity
  8
0
100
AcDbLine
 62
7
  6
CONTINUOUS
 10
3.7916091839
 20
5.5228993374
 11
3.7916091839
 21
5.8475573765
  0
LINE
  5
273
100
AcDbEntity
  8
0
100
AcDbLine
 62
7
  6
CONTINUOUS
 10
3.7916091839
 20
6.122336109
 11
3.7916091839
 21
6.4469941481
  0
LINE
  5
274
100
AcDbEntity
  8
0
100
AcDbLine
 62
7
  6
CONTINUOUS
 10
3.7916091839
 20
6.7217728806
 11
3.7916091839
 21
7.0464309197
  0
LINE
  5
275
100
AcDbEntity
  8
0
100
AcDbLine
 62
7
  6
CONTINUOUS
 10
3.8034292035
 20
3.712769003
 11
3.8034292035
 21
4.0610670811
  0
LINE
  5
276
100
AcDbEntity
  8
0
100
AcDbLine
 62
7
  6
CONTINUOUS
 10
3.8034292035
 20
4.9116425462
 11
3.8034292035
 21
5.2599406244
  0
LINE
  5
277
100
AcDbEntity
  8
0
100
AcDbLine
 62
7
  6
CONTINUOUS
 10
3.8247278726
 20
4.2909071054
 11
3.8247278726
 21
4.6818025219
  0
LINE
  5
278
100
AcDbEntity
  8
0
100
AcDbLine
 62
7
  6
CONTINUOUS
 10
3.9813079033
 20
4.6939160585
 11
3.9813079033
 21
4.2787935689
  0
LINE
  5
279
100
AcDbEntity
  8
0
100
AcDbLine
 62
7
  6
CONTINUOUS
 10
3.9934214398
 20
5.2812392935
 11
3.9934214398
 21
4.890343877
  0
LINE
  5
27A
100
AcDbEntity
  8
0
100
AcDbLine
 62
7
  6
CONTINUOUS
 10
3.9934214398
 20
4.0823657503
 11
3.9934214398
 21
3.6914703338
  0
LINE
  5
27B
100
AcDbEntity
  8
0
100
AcDbLine
 62
7
  6
CONTINUOUS
 10
7.3683059197
 20
3.4697341839
 11
7.0436478806
 21
3.4697341839
  0
LINE
  5
27C
100
AcDbEntity
  8
0
100
AcDbLine
 62
7
  6
CONTINUOUS
 10
6.7688691481
 20
3.4697341839
 11
6.444211109
 21
3.4697341839
  0
LINE
  5
27D
100
AcDbEntity
  8
0
100
AcDbLine
 62
7
  6
CONTINUOUS
 10
6.1694323765
 20
3.4697341839
 11
5.8447743374
 21
3.4697341839
  0
LINE
  5
27E
100
AcDbEntity
  8
0
100
AcDbLine
 62
7
  6
CONTINUOUS
 10
3.77168529
 20
3.4697341839
 11
3.4470272509
 21
3.4697341839
  0
LINE
  5
27F
100
AcDbEntity
  8
0
100
AcDbLine
 62
7
  6
CONTINUOUS
 10
3.1722485184
 20
3.4697341839
 11
2.8475904792
 21
3.4697341839
  0
LINE
  5
280
100
AcDbEntity
  8
0
100
AcDbLine
 62
7
  6
CONTINUOUS
 10
2.5728117467
 20
3.4697341839
 11
2.2481537076
 21
3.4697341839
  0
LINE
  5
281
100
AcDbEntity
  8
0
100
AcDbLine
 62
7
  6
CONTINUOUS
 10
5.5818156244
 20
3.4815542035
 11
5.2335175462
 21
3.4815542035
  0
LINE
  5
282
100
AcDbEntity
  8
0
100
AcDbLine
 62
7
  6
CONTINUOUS
 10
4.3829420811
 20
3.4815542035
 11
4.034644003
 21
3.4815542035
  0
LINE
  5
283
100
AcDbEntity
  8
0
100
AcDbLine
 62
7
  6
CONTINUOUS
 10
5.0036775219
 20
3.5028528726
 11
4.6127821054
 21
3.5028528726
  0
LINE
  5
284
100
AcDbEntity
  8
0
100
AcDbLine
 62
7
  6
CONTINUOUS
 10
4.6006685689
 20
3.6594329033
 11
5.0157910585
 21
3.6594329033
  0
LINE
  5
285
100
AcDbEntity
  8
0
100
AcDbLine
 62
7
  6
CONTINUOUS
 10
4.0133453338
 20
3.6715464398
 11
4.4042407503
 21
3.6715464398
  0
LINE
  5
286
100
AcDbEntity
  8
0
100
AcDbLine
 62
7
  6
CONTINUOUS
 10
5.212218877
 20
3.6715464398
 11
5.6031142935
 21
3.6715464398
  0
LINE
  5
287
100
AcDbEntity
  8
0
100
AcDbLine
 62
7
  6
CONTINUOUS
 10
4.014720109
 20
5.859377396
 11
4.014720109
 21
5.5110793178
  0
LINE
  5
288
100
AcDbEntity
  8
0
100
AcDbLine
 62
7
  6
CONTINUOUS
 10
4.014720109
 20
3.4616303095
 11
4.014720109
 21
3.1133322314
  0
LINE
  5
289
100
AcDbEntity
  8
0
100
AcDbLine
 62
7
  6
CONTINUOUS
 10
4.0265401285
 20
7.0464309197
 11
4.0265401285
 21
6.7217728806
  0
LINE
  5
28A
100
AcDbEntity
  8
0
100
AcDbLine
 62
7
  6
CONTINUOUS
 10
4.0265401285
 20
6.4469941481
 11
4.0265401285
 21
6.122336109
  0
LINE
  5
28B
100
AcDbEntity
  8
0
100
AcDbLine
 62
7
  6
CONTINUOUS
 10
4.0265401285
 20
2.8503735184
 11
4.0265401285
 21
2.5257154792
  0
LINE
  5
28C
100
AcDbEntity
  8
0
100
AcDbLine
 62
7
  6
CONTINUOUS
 10
4.0265401285
 20
2.2517946112
 11
4.0265401285
 21
1.9271365721
  0
LINE
  5
28D
100
AcDbEntity
  8
0
100
AcDbLine
 62
7
  6
CONTINUOUS
 10
3.4352072314
 20
3.692845109
 11
3.7835053095
 21
3.692845109
  0
LINE
  5
28E
100
AcDbEntity
  8
0
100
AcDbLine
 62
7
  6
CONTINUOUS
 10
5.8329543178
 20
3.692845109
 11
6.181252396
 21
3.692845109
  0
LINE
  5
28F
100
AcDbEntity
  8
0
100
AcDbLine
 62
7
  6
CONTINUOUS
 10
2.2481537076
 20
3.7046651285
 11
2.5728117467
 21
3.7046651285
  0
LINE
  5
290
100
AcDbEntity
  8
0
100
AcDbLine
 62
7
  6
CONTINUOUS
 10
2.8475904792
 20
3.7046651285
 11
3.1722485184
 21
3.7046651285
  0
LINE
  5
291
100
AcDbEntity
  8
0
100
AcDbLine
 62
7
  6
CONTINUOUS
 10
6.444211109
 20
3.7046651285
 11
6.7688691481
 21
3.7046651285
  0
LINE
  5
292
100
AcDbEntity
  8
0
100
AcDbLine
 62
7
  6
CONTINUOUS
 10
7.0436478806
 20
3.7046651285
 11
7.3683059197
 21
3.7046651285
  0
LINE
  5
293
100
AcDbEntity
  8
0
100
AcDbLine
 62
7
  6
CONTINUOUS
 10
4.3910459556
 20
1.9271365721
 11
4.3910459556
 21
2.2517946112
  0
LINE
  5
294
100
AcDbEntity
  8
0
100
AcDbLine
 62
7
  6
CONTINUOUS
 10
4.3910459556
 20
2.5257154792
 11
4.3910459556
 21
2.8503735184
  0
LINE
  5
295
100
AcDbEntity
  8
0
100
AcDbLine
 62
7
  6
CONTINUOUS
 10
4.3910459556
 20
6.122336109
 11
4.3910459556
 21
6.4469941481
  0
LINE
  5
296
100
AcDbEntity
  8
0
100
AcDbLine
 62
7
  6
CONTINUOUS
 10
4.3910459556
 20
6.7217728806
 11
4.3910459556
 21
7.0464309197
  0
LINE
  5
297
100
AcDbEntity
  8
0
100
AcDbLine
 62
7
  6
CONTINUOUS
 10
4.4028659751
 20
3.1133322314
 11
4.4028659751
 21
3.4616303095
  0
LINE
  5
298
100
AcDbEntity
  8
0
100
AcDbLine
 62
7
  6
CONTINUOUS
 10
4.4028659751
 20
5.5110793178
 11
4.4028659751
 21
5.859377396
  0
LINE
  5
299
100
AcDbEntity
  8
0
100
AcDbLine
 62
7
  6
CONTINUOUS
 10
4.4241646442
 20
3.6914703338
 11
4.4241646442
 21
4.0823657503
  0
LINE
  5
29A
100
AcDbEntity
  8
0
100
AcDbLine
 62
7
  6
CONTINUOUS
 10
4.4241646442
 20
4.890343877
 11
4.4241646442
 21
5.2812392935
  0
LINE
  5
29B
100
AcDbEntity
  8
0
100
AcDbLine
 62
7
  6
CONTINUOUS
 10
4.4362781808
 20
4.2787935689
 11
4.4362781808
 21
4.6939160585
  0
LINE
  5
29C
100
AcDbEntity
  8
0
100
AcDbLine
 62
7
  6
CONTINUOUS
 10
7.3683059197
 20
4.0691709556
 11
7.0436478806
 21
4.0691709556
  0
LINE
  5
29D
100
AcDbEntity
  8
0
100
AcDbLine
 62
7
  6
CONTINUOUS
 10
6.7688691481
 20
4.0691709556
 11
6.444211109
 21
4.0691709556
  0
LINE
  5
29E
100
AcDbEntity
  8
0
100
AcDbLine
 62
7
  6
CONTINUOUS
 10
3.1722485184
 20
4.0691709556
 11
2.8475904792
 21
4.0691709556
  0
LINE
  5
29F
100
AcDbEntity
  8
0
100
AcDbLine
 62
7
  6
CONTINUOUS
 10
2.5728117467
 20
4.0691709556
 11
2.2481537076
 21
4.0691709556
  0
LINE
  5
2A0
100
AcDbEntity
  8
0
100
AcDbLine
 62
7
  6
CONTINUOUS
 10
6.181252396
 20
4.0809909751
 11
5.8329543178
 21
4.0809909751
  0
LINE
  5
2A1
100
AcDbEntity
  8
0
100
AcDbLine
 62
7
  6
CONTINUOUS
 10
3.7835053095
 20
4.0809909751
 11
3.4352072314
 21
4.0809909751
  0
LINE
  5
2A2
100
AcDbEntity
  8
0
100
AcDbLine
 62
7
  6
CONTINUOUS
 10
5.6031142935
 20
4.1022896442
 11
5.212218877
 21
4.1022896442
  0
LINE
  5
2A3
100
AcDbEntity
  8
0
100
AcDbLine
 62
7
  6
CONTINUOUS
 10
4.4042407503
 20
4.1022896442
 11
4.0133453338
 21
4.1022896442
  0
LINE
  5
2A4
100
AcDbEntity
  8
0
100
AcDbLine
 62
7
  6
CONTINUOUS
 10
5.0157910585
 20
4.1144031808
 11
4.6006685689
 21
4.1144031808
  0
LINE
  5
2A5
100
AcDbEntity
  8
0
100
AcDbLine
 62
7
  6
CONTINUOUS
 10
4.5686311383
 20
4.706029595
 11
4.5686311383
 21
4.2666800323
  0
LINE
  5
2A6
100
AcDbEntity
  8
0
100
AcDbLine
 62
7
  6
CONTINUOUS
 10
4.5807446749
 20
5.2933528301
 11
4.5807446749
 21
4.8782303405
  0
LINE
  5
2A7
100
AcDbEntity
  8
0
100
AcDbLine
 62
7
  6
CONTINUOUS
 10
4.5807446749
 20
4.0944792869
 11
4.5807446749
 21
3.6793567972
  0
LINE
  5
2A8
100
AcDbEntity
  8
0
100
AcDbLine
 62
7
  6
CONTINUOUS
 10
4.5928582115
 20
5.8806760652
 11
4.5928582115
 21
5.4897806487
  0
LINE
  5
2A9
100
AcDbEntity
  8
0
100
AcDbLine
 62
7
  6
CONTINUOUS
 10
4.5928582115
 20
3.4829289787
 11
4.5928582115
 21
3.0920335622
  0
LINE
  5
2AA
100
AcDbEntity
  8
0
100
AcDbLine
 62
7
  6
CONTINUOUS
 10
4.6141568806
 20
6.4588141676
 11
4.6141568806
 21
6.1105160895
  0
LINE
  5
2AB
100
AcDbEntity
  8
0
100
AcDbLine
 62
7
  6
CONTINUOUS
 10
4.6141568806
 20
2.8621935379
 11
4.6141568806
 21
2.5138954597
  0
LINE
  5
2AC
100
AcDbEntity
  8
0
100
AcDbLine
 62
7
  6
CONTINUOUS
 10
4.6259769002
 20
7.0464309197
 11
4.6259769002
 21
6.7217728806
  0
LINE
  5
2AD
100
AcDbEntity
  8
0
100
AcDbLine
 62
7
  6
CONTINUOUS
 10
4.6259769002
 20
2.2517946112
 11
4.6259769002
 21
1.9271365721
  0
LINE
  5
2AE
100
AcDbEntity
  8
0
100
AcDbLine
 62
7
  6
CONTINUOUS
 10
4.5885550323
 20
4.2467561383
 11
5.027904595
 21
4.2467561383
  0
LINE
  5
2AF
100
AcDbEntity
  8
0
100
AcDbLine
 62
7
  6
CONTINUOUS
 10
4.0012317972
 20
4.2588696749
 11
4.4163542869
 21
4.2588696749
  0
LINE
  5
2B0
100
AcDbEntity
  8
0
100
AcDbLine
 62
7
  6
CONTINUOUS
 10
5.2001053405
 20
4.2588696749
 11
5.6152278301
 21
4.2588696749
  0
LINE
  5
2B1
100
AcDbEntity
  8
0
100
AcDbLine
 62
7
  6
CONTINUOUS
 10
3.4139085622
 20
4.2709832115
 11
3.8048039787
 21
4.2709832115
  0
LINE
  5
2B2
100
AcDbEntity
  8
0
100
AcDbLine
 62
7
  6
CONTINUOUS
 10
5.8116556487
 20
4.2709832115
 11
6.2025510652
 21
4.2709832115
  0
LINE
  5
2B3
100
AcDbEntity
  8
0
100
AcDbLine
 62
7
  6
CONTINUOUS
 10
2.8357704597
 20
4.2922818806
 11
3.1840685379
 21
4.2922818806
  0
LINE
  5
2B4
100
AcDbEntity
  8
0
100
AcDbLine
 62
7
  6
CONTINUOUS
 10
6.4323910895
 20
4.2922818806
 11
6.7806891676
 21
4.2922818806
  0
LINE
  5
2B5
100
AcDbEntity
  8
0
100
AcDbLine
 62
7
  6
CONTINUOUS
 10
2.2481537076
 20
4.3041019002
 11
2.5728117467
 21
4.3041019002
  0
LINE
  5
2B6
100
AcDbEntity
  8
0
100
AcDbLine
 62
7
  6
CONTINUOUS
 10
7.0436478806
 20
4.3041019002
 11
7.3683059197
 21
4.3041019002
  0
LINE
  5
2B7
100
AcDbEntity
  8
0
100
AcDbLine
 62
7
  6
CONTINUOUS
 10
4.9904827272
 20
1.9271365721
 11
4.9904827272
 21
2.2517946112
  0
LINE
  5
2B8
100
AcDbEntity
  8
0
100
AcDbLine
 62
7
  6
CONTINUOUS
 10
4.9904827272
 20
6.7217728806
 11
4.9904827272
 21
7.0464309197
  0
LINE
  5
2B9
100
AcDbEntity
  8
0
100
AcDbLine
 62
7
  6
CONTINUOUS
 10
5.0023027467
 20
2.5138954597
 11
5.0023027467
 21
2.8621935379
  0
LINE
  5
2BA
100
AcDbEntity
  8
0
100
AcDbLine
 62
7
  6
CONTINUOUS
 10
5.0023027467
 20
6.1105160895
 11
5.0023027467
 21
6.4588141676
  0
LINE
  5
2BB
100
AcDbEntity
  8
0
100
AcDbLine
 62
7
  6
CONTINUOUS
 10
5.0236014159
 20
3.0920335622
 11
5.0236014159
 21
3.4829289787
  0
LINE
  5
2BC
100
AcDbEntity
  8
0
100
AcDbLine
 62
7
  6
CONTINUOUS
 10
5.0236014159
 20
5.4897806487
 11
5.0236014159
 21
5.8806760652
  0
LINE
  5
2BD
100
AcDbEntity
  8
0
100
AcDbLine
 62
7
  6
CONTINUOUS
 10
5.0357149524
 20
3.6793567972
 11
5.0357149524
 21
4.0944792869
  0
LINE
  5
2BE
100
AcDbEntity
  8
0
100
AcDbLine
 62
7
  6
CONTINUOUS
 10
5.0357149524
 20
4.8782303405
 11
5.0357149524
 21
5.2933528301
  0
LINE
  5
2BF
100
AcDbEntity
  8
0
100
AcDbLine
 62
7
  6
CONTINUOUS
 10
5.047828489
 20
4.2666800323
 11
5.047828489
 21
4.706029595
  0
LINE
  5
2C0
100
AcDbEntity
  8
0
100
AcDbLine
 62
7
  6
CONTINUOUS
 10
7.3683059197
 20
4.6686077272
 11
7.0436478806
 21
4.6686077272
  0
LINE
  5
2C1
100
AcDbEntity
  8
0
100
AcDbLine
 62
7
  6
CONTINUOUS
 10
2.5728117467
 20
4.6686077272
 11
2.2481537076
 21
4.6686077272
  0
LINE
  5
2C2
100
AcDbEntity
  8
0
100
AcDbLine
 62
7
  6
CONTINUOUS
 10
6.7806891676
 20
4.6804277467
 11
6.4323910895
 21
4.6804277467
  0
LINE
  5
2C3
100
AcDbEntity
  8
0
100
AcDbLine
 62
7
  6
CONTINUOUS
 10
3.1840685379
 20
4.6804277467
 11
2.8357704597
 21
4.6804277467
  0
LINE
  5
2C4
100
AcDbEntity
  8
0
100
AcDbLine
 62
7
  6
CONTINUOUS
 10
6.2025510652
 20
4.7017264159
 11
5.8116556487
 21
4.7017264159
  0
LINE
  5
2C5
100
AcDbEntity
  8
0
100
AcDbLine
 62
7
  6
CONTINUOUS
 10
3.8048039787
 20
4.7017264159
 11
3.4139085622
 21
4.7017264159
  0
LINE
  5
2C6
100
AcDbEntity
  8
0
100
AcDbLine
 62
7
  6
CONTINUOUS
 10
5.6152278301
 20
4.7138399524
 11
5.2001053405
 21
4.7138399524
  0
LINE
  5
2C7
100
AcDbEntity
  8
0
100
AcDbLine
 62
7
  6
CONTINUOUS
 10
4.4163542869
 20
4.7138399524
 11
4.0012317972
 21
4.7138399524
  0
LINE
  5
2C8
100
AcDbEntity
  8
0
100
AcDbLine
 62
7
  6
CONTINUOUS
 10
5.027904595
 20
4.725953489
 11
4.5885550323
 21
4.725953489
  0
LINE
  5
2C9
100
AcDbEntity
  8
0
100
AcDbLine
 62
7
  6
CONTINUOUS
 10
5.1801814465
 20
4.6939160585
 11
5.1801814465
 21
4.2787935689
  0
LINE
  5
2CA
100
AcDbEntity
  8
0
100
AcDbLine
 62
7
  6
CONTINUOUS
 10
5.1922949831
 20
5.2812392935
 11
5.1922949831
 21
4.890343877
  0
LINE
  5
2CB
100
AcDbEntity
  8
0
100
AcDbLine
 62
7
  6
CONTINUOUS
 10
5.1922949831
 20
4.0823657503
 11
5.1922949831
 21
3.6914703338
  0
LINE
  5
2CC
100
AcDbEntity
  8
0
100
AcDbLine
 62
7
  6
CONTINUOUS
 10
5.2135936523
 20
5.859377396
 11
5.2135936523
 21
5.5110793178
  0
LINE
  5
2CD
100
AcDbEntity
  8
0
100
AcDbLine
 62
7
  6
CONTINUOUS
 10
5.2135936523
 20
3.4616303095
 11
5.2135936523
 21
3.1133322314
  0
LINE
  5
2CE
100
AcDbEntity
  8
0
100
AcDbLine
 62
7
  6
CONTINUOUS
 10
5.2254136718
 20
7.0464309197
 11
5.2254136718
 21
6.7217728806
  0
LINE
  5
2CF
100
AcDbEntity
  8
0
100
AcDbLine
 62
7
  6
CONTINUOUS
 10
5.2254136718
 20
6.4469941481
 11
5.2254136718
 21
6.122336109
  0
LINE
  5
2D0
100
AcDbEntity
  8
0
100
AcDbLine
 62
7
  6
CONTINUOUS
 10
5.2254136718
 20
2.8503735184
 11
5.2254136718
 21
2.5257154792
  0
LINE
  5
2D1
100
AcDbEntity
  8
0
100
AcDbLine
 62
7
  6
CONTINUOUS
 10
5.2254136718
 20
2.2517946112
 11
5.2254136718
 21
1.9271365721
  0
LINE
  5
2D2
100
AcDbEntity
  8
0
100
AcDbLine
 62
7
  6
CONTINUOUS
 10
4.6006685689
 20
4.8583064465
 11
5.0157910585
 21
4.8583064465
  0
LINE
  5
2D3
100
AcDbEntity
  8
0
100
AcDbLine
 62
7
  6
CONTINUOUS
 10
4.0133453338
 20
4.8704199831
 11
4.4042407503
 21
4.8704199831
  0
LINE
  5
2D4
100
AcDbEntity
  8
0
100
AcDbLine
 62
7
  6
CONTINUOUS
 10
5.212218877
 20
4.8704199831
 11
5.6031142935
 21
4.8704199831
  0
LINE
  5
2D5
100
AcDbEntity
  8
0
100
AcDbLine
 62
7
  6
CONTINUOUS
 10
3.4352072314
 20
4.8917186523
 11
3.7835053095
 21
4.8917186523
  0
LINE
  5
2D6
100
AcDbEntity
  8
0
100
AcDbLine
 62
7
  6
CONTINUOUS
 10
5.8329543178
 20
4.8917186523
 11
6.181252396
 21
4.8917186523
  0
LINE
  5
2D7
100
AcDbEntity
  8
0
100
AcDbLine
 62
7
  6
CONTINUOUS
 10
2.2481537076
 20
4.9035386718
 11
2.5728117467
 21
4.9035386718
  0
LINE
  5
2D8
100
AcDbEntity
  8
0
100
AcDbLine
 62
7
  6
CONTINUOUS
 10
2.8475904792
 20
4.9035386718
 11
3.1722485184
 21
4.9035386718
  0
LINE
  5
2D9
100
AcDbEntity
  8
0
100
AcDbLine
 62
7
  6
CONTINUOUS
 10
6.444211109
 20
4.9035386718
 11
6.7688691481
 21
4.9035386718
  0
LINE
  5
2DA
100
AcDbEntity
  8
0
100
AcDbLine
 62
7
  6
CONTINUOUS
 10
7.0436478806
 20
4.9035386718
 11
7.3683059197
 21
4.9035386718
  0
LINE
  5
2DB
100
AcDbEntity
  8
0
100
AcDbLine
 62
7
  6
CONTINUOUS
 10
5.5899194988
 20
1.9271365721
 11
5.5899194988
 21
2.2517946112
  0
LINE
  5
2DC
100
AcDbEntity
  8
0
100
AcDbLine
 62
7
  6
CONTINUOUS
 10
5.5899194988
 20
2.5257154792
 11
5.5899194988
 21
2.8503735184
  0
LINE
  5
2DD
100
AcDbEntity
  8
0
100
AcDbLine
 62
7
  6
CONTINUOUS
 10
5.5899194988
 20
6.122336109
 11
5.5899194988
 21
6.4469941481
  0
LINE
  5
2DE
100
AcDbEntity
  8
0
100
AcDbLine
 62
7
  6
CONTINUOUS
 10
5.5899194988
 20
6.7217728806
 11
5.5899194988
 21
7.0464309197
  0
LINE
  5
2DF
100
AcDbEntity
  8
0
100
AcDbLine
 62
7
  6
CONTINUOUS
 10
5.6017395183
 20
3.1133322314
 11
5.6017395183
 21
3.4616303095
  0
LINE
  5
2E0
100
AcDbEntity
  8
0
100
AcDbLine
 62
7
  6
CONTINUOUS
 10
5.6017395183
 20
5.5110793178
 11
5.6017395183
 21
5.859377396
  0
LINE
  5
2E1
100
AcDbEntity
  8
0
100
AcDbLine
 62
7
  6
CONTINUOUS
 10
5.6230381875
 20
3.6914703338
 11
5.6230381875
 21
4.0823657503
  0
LINE
  5
2E2
100
AcDbEntity
  8
0
100
AcDbLine
 62
7
  6
CONTINUOUS
 10
5.6230381875
 20
4.890343877
 11
5.6230381875
 21
5.2812392935
  0
LINE
  5
2E3
100
AcDbEntity
  8
0
100
AcDbLine
 62
7
  6
CONTINUOUS
 10
5.6351517241
 20
4.2787935689
 11
5.6351517241
 21
4.6939160585
  0
LINE
  5
2E4
100
AcDbEntity
  8
0
100
AcDbLine
 62
7
  6
CONTINUOUS
 10
7.3683059197
 20
5.2680444988
 11
7.0436478806
 21
5.2680444988
  0
LINE
  5
2E5
100
AcDbEntity
  8
0
100
AcDbLine
 62
7
  6
CONTINUOUS
 10
6.7688691481
 20
5.2680444988
 11
6.444211109
 21
5.2680444988
  0
LINE
  5
2E6
100
AcDbEntity
  8
0
100
AcDbLine
 62
7
  6
CONTINUOUS
 10
3.1722485184
 20
5.2680444988
 11
2.8475904792
 21
5.2680444988
  0
LINE
  5
2E7
100
AcDbEntity
  8
0
100
AcDbLine
 62
7
  6
CONTINUOUS
 10
2.5728117467
 20
5.2680444988
 11
2.2481537076
 21
5.2680444988
  0
LINE
  5
2E8
100
AcDbEntity
  8
0
100
AcDbLine
 62
7
  6
CONTINUOUS
 10
6.181252396
 20
5.2798645183
 11
5.8329543178
 21
5.2798645183
  0
LINE
  5
2E9
100
AcDbEntity
  8
0
100
AcDbLine
 62
7
  6
CONTINUOUS
 10
3.7835053095
 20
5.2798645183
 11
3.4352072314
 21
5.2798645183
  0
LINE
  5
2EA
100
AcDbEntity
  8
0
100
AcDbLine
 62
7
  6
CONTINUOUS
 10
5.6031142935
 20
5.3011631875
 11
5.212218877
 21
5.3011631875
  0
LINE
  5
2EB
100
AcDbEntity
  8
0
100
AcDbLine
 62
7
  6
CONTINUOUS
 10
4.4042407503
 20
5.3011631875
 11
4.0133453338
 21
5.3011631875
  0
LINE
  5
2EC
100
AcDbEntity
  8
0
100
AcDbLine
 62
7
  6
CONTINUOUS
 10
5.0157910585
 20
5.3132767241
 11
4.6006685689
 21
5.3132767241
  0
LINE
  5
2ED
100
AcDbEntity
  8
0
100
AcDbLine
 62
7
  6
CONTINUOUS
 10
5.7917317547
 20
4.6818025219
 11
5.7917317547
 21
4.2909071054
  0
LINE
  5
2EE
100
AcDbEntity
  8
0
100
AcDbLine
 62
7
  6
CONTINUOUS
 10
5.8130304239
 20
5.2599406244
 11
5.8130304239
 21
4.9116425462
  0
LINE
  5
2EF
100
AcDbEntity
  8
0
100
AcDbLine
 62
7
  6
CONTINUOUS
 10
5.8130304239
 20
4.0610670811
 11
5.8130304239
 21
3.712769003
  0
LINE
  5
2F0
100
AcDbEntity
  8
0
100
AcDbLine
 62
7
  6
CONTINUOUS
 10
5.8248504434
 20
7.0464309197
 11
5.8248504434
 21
6.7217728806
  0
LINE
  5
2F1
100
AcDbEntity
  8
0
100
AcDbLine
 62
7
  6
CONTINUOUS
 10
5.8248504434
 20
6.4469941481
 11
5.8248504434
 21
6.122336109
  0
LINE
  5
2F2
100
AcDbEntity
  8
0
100
AcDbLine
 62
7
  6
CONTINUOUS
 10
5.8248504434
 20
5.8475573765
 11
5.8248504434
 21
5.5228993374
  0
LINE
  5
2F3
100
AcDbEntity
  8
0
100
AcDbLine
 62
7
  6
CONTINUOUS
 10
5.8248504434
 20
3.44981029
 11
5.8248504434
 21
3.1251522509
  0
LINE
  5
2F4
100
AcDbEntity
  8
0
100
AcDbLine
 62
7
  6
CONTINUOUS
 10
5.8248504434
 20
2.8503735184
 11
5.8248504434
 21
2.5257154792
  0
LINE
  5
2F5
100
AcDbEntity
  8
0
100
AcDbLine
 62
7
  6
CONTINUOUS
 10
5.8248504434
 20
2.2517946112
 11
5.8248504434
 21
1.9271365721
  0
LINE
  5
2F6
100
AcDbEntity
  8
0
100
AcDbLine
 62
7
  6
CONTINUOUS
 10
4.6127821054
 20
5.4698567547
 11
5.0036775219
 21
5.4698567547
  0
LINE
  5
2F7
100
AcDbEntity
  8
0
100
AcDbLine
 62
7
  6
CONTINUOUS
 10
4.034644003
 20
5.4911554239
 11
4.3829420811
 21
5.4911554239
  0
LINE
  5
2F8
100
AcDbEntity
  8
0
100
AcDbLine
 62
7
  6
CONTINUOUS
 10
5.2335175462
 20
5.4911554239
 11
5.5818156244
 21
5.4911554239
  0
LINE
  5
2F9
100
AcDbEntity
  8
0
100
AcDbLine
 62
7
  6
CONTINUOUS
 10
2.2481537076
 20
5.5029754434
 11
2.5728117467
 21
5.5029754434
  0
LINE
  5
2FA
100
AcDbEntity
  8
0
100
AcDbLine
 62
7
  6
CONTINUOUS
 10
2.8475904792
 20
5.5029754434
 11
3.1722485184
 21
5.5029754434
  0
LINE
  5
2FB
100
AcDbEntity
  8
0
100
AcDbLine
 62
7
  6
CONTINUOUS
 10
3.4470272509
 20
5.5029754434
 11
3.77168529
 21
5.5029754434
  0
LINE
  5
2FC
100
AcDbEntity
  8
0
100
AcDbLine
 62
7
  6
CONTINUOUS
 10
5.8447743374
 20
5.5029754434
 11
6.1694323765
 21
5.5029754434
  0
LINE
  5
2FD
100
AcDbEntity
  8
0
100
AcDbLine
 62
7
  6
CONTINUOUS
 10
6.444211109
 20
5.5029754434
 11
6.7688691481
 21
5.5029754434
  0
LINE
  5
2FE
100
AcDbEntity
  8
0
100
AcDbLine
 62
7
  6
CONTINUOUS
 10
7.0436478806
 20
5.5029754434
 11
7.3683059197
 21
5.5029754434
  0
LINE
  5
2FF
100
AcDbEntity
  8
0
100
AcDbLine
 62
7
  6
CONTINUOUS
 10
6.1893562704
 20
1.9271365721
 11
6.1893562704
 21
2.2517946112
  0
LINE
  5
300
100
AcDbEntity
  8
0
100
AcDbLine
 62
7
  6
CONTINUOUS
 10
6.1893562704
 20
2.5257154792
 11
6.1893562704
 21
2.8503735184
  0
LINE
  5
301
100
AcDbEntity
  8
0
100
AcDbLine
 62
7
  6
CONTINUOUS
 10
6.1893562704
 20
3.1251522509
 11
6.1893562704
 21
3.44981029
  0
LINE
  5
302
100
AcDbEntity
  8
0
100
AcDbLine
 62
7
  6
CONTINUOUS
 10
6.1893562704
 20
5.5228993374
 11
6.1893562704
 21
5.8475573765
  0
LINE
  5
303
100
AcDbEntity
  8
0
100
AcDbLine
 62
7
  6
CONTINUOUS
 10
6.1893562704
 20
6.122336109
 11
6.1893562704
 21
6.4469941481
  0
LINE
  5
304
100
AcDbEntity
  8
0
100
AcDbLine
 62
7
  6
CONTINUOUS
 10
6.1893562704
 20
6.7217728806
 11
6.1893562704
 21
7.0464309197
  0
LINE
  5
305
100
AcDbEntity
  8
0
100
AcDbLine
 62
7
  6
CONTINUOUS
 10
6.2011762899
 20
3.712769003
 11
6.2011762899
 21
4.0610670811
  0
LINE
  5
306
100
AcDbEntity
  8
0
100
AcDbLine
 62
7
  6
CONTINUOUS
 10
6.2011762899
 20
4.9116425462
 11
6.2011762899
 21
5.2599406244
  0
LINE
  5
307
100
AcDbEntity
  8
0
100
AcDbLine
 62
7
  6
CONTINUOUS
 10
6.2224749591
 20
4.2909071054
 11
6.2224749591
 21
4.6818025219
  0
LINE
  5
308
100
AcDbEntity
  8
0
100
AcDbLine
 62
7
  6
CONTINUOUS
 10
7.3683059197
 20
5.8674812704
 11
7.0436478806
 21
5.8674812704
  0
LINE
  5
309
100
AcDbEntity
  8
0
100
AcDbLine
 62
7
  6
CONTINUOUS
 10
6.7688691481
 20
5.8674812704
 11
6.444211109
 21
5.8674812704
  0
LINE
  5
30A
100
AcDbEntity
  8
0
100
AcDbLine
 62
7
  6
CONTINUOUS
 10
6.1694323765
 20
5.8674812704
 11
5.8447743374
 21
5.8674812704
  0
LINE
  5
30B
100
AcDbEntity
  8
0
100
AcDbLine
 62
7
  6
CONTINUOUS
 10
3.77168529
 20
5.8674812704
 11
3.4470272509
 21
5.8674812704
  0
LINE
  5
30C
100
AcDbEntity
  8
0
100
AcDbLine
 62
7
  6
CONTINUOUS
 10
3.1722485184
 20
5.8674812704
 11
2.8475904792
 21
5.8674812704
  0
LINE
  5
30D
100
AcDbEntity
  8
0
100
AcDbLine
 62
7
  6
CONTINUOUS
 10
2.5728117467
 20
5.8674812704
 11
2.2481537076
 21
5.8674812704
  0
LINE
  5
30E
100
AcDbEntity
  8
0
100
AcDbLine
 62
7
  6
CONTINUOUS
 10
5.5818156244
 20
5.8793012899
 11
5.2335175462
 21
5.8793012899
  0
LINE
  5
30F
100
AcDbEntity
  8
0
100
AcDbLine
 62
7
  6
CONTINUOUS
 10
4.3829420811
 20
5.8793012899
 11
4.034644003
 21
5.8793012899
  0
LINE
  5
310
100
AcDbEntity
  8
0
100
AcDbLine
 62
7
  6
CONTINUOUS
 10
5.0036775219
 20
5.9005999591
 11
4.6127821054
 21
5.9005999591
  0
LINE
  5
311
100
AcDbEntity
  8
0
100
AcDbLine
 62
7
  6
CONTINUOUS
 10
6.4124671955
 20
4.6605038527
 11
6.4124671955
 21
4.3122057746
  0
LINE
  5
312
100
AcDbEntity
  8
0
100
AcDbLine
 62
7
  6
CONTINUOUS
 10
6.424287215
 20
7.0464309197
 11
6.424287215
 21
6.7217728806
  0
LINE
  5
313
100
AcDbEntity
  8
0
100
AcDbLine
 62
7
  6
CONTINUOUS
 10
6.424287215
 20
6.4469941481
 11
6.424287215
 21
6.122336109
  0
LINE
  5
314
100
AcDbEntity
  8
0
100
AcDbLine
 62
7
  6
CONTINUOUS
 10
6.424287215
 20
5.8475573765
 11
6.424287215
 21
5.5228993374
  0
LINE
  5
315
100
AcDbEntity
  8
0
100
AcDbLine
 62
7
  6
CONTINUOUS
 10
6.424287215
 20
5.2481206048
 11
6.424287215
 21
4.9234625657
  0
LINE
  5
316
100
AcDbEntity
  8
0
100
AcDbLine
 62
7
  6
CONTINUOUS
 10
6.424287215
 20
4.0492470616
 11
6.424287215
 21
3.7245890225
  0
LINE
  5
317
100
AcDbEntity
  8
0
100
AcDbLine
 62
7
  6
CONTINUOUS
 10
6.424287215
 20
3.44981029
 11
6.424287215
 21
3.1251522509
  0
LINE
  5
318
100
AcDbEntity
  8
0
100
AcDbLine
 62
7
  6
CONTINUOUS
 10
6.424287215
 20
2.8503735184
 11
6.424287215
 21
2.5257154792
  0
LINE
  5
319
100
AcDbEntity
  8
0
100
AcDbLine
 62
7
  6
CONTINUOUS
 10
6.424287215
 20
2.2517946112
 11
6.424287215
 21
1.9271365721
  0
LINE
  5
31A
100
AcDbEntity
  8
0
100
AcDbLine
 62
7
  6
CONTINUOUS
 10
4.6340807746
 20
6.0905921955
 11
4.9823788527
 21
6.0905921955
  0
LINE
  5
31B
100
AcDbEntity
  8
0
100
AcDbLine
 62
7
  6
CONTINUOUS
 10
2.2481537076
 20
6.102412215
 11
2.5728117467
 21
6.102412215
  0
LINE
  5
31C
100
AcDbEntity
  8
0
100
AcDbLine
 62
7
  6
CONTINUOUS
 10
2.8475904792
 20
6.102412215
 11
3.1722485184
 21
6.102412215
  0
LINE
  5
31D
100
AcDbEntity
  8
0
100
AcDbLine
 62
7
  6
CONTINUOUS
 10
3.4470272509
 20
6.102412215
 11
3.77168529
 21
6.102412215
  0
LINE
  5
31E
100
AcDbEntity
  8
0
100
AcDbLine
 62
7
  6
CONTINUOUS
 10
4.0464640225
 20
6.102412215
 11
4.3711220616
 21
6.102412215
  0
LINE
  5
31F
100
AcDbEntity
  8
0
100
AcDbLine
 62
7
  6
CONTINUOUS
 10
5.2453375657
 20
6.102412215
 11
5.5699956048
 21
6.102412215
  0
LINE
  5
320
100
AcDbEntity
  8
0
100
AcDbLine
 62
7
  6
CONTINUOUS
 10
5.8447743374
 20
6.102412215
 11
6.1694323765
 21
6.102412215
  0
LINE
  5
321
100
AcDbEntity
  8
0
100
AcDbLine
 62
7
  6
CONTINUOUS
 10
6.444211109
 20
6.102412215
 11
6.7688691481
 21
6.102412215
  0
LINE
  5
322
100
AcDbEntity
  8
0
100
AcDbLine
 62
7
  6
CONTINUOUS
 10
7.0436478806
 20
6.102412215
 11
7.3683059197
 21
6.102412215
  0
LINE
  5
323
100
AcDbEntity
  8
0
100
AcDbLine
 62
7
  6
CONTINUOUS
 10
6.788793042
 20
1.9271365721
 11
6.788793042
 21
2.2517946112
  0
LINE
  5
324
100
AcDbEntity
  8
0
100
AcDbLine
 62
7
  6
CONTINUOUS
 10
6.788793042
 20
2.5257154792
 11
6.788793042
 21
2.8503735184
  0
LINE
  5
325
100
AcDbEntity
  8
0
100
AcDbLine
 62
7
  6
CONTINUOUS
 10
6.788793042
 20
3.1251522509
 11
6.788793042
 21
3.44981029
  0
LINE
  5
326
100
AcDbEntity
  8
0
100
AcDbLine
 62
7
  6
CONTINUOUS
 10
6.788793042
 20
3.7245890225
 11
6.788793042
 21
4.0492470616
  0
LINE
  5
327
100
AcDbEntity
  8
0
100
AcDbLine
 62
7
  6
CONTINUOUS
 10
6.788793042
 20
4.9234625657
 11
6.788793042
 21
5.2481206048
  0
LINE
  5
328
100
AcDbEntity
  8
0
100
AcDbLine
 62
7
  6
CONTINUOUS
 10
6.788793042
 20
5.5228993374
 11
6.788793042
 21
5.8475573765
  0
LINE
  5
329
100
AcDbEntity
  8
0
100
AcDbLine
 62
7
  6
CONTINUOUS
 10
6.788793042
 20
6.122336109
 11
6.788793042
 21
6.4469941481
  0
LINE
  5
32A
100
AcDbEntity
  8
0
100
AcDbLine
 62
7
  6
CONTINUOUS
 10
6.788793042
 20
6.7217728806
 11
6.788793042
 21
7.0464309197
  0
LINE
  5
32B
100
AcDbEntity
  8
0
100
AcDbLine
 62
7
  6
CONTINUOUS
 10
7.3683059197
 20
6.466918042
 11
7.0436478806
 21
6.466918042
  0
LINE
  5
32C
100
AcDbEntity
  8
0
100
AcDbLine
 62
7
  6
CONTINUOUS
 10
6.7688691481
 20
6.466918042
 11
6.444211109
 21
6.466918042
  0
LINE
  5
32D
100
AcDbEntity
  8
0
100
AcDbLine
 62
7
  6
CONTINUOUS
 10
6.1694323765
 20
6.466918042
 11
5.8447743374
 21
6.466918042
  0
LINE
  5
32E
100
AcDbEntity
  8
0
100
AcDbLine
 62
7
  6
CONTINUOUS
 10
5.5699956048
 20
6.466918042
 11
5.2453375657
 21
6.466918042
  0
LINE
  5
32F
100
AcDbEntity
  8
0
100
AcDbLine
 62
7
  6
CONTINUOUS
 10
4.3711220616
 20
6.466918042
 11
4.0464640225
 21
6.466918042
  0
LINE
  5
330
100
AcDbEntity
  8
0
100
AcDbLine
 62
7
  6
CONTINUOUS
 10
3.77168529
 20
6.466918042
 11
3.4470272509
 21
6.466918042
  0
LINE
  5
331
100
AcDbEntity
  8
0
100
AcDbLine
 62
7
  6
CONTINUOUS
 10
3.1722485184
 20
6.466918042
 11
2.8475904792
 21
6.466918042
  0
LINE
  5
332
100
AcDbEntity
  8
0
100
AcDbLine
 62
7
  6
CONTINUOUS
 10
2.5728117467
 20
6.466918042
 11
2.2481537076
 21
6.466918042
  0
LINE
  5
333
100
AcDbEntity
  8
0
100
AcDbLine
 62
7
  6
CONTINUOUS
 10
6.8006130616
 20
4.3122057746
 11
6.8006130616
 21
4.6605038527
  0
LINE
  5
334
100
AcDbEntity
  8
0
100
AcDbLine
 62
7
  6
CONTINUOUS
 10
7.0237239866
 20
7.0464309197
 11
7.0237239866
 21
6.7217728806
  0
LINE
  5
335
100
AcDbEntity
  8
0
100
AcDbLine
 62
7
  6
CONTINUOUS
 10
7.0237239866
 20
6.4469941481
 11
7.0237239866
 21
6.122336109
  0
LINE
  5
336
100
AcDbEntity
  8
0
100
AcDbLine
 62
7
  6
CONTINUOUS
 10
7.0237239866
 20
5.8475573765
 11
7.0237239866
 21
5.5228993374
  0
LINE
  5
337
100
AcDbEntity
  8
0
100
AcDbLine
 62
7
  6
CONTINUOUS
 10
7.0237239866
 20
5.2481206048
 11
7.0237239866
 21
4.9234625657
  0
LINE
  5
338
100
AcDbEntity
  8
0
100
AcDbLine
 62
7
  6
CONTINUOUS
 10
7.0237239866
 20
4.6486838332
 11
7.0237239866
 21
4.3240257941
  0
LINE
  5
339
100
AcDbEntity
  8
0
100
AcDbLine
 62
7
  6
CONTINUOUS
 10
7.0237239866
 20
4.0492470616
 11
7.0237239866
 21
3.7245890225
  0
LINE
  5
33A
100
AcDbEntity
  8
0
100
AcDbLine
 62
7
  6
CONTINUOUS
 10
7.0237239866
 20
3.44981029
 11
7.0237239866
 21
3.1251522509
  0
LINE
  5
33B
100
AcDbEntity
  8
0
100
AcDbLine
 62
7
  6
CONTINUOUS
 10
7.0237239866
 20
2.8503735184
 11
7.0237239866
 21
2.5257154792
  0
LINE
  5
33C
100
AcDbEntity
  8
0
100
AcDbLine
 62
7
  6
CONTINUOUS
 10
7.0237239866
 20
2.2517946112
 11
7.0237239866
 21
1.9271365721
  0
LINE
  5
33D
100
AcDbEntity
  8
0
100
AcDbLine
 62
7
  6
CONTINUOUS
 10
4.9823788527
 20
6.4787380616
 11
4.6340807746
 21
6.4787380616
  0
LINE
  5
33E
100
AcDbEntity
  8
0
100
AcDbLine
 62
7
  6
CONTINUOUS
 10
2.8475904792
 20
6.7018489866
 11
3.1722485184
 21
6.7018489866
  0
LINE
  5
33F
100
AcDbEntity
  8
0
100
AcDbLine
 62
7
  6
CONTINUOUS
 10
3.4470272509
 20
6.7018489866
 11
3.77168529
 21
6.7018489866
  0
LINE
  5
340
100
AcDbEntity
  8
0
100
AcDbLine
 62
7
  6
CONTINUOUS
 10
4.0464640225
 20
6.7018489866
 11
4.3711220616
 21
6.7018489866
  0
LINE
  5
341
100
AcDbEntity
  8
0
100
AcDbLine
 62
7
  6
CONTINUOUS
 10
4.6459007941
 20
6.7018489866
 11
4.9705588332
 21
6.7018489866
  0
LINE
  5
342
100
AcDbEntity
  8
0
100
AcDbLine
 62
7
  6
CONTINUOUS
 10
5.2453375657
 20
6.7018489866
 11
5.5699956048
 21
6.7018489866
  0
LINE
  5
343
100
AcDbEntity
  8
0
100
AcDbLine
 62
7
  6
CONTINUOUS
 10
5.8447743374
 20
6.7018489866
 11
6.1694323765
 21
6.7018489866
  0
LINE
  5
344
100
AcDbEntity
  8
0
100
AcDbLine
 62
7
  6
CONTINUOUS
 10
6.444211109
 20
6.7018489866
 11
6.7688691481
 21
6.7018489866
  0
LINE
  5
345
100
AcDbEntity
  8
0
100
AcDbLine
 62
7
  6
CONTINUOUS
 10
7.0436478806
 20
6.7018489866
 11
7.3683059197
 21
6.7018489866
  0
LINE
  5
346
100
AcDbEntity
  8
0
100
AcDbLine
 62
7
  6
CONTINUOUS
 10
2.2481537076
 20
6.7063548137
 11
2.5683059197
 21
6.7063548137
  0
LINE
  5
347
100
AcDbEntity
  8
0
100
AcDbLine
 62
7
  6
CONTINUOUS
 10
7.3882298137
 20
1.9271365721
 11
7.3882298137
 21
2.2517946112
  0
LINE
  5
348
100
AcDbEntity
  8
0
100
AcDbLine
 62
7
  6
CONTINUOUS
 10
7.3882298137
 20
2.5257154792
 11
7.3882298137
 21
2.8503735184
  0
LINE
  5
349
100
AcDbEntity
  8
0
100
AcDbLine
 62
7
  6
CONTINUOUS
 10
7.3882298137
 20
3.1251522509
 11
7.3882298137
 21
3.44981029
  0
LINE
  5
34A
100
AcDbEntity
  8
0
100
AcDbLine
 62
7
  6
CONTINUOUS
 10
7.3882298137
 20
3.7245890225
 11
7.3882298137
 21
4.0492470616
  0
LINE
  5
34B
100
AcDbEntity
  8
0
100
AcDbLine
 62
7
  6
CONTINUOUS
 10
7.3882298137
 20
4.3240257941
 11
7.3882298137
 21
4.6486838332
  0
LINE
  5
34C
100
AcDbEntity
  8
0
100
AcDbLine
 62
7
  6
CONTINUOUS
 10
7.3882298137
 20
4.9234625657
 11
7.3882298137
 21
5.2481206048
  0
LINE
  5
34D
100
AcDbEntity
  8
0
100
AcDbLine
 62
7
  6
CONTINUOUS
 10
7.3882298137
 20
5.5228993374
 11
7.3882298137
 21
5.8475573765
  0
LINE
  5
34E
100
AcDbEntity
  8
0
100
AcDbLine
 62
7
  6
CONTINUOUS
 10
7.3882298137
 20
6.122336109
 11
7.3882298137
 21
6.4469941481
  0
LINE
  5
34F
100
AcDbEntity
  8
0
100
AcDbLine
 62
7
  6
CONTINUOUS
 10
7.3882298137
 20
6.7217728806
 11
7.3882298137
 21
7.0464309197
  0
LINE
  5
350
100
AcDbEntity
  8
0
100
AcDbLine
 62
7
  6
CONTINUOUS
 10
7.3683059197
 20
7.0663548137
 11
7.0436478806
 21
7.0663548137
  0
LINE
  5
351
100
AcDbEntity
  8
0
100
AcDbLine
 62
7
  6
CONTINUOUS
 10
6.7688691481
 20
7.0663548137
 11
6.444211109
 21
7.0663548137
  0
LINE
  5
352
100
AcDbEntity
  8
0
100
AcDbLine
 62
7
  6
CONTINUOUS
 10
6.1694323765
 20
7.0663548137
 11
5.8447743374
 21
7.0663548137
  0
LINE
  5
353
100
AcDbEntity
  8
0
100
AcDbLine
 62
7
  6
CONTINUOUS
 10
5.5699956048
 20
7.0663548137
 11
5.2453375657
 21
7.0663548137
  0
LINE
  5
354
100
AcDbEntity
  8
0
100
AcDbLine
 62
7
  6
CONTINUOUS
 10
4.9705588332
 20
7.0663548137
 11
4.6459007941
 21
7.0663548137
  0
LINE
  5
355
100
AcDbEntity
  8
0
100
AcDbLine
 62
7
  6
CONTINUOUS
 10
4.3711220616
 20
7.0663548137
 11
4.0464640225
 21
7.0663548137
  0
LINE
  5
356
100
AcDbEntity
  8
0
100
AcDbLine
 62
7
  6
CONTINUOUS
 10
3.77168529
 20
7.0663548137
 11
3.4470272509
 21
7.0663548137
  0
LINE
  5
357
100
AcDbEntity
  8
0
100
AcDbLine
 62
7
  6
CONTINUOUS
 10
3.1722485184
 20
7.0663548137
 11
2.8475904792
 21
7.0663548137
  0
LINE
  5
358
100
AcDbEntity
  8
0
100
AcDbLine
 62
7
  6
CONTINUOUS
 10
2.5683059197
 20
7.0663548137
 11
2.2481537076
 21
7.0663548137
  0
LINE
  5
359
100
AcDbEntity
  8
0
100
AcDbLine
 62
7
  6
CONTINUOUS
 10
7.7557298137
 20
1.6188548137
 11
7.7557298137
 21
7.3538548137
  0
LINE
  5
35A
100
AcDbEntity
  8
0
100
AcDbLine
 62
7
  6
CONTINUOUS
 10
7.6757298137
 20
7.4338548137
 11
1.9407298137
 21
7.4338548137
  0
ARC
  5
35B
100
AcDbEntity
  8
0
100
AcDbCircle
 62
7
  6
CONTINUOUS
 10
1.9407298137
 20
1.6188548137
 40
0.08
100
AcDbArc
 50
180.0
 51
270.0
  0
ARC
  5
35C
100
AcDbEntity
  8
0
100
AcDbCircle
 62
7
  6
CONTINUOUS
 10
1.9407298137
 20
7.3538548137
 40
0.08
100
AcDbArc
 50
90.0
 51
180.0
  0
ARC
  5
35D
100
AcDbEntity
  8
0
100
AcDbCircle
 62
7
  6
CONTINUOUS
 10
7.6757298137
 20
7.3538548137
 40
0.08
100
AcDbArc
 50
0.0
 51
90.0
  0
ARC
  5
35E
100
AcDbEntity
  8
0
100
AcDbCircle
 62
7
  6
CONTINUOUS
 10
7.6757298137
 20
1.6188548137
 40
0.08
100
AcDbArc
 50
270.0
 51
360.0
  0
ELLIPSE
  5
35F
100
AcDbEntity
  8
0
100
AcDbEllipse
 62
7
  6
CONTINUOUS
 10
2.5726592439
 20
2.525867982
 30
0.0
 11
0.0142499722
 21
-0.0142499722
 31
0.0
 40
0.9924325091
 41
-0.7816000651
 42
0.7816000651
  0
ELLIPSE
  5
360
100
AcDbEntity
  8
0
100
AcDbEllipse
 62
7
  6
CONTINUOUS
 10
2.2483062104
 20
2.525867982
 30
0.0
 11
0.0142499722
 21
0.0142499722
 31
0.0
 40
0.9924325091
 41
-3.9231927187
 42
-2.3599925885
  0
ELLIPSE
  5
361
100
AcDbEntity
  8
0
100
AcDbEllipse
 62
7
  6
CONTINUOUS
 10
2.5726592439
 20
2.8502210156
 30
0.0
 11
0.0142499722
 21
0.0142499722
 31
0.0
 40
0.9924325091
 41
-0.7816000651
 42
0.7816000651
  0
ELLIPSE
  5
362
100
AcDbEntity
  8
0
100
AcDbEllipse
 62
7
  6
CONTINUOUS
 10
2.2483062104
 20
2.8502210156
 30
0.0
 11
-0.0142499722
 21
0.0142499722
 31
0.0
 40
0.9924325091
 41
-0.7816000651
 42
0.7816000651
  0
ELLIPSE
  5
363
100
AcDbEntity
  8
0
100
AcDbEllipse
 62
7
  6
CONTINUOUS
 10
2.2483062104
 20
3.1253047537
 30
0.0
 11
0.0142499722
 21
0.0142499722
 31
0.0
 40
0.9924325091
 41
-3.9231927187
 42
-2.3599925885
  0
ELLIPSE
  5
364
100
AcDbEntity
  8
0
100
AcDbEllipse
 62
7
  6
CONTINUOUS
 10
2.2483062104
 20
3.4496577872
 30
0.0
 11
-0.0142499722
 21
0.0142499722
 31
0.0
 40
0.9924325091
 41
-0.7816000651
 42
0.7816000651
  0
ELLIPSE
  5
365
100
AcDbEntity
  8
0
100
AcDbEllipse
 62
7
  6
CONTINUOUS
 10
2.5726592439
 20
3.4496577872
 30
0.0
 11
0.0142499722
 21
0.0142499722
 31
0.0
 40
0.9924325091
 41
-0.7816000651
 42
0.7816000651
  0
ELLIPSE
  5
366
100
AcDbEntity
  8
0
100
AcDbEllipse
 62
7
  6
CONTINUOUS
 10
2.5726592439
 20
3.1253047537
 30
0.0
 11
-0.0142499722
 21
0.0142499722
 31
0.0
 40
0.9924325091
 41
-3.9231927187
 42
-2.3599925885
  0
ELLIPSE
  5
367
100
AcDbEntity
  8
0
100
AcDbEllipse
 62
7
  6
CONTINUOUS
 10
2.847742982
 20
3.1253047537
 30
0.0
 11
0.0142499722
 21
0.0142499722
 31
0.0
 40
0.9924325091
 41
-3.9231927187
 42
-2.3599925885
  0
ELLIPSE
  5
368
100
AcDbEntity
  8
0
100
AcDbEllipse
 62
7
  6
CONTINUOUS
 10
2.847742982
 20
3.4496577872
 30
0.0
 11
0.0142499722
 21
-0.0142499722
 31
0.0
 40
0.9924325091
 41
2.3599925885
 42
3.9231927187
  0
ELLIPSE
  5
369
100
AcDbEntity
  8
0
100
AcDbEllipse
 62
7
  6
CONTINUOUS
 10
3.1720960156
 20
3.4496577872
 30
0.0
 11
0.0142499722
 21
0.0142499722
 31
0.0
 40
0.9924325091
 41
-0.7816000651
 42
0.7816000651
  0
ELLIPSE
  5
36A
100
AcDbEntity
  8
0
100
AcDbEllipse
 62
7
  6
CONTINUOUS
 10
3.1720960156
 20
3.1253047537
 30
0.0
 11
0.0142499722
 21
-0.0142499722
 31
0.0
 40
0.9924325091
 41
-0.7816000651
 42
0.7816000651
  0
ELLIPSE
  5
36B
100
AcDbEntity
  8
0
100
AcDbEllipse
 62
7
  6
CONTINUOUS
 10
3.4471797537
 20
3.1253047537
 30
0.0
 11
0.0142499722
 21
0.0142499722
 31
0.0
 40
0.9924325091
 41
-3.9231927187
 42
-2.3599925885
  0
ELLIPSE
  5
36C
100
AcDbEntity
  8
0
100
AcDbEllipse
 62
7
  6
CONTINUOUS
 10
2.847742982
 20
2.525867982
 30
0.0
 11
0.0142499722
 21
0.0142499722
 31
0.0
 40
0.9924325091
 41
-3.9231927187
 42
-2.3599925885
  0
ELLIPSE
  5
36D
100
AcDbEntity
  8
0
100
AcDbEllipse
 62
7
  6
CONTINUOUS
 10
4.9822263499
 20
2.8620410351
 30
0.0
 11
0.0142499722
 21
0.0142499722
 31
0.0
 40
0.9924325091
 41
-0.7816000651
 42
0.7816000651
  0
ELLIPSE
  5
36E
100
AcDbEntity
  8
0
100
AcDbEllipse
 62
7
  6
CONTINUOUS
 10
4.6342332774
 20
2.8620410351
 30
0.0
 11
0.0142499722
 21
-0.0142499722
 31
0.0
 40
0.9924325091
 41
2.3599925885
 42
3.9231927187
  0
ELLIPSE
  5
36F
100
AcDbEntity
  8
0
100
AcDbEllipse
 62
7
  6
CONTINUOUS
 10
4.0466165253
 20
2.8502210156
 30
0.0
 11
0.0142499722
 21
-0.0142499722
 31
0.0
 40
0.9924325091
 41
2.3599925885
 42
3.9231927187
  0
ELLIPSE
  5
370
100
AcDbEntity
  8
0
100
AcDbEllipse
 62
7
  6
CONTINUOUS
 10
4.3709695588
 20
2.8502210156
 30
0.0
 11
0.0142499722
 21
0.0142499722
 31
0.0
 40
0.9924325091
 41
-0.7816000651
 42
0.7816000651
  0
ELLIPSE
  5
371
100
AcDbEntity
  8
0
100
AcDbEllipse
 62
7
  6
CONTINUOUS
 10
4.3709695588
 20
2.525867982
 30
0.0
 11
0.0142499722
 21
-0.0142499722
 31
0.0
 40
0.9924325091
 41
-0.7816000651
 42
0.7816000651
  0
ELLIPSE
  5
372
100
AcDbEntity
  8
0
100
AcDbEllipse
 62
7
  6
CONTINUOUS
 10
4.0466165253
 20
2.525867982
 30
0.0
 11
0.0142499722
 21
0.0142499722
 31
0.0
 40
0.9924325091
 41
-3.9231927187
 42
-2.3599925885
  0
ELLIPSE
  5
373
100
AcDbEntity
  8
0
100
AcDbEllipse
 62
7
  6
CONTINUOUS
 10
3.7715327872
 20
2.525867982
 30
0.0
 11
0.0142499722
 21
-0.0142499722
 31
0.0
 40
0.9924325091
 41
-0.7816000651
 42
0.7816000651
  0
ELLIPSE
  5
374
100
AcDbEntity
  8
0
100
AcDbEllipse
 62
7
  6
CONTINUOUS
 10
3.7715327872
 20
2.8502210156
 30
0.0
 11
0.0142499722
 21
0.0142499722
 31
0.0
 40
0.9924325091
 41
-0.7816000651
 42
0.7816000651
  0
ELLIPSE
  5
375
100
AcDbEntity
  8
0
100
AcDbEllipse
 62
7
  6
CONTINUOUS
 10
3.4471797537
 20
2.8502210156
 30
0.0
 11
0.0142499722
 21
-0.0142499722
 31
0.0
 40
0.9924325091
 41
2.3599925885
 42
3.9231927187
  0
ELLIPSE
  5
376
100
AcDbEntity
  8
0
100
AcDbEllipse
 62
7
  6
CONTINUOUS
 10
3.4471797537
 20
2.525867982
 30
0.0
 11
0.0142499722
 21
0.0142499722
 31
0.0
 40
0.9924325091
 41
-3.9231927187
 42
-2.3599925885
  0
ELLIPSE
  5
377
100
AcDbEntity
  8
0
100
AcDbEllipse
 62
7
  6
CONTINUOUS
 10
3.1720960156
 20
2.525867982
 30
0.0
 11
0.0142499722
 21
-0.0142499722
 31
0.0
 40
0.9924325091
 41
-0.7816000651
 42
0.7816000651
  0
ELLIPSE
  5
378
100
AcDbEntity
  8
0
100
AcDbEllipse
 62
7
  6
CONTINUOUS
 10
3.1720960156
 20
2.8502210156
 30
0.0
 11
0.0142499722
 21
0.0142499722
 31
0.0
 40
0.9924325091
 41
-0.7816000651
 42
0.7816000651
  0
ELLIPSE
  5
379
100
AcDbEntity
  8
0
100
AcDbEllipse
 62
7
  6
CONTINUOUS
 10
2.847742982
 20
2.8502210156
 30
0.0
 11
0.0142499722
 21
-0.0142499722
 31
0.0
 40
0.9924325091
 41
2.3599925885
 42
3.9231927187
  0
ELLIPSE
  5
37A
100
AcDbEntity
  8
0
100
AcDbEllipse
 62
7
  6
CONTINUOUS
 10
5.5816631216
 20
3.1134847341
 30
0.0
 11
-0.0142499722
 21
0.0142499722
 31
0.0
 40
0.9924325091
 41
-3.9231927187
 42
-2.3599925885
  0
ELLIPSE
  5
37B
100
AcDbEntity
  8
0
100
AcDbEllipse
 62
7
  6
CONTINUOUS
 10
5.8449268401
 20
3.1253047537
 30
0.0
 11
0.0142499722
 21
0.0142499722
 31
0.0
 40
0.9924325091
 41
-3.9231927187
 42
-2.3599925885
  0
ELLIPSE
  5
37C
100
AcDbEntity
  8
0
100
AcDbEllipse
 62
7
  6
CONTINUOUS
 10
5.8449268401
 20
3.4496577872
 30
0.0
 11
-0.0142499722
 21
0.0142499722
 31
0.0
 40
0.9924325091
 41
-0.7816000651
 42
0.7816000651
  0
ELLIPSE
  5
37D
100
AcDbEntity
  8
0
100
AcDbEllipse
 62
7
  6
CONTINUOUS
 10
6.1692798737
 20
3.4496577872
 30
0.0
 11
0.0142499722
 21
0.0142499722
 31
0.0
 40
0.9924325091
 41
-0.7816000651
 42
0.7816000651
  0
ELLIPSE
  5
37E
100
AcDbEntity
  8
0
100
AcDbEllipse
 62
7
  6
CONTINUOUS
 10
6.1692798737
 20
3.1253047537
 30
0.0
 11
-0.0142499722
 21
0.0142499722
 31
0.0
 40
0.9924325091
 41
-3.9231927187
 42
-2.3599925885
  0
ELLIPSE
  5
37F
100
AcDbEntity
  8
0
100
AcDbEllipse
 62
7
  6
CONTINUOUS
 10
6.4443636118
 20
3.1253047537
 30
0.0
 11
0.0142499722
 21
0.0142499722
 31
0.0
 40
0.9924325091
 41
-3.9231927187
 42
-2.3599925885
  0
ELLIPSE
  5
380
100
AcDbEntity
  8
0
100
AcDbEllipse
 62
7
  6
CONTINUOUS
 10
6.4443636118
 20
3.4496577872
 30
0.0
 11
-0.0142499722
 21
0.0142499722
 31
0.0
 40
0.9924325091
 41
-0.7816000651
 42
0.7816000651
  0
ELLIPSE
  5
381
100
AcDbEntity
  8
0
100
AcDbEllipse
 62
7
  6
CONTINUOUS
 10
6.7687166453
 20
3.4496577872
 30
0.0
 11
0.0142499722
 21
0.0142499722
 31
0.0
 40
0.9924325091
 41
-0.7816000651
 42
0.7816000651
  0
ELLIPSE
  5
382
100
AcDbEntity
  8
0
100
AcDbEllipse
 62
7
  6
CONTINUOUS
 10
6.7687166453
 20
3.1253047537
 30
0.0
 11
-0.0142499722
 21
0.0142499722
 31
0.0
 40
0.9924325091
 41
-3.9231927187
 42
-2.3599925885
  0
ELLIPSE
  5
383
100
AcDbEntity
  8
0
100
AcDbEllipse
 62
7
  6
CONTINUOUS
 10
7.3681534169
 20
3.1253047537
 30
0.0
 11
-0.0142499722
 21
0.0142499722
 31
0.0
 40
0.9924325091
 41
-3.9231927187
 42
-2.3599925885
  0
ELLIPSE
  5
384
100
AcDbEntity
  8
0
100
AcDbEllipse
 62
7
  6
CONTINUOUS
 10
7.0438003834
 20
3.1253047537
 30
0.0
 11
0.0142499722
 21
0.0142499722
 31
0.0
 40
0.9924325091
 41
-3.9231927187
 42
-2.3599925885
  0
ELLIPSE
  5
385
100
AcDbEntity
  8
0
100
AcDbEllipse
 62
7
  6
CONTINUOUS
 10
7.0438003834
 20
3.4496577872
 30
0.0
 11
-0.0142499722
 21
0.0142499722
 31
0.0
 40
0.9924325091
 41
-0.7816000651
 42
0.7816000651
  0
ELLIPSE
  5
386
100
AcDbEntity
  8
0
100
AcDbEllipse
 62
7
  6
CONTINUOUS
 10
7.3681534169
 20
3.4496577872
 30
0.0
 11
0.0142499722
 21
0.0142499722
 31
0.0
 40
0.9924325091
 41
-0.7816000651
 42
0.7816000651
  0
ELLIPSE
  5
387
100
AcDbEntity
  8
0
100
AcDbEllipse
 62
7
  6
CONTINUOUS
 10
5.5816631216
 20
3.4614778067
 30
0.0
 11
0.0142499722
 21
0.0142499722
 31
0.0
 40
0.9924325091
 41
-0.7816000651
 42
0.7816000651
  0
ELLIPSE
  5
388
100
AcDbEntity
  8
0
100
AcDbEllipse
 62
7
  6
CONTINUOUS
 10
3.4471797537
 20
3.4496577872
 30
0.0
 11
0.0142499722
 21
-0.0142499722
 31
0.0
 40
0.9924325091
 41
2.3599925885
 42
3.9231927187
  0
ELLIPSE
  5
389
100
AcDbEntity
  8
0
100
AcDbEllipse
 62
7
  6
CONTINUOUS
 10
3.7715327872
 20
3.4496577872
 30
0.0
 11
0.0142499722
 21
0.0142499722
 31
0.0
 40
0.9924325091
 41
-0.7816000651
 42
0.7816000651
  0
ELLIPSE
  5
38A
100
AcDbEntity
  8
0
100
AcDbEllipse
 62
7
  6
CONTINUOUS
 10
3.7715327872
 20
3.1253047537
 30
0.0
 11
0.0142499722
 21
-0.0142499722
 31
0.0
 40
0.9924325091
 41
-0.7816000651
 42
0.7816000651
  0
ELLIPSE
  5
38B
100
AcDbEntity
  8
0
100
AcDbEllipse
 62
7
  6
CONTINUOUS
 10
4.0347965058
 20
3.1134847341
 30
0.0
 11
0.0142499722
 21
0.0142499722
 31
0.0
 40
0.9924325091
 41
-3.9231927187
 42
-2.3599925885
  0
ELLIPSE
  5
38C
100
AcDbEntity
  8
0
100
AcDbEllipse
 62
7
  6
CONTINUOUS
 10
4.0347965058
 20
3.4614778067
 30
0.0
 11
0.0142499722
 21
-0.0142499722
 31
0.0
 40
0.9924325091
 41
2.3599925885
 42
3.9231927187
  0
ELLIPSE
  5
38D
100
AcDbEntity
  8
0
100
AcDbEllipse
 62
7
  6
CONTINUOUS
 10
4.3827895783
 20
3.4614778067
 30
0.0
 11
0.0142499722
 21
0.0142499722
 31
0.0
 40
0.9924325091
 41
-0.7816000651
 42
0.7816000651
  0
ELLIPSE
  5
38E
100
AcDbEntity
  8
0
100
AcDbEllipse
 62
7
  6
CONTINUOUS
 10
4.3827895783
 20
3.1134847341
 30
0.0
 11
0.0142499722
 21
-0.0142499722
 31
0.0
 40
0.9924325091
 41
-0.7816000651
 42
0.7816000651
  0
ELLIPSE
  5
38F
100
AcDbEntity
  8
0
100
AcDbEllipse
 62
7
  6
CONTINUOUS
 10
4.6129346082
 20
3.092186065
 30
0.0
 11
0.0142499722
 21
0.0142499722
 31
0.0
 40
0.9924325091
 41
-3.9231927187
 42
-2.3599925885
  0
ELLIPSE
  5
390
100
AcDbEntity
  8
0
100
AcDbEllipse
 62
7
  6
CONTINUOUS
 10
4.6129346082
 20
3.4827764759
 30
0.0
 11
0.0142499722
 21
-0.0142499722
 31
0.0
 40
0.9924325091
 41
2.3599925885
 42
3.9231927187
  0
ELLIPSE
  5
391
100
AcDbEntity
  8
0
100
AcDbEllipse
 62
7
  6
CONTINUOUS
 10
5.0035250191
 20
3.4827764759
 30
0.0
 11
0.0142499722
 21
0.0142499722
 31
0.0
 40
0.9924325091
 41
-0.7816000651
 42
0.7816000651
  0
ELLIPSE
  5
392
100
AcDbEntity
  8
0
100
AcDbEllipse
 62
7
  6
CONTINUOUS
 10
5.0035250191
 20
3.092186065
 30
0.0
 11
0.0142499722
 21
-0.0142499722
 31
0.0
 40
0.9924325091
 41
-0.7816000651
 42
0.7816000651
  0
ELLIPSE
  5
393
100
AcDbEntity
  8
0
100
AcDbEllipse
 62
7
  6
CONTINUOUS
 10
5.233670049
 20
3.1134847341
 30
0.0
 11
0.0142499722
 21
0.0142499722
 31
0.0
 40
0.9924325091
 41
-3.9231927187
 42
-2.3599925885
  0
ELLIPSE
  5
394
100
AcDbEntity
  8
0
100
AcDbEllipse
 62
7
  6
CONTINUOUS
 10
5.233670049
 20
3.4614778067
 30
0.0
 11
-0.0142499722
 21
0.0142499722
 31
0.0
 40
0.9924325091
 41
-0.7816000651
 42
0.7816000651
  0
ELLIPSE
  5
395
100
AcDbEntity
  8
0
100
AcDbEllipse
 62
7
  6
CONTINUOUS
 10
4.3709695588
 20
2.2516421084
 30
0.0
 11
0.0142499722
 21
0.0142499722
 31
0.0
 40
0.9924325091
 41
-0.7816000651
 42
0.7816000651
  0
ELLIPSE
  5
396
100
AcDbEntity
  8
0
100
AcDbEllipse
 62
7
  6
CONTINUOUS
 10
4.3709695588
 20
1.9272890749
 30
0.0
 11
-0.0142499722
 21
0.0142499722
 31
0.0
 40
0.9924325091
 41
-3.9231927187
 42
-2.3599925885
  0
ELLIPSE
  5
397
100
AcDbEntity
  8
0
100
AcDbEllipse
 62
7
  6
CONTINUOUS
 10
4.6460532969
 20
1.9272890749
 30
0.0
 11
0.0142499722
 21
0.0142499722
 31
0.0
 40
0.9924325091
 41
-3.9231927187
 42
-2.3599925885
  0
ELLIPSE
  5
398
100
AcDbEntity
  8
0
100
AcDbEllipse
 62
7
  6
CONTINUOUS
 10
4.6460532969
 20
2.2516421084
 30
0.0
 11
0.0142499722
 21
-0.0142499722
 31
0.0
 40
0.9924325091
 41
2.3599925885
 42
3.9231927187
  0
ELLIPSE
  5
399
100
AcDbEntity
  8
0
100
AcDbEllipse
 62
7
  6
CONTINUOUS
 10
4.9704063304
 20
2.2516421084
 30
0.0
 11
0.0142499722
 21
0.0142499722
 31
0.0
 40
0.9924325091
 41
-0.7816000651
 42
0.7816000651
  0
ELLIPSE
  5
39A
100
AcDbEntity
  8
0
100
AcDbEllipse
 62
7
  6
CONTINUOUS
 10
4.9704063304
 20
1.9272890749
 30
0.0
 11
-0.0142499722
 21
0.0142499722
 31
0.0
 40
0.9924325091
 41
-3.9231927187
 42
-2.3599925885
  0
ELLIPSE
  5
39B
100
AcDbEntity
  8
0
100
AcDbEllipse
 62
7
  6
CONTINUOUS
 10
5.2454900685
 20
1.9272890749
 30
0.0
 11
0.0142499722
 21
0.0142499722
 31
0.0
 40
0.9924325091
 41
-3.9231927187
 42
-2.3599925885
  0
ELLIPSE
  5
39C
100
AcDbEntity
  8
0
100
AcDbEllipse
 62
7
  6
CONTINUOUS
 10
5.2454900685
 20
2.2516421084
 30
0.0
 11
0.0142499722
 21
-0.0142499722
 31
0.0
 40
0.9924325091
 41
2.3599925885
 42
3.9231927187
  0
ELLIPSE
  5
39D
100
AcDbEntity
  8
0
100
AcDbEllipse
 62
7
  6
CONTINUOUS
 10
5.569843102
 20
2.2516421084
 30
0.0
 11
0.0142499722
 21
0.0142499722
 31
0.0
 40
0.9924325091
 41
-0.7816000651
 42
0.7816000651
  0
ELLIPSE
  5
39E
100
AcDbEntity
  8
0
100
AcDbEllipse
 62
7
  6
CONTINUOUS
 10
5.569843102
 20
1.9272890749
 30
0.0
 11
0.0142499722
 21
-0.0142499722
 31
0.0
 40
0.9924325091
 41
-0.7816000651
 42
0.7816000651
  0
ELLIPSE
  5
39F
100
AcDbEntity
  8
0
100
AcDbEllipse
 62
7
  6
CONTINUOUS
 10
5.8449268401
 20
1.9272890749
 30
0.0
 11
0.0142499722
 21
0.0142499722
 31
0.0
 40
0.9924325091
 41
-3.9231927187
 42
-2.3599925885
  0
ELLIPSE
  5
3A0
100
AcDbEntity
  8
0
100
AcDbEllipse
 62
7
  6
CONTINUOUS
 10
5.8449268401
 20
2.2516421084
 30
0.0
 11
0.0142499722
 21
-0.0142499722
 31
0.0
 40
0.9924325091
 41
2.3599925885
 42
3.9231927187
  0
ELLIPSE
  5
3A1
100
AcDbEntity
  8
0
100
AcDbEllipse
 62
7
  6
CONTINUOUS
 10
6.1692798737
 20
2.2516421084
 30
0.0
 11
0.0142499722
 21
0.0142499722
 31
0.0
 40
0.9924325091
 41
-0.7816000651
 42
0.7816000651
  0
ELLIPSE
  5
3A2
100
AcDbEntity
  8
0
100
AcDbEllipse
 62
7
  6
CONTINUOUS
 10
4.0466165253
 20
2.2516421084
 30
0.0
 11
0.0142499722
 21
-0.0142499722
 31
0.0
 40
0.9924325091
 41
2.3599925885
 42
3.9231927187
  0
ELLIPSE
  5
3A3
100
AcDbEntity
  8
0
100
AcDbEllipse
 62
7
  6
CONTINUOUS
 10
2.2483062104
 20
1.9272890749
 30
0.0
 11
0.0142499722
 21
0.0142499722
 31
0.0
 40
0.9924325091
 41
-3.9231927187
 42
-2.3599925885
  0
ELLIPSE
  5
3A4
100
AcDbEntity
  8
0
100
AcDbEllipse
 62
7
  6
CONTINUOUS
 10
2.2483062104
 20
2.2516421084
 30
0.0
 11
0.0142499722
 21
-0.0142499722
 31
0.0
 40
0.9924325091
 41
2.3599925885
 42
3.9231927187
  0
ELLIPSE
  5
3A5
100
AcDbEntity
  8
0
100
AcDbEllipse
 62
7
  6
CONTINUOUS
 10
2.5726592439
 20
2.2516421084
 30
0.0
 11
0.0142499722
 21
0.0142499722
 31
0.0
 40
0.9924325091
 41
-0.7816000651
 42
0.7816000651
  0
ELLIPSE
  5
3A6
100
AcDbEntity
  8
0
100
AcDbEllipse
 62
7
  6
CONTINUOUS
 10
2.5726592439
 20
1.9272890749
 30
0.0
 11
-0.0142499722
 21
0.0142499722
 31
0.0
 40
0.9924325091
 41
-3.9231927187
 42
-2.3599925885
  0
ELLIPSE
  5
3A7
100
AcDbEntity
  8
0
100
AcDbEllipse
 62
7
  6
CONTINUOUS
 10
2.847742982
 20
1.9272890749
 30
0.0
 11
0.0142499722
 21
0.0142499722
 31
0.0
 40
0.9924325091
 41
-3.9231927187
 42
-2.3599925885
  0
ELLIPSE
  5
3A8
100
AcDbEntity
  8
0
100
AcDbEllipse
 62
7
  6
CONTINUOUS
 10
2.847742982
 20
2.2516421084
 30
0.0
 11
0.0142499722
 21
-0.0142499722
 31
0.0
 40
0.9924325091
 41
2.3599925885
 42
3.9231927187
  0
ELLIPSE
  5
3A9
100
AcDbEntity
  8
0
100
AcDbEllipse
 62
7
  6
CONTINUOUS
 10
3.1720960156
 20
2.2516421084
 30
0.0
 11
0.0142499722
 21
0.0142499722
 31
0.0
 40
0.9924325091
 41
-0.7816000651
 42
0.7816000651
  0
ELLIPSE
  5
3AA
100
AcDbEntity
  8
0
100
AcDbEllipse
 62
7
  6
CONTINUOUS
 10
3.1720960156
 20
1.9272890749
 30
0.0
 11
-0.0142499722
 21
0.0142499722
 31
0.0
 40
0.9924325091
 41
-3.9231927187
 42
-2.3599925885
  0
ELLIPSE
  5
3AB
100
AcDbEntity
  8
0
100
AcDbEllipse
 62
7
  6
CONTINUOUS
 10
3.4471797537
 20
1.9272890749
 30
0.0
 11
0.0142499722
 21
0.0142499722
 31
0.0
 40
0.9924325091
 41
-3.9231927187
 42
-2.3599925885
  0
ELLIPSE
  5
3AC
100
AcDbEntity
  8
0
100
AcDbEllipse
 62
7
  6
CONTINUOUS
 10
3.4471797537
 20
2.2516421084
 30
0.0
 11
0.0142499722
 21
-0.0142499722
 31
0.0
 40
0.9924325091
 41
2.3599925885
 42
3.9231927187
  0
ELLIPSE
  5
3AD
100
AcDbEntity
  8
0
100
AcDbEllipse
 62
7
  6
CONTINUOUS
 10
3.7715327872
 20
2.2516421084
 30
0.0
 11
0.0142499722
 21
0.0142499722
 31
0.0
 40
0.9924325091
 41
-0.7816000651
 42
0.7816000651
  0
ELLIPSE
  5
3AE
100
AcDbEntity
  8
0
100
AcDbEllipse
 62
7
  6
CONTINUOUS
 10
3.7715327872
 20
1.9272890749
 30
0.0
 11
0.0142499722
 21
-0.0142499722
 31
0.0
 40
0.9924325091
 41
-0.7816000651
 42
0.7816000651
  0
ELLIPSE
  5
3AF
100
AcDbEntity
  8
0
100
AcDbEllipse
 62
7
  6
CONTINUOUS
 10
4.0466165253
 20
1.9272890749
 30
0.0
 11
0.0142499722
 21
0.0142499722
 31
0.0
 40
0.9924325091
 41
-3.9231927187
 42
-2.3599925885
  0
ELLIPSE
  5
3B0
100
AcDbEntity
  8
0
100
AcDbEllipse
 62
7
  6
CONTINUOUS
 10
6.7687166453
 20
2.525867982
 30
0.0
 11
-0.0142499722
 21
0.0142499722
 31
0.0
 40
0.9924325091
 41
-3.9231927187
 42
-2.3599925885
  0
ELLIPSE
  5
3B1
100
AcDbEntity
  8
0
100
AcDbEllipse
 62
7
  6
CONTINUOUS
 10
6.4443636118
 20
2.525867982
 30
0.0
 11
0.0142499722
 21
0.0142499722
 31
0.0
 40
0.9924325091
 41
-3.9231927187
 42
-2.3599925885
  0
ELLIPSE
  5
3B2
100
AcDbEntity
  8
0
100
AcDbEllipse
 62
7
  6
CONTINUOUS
 10
6.4443636118
 20
2.8502210156
 30
0.0
 11
-0.0142499722
 21
0.0142499722
 31
0.0
 40
0.9924325091
 41
-0.7816000651
 42
0.7816000651
  0
ELLIPSE
  5
3B3
100
AcDbEntity
  8
0
100
AcDbEllipse
 62
7
  6
CONTINUOUS
 10
6.1692798737
 20
2.525867982
 30
0.0
 11
-0.0142499722
 21
0.0142499722
 31
0.0
 40
0.9924325091
 41
-3.9231927187
 42
-2.3599925885
  0
ELLIPSE
  5
3B4
100
AcDbEntity
  8
0
100
AcDbEllipse
 62
7
  6
CONTINUOUS
 10
6.1692798737
 20
2.8502210156
 30
0.0
 11
0.0142499722
 21
0.0142499722
 31
0.0
 40
0.9924325091
 41
-0.7816000651
 42
0.7816000651
  0
ELLIPSE
  5
3B5
100
AcDbEntity
  8
0
100
AcDbEllipse
 62
7
  6
CONTINUOUS
 10
5.8449268401
 20
2.8502210156
 30
0.0
 11
-0.0142499722
 21
0.0142499722
 31
0.0
 40
0.9924325091
 41
-0.7816000651
 42
0.7816000651
  0
ELLIPSE
  5
3B6
100
AcDbEntity
  8
0
100
AcDbEllipse
 62
7
  6
CONTINUOUS
 10
5.8449268401
 20
2.525867982
 30
0.0
 11
0.0142499722
 21
0.0142499722
 31
0.0
 40
0.9924325091
 41
-3.9231927187
 42
-2.3599925885
  0
ELLIPSE
  5
3B7
100
AcDbEntity
  8
0
100
AcDbEllipse
 62
7
  6
CONTINUOUS
 10
5.569843102
 20
2.525867982
 30
0.0
 11
-0.0142499722
 21
0.0142499722
 31
0.0
 40
0.9924325091
 41
-3.9231927187
 42
-2.3599925885
  0
ELLIPSE
  5
3B8
100
AcDbEntity
  8
0
100
AcDbEllipse
 62
7
  6
CONTINUOUS
 10
5.569843102
 20
2.8502210156
 30
0.0
 11
0.0142499722
 21
0.0142499722
 31
0.0
 40
0.9924325091
 41
-0.7816000651
 42
0.7816000651
  0
ELLIPSE
  5
3B9
100
AcDbEntity
  8
0
100
AcDbEllipse
 62
7
  6
CONTINUOUS
 10
5.2454900685
 20
2.8502210156
 30
0.0
 11
-0.0142499722
 21
0.0142499722
 31
0.0
 40
0.9924325091
 41
-0.7816000651
 42
0.7816000651
  0
ELLIPSE
  5
3BA
100
AcDbEntity
  8
0
100
AcDbEllipse
 62
7
  6
CONTINUOUS
 10
5.2454900685
 20
2.525867982
 30
0.0
 11
0.0142499722
 21
0.0142499722
 31
0.0
 40
0.9924325091
 41
-3.9231927187
 42
-2.3599925885
  0
ELLIPSE
  5
3BB
100
AcDbEntity
  8
0
100
AcDbEllipse
 62
7
  6
CONTINUOUS
 10
4.9822263499
 20
2.5140479625
 30
0.0
 11
0.0142499722
 21
-0.0142499722
 31
0.0
 40
0.9924325091
 41
-0.7816000651
 42
0.7816000651
  0
ELLIPSE
  5
3BC
100
AcDbEntity
  8
0
100
AcDbEllipse
 62
7
  6
CONTINUOUS
 10
4.6342332774
 20
2.5140479625
 30
0.0
 11
0.0142499722
 21
0.0142499722
 31
0.0
 40
0.9924325091
 41
-3.9231927187
 42
-2.3599925885
  0
ELLIPSE
  5
3BD
100
AcDbEntity
  8
0
100
AcDbEllipse
 62
7
  6
CONTINUOUS
 10
6.7687166453
 20
2.8502210156
 30
0.0
 11
0.0142499722
 21
0.0142499722
 31
0.0
 40
0.9924325091
 41
-0.7816000651
 42
0.7816000651
  0
ELLIPSE
  5
3BE
100
AcDbEntity
  8
0
100
AcDbEllipse
 62
7
  6
CONTINUOUS
 10
6.1692798737
 20
1.9272890749
 30
0.0
 11
-0.0142499722
 21
0.0142499722
 31
0.0
 40
0.9924325091
 41
-3.9231927187
 42
-2.3599925885
  0
ELLIPSE
  5
3BF
100
AcDbEntity
  8
0
100
AcDbEllipse
 62
7
  6
CONTINUOUS
 10
6.4443636118
 20
1.9272890749
 30
0.0
 11
0.0142499722
 21
0.0142499722
 31
0.0
 40
0.9924325091
 41
-3.9231927187
 42
-2.3599925885
  0
ELLIPSE
  5
3C0
100
AcDbEntity
  8
0
100
AcDbEllipse
 62
7
  6
CONTINUOUS
 10
6.4443636118
 20
2.2516421084
 30
0.0
 11
0.0142499722
 21
-0.0142499722
 31
0.0
 40
0.9924325091
 41
2.3599925885
 42
3.9231927187
  0
ELLIPSE
  5
3C1
100
AcDbEntity
  8
0
100
AcDbEllipse
 62
7
  6
CONTINUOUS
 10
6.7687166453
 20
2.2516421084
 30
0.0
 11
0.0142499722
 21
0.0142499722
 31
0.0
 40
0.9924325091
 41
-0.7816000651
 42
0.7816000651
  0
ELLIPSE
  5
3C2
100
AcDbEntity
  8
0
100
AcDbEllipse
 62
7
  6
CONTINUOUS
 10
6.7687166453
 20
1.9272890749
 30
0.0
 11
-0.0142499722
 21
0.0142499722
 31
0.0
 40
0.9924325091
 41
-3.9231927187
 42
-2.3599925885
  0
ELLIPSE
  5
3C3
100
AcDbEntity
  8
0
100
AcDbEllipse
 62
7
  6
CONTINUOUS
 10
7.3681534169
 20
1.9272890749
 30
0.0
 11
0.0142499722
 21
-0.0142499722
 31
0.0
 40
0.9924325091
 41
-0.7816000651
 42
0.7816000651
  0
ELLIPSE
  5
3C4
100
AcDbEntity
  8
0
100
AcDbEllipse
 62
7
  6
CONTINUOUS
 10
7.0438003834
 20
1.9272890749
 30
0.0
 11
0.0142499722
 21
0.0142499722
 31
0.0
 40
0.9924325091
 41
2.3599925885
 42
3.9231927187
  0
ELLIPSE
  5
3C5
100
AcDbEntity
  8
0
100
AcDbEllipse
 62
7
  6
CONTINUOUS
 10
7.3681534169
 20
2.2516421084
 30
0.0
 11
0.0142499722
 21
0.0142499722
 31
0.0
 40
0.9924325091
 41
-0.7816000651
 42
0.7816000651
  0
ELLIPSE
  5
3C6
100
AcDbEntity
  8
0
100
AcDbEllipse
 62
7
  6
CONTINUOUS
 10
7.0438003834
 20
2.2516421084
 30
0.0
 11
0.0142499722
 21
-0.0142499722
 31
0.0
 40
0.9924325091
 41
2.3599925885
 42
3.9231927187
  0
ELLIPSE
  5
3C7
100
AcDbEntity
  8
0
100
AcDbEllipse
 62
7
  6
CONTINUOUS
 10
7.3681534169
 20
2.8502210156
 30
0.0
 11
0.0142499722
 21
0.0142499722
 31
0.0
 40
0.9924325091
 41
-0.7816000651
 42
0.7816000651
  0
ELLIPSE
  5
3C8
100
AcDbEntity
  8
0
100
AcDbEllipse
 62
7
  6
CONTINUOUS
 10
7.3681534169
 20
2.525867982
 30
0.0
 11
-0.0142499722
 21
0.0142499722
 31
0.0
 40
0.9924325091
 41
-3.9231927187
 42
-2.3599925885
  0
ELLIPSE
  5
3C9
100
AcDbEntity
  8
0
100
AcDbEllipse
 62
7
  6
CONTINUOUS
 10
7.0438003834
 20
2.525867982
 30
0.0
 11
0.0142499722
 21
0.0142499722
 31
0.0
 40
0.9924325091
 41
-3.9231927187
 42
-2.3599925885
  0
ELLIPSE
  5
3CA
100
AcDbEntity
  8
0
100
AcDbEllipse
 62
7
  6
CONTINUOUS
 10
7.0438003834
 20
2.8502210156
 30
0.0
 11
-0.0142499722
 21
0.0142499722
 31
0.0
 40
0.9924325091
 41
-0.7816000651
 42
0.7816000651
  0
ELLIPSE
  5
3CB
100
AcDbEntity
  8
0
100
AcDbEllipse
 62
7
  6
CONTINUOUS
 10
4.5887075351
 20
4.7058770923
 30
0.0
 11
0.0142499722
 21
-0.0142499722
 31
0.0
 40
0.9924325091
 41
2.3599925885
 42
3.9231927187
  0
ELLIPSE
  5
3CC
100
AcDbEntity
  8
0
100
AcDbEllipse
 62
7
  6
CONTINUOUS
 10
4.5887075351
 20
4.2668325351
 30
0.0
 11
0.0142499722
 21
0.0142499722
 31
0.0
 40
0.9924325091
 41
-3.9231927187
 42
-2.3599925885
  0
ELLIPSE
  5
3CD
100
AcDbEntity
  8
0
100
AcDbEllipse
 62
7
  6
CONTINUOUS
 10
4.4162017841
 20
4.2789460716
 30
0.0
 11
0.0142499722
 21
-0.0142499722
 31
0.0
 40
0.9924325091
 41
-0.7816000651
 42
0.7816000651
  0
ELLIPSE
  5
3CE
100
AcDbEntity
  8
0
100
AcDbEllipse
 62
7
  6
CONTINUOUS
 10
4.4162017841
 20
4.6937635557
 30
0.0
 11
0.0142499722
 21
0.0142499722
 31
0.0
 40
0.9924325091
 41
-0.7816000651
 42
0.7816000651
  0
ELLIPSE
  5
3CF
100
AcDbEntity
  8
0
100
AcDbEllipse
 62
7
  6
CONTINUOUS
 10
4.0013843
 20
4.2789460716
 30
0.0
 11
0.0142499722
 21
0.0142499722
 31
0.0
 40
0.9924325091
 41
-3.9231927187
 42
-2.3599925885
  0
ELLIPSE
  5
3D0
100
AcDbEntity
  8
0
100
AcDbEllipse
 62
7
  6
CONTINUOUS
 10
4.0013843
 20
4.6937635557
 30
0.0
 11
0.0142499722
 21
-0.0142499722
 31
0.0
 40
0.9924325091
 41
2.3599925885
 42
3.9231927187
  0
ELLIPSE
  5
3D1
100
AcDbEntity
  8
0
100
AcDbEllipse
 62
7
  6
CONTINUOUS
 10
3.8046514759
 20
4.6816500191
 30
0.0
 11
0.0142499722
 21
0.0142499722
 31
0.0
 40
0.9924325091
 41
-0.7816000651
 42
0.7816000651
  0
ELLIPSE
  5
3D2
100
AcDbEntity
  8
0
100
AcDbEllipse
 62
7
  6
CONTINUOUS
 10
3.8046514759
 20
4.2910596082
 30
0.0
 11
0.0142499722
 21
-0.0142499722
 31
0.0
 40
0.9924325091
 41
-0.7816000651
 42
0.7816000651
  0
ELLIPSE
  5
3D3
100
AcDbEntity
  8
0
100
AcDbEllipse
 62
7
  6
CONTINUOUS
 10
3.414061065
 20
4.2910596082
 30
0.0
 11
0.0142499722
 21
0.0142499722
 31
0.0
 40
0.9924325091
 41
-3.9231927187
 42
-2.3599925885
  0
ELLIPSE
  5
3D4
100
AcDbEntity
  8
0
100
AcDbEllipse
 62
7
  6
CONTINUOUS
 10
3.414061065
 20
4.6816500191
 30
0.0
 11
0.0142499722
 21
-0.0142499722
 31
0.0
 40
0.9924325091
 41
2.3599925885
 42
3.9231927187
  0
ELLIPSE
  5
3D5
100
AcDbEntity
  8
0
100
AcDbEllipse
 62
7
  6
CONTINUOUS
 10
3.1839160351
 20
4.6603513499
 30
0.0
 11
0.0142499722
 21
0.0142499722
 31
0.0
 40
0.9924325091
 41
-0.7816000651
 42
0.7816000651
  0
ELLIPSE
  5
3D6
100
AcDbEntity
  8
0
100
AcDbEllipse
 62
7
  6
CONTINUOUS
 10
3.1839160351
 20
4.3123582774
 30
0.0
 11
0.0142499722
 21
-0.0142499722
 31
0.0
 40
0.9924325091
 41
-0.7816000651
 42
0.7816000651
  0
ELLIPSE
  5
3D7
100
AcDbEntity
  8
0
100
AcDbEllipse
 62
7
  6
CONTINUOUS
 10
2.8359229625
 20
4.3123582774
 30
0.0
 11
0.0142499722
 21
0.0142499722
 31
0.0
 40
0.9924325091
 41
2.3599925885
 42
3.9231927187
  0
ELLIPSE
  5
3D8
100
AcDbEntity
  8
0
100
AcDbEllipse
 62
7
  6
CONTINUOUS
 10
2.8359229625
 20
4.6603513499
 30
0.0
 11
0.0142499722
 21
-0.0142499722
 31
0.0
 40
0.9924325091
 41
2.3599925885
 42
3.9231927187
  0
ELLIPSE
  5
3D9
100
AcDbEntity
  8
0
100
AcDbEllipse
 62
7
  6
CONTINUOUS
 10
2.5726592439
 20
4.6485313304
 30
0.0
 11
0.0142499722
 21
0.0142499722
 31
0.0
 40
0.9924325091
 41
-0.7816000651
 42
0.7816000651
  0
ELLIPSE
  5
3DA
100
AcDbEntity
  8
0
100
AcDbEllipse
 62
7
  6
CONTINUOUS
 10
2.5726592439
 20
4.3241782969
 30
0.0
 11
-0.0142499722
 21
0.0142499722
 31
0.0
 40
0.9924325091
 41
-3.9231927187
 42
-2.3599925885
  0
ELLIPSE
  5
3DB
100
AcDbEntity
  8
0
100
AcDbEllipse
 62
7
  6
CONTINUOUS
 10
2.2483062104
 20
4.3241782969
 30
0.0
 11
0.0142499722
 21
0.0142499722
 31
0.0
 40
0.9924325091
 41
-3.9231927187
 42
-2.3599925885
  0
ELLIPSE
  5
3DC
100
AcDbEntity
  8
0
100
AcDbEllipse
 62
7
  6
CONTINUOUS
 10
2.2483062104
 20
4.6485313304
 30
0.0
 11
-0.0142499722
 21
0.0142499722
 31
0.0
 40
0.9924325091
 41
-0.7816000651
 42
0.7816000651
  0
ELLIPSE
  5
3DD
100
AcDbEntity
  8
0
100
AcDbEllipse
 62
7
  6
CONTINUOUS
 10
7.3681534169
 20
4.6485313304
 30
0.0
 11
0.0142499722
 21
0.0142499722
 31
0.0
 40
0.9924325091
 41
-0.7816000651
 42
0.7816000651
  0
ELLIPSE
  5
3DE
100
AcDbEntity
  8
0
100
AcDbEllipse
 62
7
  6
CONTINUOUS
 10
7.0438003834
 20
4.6485313304
 30
0.0
 11
-0.0142499722
 21
0.0142499722
 31
0.0
 40
0.9924325091
 41
-0.7816000651
 42
0.7816000651
  0
ELLIPSE
  5
3DF
100
AcDbEntity
  8
0
100
AcDbEllipse
 62
7
  6
CONTINUOUS
 10
7.0438003834
 20
4.3241782969
 30
0.0
 11
0.0142499722
 21
0.0142499722
 31
0.0
 40
0.9924325091
 41
-3.9231927187
 42
-2.3599925885
  0
ELLIPSE
  5
3E0
100
AcDbEntity
  8
0
100
AcDbEllipse
 62
7
  6
CONTINUOUS
 10
7.3681534169
 20
4.3241782969
 30
0.0
 11
-0.0142499722
 21
0.0142499722
 31
0.0
 40
0.9924325091
 41
-3.9231927187
 42
-2.3599925885
  0
ELLIPSE
  5
3E1
100
AcDbEntity
  8
0
100
AcDbEllipse
 62
7
  6
CONTINUOUS
 10
6.7805366648
 20
4.3123582774
 30
0.0
 11
-0.0142499722
 21
0.0142499722
 31
0.0
 40
0.9924325091
 41
-3.9231927187
 42
-2.3599925885
  0
ELLIPSE
  5
3E2
100
AcDbEntity
  8
0
100
AcDbEllipse
 62
7
  6
CONTINUOUS
 10
6.7805366648
 20
4.6603513499
 30
0.0
 11
0.0142499722
 21
0.0142499722
 31
0.0
 40
0.9924325091
 41
-0.7816000651
 42
0.7816000651
  0
ELLIPSE
  5
3E3
100
AcDbEntity
  8
0
100
AcDbEllipse
 62
7
  6
CONTINUOUS
 10
6.4325435922
 20
4.6603513499
 30
0.0
 11
-0.0142499722
 21
0.0142499722
 31
0.0
 40
0.9924325091
 41
-0.7816000651
 42
0.7816000651
  0
ELLIPSE
  5
3E4
100
AcDbEntity
  8
0
100
AcDbEllipse
 62
7
  6
CONTINUOUS
 10
6.4325435922
 20
4.3123582774
 30
0.0
 11
0.0142499722
 21
0.0142499722
 31
0.0
 40
0.9924325091
 41
-3.9231927187
 42
-2.3599925885
  0
ELLIPSE
  5
3E5
100
AcDbEntity
  8
0
100
AcDbEllipse
 62
7
  6
CONTINUOUS
 10
6.2023985624
 20
4.6816500191
 30
0.0
 11
0.0142499722
 21
0.0142499722
 31
0.0
 40
0.9924325091
 41
-0.7816000651
 42
0.7816000651
  0
ELLIPSE
  5
3E6
100
AcDbEntity
  8
0
100
AcDbEllipse
 62
7
  6
CONTINUOUS
 10
5.8118081515
 20
4.6816500191
 30
0.0
 11
-0.0142499722
 21
0.0142499722
 31
0.0
 40
0.9924325091
 41
-0.7816000651
 42
0.7816000651
  0
ELLIPSE
  5
3E7
100
AcDbEntity
  8
0
100
AcDbEllipse
 62
7
  6
CONTINUOUS
 10
6.2023985624
 20
4.2910596082
 30
0.0
 11
-0.0142499722
 21
0.0142499722
 31
0.0
 40
0.9924325091
 41
-3.9231927187
 42
-2.3599925885
  0
ELLIPSE
  5
3E8
100
AcDbEntity
  8
0
100
AcDbEllipse
 62
7
  6
CONTINUOUS
 10
5.8118081515
 20
4.2910596082
 30
0.0
 11
0.0142499722
 21
0.0142499722
 31
0.0
 40
0.9924325091
 41
-3.9231927187
 42
-2.3599925885
  0
ELLIPSE
  5
3E9
100
AcDbEntity
  8
0
100
AcDbEllipse
 62
7
  6
CONTINUOUS
 10
5.6150753273
 20
4.2789460716
 30
0.0
 11
-0.0142499722
 21
0.0142499722
 31
0.0
 40
0.9924325091
 41
-3.9231927187
 42
-2.3599925885
  0
ELLIPSE
  5
3EA
100
AcDbEntity
  8
0
100
AcDbEllipse
 62
7
  6
CONTINUOUS
 10
5.6150753273
 20
4.6937635557
 30
0.0
 11
0.0142499722
 21
0.0142499722
 31
0.0
 40
0.9924325091
 41
-0.7816000651
 42
0.7816000651
  0
ELLIPSE
  5
3EB
100
AcDbEntity
  8
0
100
AcDbEllipse
 62
7
  6
CONTINUOUS
 10
5.2002578433
 20
4.6937635557
 30
0.0
 11
-0.0142499722
 21
0.0142499722
 31
0.0
 40
0.9924325091
 41
-0.7816000651
 42
0.7816000651
  0
ELLIPSE
  5
3EC
100
AcDbEntity
  8
0
100
AcDbEllipse
 62
7
  6
CONTINUOUS
 10
5.2002578433
 20
4.2789460716
 30
0.0
 11
0.0142499722
 21
0.0142499722
 31
0.0
 40
0.9924325091
 41
-3.9231927187
 42
-2.3599925885
  0
ELLIPSE
  5
3ED
100
AcDbEntity
  8
0
100
AcDbEllipse
 62
7
  6
CONTINUOUS
 10
5.0277520923
 20
4.2668325351
 30
0.0
 11
0.0142499722
 21
-0.0142499722
 31
0.0
 40
0.9924325091
 41
-0.7816000651
 42
0.7816000651
  0
ELLIPSE
  5
3EE
100
AcDbEntity
  8
0
100
AcDbEllipse
 62
7
  6
CONTINUOUS
 10
5.0277520923
 20
4.7058770923
 30
0.0
 11
0.0142499722
 21
0.0142499722
 31
0.0
 40
0.9924325091
 41
-0.7816000651
 42
0.7816000651
  0
ELLIPSE
  5
3EF
100
AcDbEntity
  8
0
100
AcDbEllipse
 62
7
  6
CONTINUOUS
 10
5.0156385557
 20
4.0943267841
 30
0.0
 11
0.0142499722
 21
0.0142499722
 31
0.0
 40
0.9924325091
 41
-0.7816000651
 42
0.7816000651
  0
ELLIPSE
  5
3F0
100
AcDbEntity
  8
0
100
AcDbEllipse
 62
7
  6
CONTINUOUS
 10
4.6008210716
 20
4.0943267841
 30
0.0
 11
0.0142499722
 21
-0.0142499722
 31
0.0
 40
0.9924325091
 41
2.3599925885
 42
3.9231927187
  0
ELLIPSE
  5
3F1
100
AcDbEntity
  8
0
100
AcDbEllipse
 62
7
  6
CONTINUOUS
 10
5.2123713798
 20
4.0822132475
 30
0.0
 11
-0.0142499722
 21
0.0142499722
 31
0.0
 40
0.9924325091
 41
-0.7816000651
 42
0.7816000651
  0
ELLIPSE
  5
3F2
100
AcDbEntity
  8
0
100
AcDbEllipse
 62
7
  6
CONTINUOUS
 10
5.2123713798
 20
3.6916228366
 30
0.0
 11
0.0142499722
 21
0.0142499722
 31
0.0
 40
0.9924325091
 41
-3.9231927187
 42
-2.3599925885
  0
ELLIPSE
  5
3F3
100
AcDbEntity
  8
0
100
AcDbEllipse
 62
7
  6
CONTINUOUS
 10
5.6029617907
 20
3.6916228366
 30
0.0
 11
-0.0142499722
 21
0.0142499722
 31
0.0
 40
0.9924325091
 41
-3.9231927187
 42
-2.3599925885
  0
ELLIPSE
  5
3F4
100
AcDbEntity
  8
0
100
AcDbEllipse
 62
7
  6
CONTINUOUS
 10
5.6029617907
 20
4.0822132475
 30
0.0
 11
0.0142499722
 21
0.0142499722
 31
0.0
 40
0.9924325091
 41
-0.7816000651
 42
0.7816000651
  0
ELLIPSE
  5
3F5
100
AcDbEntity
  8
0
100
AcDbEllipse
 62
7
  6
CONTINUOUS
 10
5.8331068206
 20
3.7129215058
 30
0.0
 11
0.0142499722
 21
0.0142499722
 31
0.0
 40
0.9924325091
 41
-3.9231927187
 42
-2.3599925885
  0
ELLIPSE
  5
3F6
100
AcDbEntity
  8
0
100
AcDbEllipse
 62
7
  6
CONTINUOUS
 10
6.1810998932
 20
3.7129215058
 30
0.0
 11
-0.0142499722
 21
0.0142499722
 31
0.0
 40
0.9924325091
 41
-3.9231927187
 42
-2.3599925885
  0
ELLIPSE
  5
3F7
100
AcDbEntity
  8
0
100
AcDbEllipse
 62
7
  6
CONTINUOUS
 10
6.1810998932
 20
4.0609145783
 30
0.0
 11
0.0142499722
 21
0.0142499722
 31
0.0
 40
0.9924325091
 41
-0.7816000651
 42
0.7816000651
  0
ELLIPSE
  5
3F8
100
AcDbEntity
  8
0
100
AcDbEllipse
 62
7
  6
CONTINUOUS
 10
5.8331068206
 20
4.0609145783
 30
0.0
 11
-0.0142499722
 21
0.0142499722
 31
0.0
 40
0.9924325091
 41
-0.7816000651
 42
0.7816000651
  0
ELLIPSE
  5
3F9
100
AcDbEntity
  8
0
100
AcDbEllipse
 62
7
  6
CONTINUOUS
 10
6.4443636118
 20
4.0490945588
 30
0.0
 11
-0.0142499722
 21
0.0142499722
 31
0.0
 40
0.9924325091
 41
-0.7816000651
 42
0.7816000651
  0
ELLIPSE
  5
3FA
100
AcDbEntity
  8
0
100
AcDbEllipse
 62
7
  6
CONTINUOUS
 10
6.7687166453
 20
4.0490945588
 30
0.0
 11
0.0142499722
 21
0.0142499722
 31
0.0
 40
0.9924325091
 41
-0.7816000651
 42
0.7816000651
  0
ELLIPSE
  5
3FB
100
AcDbEntity
  8
0
100
AcDbEllipse
 62
7
  6
CONTINUOUS
 10
6.7687166453
 20
3.7247415253
 30
0.0
 11
-0.0142499722
 21
0.0142499722
 31
0.0
 40
0.9924325091
 41
-3.9231927187
 42
-2.3599925885
  0
ELLIPSE
  5
3FC
100
AcDbEntity
  8
0
100
AcDbEllipse
 62
7
  6
CONTINUOUS
 10
6.4443636118
 20
3.7247415253
 30
0.0
 11
0.0142499722
 21
0.0142499722
 31
0.0
 40
0.9924325091
 41
-3.9231927187
 42
-2.3599925885
  0
ELLIPSE
  5
3FD
100
AcDbEntity
  8
0
100
AcDbEllipse
 62
7
  6
CONTINUOUS
 10
7.0438003834
 20
3.7247415253
 30
0.0
 11
0.0142499722
 21
0.0142499722
 31
0.0
 40
0.9924325091
 41
-3.9231927187
 42
-2.3599925885
  0
ELLIPSE
  5
3FE
100
AcDbEntity
  8
0
100
AcDbEllipse
 62
7
  6
CONTINUOUS
 10
7.3681534169
 20
3.7247415253
 30
0.0
 11
-0.0142499722
 21
0.0142499722
 31
0.0
 40
0.9924325091
 41
-3.9231927187
 42
-2.3599925885
  0
ELLIPSE
  5
3FF
100
AcDbEntity
  8
0
100
AcDbEllipse
 62
7
  6
CONTINUOUS
 10
7.3681534169
 20
4.0490945588
 30
0.0
 11
0.0142499722
 21
0.0142499722
 31
0.0
 40
0.9924325091
 41
-0.7816000651
 42
0.7816000651
  0
ELLIPSE
  5
400
100
AcDbEntity
  8
0
100
AcDbEllipse
 62
7
  6
CONTINUOUS
 10
7.0438003834
 20
4.0490945588
 30
0.0
 11
-0.0142499722
 21
0.0142499722
 31
0.0
 40
0.9924325091
 41
-0.7816000651
 42
0.7816000651
  0
ELLIPSE
  5
401
100
AcDbEntity
  8
0
100
AcDbEllipse
 62
7
  6
CONTINUOUS
 10
2.2483062104
 20
4.0490945588
 30
0.0
 11
-0.0142499722
 21
0.0142499722
 31
0.0
 40
0.9924325091
 41
-0.7816000651
 42
0.7816000651
  0
ELLIPSE
  5
402
100
AcDbEntity
  8
0
100
AcDbEllipse
 62
7
  6
CONTINUOUS
 10
2.5726592439
 20
4.0490945588
 30
0.0
 11
0.0142499722
 21
0.0142499722
 31
0.0
 40
0.9924325091
 41
-0.7816000651
 42
0.7816000651
  0
ELLIPSE
  5
403
100
AcDbEntity
  8
0
100
AcDbEllipse
 62
7
  6
CONTINUOUS
 10
2.2483062104
 20
3.7247415253
 30
0.0
 11
0.0142499722
 21
0.0142499722
 31
0.0
 40
0.9924325091
 41
-3.9231927187
 42
-2.3599925885
  0
ELLIPSE
  5
404
100
AcDbEntity
  8
0
100
AcDbEllipse
 62
7
  6
CONTINUOUS
 10
2.5726592439
 20
3.7247415253
 30
0.0
 11
-0.0142499722
 21
0.0142499722
 31
0.0
 40
0.9924325091
 41
-3.9231927187
 42
-2.3599925885
  0
ELLIPSE
  5
405
100
AcDbEntity
  8
0
100
AcDbEllipse
 62
7
  6
CONTINUOUS
 10
2.847742982
 20
3.7247415253
 30
0.0
 11
0.0142499722
 21
0.0142499722
 31
0.0
 40
0.9924325091
 41
-3.9231927187
 42
-2.3599925885
  0
ELLIPSE
  5
406
100
AcDbEntity
  8
0
100
AcDbEllipse
 62
7
  6
CONTINUOUS
 10
3.1720960156
 20
3.7247415253
 30
0.0
 11
0.0142499722
 21
-0.0142499722
 31
0.0
 40
0.9924325091
 41
-0.7816000651
 42
0.7816000651
  0
ELLIPSE
  5
407
100
AcDbEntity
  8
0
100
AcDbEllipse
 62
7
  6
CONTINUOUS
 10
3.1720960156
 20
4.0490945588
 30
0.0
 11
0.0142499722
 21
0.0142499722
 31
0.0
 40
0.9924325091
 41
-0.7816000651
 42
0.7816000651
  0
ELLIPSE
  5
408
100
AcDbEntity
  8
0
100
AcDbEllipse
 62
7
  6
CONTINUOUS
 10
2.847742982
 20
4.0490945588
 30
0.0
 11
0.0142499722
 21
-0.0142499722
 31
0.0
 40
0.9924325091
 41
2.3599925885
 42
3.9231927187
  0
ELLIPSE
  5
409
100
AcDbEntity
  8
0
100
AcDbEllipse
 62
7
  6
CONTINUOUS
 10
3.4353597341
 20
4.0609145783
 30
0.0
 11
0.0142499722
 21
-0.0142499722
 31
0.0
 40
0.9924325091
 41
2.3599925885
 42
3.9231927187
  0
ELLIPSE
  5
40A
100
AcDbEntity
  8
0
100
AcDbEllipse
 62
7
  6
CONTINUOUS
 10
3.4353597341
 20
3.7129215058
 30
0.0
 11
0.0142499722
 21
0.0142499722
 31
0.0
 40
0.9924325091
 41
-3.9231927187
 42
-2.3599925885
  0
ELLIPSE
  5
40B
100
AcDbEntity
  8
0
100
AcDbEllipse
 62
7
  6
CONTINUOUS
 10
3.7833528067
 20
3.7129215058
 30
0.0
 11
0.0142499722
 21
-0.0142499722
 31
0.0
 40
0.9924325091
 41
-0.7816000651
 42
0.7816000651
  0
ELLIPSE
  5
40C
100
AcDbEntity
  8
0
100
AcDbEllipse
 62
7
  6
CONTINUOUS
 10
3.7833528067
 20
4.0609145783
 30
0.0
 11
0.0142499722
 21
0.0142499722
 31
0.0
 40
0.9924325091
 41
-0.7816000651
 42
0.7816000651
  0
ELLIPSE
  5
40D
100
AcDbEntity
  8
0
100
AcDbEllipse
 62
7
  6
CONTINUOUS
 10
4.0134978366
 20
4.0822132475
 30
0.0
 11
0.0142499722
 21
-0.0142499722
 31
0.0
 40
0.9924325091
 41
2.3599925885
 42
3.9231927187
  0
ELLIPSE
  5
40E
100
AcDbEntity
  8
0
100
AcDbEllipse
 62
7
  6
CONTINUOUS
 10
4.0134978366
 20
3.6916228366
 30
0.0
 11
0.0142499722
 21
0.0142499722
 31
0.0
 40
0.9924325091
 41
-3.9231927187
 42
-2.3599925885
  0
ELLIPSE
  5
40F
100
AcDbEntity
  8
0
100
AcDbEllipse
 62
7
  6
CONTINUOUS
 10
4.4040882475
 20
4.0822132475
 30
0.0
 11
0.0142499722
 21
0.0142499722
 31
0.0
 40
0.9924325091
 41
-0.7816000651
 42
0.7816000651
  0
ELLIPSE
  5
410
100
AcDbEntity
  8
0
100
AcDbEllipse
 62
7
  6
CONTINUOUS
 10
4.4040882475
 20
3.6916228366
 30
0.0
 11
0.0142499722
 21
-0.0142499722
 31
0.0
 40
0.9924325091
 41
-0.7816000651
 42
0.7816000651
  0
ELLIPSE
  5
411
100
AcDbEntity
  8
0
100
AcDbEllipse
 62
7
  6
CONTINUOUS
 10
4.6008210716
 20
3.6795093
 30
0.0
 11
0.0142499722
 21
0.0142499722
 31
0.0
 40
0.9924325091
 41
-3.9231927187
 42
-2.3599925885
  0
ELLIPSE
  5
412
100
AcDbEntity
  8
0
100
AcDbEllipse
 62
7
  6
CONTINUOUS
 10
5.0156385557
 20
3.6795093
 30
0.0
 11
0.0142499722
 21
-0.0142499722
 31
0.0
 40
0.9924325091
 41
-0.7816000651
 42
0.7816000651
  0
ELLIPSE
  5
413
100
AcDbEntity
  8
0
100
AcDbEllipse
 62
7
  6
CONTINUOUS
 10
4.6129346082
 20
5.4899331515
 30
0.0
 11
0.0142499722
 21
0.0142499722
 31
0.0
 40
0.9924325091
 41
2.3599925885
 42
3.9231927187
  0
ELLIPSE
  5
414
100
AcDbEntity
  8
0
100
AcDbEllipse
 62
7
  6
CONTINUOUS
 10
4.6129346082
 20
5.8805235624
 30
0.0
 11
0.0142499722
 21
-0.0142499722
 31
0.0
 40
0.9924325091
 41
2.3599925885
 42
3.9231927187
  0
ELLIPSE
  5
415
100
AcDbEntity
  8
0
100
AcDbEllipse
 62
7
  6
CONTINUOUS
 10
4.3827895783
 20
5.8592248932
 30
0.0
 11
0.0142499722
 21
0.0142499722
 31
0.0
 40
0.9924325091
 41
-0.7816000651
 42
0.7816000651
  0
ELLIPSE
  5
416
100
AcDbEntity
  8
0
100
AcDbEllipse
 62
7
  6
CONTINUOUS
 10
4.3827895783
 20
5.5112318206
 30
0.0
 11
0.0142499722
 21
-0.0142499722
 31
0.0
 40
0.9924325091
 41
-0.7816000651
 42
0.7816000651
  0
ELLIPSE
  5
417
100
AcDbEntity
  8
0
100
AcDbEllipse
 62
7
  6
CONTINUOUS
 10
4.0347965058
 20
5.5112318206
 30
0.0
 11
0.0142499722
 21
0.0142499722
 31
0.0
 40
0.9924325091
 41
2.3599925885
 42
3.9231927187
  0
ELLIPSE
  5
418
100
AcDbEntity
  8
0
100
AcDbEllipse
 62
7
  6
CONTINUOUS
 10
4.0347965058
 20
5.8592248932
 30
0.0
 11
0.0142499722
 21
-0.0142499722
 31
0.0
 40
0.9924325091
 41
2.3599925885
 42
3.9231927187
  0
ELLIPSE
  5
419
100
AcDbEntity
  8
0
100
AcDbEllipse
 62
7
  6
CONTINUOUS
 10
3.7715327872
 20
5.8474048737
 30
0.0
 11
0.0142499722
 21
0.0142499722
 31
0.0
 40
0.9924325091
 41
-0.7816000651
 42
0.7816000651
  0
ELLIPSE
  5
41A
100
AcDbEntity
  8
0
100
AcDbEllipse
 62
7
  6
CONTINUOUS
 10
3.7715327872
 20
5.5230518401
 30
0.0
 11
0.0142499722
 21
-0.0142499722
 31
0.0
 40
0.9924325091
 41
-0.7816000651
 42
0.7816000651
  0
ELLIPSE
  5
41B
100
AcDbEntity
  8
0
100
AcDbEllipse
 62
7
  6
CONTINUOUS
 10
3.4471797537
 20
5.5230518401
 30
0.0
 11
0.0142499722
 21
0.0142499722
 31
0.0
 40
0.9924325091
 41
2.3599925885
 42
3.9231927187
  0
ELLIPSE
  5
41C
100
AcDbEntity
  8
0
100
AcDbEllipse
 62
7
  6
CONTINUOUS
 10
3.4471797537
 20
5.8474048737
 30
0.0
 11
0.0142499722
 21
-0.0142499722
 31
0.0
 40
0.9924325091
 41
2.3599925885
 42
3.9231927187
  0
ELLIPSE
  5
41D
100
AcDbEntity
  8
0
100
AcDbEllipse
 62
7
  6
CONTINUOUS
 10
3.1720960156
 20
5.8474048737
 30
0.0
 11
0.0142499722
 21
0.0142499722
 31
0.0
 40
0.9924325091
 41
-0.7816000651
 42
0.7816000651
  0
ELLIPSE
  5
41E
100
AcDbEntity
  8
0
100
AcDbEllipse
 62
7
  6
CONTINUOUS
 10
3.1720960156
 20
5.5230518401
 30
0.0
 11
0.0142499722
 21
-0.0142499722
 31
0.0
 40
0.9924325091
 41
-0.7816000651
 42
0.7816000651
  0
ELLIPSE
  5
41F
100
AcDbEntity
  8
0
100
AcDbEllipse
 62
7
  6
CONTINUOUS
 10
2.847742982
 20
5.8474048737
 30
0.0
 11
0.0142499722
 21
-0.0142499722
 31
0.0
 40
0.9924325091
 41
2.3599925885
 42
3.9231927187
  0
ELLIPSE
  5
420
100
AcDbEntity
  8
0
100
AcDbEllipse
 62
7
  6
CONTINUOUS
 10
2.847742982
 20
5.5230518401
 30
0.0
 11
0.0142499722
 21
0.0142499722
 31
0.0
 40
0.9924325091
 41
2.3599925885
 42
3.9231927187
  0
ELLIPSE
  5
421
100
AcDbEntity
  8
0
100
AcDbEllipse
 62
7
  6
CONTINUOUS
 10
2.5726592439
 20
5.5230518401
 30
0.0
 11
0.0142499722
 21
-0.0142499722
 31
0.0
 40
0.9924325091
 41
-0.7816000651
 42
0.7816000651
  0
ELLIPSE
  5
422
100
AcDbEntity
  8
0
100
AcDbEllipse
 62
7
  6
CONTINUOUS
 10
2.5726592439
 20
5.8474048737
 30
0.0
 11
0.0142499722
 21
0.0142499722
 31
0.0
 40
0.9924325091
 41
-0.7816000651
 42
0.7816000651
  0
ELLIPSE
  5
423
100
AcDbEntity
  8
0
100
AcDbEllipse
 62
7
  6
CONTINUOUS
 10
2.2483062104
 20
5.8474048737
 30
0.0
 11
0.0142499722
 21
-0.0142499722
 31
0.0
 40
0.9924325091
 41
2.3599925885
 42
3.9231927187
  0
ELLIPSE
  5
424
100
AcDbEntity
  8
0
100
AcDbEllipse
 62
7
  6
CONTINUOUS
 10
2.2483062104
 20
5.5230518401
 30
0.0
 11
0.0142499722
 21
0.0142499722
 31
0.0
 40
0.9924325091
 41
2.3599925885
 42
3.9231927187
  0
ELLIPSE
  5
425
100
AcDbEntity
  8
0
100
AcDbEllipse
 62
7
  6
CONTINUOUS
 10
7.3681534169
 20
5.8474048737
 30
0.0
 11
0.0142499722
 21
0.0142499722
 31
0.0
 40
0.9924325091
 41
-0.7816000651
 42
0.7816000651
  0
ELLIPSE
  5
426
100
AcDbEntity
  8
0
100
AcDbEllipse
 62
7
  6
CONTINUOUS
 10
7.0438003834
 20
5.8474048737
 30
0.0
 11
0.0142499722
 21
-0.0142499722
 31
0.0
 40
0.9924325091
 41
2.3599925885
 42
3.9231927187
  0
ELLIPSE
  5
427
100
AcDbEntity
  8
0
100
AcDbEllipse
 62
7
  6
CONTINUOUS
 10
7.0438003834
 20
5.5230518401
 30
0.0
 11
0.0142499722
 21
0.0142499722
 31
0.0
 40
0.9924325091
 41
-3.9231927187
 42
-2.3599925885
  0
ELLIPSE
  5
428
100
AcDbEntity
  8
0
100
AcDbEllipse
 62
7
  6
CONTINUOUS
 10
7.3681534169
 20
5.5230518401
 30
0.0
 11
0.0142499722
 21
-0.0142499722
 31
0.0
 40
0.9924325091
 41
-0.7816000651
 42
0.7816000651
  0
ELLIPSE
  5
429
100
AcDbEntity
  8
0
100
AcDbEllipse
 62
7
  6
CONTINUOUS
 10
6.7687166453
 20
5.5230518401
 30
0.0
 11
0.0142499722
 21
-0.0142499722
 31
0.0
 40
0.9924325091
 41
-0.7816000651
 42
0.7816000651
  0
ELLIPSE
  5
42A
100
AcDbEntity
  8
0
100
AcDbEllipse
 62
7
  6
CONTINUOUS
 10
6.7687166453
 20
5.8474048737
 30
0.0
 11
0.0142499722
 21
0.0142499722
 31
0.0
 40
0.9924325091
 41
-0.7816000651
 42
0.7816000651
  0
ELLIPSE
  5
42B
100
AcDbEntity
  8
0
100
AcDbEllipse
 62
7
  6
CONTINUOUS
 10
6.4443636118
 20
5.8474048737
 30
0.0
 11
0.0142499722
 21
-0.0142499722
 31
0.0
 40
0.9924325091
 41
2.3599925885
 42
3.9231927187
  0
ELLIPSE
  5
42C
100
AcDbEntity
  8
0
100
AcDbEllipse
 62
7
  6
CONTINUOUS
 10
6.4443636118
 20
5.5230518401
 30
0.0
 11
0.0142499722
 21
0.0142499722
 31
0.0
 40
0.9924325091
 41
-3.9231927187
 42
-2.3599925885
  0
ELLIPSE
  5
42D
100
AcDbEntity
  8
0
100
AcDbEllipse
 62
7
  6
CONTINUOUS
 10
6.1692798737
 20
5.5230518401
 30
0.0
 11
0.0142499722
 21
-0.0142499722
 31
0.0
 40
0.9924325091
 41
-0.7816000651
 42
0.7816000651
  0
ELLIPSE
  5
42E
100
AcDbEntity
  8
0
100
AcDbEllipse
 62
7
  6
CONTINUOUS
 10
6.1692798737
 20
5.8474048737
 30
0.0
 11
0.0142499722
 21
0.0142499722
 31
0.0
 40
0.9924325091
 41
-0.7816000651
 42
0.7816000651
  0
ELLIPSE
  5
42F
100
AcDbEntity
  8
0
100
AcDbEllipse
 62
7
  6
CONTINUOUS
 10
5.8449268401
 20
5.8474048737
 30
0.0
 11
0.0142499722
 21
-0.0142499722
 31
0.0
 40
0.9924325091
 41
2.3599925885
 42
3.9231927187
  0
ELLIPSE
  5
430
100
AcDbEntity
  8
0
100
AcDbEllipse
 62
7
  6
CONTINUOUS
 10
5.8449268401
 20
5.5230518401
 30
0.0
 11
0.0142499722
 21
0.0142499722
 31
0.0
 40
0.9924325091
 41
-3.9231927187
 42
-2.3599925885
  0
ELLIPSE
  5
431
100
AcDbEntity
  8
0
100
AcDbEllipse
 62
7
  6
CONTINUOUS
 10
5.5816631216
 20
5.5112318206
 30
0.0
 11
0.0142499722
 21
-0.0142499722
 31
0.0
 40
0.9924325091
 41
-0.7816000651
 42
0.7816000651
  0
ELLIPSE
  5
432
100
AcDbEntity
  8
0
100
AcDbEllipse
 62
7
  6
CONTINUOUS
 10
5.5816631216
 20
5.8592248932
 30
0.0
 11
0.0142499722
 21
0.0142499722
 31
0.0
 40
0.9924325091
 41
-0.7816000651
 42
0.7816000651
  0
ELLIPSE
  5
433
100
AcDbEntity
  8
0
100
AcDbEllipse
 62
7
  6
CONTINUOUS
 10
5.233670049
 20
5.8592248932
 30
0.0
 11
0.0142499722
 21
-0.0142499722
 31
0.0
 40
0.9924325091
 41
2.3599925885
 42
3.9231927187
  0
ELLIPSE
  5
434
100
AcDbEntity
  8
0
100
AcDbEllipse
 62
7
  6
CONTINUOUS
 10
5.233670049
 20
5.5112318206
 30
0.0
 11
0.0142499722
 21
0.0142499722
 31
0.0
 40
0.9924325091
 41
-3.9231927187
 42
-2.3599925885
  0
ELLIPSE
  5
435
100
AcDbEntity
  8
0
100
AcDbEllipse
 62
7
  6
CONTINUOUS
 10
5.0035250191
 20
5.4899331515
 30
0.0
 11
0.0142499722
 21
-0.0142499722
 31
0.0
 40
0.9924325091
 41
-0.7816000651
 42
0.7816000651
  0
ELLIPSE
  5
436
100
AcDbEntity
  8
0
100
AcDbEllipse
 62
7
  6
CONTINUOUS
 10
5.0035250191
 20
5.8805235624
 30
0.0
 11
0.0142499722
 21
0.0142499722
 31
0.0
 40
0.9924325091
 41
-0.7816000651
 42
0.7816000651
  0
ELLIPSE
  5
437
100
AcDbEntity
  8
0
100
AcDbEllipse
 62
7
  6
CONTINUOUS
 10
5.0156385557
 20
4.8783828433
 30
0.0
 11
0.0142499722
 21
-0.0142499722
 31
0.0
 40
0.9924325091
 41
-0.7816000651
 42
0.7816000651
  0
ELLIPSE
  5
438
100
AcDbEntity
  8
0
100
AcDbEllipse
 62
7
  6
CONTINUOUS
 10
5.0156385557
 20
5.2932003273
 30
0.0
 11
0.0142499722
 21
0.0142499722
 31
0.0
 40
0.9924325091
 41
-0.7816000651
 42
0.7816000651
  0
ELLIPSE
  5
439
100
AcDbEntity
  8
0
100
AcDbEllipse
 62
7
  6
CONTINUOUS
 10
5.2123713798
 20
5.2810867907
 30
0.0
 11
0.0142499722
 21
-0.0142499722
 31
0.0
 40
0.9924325091
 41
2.3599925885
 42
3.9231927187
  0
ELLIPSE
  5
43A
100
AcDbEntity
  8
0
100
AcDbEllipse
 62
7
  6
CONTINUOUS
 10
5.2123713798
 20
4.8904963798
 30
0.0
 11
0.0142499722
 21
0.0142499722
 31
0.0
 40
0.9924325091
 41
-3.9231927187
 42
-2.3599925885
  0
ELLIPSE
  5
43B
100
AcDbEntity
  8
0
100
AcDbEllipse
 62
7
  6
CONTINUOUS
 10
5.6029617907
 20
4.8904963798
 30
0.0
 11
0.0142499722
 21
-0.0142499722
 31
0.0
 40
0.9924325091
 41
-0.7816000651
 42
0.7816000651
  0
ELLIPSE
  5
43C
100
AcDbEntity
  8
0
100
AcDbEllipse
 62
7
  6
CONTINUOUS
 10
5.6029617907
 20
5.2810867907
 30
0.0
 11
0.0142499722
 21
0.0142499722
 31
0.0
 40
0.9924325091
 41
-0.7816000651
 42
0.7816000651
  0
ELLIPSE
  5
43D
100
AcDbEntity
  8
0
100
AcDbEllipse
 62
7
  6
CONTINUOUS
 10
5.8331068206
 20
5.2597881216
 30
0.0
 11
0.0142499722
 21
-0.0142499722
 31
0.0
 40
0.9924325091
 41
2.3599925885
 42
3.9231927187
  0
ELLIPSE
  5
43E
100
AcDbEntity
  8
0
100
AcDbEllipse
 62
7
  6
CONTINUOUS
 10
5.8331068206
 20
4.911795049
 30
0.0
 11
0.0142499722
 21
0.0142499722
 31
0.0
 40
0.9924325091
 41
-3.9231927187
 42
-2.3599925885
  0
ELLIPSE
  5
43F
100
AcDbEntity
  8
0
100
AcDbEllipse
 62
7
  6
CONTINUOUS
 10
6.1810998932
 20
4.911795049
 30
0.0
 11
0.0142499722
 21
-0.0142499722
 31
0.0
 40
0.9924325091
 41
-0.7816000651
 42
0.7816000651
  0
ELLIPSE
  5
440
100
AcDbEntity
  8
0
100
AcDbEllipse
 62
7
  6
CONTINUOUS
 10
6.1810998932
 20
5.2597881216
 30
0.0
 11
0.0142499722
 21
0.0142499722
 31
0.0
 40
0.9924325091
 41
-0.7816000651
 42
0.7816000651
  0
ELLIPSE
  5
441
100
AcDbEntity
  8
0
100
AcDbEllipse
 62
7
  6
CONTINUOUS
 10
6.4443636118
 20
5.247968102
 30
0.0
 11
0.0142499722
 21
-0.0142499722
 31
0.0
 40
0.9924325091
 41
2.3599925885
 42
3.9231927187
  0
ELLIPSE
  5
442
100
AcDbEntity
  8
0
100
AcDbEllipse
 62
7
  6
CONTINUOUS
 10
6.4443636118
 20
4.9236150685
 30
0.0
 11
0.0142499722
 21
0.0142499722
 31
0.0
 40
0.9924325091
 41
-3.9231927187
 42
-2.3599925885
  0
ELLIPSE
  5
443
100
AcDbEntity
  8
0
100
AcDbEllipse
 62
7
  6
CONTINUOUS
 10
6.7687166453
 20
5.247968102
 30
0.0
 11
0.0142499722
 21
0.0142499722
 31
0.0
 40
0.9924325091
 41
-0.7816000651
 42
0.7816000651
  0
ELLIPSE
  5
444
100
AcDbEntity
  8
0
100
AcDbEllipse
 62
7
  6
CONTINUOUS
 10
6.7687166453
 20
4.9236150685
 30
0.0
 11
0.0142499722
 21
-0.0142499722
 31
0.0
 40
0.9924325091
 41
-0.7816000651
 42
0.7816000651
  0
ELLIPSE
  5
445
100
AcDbEntity
  8
0
100
AcDbEllipse
 62
7
  6
CONTINUOUS
 10
7.0438003834
 20
4.9236150685
 30
0.0
 11
0.0142499722
 21
0.0142499722
 31
0.0
 40
0.9924325091
 41
-3.9231927187
 42
-2.3599925885
  0
ELLIPSE
  5
446
100
AcDbEntity
  8
0
100
AcDbEllipse
 62
7
  6
CONTINUOUS
 10
7.0438003834
 20
5.247968102
 30
0.0
 11
0.0142499722
 21
-0.0142499722
 31
0.0
 40
0.9924325091
 41
2.3599925885
 42
3.9231927187
  0
ELLIPSE
  5
447
100
AcDbEntity
  8
0
100
AcDbEllipse
 62
7
  6
CONTINUOUS
 10
7.3681534169
 20
5.247968102
 30
0.0
 11
0.0142499722
 21
0.0142499722
 31
0.0
 40
0.9924325091
 41
-0.7816000651
 42
0.7816000651
  0
ELLIPSE
  5
448
100
AcDbEntity
  8
0
100
AcDbEllipse
 62
7
  6
CONTINUOUS
 10
7.3681534169
 20
4.9236150685
 30
0.0
 11
0.0142499722
 21
-0.0142499722
 31
0.0
 40
0.9924325091
 41
-0.7816000651
 42
0.7816000651
  0
ELLIPSE
  5
449
100
AcDbEntity
  8
0
100
AcDbEllipse
 62
7
  6
CONTINUOUS
 10
2.2483062104
 20
5.247968102
 30
0.0
 11
0.0142499722
 21
-0.0142499722
 31
0.0
 40
0.9924325091
 41
2.3599925885
 42
3.9231927187
  0
ELLIPSE
  5
44A
100
AcDbEntity
  8
0
100
AcDbEllipse
 62
7
  6
CONTINUOUS
 10
2.2483062104
 20
4.9236150685
 30
0.0
 11
0.0142499722
 21
0.0142499722
 31
0.0
 40
0.9924325091
 41
2.3599925885
 42
3.9231927187
  0
ELLIPSE
  5
44B
100
AcDbEntity
  8
0
100
AcDbEllipse
 62
7
  6
CONTINUOUS
 10
2.5726592439
 20
4.9236150685
 30
0.0
 11
0.0142499722
 21
-0.0142499722
 31
0.0
 40
0.9924325091
 41
-0.7816000651
 42
0.7816000651
  0
ELLIPSE
  5
44C
100
AcDbEntity
  8
0
100
AcDbEllipse
 62
7
  6
CONTINUOUS
 10
2.5726592439
 20
5.247968102
 30
0.0
 11
0.0142499722
 21
0.0142499722
 31
0.0
 40
0.9924325091
 41
-0.7816000651
 42
0.7816000651
  0
ELLIPSE
  5
44D
100
AcDbEntity
  8
0
100
AcDbEllipse
 62
7
  6
CONTINUOUS
 10
2.847742982
 20
5.247968102
 30
0.0
 11
0.0142499722
 21
-0.0142499722
 31
0.0
 40
0.9924325091
 41
2.3599925885
 42
3.9231927187
  0
ELLIPSE
  5
44E
100
AcDbEntity
  8
0
100
AcDbEllipse
 62
7
  6
CONTINUOUS
 10
2.847742982
 20
4.9236150685
 30
0.0
 11
0.0142499722
 21
0.0142499722
 31
0.0
 40
0.9924325091
 41
2.3599925885
 42
3.9231927187
  0
ELLIPSE
  5
44F
100
AcDbEntity
  8
0
100
AcDbEllipse
 62
7
  6
CONTINUOUS
 10
3.1720960156
 20
4.9236150685
 30
0.0
 11
0.0142499722
 21
-0.0142499722
 31
0.0
 40
0.9924325091
 41
-0.7816000651
 42
0.7816000651
  0
ELLIPSE
  5
450
100
AcDbEntity
  8
0
100
AcDbEllipse
 62
7
  6
CONTINUOUS
 10
3.1720960156
 20
5.247968102
 30
0.0
 11
0.0142499722
 21
0.0142499722
 31
0.0
 40
0.9924325091
 41
-0.7816000651
 42
0.7816000651
  0
ELLIPSE
  5
451
100
AcDbEntity
  8
0
100
AcDbEllipse
 62
7
  6
CONTINUOUS
 10
3.4353597341
 20
5.2597881216
 30
0.0
 11
0.0142499722
 21
-0.0142499722
 31
0.0
 40
0.9924325091
 41
2.3599925885
 42
3.9231927187
  0
ELLIPSE
  5
452
100
AcDbEntity
  8
0
100
AcDbEllipse
 62
7
  6
CONTINUOUS
 10
3.4353597341
 20
4.911795049
 30
0.0
 11
0.0142499722
 21
0.0142499722
 31
0.0
 40
0.9924325091
 41
2.3599925885
 42
3.9231927187
  0
ELLIPSE
  5
453
100
AcDbEntity
  8
0
100
AcDbEllipse
 62
7
  6
CONTINUOUS
 10
3.7833528067
 20
4.911795049
 30
0.0
 11
0.0142499722
 21
-0.0142499722
 31
0.0
 40
0.9924325091
 41
-0.7816000651
 42
0.7816000651
  0
ELLIPSE
  5
454
100
AcDbEntity
  8
0
100
AcDbEllipse
 62
7
  6
CONTINUOUS
 10
3.7833528067
 20
5.2597881216
 30
0.0
 11
0.0142499722
 21
0.0142499722
 31
0.0
 40
0.9924325091
 41
-0.7816000651
 42
0.7816000651
  0
ELLIPSE
  5
455
100
AcDbEntity
  8
0
100
AcDbEllipse
 62
7
  6
CONTINUOUS
 10
4.0134978366
 20
5.2810867907
 30
0.0
 11
0.0142499722
 21
-0.0142499722
 31
0.0
 40
0.9924325091
 41
2.3599925885
 42
3.9231927187
  0
ELLIPSE
  5
456
100
AcDbEntity
  8
0
100
AcDbEllipse
 62
7
  6
CONTINUOUS
 10
4.0134978366
 20
4.8904963798
 30
0.0
 11
0.0142499722
 21
0.0142499722
 31
0.0
 40
0.9924325091
 41
2.3599925885
 42
3.9231927187
  0
ELLIPSE
  5
457
100
AcDbEntity
  8
0
100
AcDbEllipse
 62
7
  6
CONTINUOUS
 10
4.4040882475
 20
4.8904963798
 30
0.0
 11
0.0142499722
 21
-0.0142499722
 31
0.0
 40
0.9924325091
 41
-0.7816000651
 42
0.7816000651
  0
ELLIPSE
  5
458
100
AcDbEntity
  8
0
100
AcDbEllipse
 62
7
  6
CONTINUOUS
 10
4.4040882475
 20
5.2810867907
 30
0.0
 11
0.0142499722
 21
0.0142499722
 31
0.0
 40
0.9924325091
 41
-0.7816000651
 42
0.7816000651
  0
ELLIPSE
  5
459
100
AcDbEntity
  8
0
100
AcDbEllipse
 62
7
  6
CONTINUOUS
 10
4.6008210716
 20
5.2932003273
 30
0.0
 11
0.0142499722
 21
-0.0142499722
 31
0.0
 40
0.9924325091
 41
2.3599925885
 42
3.9231927187
  0
ELLIPSE
  5
45A
100
AcDbEntity
  8
0
100
AcDbEllipse
 62
7
  6
CONTINUOUS
 10
4.6008210716
 20
4.8783828433
 30
0.0
 11
0.0142499722
 21
0.0142499722
 31
0.0
 40
0.9924325091
 41
2.3599925885
 42
3.9231927187
  0
ELLIPSE
  5
45B
100
AcDbEntity
  8
0
100
AcDbEllipse
 62
7
  6
CONTINUOUS
 10
4.6460532969
 20
6.7219253834
 30
0.0
 11
0.0142499722
 21
0.0142499722
 31
0.0
 40
0.9924325091
 41
2.3599925885
 42
3.9231927187
  0
ELLIPSE
  5
45C
100
AcDbEntity
  8
0
100
AcDbEllipse
 62
7
  6
CONTINUOUS
 10
4.6460532969
 20
7.0462784169
 30
0.0
 11
0.0142499722
 21
-0.0142499722
 31
0.0
 40
0.9924325091
 41
2.3599925885
 42
3.9231927187
  0
ELLIPSE
  5
45D
100
AcDbEntity
  8
0
100
AcDbEllipse
 62
7
  6
CONTINUOUS
 10
4.3709695588
 20
7.0462784169
 30
0.0
 11
0.0142499722
 21
0.0142499722
 31
0.0
 40
0.9924325091
 41
-0.7816000651
 42
0.7816000651
  0
ELLIPSE
  5
45E
100
AcDbEntity
  8
0
100
AcDbEllipse
 62
7
  6
CONTINUOUS
 10
4.3709695588
 20
6.7219253834
 30
0.0
 11
0.0142499722
 21
-0.0142499722
 31
0.0
 40
0.9924325091
 41
-0.7816000651
 42
0.7816000651
  0
ELLIPSE
  5
45F
100
AcDbEntity
  8
0
100
AcDbEllipse
 62
7
  6
CONTINUOUS
 10
4.0466165253
 20
6.7219253834
 30
0.0
 11
0.0142499722
 21
0.0142499722
 31
0.0
 40
0.9924325091
 41
2.3599925885
 42
3.9231927187
  0
ELLIPSE
  5
460
100
AcDbEntity
  8
0
100
AcDbEllipse
 62
7
  6
CONTINUOUS
 10
4.0466165253
 20
7.0462784169
 30
0.0
 11
0.0142499722
 21
-0.0142499722
 31
0.0
 40
0.9924325091
 41
2.3599925885
 42
3.9231927187
  0
ELLIPSE
  5
461
100
AcDbEntity
  8
0
100
AcDbEllipse
 62
7
  6
CONTINUOUS
 10
3.7715327872
 20
6.7219253834
 30
0.0
 11
0.0142499722
 21
-0.0142499722
 31
0.0
 40
0.9924325091
 41
-0.7816000651
 42
0.7816000651
  0
ELLIPSE
  5
462
100
AcDbEntity
  8
0
100
AcDbEllipse
 62
7
  6
CONTINUOUS
 10
3.7715327872
 20
7.0462784169
 30
0.0
 11
0.0142499722
 21
0.0142499722
 31
0.0
 40
0.9924325091
 41
-0.7816000651
 42
0.7816000651
  0
ELLIPSE
  5
463
100
AcDbEntity
  8
0
100
AcDbEllipse
 62
7
  6
CONTINUOUS
 10
3.4471797537
 20
7.0462784169
 30
0.0
 11
0.0142499722
 21
-0.0142499722
 31
0.0
 40
0.9924325091
 41
2.3599925885
 42
3.9231927187
  0
ELLIPSE
  5
464
100
AcDbEntity
  8
0
100
AcDbEllipse
 62
7
  6
CONTINUOUS
 10
3.4471797537
 20
6.7219253834
 30
0.0
 11
0.0142499722
 21
0.0142499722
 31
0.0
 40
0.9924325091
 41
2.3599925885
 42
3.9231927187
  0
ELLIPSE
  5
465
100
AcDbEntity
  8
0
100
AcDbEllipse
 62
7
  6
CONTINUOUS
 10
3.1720960156
 20
6.7219253834
 30
0.0
 11
0.0142499722
 21
-0.0142499722
 31
0.0
 40
0.9924325091
 41
-0.7816000651
 42
0.7816000651
  0
ELLIPSE
  5
466
100
AcDbEntity
  8
0
100
AcDbEllipse
 62
7
  6
CONTINUOUS
 10
3.1720960156
 20
7.0462784169
 30
0.0
 11
0.0142499722
 21
0.0142499722
 31
0.0
 40
0.9924325091
 41
-0.7816000651
 42
0.7816000651
  0
ELLIPSE
  5
467
100
AcDbEntity
  8
0
100
AcDbEllipse
 62
7
  6
CONTINUOUS
 10
2.847742982
 20
7.0462784169
 30
0.0
 11
0.0142499722
 21
-0.0142499722
 31
0.0
 40
0.9924325091
 41
2.3599925885
 42
3.9231927187
  0
ELLIPSE
  5
468
100
AcDbEntity
  8
0
100
AcDbEllipse
 62
7
  6
CONTINUOUS
 10
2.847742982
 20
6.7219253834
 30
0.0
 11
0.0142499722
 21
0.0142499722
 31
0.0
 40
0.9924325091
 41
2.3599925885
 42
3.9231927187
  0
ELLIPSE
  5
469
100
AcDbEntity
  8
0
100
AcDbEllipse
 62
7
  6
CONTINUOUS
 10
2.5681534169
 20
6.7264312104
 30
0.0
 11
0.0142499722
 21
-0.0142499722
 31
0.0
 40
0.9924325091
 41
-0.7816000651
 42
0.7816000651
  0
ELLIPSE
  5
46A
100
AcDbEntity
  8
0
100
AcDbEllipse
 62
7
  6
CONTINUOUS
 10
2.5681534169
 20
7.0462784169
 30
0.0
 11
0.0142499722
 21
0.0142499722
 31
0.0
 40
0.9924325091
 41
-0.7816000651
 42
0.7816000651
  0
ELLIPSE
  5
46B
100
AcDbEntity
  8
0
100
AcDbEllipse
 62
7
  6
CONTINUOUS
 10
2.2483062104
 20
7.0462784169
 30
0.0
 11
0.0142499722
 21
-0.0142499722
 31
0.0
 40
0.9924325091
 41
2.3599925885
 42
3.9231927187
  0
ELLIPSE
  5
46C
100
AcDbEntity
  8
0
100
AcDbEllipse
 62
7
  6
CONTINUOUS
 10
2.2483062104
 20
6.7264312104
 30
0.0
 11
0.0142499722
 21
0.0142499722
 31
0.0
 40
0.9924325091
 41
2.3599925885
 42
3.9231927187
  0
ELLIPSE
  5
46D
100
AcDbEntity
  8
0
100
AcDbEllipse
 62
7
  6
CONTINUOUS
 10
7.3681534169
 20
7.0462784169
 30
0.0
 11
0.0142499722
 21
0.0142499722
 31
0.0
 40
0.9924325091
 41
-0.7816000651
 42
0.7816000651
  0
ELLIPSE
  5
46E
100
AcDbEntity
  8
0
100
AcDbEllipse
 62
7
  6
CONTINUOUS
 10
7.3681534169
 20
6.7219253834
 30
0.0
 11
0.0142499722
 21
-0.0142499722
 31
0.0
 40
0.9924325091
 41
-0.7816000651
 42
0.7816000651
  0
ELLIPSE
  5
46F
100
AcDbEntity
  8
0
100
AcDbEllipse
 62
7
  6
CONTINUOUS
 10
7.0438003834
 20
7.0462784169
 30
0.0
 11
0.0142499722
 21
-0.0142499722
 31
0.0
 40
0.9924325091
 41
2.3599925885
 42
3.9231927187
  0
ELLIPSE
  5
470
100
AcDbEntity
  8
0
100
AcDbEllipse
 62
7
  6
CONTINUOUS
 10
7.0438003834
 20
6.7219253834
 30
0.0
 11
0.0142499722
 21
0.0142499722
 31
0.0
 40
0.9924325091
 41
-3.9231927187
 42
-2.3599925885
  0
ELLIPSE
  5
471
100
AcDbEntity
  8
0
100
AcDbEllipse
 62
7
  6
CONTINUOUS
 10
6.7687166453
 20
7.0462784169
 30
0.0
 11
0.0142499722
 21
0.0142499722
 31
0.0
 40
0.9924325091
 41
-0.7816000651
 42
0.7816000651
  0
ELLIPSE
  5
472
100
AcDbEntity
  8
0
100
AcDbEllipse
 62
7
  6
CONTINUOUS
 10
6.4443636118
 20
7.0462784169
 30
0.0
 11
0.0142499722
 21
-0.0142499722
 31
0.0
 40
0.9924325091
 41
2.3599925885
 42
3.9231927187
  0
ELLIPSE
  5
473
100
AcDbEntity
  8
0
100
AcDbEllipse
 62
7
  6
CONTINUOUS
 10
6.4443636118
 20
6.7219253834
 30
0.0
 11
0.0142499722
 21
0.0142499722
 31
0.0
 40
0.9924325091
 41
-3.9231927187
 42
-2.3599925885
  0
ELLIPSE
  5
474
100
AcDbEntity
  8
0
100
AcDbEllipse
 62
7
  6
CONTINUOUS
 10
6.7687166453
 20
6.7219253834
 30
0.0
 11
0.0142499722
 21
-0.0142499722
 31
0.0
 40
0.9924325091
 41
-0.7816000651
 42
0.7816000651
  0
ELLIPSE
  5
475
100
AcDbEntity
  8
0
100
AcDbEllipse
 62
7
  6
CONTINUOUS
 10
6.1692798737
 20
7.0462784169
 30
0.0
 11
0.0142499722
 21
0.0142499722
 31
0.0
 40
0.9924325091
 41
-0.7816000651
 42
0.7816000651
  0
ELLIPSE
  5
476
100
AcDbEntity
  8
0
100
AcDbEllipse
 62
7
  6
CONTINUOUS
 10
6.1692798737
 20
6.7219253834
 30
0.0
 11
0.0142499722
 21
-0.0142499722
 31
0.0
 40
0.9924325091
 41
-0.7816000651
 42
0.7816000651
  0
ELLIPSE
  5
477
100
AcDbEntity
  8
0
100
AcDbEllipse
 62
7
  6
CONTINUOUS
 10
5.8449268401
 20
6.7219253834
 30
0.0
 11
0.0142499722
 21
0.0142499722
 31
0.0
 40
0.9924325091
 41
-3.9231927187
 42
-2.3599925885
  0
ELLIPSE
  5
478
100
AcDbEntity
  8
0
100
AcDbEllipse
 62
7
  6
CONTINUOUS
 10
5.8449268401
 20
7.0462784169
 30
0.0
 11
0.0142499722
 21
-0.0142499722
 31
0.0
 40
0.9924325091
 41
2.3599925885
 42
3.9231927187
  0
ELLIPSE
  5
479
100
AcDbEntity
  8
0
100
AcDbEllipse
 62
7
  6
CONTINUOUS
 10
5.569843102
 20
7.0462784169
 30
0.0
 11
0.0142499722
 21
0.0142499722
 31
0.0
 40
0.9924325091
 41
-0.7816000651
 42
0.7816000651
  0
ELLIPSE
  5
47A
100
AcDbEntity
  8
0
100
AcDbEllipse
 62
7
  6
CONTINUOUS
 10
5.569843102
 20
6.7219253834
 30
0.0
 11
0.0142499722
 21
-0.0142499722
 31
0.0
 40
0.9924325091
 41
-0.7816000651
 42
0.7816000651
  0
ELLIPSE
  5
47B
100
AcDbEntity
  8
0
100
AcDbEllipse
 62
7
  6
CONTINUOUS
 10
5.2454900685
 20
6.7219253834
 30
0.0
 11
0.0142499722
 21
0.0142499722
 31
0.0
 40
0.9924325091
 41
-3.9231927187
 42
-2.3599925885
  0
ELLIPSE
  5
47C
100
AcDbEntity
  8
0
100
AcDbEllipse
 62
7
  6
CONTINUOUS
 10
5.2454900685
 20
7.0462784169
 30
0.0
 11
0.0142499722
 21
-0.0142499722
 31
0.0
 40
0.9924325091
 41
2.3599925885
 42
3.9231927187
  0
ELLIPSE
  5
47D
100
AcDbEntity
  8
0
100
AcDbEllipse
 62
7
  6
CONTINUOUS
 10
4.9704063304
 20
7.0462784169
 30
0.0
 11
0.0142499722
 21
0.0142499722
 31
0.0
 40
0.9924325091
 41
-0.7816000651
 42
0.7816000651
  0
ELLIPSE
  5
47E
100
AcDbEntity
  8
0
100
AcDbEllipse
 62
7
  6
CONTINUOUS
 10
4.9704063304
 20
6.7219253834
 30
0.0
 11
0.0142499722
 21
-0.0142499722
 31
0.0
 40
0.9924325091
 41
-0.7816000651
 42
0.7816000651
  0
ELLIPSE
  5
47F
100
AcDbEntity
  8
0
100
AcDbEllipse
 62
7
  6
CONTINUOUS
 10
4.6342332774
 20
6.4586616648
 30
0.0
 11
0.0142499722
 21
-0.0142499722
 31
0.0
 40
0.9924325091
 41
2.3599925885
 42
3.9231927187
  0
ELLIPSE
  5
480
100
AcDbEntity
  8
0
100
AcDbEllipse
 62
7
  6
CONTINUOUS
 10
4.6342332774
 20
6.1106685922
 30
0.0
 11
0.0142499722
 21
0.0142499722
 31
0.0
 40
0.9924325091
 41
2.3599925885
 42
3.9231927187
  0
ELLIPSE
  5
481
100
AcDbEntity
  8
0
100
AcDbEllipse
 62
7
  6
CONTINUOUS
 10
4.3709695588
 20
6.1224886118
 30
0.0
 11
0.0142499722
 21
-0.0142499722
 31
0.0
 40
0.9924325091
 41
-0.7816000651
 42
0.7816000651
  0
ELLIPSE
  5
482
100
AcDbEntity
  8
0
100
AcDbEllipse
 62
7
  6
CONTINUOUS
 10
4.3709695588
 20
6.4468416453
 30
0.0
 11
0.0142499722
 21
0.0142499722
 31
0.0
 40
0.9924325091
 41
-0.7816000651
 42
0.7816000651
  0
ELLIPSE
  5
483
100
AcDbEntity
  8
0
100
AcDbEllipse
 62
7
  6
CONTINUOUS
 10
4.0466165253
 20
6.4468416453
 30
0.0
 11
0.0142499722
 21
-0.0142499722
 31
0.0
 40
0.9924325091
 41
2.3599925885
 42
3.9231927187
  0
ELLIPSE
  5
484
100
AcDbEntity
  8
0
100
AcDbEllipse
 62
7
  6
CONTINUOUS
 10
4.0466165253
 20
6.1224886118
 30
0.0
 11
0.0142499722
 21
0.0142499722
 31
0.0
 40
0.9924325091
 41
2.3599925885
 42
3.9231927187
  0
ELLIPSE
  5
485
100
AcDbEntity
  8
0
100
AcDbEllipse
 62
7
  6
CONTINUOUS
 10
3.7715327872
 20
6.1224886118
 30
0.0
 11
0.0142499722
 21
-0.0142499722
 31
0.0
 40
0.9924325091
 41
-0.7816000651
 42
0.7816000651
  0
ELLIPSE
  5
486
100
AcDbEntity
  8
0
100
AcDbEllipse
 62
7
  6
CONTINUOUS
 10
3.7715327872
 20
6.4468416453
 30
0.0
 11
0.0142499722
 21
0.0142499722
 31
0.0
 40
0.9924325091
 41
-0.7816000651
 42
0.7816000651
  0
ELLIPSE
  5
487
100
AcDbEntity
  8
0
100
AcDbEllipse
 62
7
  6
CONTINUOUS
 10
3.4471797537
 20
6.4468416453
 30
0.0
 11
0.0142499722
 21
-0.0142499722
 31
0.0
 40
0.9924325091
 41
2.3599925885
 42
3.9231927187
  0
ELLIPSE
  5
488
100
AcDbEntity
  8
0
100
AcDbEllipse
 62
7
  6
CONTINUOUS
 10
3.4471797537
 20
6.1224886118
 30
0.0
 11
0.0142499722
 21
0.0142499722
 31
0.0
 40
0.9924325091
 41
2.3599925885
 42
3.9231927187
  0
ELLIPSE
  5
489
100
AcDbEntity
  8
0
100
AcDbEllipse
 62
7
  6
CONTINUOUS
 10
3.1720960156
 20
6.1224886118
 30
0.0
 11
0.0142499722
 21
-0.0142499722
 31
0.0
 40
0.9924325091
 41
-0.7816000651
 42
0.7816000651
  0
ELLIPSE
  5
48A
100
AcDbEntity
  8
0
100
AcDbEllipse
 62
7
  6
CONTINUOUS
 10
3.1720960156
 20
6.4468416453
 30
0.0
 11
0.0142499722
 21
0.0142499722
 31
0.0
 40
0.9924325091
 41
-0.7816000651
 42
0.7816000651
  0
ELLIPSE
  5
48B
100
AcDbEntity
  8
0
100
AcDbEllipse
 62
7
  6
CONTINUOUS
 10
2.847742982
 20
6.4468416453
 30
0.0
 11
0.0142499722
 21
-0.0142499722
 31
0.0
 40
0.9924325091
 41
2.3599925885
 42
3.9231927187
  0
ELLIPSE
  5
48C
100
AcDbEntity
  8
0
100
AcDbEllipse
 62
7
  6
CONTINUOUS
 10
2.847742982
 20
6.1224886118
 30
0.0
 11
0.0142499722
 21
0.0142499722
 31
0.0
 40
0.9924325091
 41
2.3599925885
 42
3.9231927187
  0
ELLIPSE
  5
48D
100
AcDbEntity
  8
0
100
AcDbEllipse
 62
7
  6
CONTINUOUS
 10
2.5726592439
 20
6.1224886118
 30
0.0
 11
0.0142499722
 21
-0.0142499722
 31
0.0
 40
0.9924325091
 41
-0.7816000651
 42
0.7816000651
  0
ELLIPSE
  5
48E
100
AcDbEntity
  8
0
100
AcDbEllipse
 62
7
  6
CONTINUOUS
 10
2.5726592439
 20
6.4468416453
 30
0.0
 11
0.0142499722
 21
0.0142499722
 31
0.0
 40
0.9924325091
 41
-0.7816000651
 42
0.7816000651
  0
ELLIPSE
  5
48F
100
AcDbEntity
  8
0
100
AcDbEllipse
 62
7
  6
CONTINUOUS
 10
2.2483062104
 20
6.1224886118
 30
0.0
 11
0.0142499722
 21
0.0142499722
 31
0.0
 40
0.9924325091
 41
2.3599925885
 42
3.9231927187
  0
ELLIPSE
  5
490
100
AcDbEntity
  8
0
100
AcDbEllipse
 62
7
  6
CONTINUOUS
 10
2.2483062104
 20
6.4468416453
 30
0.0
 11
0.0142499722
 21
-0.0142499722
 31
0.0
 40
0.9924325091
 41
2.3599925885
 42
3.9231927187
  0
ELLIPSE
  5
491
100
AcDbEntity
  8
0
100
AcDbEllipse
 62
7
  6
CONTINUOUS
 10
7.3681534169
 20
6.4468416453
 30
0.0
 11
0.0142499722
 21
0.0142499722
 31
0.0
 40
0.9924325091
 41
-0.7816000651
 42
0.7816000651
  0
ELLIPSE
  5
492
100
AcDbEntity
  8
0
100
AcDbEllipse
 62
7
  6
CONTINUOUS
 10
7.3681534169
 20
6.1224886118
 30
0.0
 11
0.0142499722
 21
-0.0142499722
 31
0.0
 40
0.9924325091
 41
-0.7816000651
 42
0.7816000651
  0
ELLIPSE
  5
493
100
AcDbEntity
  8
0
100
AcDbEllipse
 62
7
  6
CONTINUOUS
 10
7.0438003834
 20
6.1224886118
 30
0.0
 11
0.0142499722
 21
0.0142499722
 31
0.0
 40
0.9924325091
 41
-3.9231927187
 42
-2.3599925885
  0
ELLIPSE
  5
494
100
AcDbEntity
  8
0
100
AcDbEllipse
 62
7
  6
CONTINUOUS
 10
7.0438003834
 20
6.4468416453
 30
0.0
 11
0.0142499722
 21
-0.0142499722
 31
0.0
 40
0.9924325091
 41
2.3599925885
 42
3.9231927187
  0
ELLIPSE
  5
495
100
AcDbEntity
  8
0
100
AcDbEllipse
 62
7
  6
CONTINUOUS
 10
6.7687166453
 20
6.4468416453
 30
0.0
 11
0.0142499722
 21
0.0142499722
 31
0.0
 40
0.9924325091
 41
-0.7816000651
 42
0.7816000651
  0
ELLIPSE
  5
496
100
AcDbEntity
  8
0
100
AcDbEllipse
 62
7
  6
CONTINUOUS
 10
6.7687166453
 20
6.1224886118
 30
0.0
 11
0.0142499722
 21
-0.0142499722
 31
0.0
 40
0.9924325091
 41
-0.7816000651
 42
0.7816000651
  0
ELLIPSE
  5
497
100
AcDbEntity
  8
0
100
AcDbEllipse
 62
7
  6
CONTINUOUS
 10
6.4443636118
 20
6.1224886118
 30
0.0
 11
0.0142499722
 21
0.0142499722
 31
0.0
 40
0.9924325091
 41
-3.9231927187
 42
-2.3599925885
  0
ELLIPSE
  5
498
100
AcDbEntity
  8
0
100
AcDbEllipse
 62
7
  6
CONTINUOUS
 10
6.4443636118
 20
6.4468416453
 30
0.0
 11
0.0142499722
 21
-0.0142499722
 31
0.0
 40
0.9924325091
 41
2.3599925885
 42
3.9231927187
  0
ELLIPSE
  5
499
100
AcDbEntity
  8
0
100
AcDbEllipse
 62
7
  6
CONTINUOUS
 10
6.1692798737
 20
6.4468416453
 30
0.0
 11
0.0142499722
 21
0.0142499722
 31
0.0
 40
0.9924325091
 41
-0.7816000651
 42
0.7816000651
  0
ELLIPSE
  5
49A
100
AcDbEntity
  8
0
100
AcDbEllipse
 62
7
  6
CONTINUOUS
 10
6.1692798737
 20
6.1224886118
 30
0.0
 11
0.0142499722
 21
-0.0142499722
 31
0.0
 40
0.9924325091
 41
-0.7816000651
 42
0.7816000651
  0
ELLIPSE
  5
49B
100
AcDbEntity
  8
0
100
AcDbEllipse
 62
7
  6
CONTINUOUS
 10
5.8449268401
 20
6.1224886118
 30
0.0
 11
0.0142499722
 21
0.0142499722
 31
0.0
 40
0.9924325091
 41
-3.9231927187
 42
-2.3599925885
  0
ELLIPSE
  5
49C
100
AcDbEntity
  8
0
100
AcDbEllipse
 62
7
  6
CONTINUOUS
 10
5.8449268401
 20
6.4468416453
 30
0.0
 11
0.0142499722
 21
-0.0142499722
 31
0.0
 40
0.9924325091
 41
2.3599925885
 42
3.9231927187
  0
ELLIPSE
  5
49D
100
AcDbEntity
  8
0
100
AcDbEllipse
 62
7
  6
CONTINUOUS
 10
5.569843102
 20
6.1224886118
 30
0.0
 11
0.0142499722
 21
-0.0142499722
 31
0.0
 40
0.9924325091
 41
-0.7816000651
 42
0.7816000651
  0
ELLIPSE
  5
49E
100
AcDbEntity
  8
0
100
AcDbEllipse
 62
7
  6
CONTINUOUS
 10
5.569843102
 20
6.4468416453
 30
0.0
 11
0.0142499722
 21
0.0142499722
 31
0.0
 40
0.9924325091
 41
-0.7816000651
 42
0.7816000651
  0
ELLIPSE
  5
49F
100
AcDbEntity
  8
0
100
AcDbEllipse
 62
7
  6
CONTINUOUS
 10
5.2454900685
 20
6.4468416453
 30
0.0
 11
0.0142499722
 21
-0.0142499722
 31
0.0
 40
0.9924325091
 41
2.3599925885
 42
3.9231927187
  0
ELLIPSE
  5
4A0
100
AcDbEntity
  8
0
100
AcDbEllipse
 62
7
  6
CONTINUOUS
 10
5.2454900685
 20
6.1224886118
 30
0.0
 11
0.0142499722
 21
0.0142499722
 31
0.0
 40
0.9924325091
 41
-3.9231927187
 42
-2.3599925885
  0
ELLIPSE
  5
4A1
100
AcDbEntity
  8
0
100
AcDbEllipse
 62
7
  6
CONTINUOUS
 10
4.9822263499
 20
6.1106685922
 30
0.0
 11
0.0142499722
 21
-0.0142499722
 31
0.0
 40
0.9924325091
 41
-0.7816000651
 42
0.7816000651
  0
ELLIPSE
  5
4A2
100
AcDbEntity
  8
0
100
AcDbEllipse
 62
7
  6
CONTINUOUS
 10
4.9822263499
 20
6.4586616648
 30
0.0
 11
0.0142499722
 21
0.0142499722
 31
0.0
 40
0.9924325091
 41
-0.7816000651
 42
0.7816000651
  0
ENDSEC
  0
SECTION
  2
OBJECTS
  0
DICTIONARY
  5
C
100
AcDbDictionary
280
0
281
1
  3
ACAD_GROUP
350
D
  3
ACAD_MLINESTYLE
350
17
  3
ACAD_LAYOUT
350
1A
  3
ACAD_PLOTSETTINGS
350
19
  3
ACAD_PLOTSTYLENAME
350
E
  0
DICTIONARY
  5
D
102
{ACAD_REACTORS
330
C
102
}
100
AcDbDictionary
280
0
281
1
  0
ACDBDICTIONARYWDFLT
  5
E
102
{ACAD_REACTORS
330
C
102
}
100
AcDbDictionary
281
1
  3
Normal
350
F
100
AcDbDictionaryWithDefault
340
F
  0
DICTIONARY
  5
17
102
{ACAD_REACTORS
330
C
102
}
100
AcDbDictionary
280
0
281
1
  3
Standard
350
18
  0
DICTIONARY
  5
19
102
{ACAD_REACTORS
330
C
102
}
100
AcDbDictionary
281
1
  0
DICTIONARY
  5
1A
102
{ACAD_REACTORS
330
C
102
}
100
AcDbDictionary
281
1
  3
Model
350
4A3
  3
Layout1
350
4A4
  0
ACDBPLACEHOLDER
  5
F
102
{ACAD_REACTORS
330
E
102
}
  0
MLINESTYLE
  5
18
102
{ACAD_REACTORS
330
17
102
}
100
AcDbMlineStyle
  2
STANDARD
 70
0
  3

 62
256
 51
90.0
 52
90.0
 71
2
 49
0.5
 62
256
  6
BYLAYER
 49
-0.5
 62
256
  6
BYLAYER
  0
LAYOUT
  5
4A3
102
{ACAD_REACTORS
330
1A
102
}
100
AcDbPlotSettings
  1

  2
none_device
  4
ANSI_A_(11.00_x_8.50_Inches)
  6

 40
0.0
 41
0.0
 42
0.0
 43
0.0
 44
279.4
 45
215.9
 46
0.0
 47
0.0
 48
0.0
 49
0.0
140
0.0
141
0.0
142
1.0
143
1.0
 70
1024
 72
0
 73
0
 74
0
  7

 75
0
147
1.0
148
0.0
149
0.0
100
AcDbLayout
  1
Model
 70
0
 71
0
 10
0.0
 20
0.0
 11
11.0
 21
8.5
 12
0.0
 22
0.0
 32
0.0
 14
0.0
 24
0.0
 34
0.0
 15
0.0
 25
0.0
 35
0.0
146
0.0
 13
0.0
 23
0.0
 33
0.0
 16
1.0
 26
0.0
 36
0.0
 17
0.0
 27
1.0
 37
0.0
 76
0
330
207
345
0
346
0
  0
LAYOUT
  5
4A4
102
{ACAD_REACTORS
330
1A
102
}
100
AcDbPlotSettings
  1

  2
none_device
  4
ANSI_A_(11.00_x_8.50_Inches)
  6

 40
0.0
 41
0.0
 42
0.0
 43
0.0
 44
279.4
 45
215.9
 46
0.0
 47
0.0
 48
0.0
 49
0.0
140
0.0
141
0.0
142
1.0
143
1.0
 70
0
 72
0
 73
0
 74
0
  7

 75
0
147
1.0
148
0.0
149
0.0
100
AcDbLayout
  1
Layout1
 70
0
 71
1
 10
0.0
 20
0.0
 11
11.0
 21
8.5
 12
0.0
 22
0.0
 32
0.0
 14
0.0
 24
0.0
 34
0.0
 15
0.0
 25
0.0
 35
0.0
146
0.0
 13
0.0
 23
0.0
 33
0.0
 16
1.0
 26
0.0
 36
0.0
 17
0.0
 27
1.0
 37
0.0
 76
0
330
208
345
0
346
0
  0
ENDSEC
  0
EOF
