999
DXF file: 233-604_front.dxf
999
Pro/ENGINEER 2018400 by Parametric Technology Corporation
  0
SECTION
  2
HEADER
  9
$ACADVER
  1
AC1027
  9
$DWGCODEPAGE
  3
ANSI_1252
  9
$EXTMAX
 10
11.0
 20
8.5
 30
0.0
  9
$EXTMIN
 10
0.0
 20
0.0
 30
0.0
  9
$LIMMIN
 10
0.0
 20
0.0
  9
$LIMMAX
 10
11.0
 20
8.5
  9
$VIEWCTR
 10
5.5
 20
4.25
  9
$VIEWSIZE
 40
8.5
  9
$CLAYER
  8
0
  9
$LTSCALE
 40
0.605
  9
$CELTYPE
  6
BYLAYER
  9
$DIMSCALE
 40
1.0
  9
$DIMASZ
 40
0.1
  9
$DIMEXO
 40
0.0625
  9
$DIMDLI
 40
0.418
  9
$DIMEXE
 40
0.125
  9
$DIMCEN
 40
0.099
  9
$DIMLFAC
 40
1.0
  9
$DIMBLK
  1
_FILLED
  9
$DIMALT
 70
1
  9
$DIMALTD
 70
1
  9
$DIMALTTD
 70
2
  9
$DIMALTF
 40
25.4
  9
$DIMTXT
 40
0.08
  9
$DIMTOL
 70
1
  9
$DIMLIM
 70
0
  9
$DIMTFAC
 40
1.0
  9
$DIMTP
 40
0.01
  9
$DIMTM
 40
0.01
  9
$DIMGAP
 40
0.09
  9
$DIMDSEP
 70
46
  9
$AUNITS
 70
0
  9
$PDMODE
 70
3
  9
$PDSIZE
 40
0.3125
  9
$HANDSEED
  5
339
  9
$TILEMODE
 70
1
  9
$MEASUREMENT
 70
0
  9
$INSUNITS
 70
1
  0
ENDSEC
  0
SECTION
  2
CLASSES
  0
CLASS
  1
ACDBDICTIONARYWDFLT
  2
AcDbDictionaryWithDefault
  3
AutoCAD 2000
 90
0
 91
1
280
0
281
0
  0
CLASS
  1
ACDBPLACEHOLDER
  2
AcDbPlaceHolder
  3
AutoCAD 2000
 90
0
 91
1
280
0
281
0
  0
CLASS
  1
LAYOUT
  2
AcDbLayout
  3
AutoCAD 2000
 90
0
 91
0
280
0
281
0
  0
ENDSEC
  0
SECTION
  2
TABLES
  0
TABLE
  2
VPORT
  5
8
100
AcDbSymbolTable
 70
2
  0
VPORT
  5
1F4
100
AcDbSymbolTableRecord
100
AcDbViewportTableRecord
  2
*ACTIVE
 70
0
 10
0.0
 20
0.0
 11
1.0
 21
1.0
 12
5.5
 22
4.25
 13
0.0
 23
0.0
 14
1.0
 24
1.0
 15
0.0
 25
0.0
 16
0.0
 26
0.0
 36
1.0
 17
0.0
 27
0.0
 37
0.0
 40
8.5
 41
1.2941176471
 42
50.0
 43
0.0
 44
0.0
 50
0.0
 51
0.0
 71
0
 72
100
 73
1
 74
1
 75
0
 76
0
 77
0
 78
0
  0
ENDTAB
  0
TABLE
  2
LTYPE
  5
5
100
AcDbSymbolTable
 70
6
  0
LTYPE
  5
14
100
AcDbSymbolTableRecord
100
AcDbLinetypeTableRecord
  2
BYBLOCK
 70
0
  3

 72
65
 73
0
 40
0.0
  0
LTYPE
  5
15
100
AcDbSymbolTableRecord
100
AcDbLinetypeTableRecord
  2
BYLAYER
 70
0
  3

 72
65
 73
0
 40
0.0
  0
LTYPE
  5
16
100
AcDbSymbolTableRecord
100
AcDbLinetypeTableRecord
  2
CONTINUOUS
 70
64
  3
Solid line
 72
65
 73
0
 40
0.0
  0
LTYPE
  5
1F5
100
AcDbSymbolTableRecord
100
AcDbLinetypeTableRecord
  2
CENTER
 70
64
  3
____ _ ____ _ ____ _ ____ _ ____ _ ____ _ ____
 72
65
 73
4
 40
0.6
 49
0.375
 74
0
 49
-0.075
 74
0
 49
0.075
 74
0
 49
-0.075
 74
0
  0
LTYPE
  5
1F6
100
AcDbSymbolTableRecord
100
AcDbLinetypeTableRecord
  2
HIDDEN
 70
64
  3
- - - - - - - - - - - - - - - - - - - -
 72
65
 73
2
 40
0.2
 49
0.1
 74
0
 49
-0.1
 74
0
  0
LTYPE
  5
1F7
100
AcDbSymbolTableRecord
100
AcDbLinetypeTableRecord
  2
PHANTOM
 70
64
  3
_____ _ _ _____ _ _ _____ _ _ _____
 72
65
 73
6
 40
0.8
 49
0.45
 74
0
 49
-0.05
 74
0
 49
0.1
 74
0
 49
-0.05
 74
0
 49
0.1
 74
0
 49
-0.05
 74
0
  0
LTYPE
  5
1F8
100
AcDbSymbolTableRecord
100
AcDbLinetypeTableRecord
  2
DOT
 70
64
  3
. . . . . . . . . . . . . . . . . . . .
 72
65
 73
2
 40
0.2
 49
0.1
 74
0
 49
-0.1
 74
0
  0
LTYPE
  5
1F9
100
AcDbSymbolTableRecord
100
AcDbLinetypeTableRecord
  2
DASHED
 70
64
  3
- - - - - - - - - - - - - - - - - - - -
 72
65
 73
2
 40
0.2
 49
0.1
 74
0
 49
-0.1
 74
0
  0
ENDTAB
  0
TABLE
  2
LAYER
  5
2
100
AcDbSymbolTable
 70
36
  0
LAYER
  5
10
100
AcDbSymbolTableRecord
100
AcDbLayerTableRecord
  2
0
 70
0
 62
7
  6
CONTINUOUS
370
-3
390
F
  0
LAYER
  5
1FA
100
AcDbSymbolTableRecord
100
AcDbLayerTableRecord
  2
DEFAULT_1
 70
0
 62
7
  6
CENTER
370
-3
390
F
  0
LAYER
  5
1FB
100
AcDbSymbolTableRecord
100
AcDbLayerTableRecord
  2
DEFAULT_2
 70
0
 62
8
  6
HIDDEN
370
-3
390
F
  0
LAYER
  5
1FC
100
AcDbSymbolTableRecord
100
AcDbLayerTableRecord
  2
DEFAULT_3
 70
0
 62
7
  6
PHANTOM
370
-3
390
F
  0
LAYER
  5
1FD
100
AcDbSymbolTableRecord
100
AcDbLayerTableRecord
  2
DEFAULT_COORDINATE_SYSTEM
 70
0
 62
7
  6
CONTINUOUS
370
-3
390
F
  0
LAYER
  5
1FE
100
AcDbSymbolTableRecord
100
AcDbLayerTableRecord
  2
DEFAULT_DATUM_AXES
 70
0
 62
7
  6
CONTINUOUS
370
-3
390
F
  0
LAYER
  5
1FF
100
AcDbSymbolTableRecord
100
AcDbLayerTableRecord
  2
DEFAULT_DATUM_CURVES
 70
0
 62
7
  6
CONTINUOUS
370
-3
390
F
  0
LAYER
  5
200
100
AcDbSymbolTableRecord
100
AcDbLayerTableRecord
  2
DEFAULT_DATUM_PLANES
 70
0
 62
7
  6
CONTINUOUS
370
-3
390
F
  0
LAYER
  5
201
100
AcDbSymbolTableRecord
100
AcDbLayerTableRecord
  2
DEFAULT_SURFACES
 70
0
 62
7
  6
CONTINUOUS
370
-3
390
F
  0
LAYER
  5
202
100
AcDbSymbolTableRecord
100
AcDbLayerTableRecord
  2
INTF_1
 70
0
 62
7
  6
CONTINUOUS
370
-3
390
F
  0
LAYER
  5
203
100
AcDbSymbolTableRecord
100
AcDbLayerTableRecord
  2
PLATTED_SURFACE_AREA
 70
0
 62
7
  6
CONTINUOUS
370
-3
390
F
  0
LAYER
  5
204
100
AcDbSymbolTableRecord
100
AcDbLayerTableRecord
  2
RGB____0____0____0__
 70
0
 62
7
  6
CONTINUOUS
370
-3
390
F
  0
ENDTAB
  0
TABLE
  2
STYLE
  5
3
100
AcDbSymbolTable
 70
1
  0
STYLE
  5
11
100
AcDbSymbolTableRecord
100
AcDbTextStyleTableRecord
  2
STANDARD
 70
0
 40
0.0
 41
0.8
 50
0.0
 71
0
 42
0.2
  3
txt
  4

  0
STYLE
  5
205
100
AcDbSymbolTableRecord
100
AcDbTextStyleTableRecord
  2
TEXTSTYLE_1
 70
0
 40
0.0
 41
0.8
 50
0.0
 71
0
 42
0.2
  3
gdt
  4

  0
ENDTAB
  0
TABLE
  2
VIEW
  5
6
100
AcDbSymbolTable
 70
0
  0
ENDTAB
  0
TABLE
  2
UCS
  5
7
100
AcDbSymbolTable
 70
0
  0
ENDTAB
  0
TABLE
  2
APPID
  5
9
100
AcDbSymbolTable
 70
1
  0
APPID
  5
206
100
AcDbSymbolTableRecord
100
AcDbRegAppTableRecord
  2
ACAD
 70
0
  0
ENDTAB
  0
TABLE
  2
BLOCK_RECORD
  5
1
100
AcDbSymbolTable
 70
0
  0
BLOCK_RECORD
  5
207
100
AcDbSymbolTableRecord
100
AcDbBlockTableRecord
  2
*Model_Space
  0
BLOCK_RECORD
  5
208
100
AcDbSymbolTableRecord
100
AcDbBlockTableRecord
  2
*Paper_Space
  0
BLOCK_RECORD
  5
209
100
AcDbSymbolTableRecord
100
AcDbBlockTableRecord
  2
_FILLED
  0
ENDTAB
  0
TABLE
  2
DIMSTYLE
  5
A
100
AcDbSymbolTable
 70
1
100
AcDbDimStyleTable
 71
0
  0
DIMSTYLE
105
20A
100
AcDbSymbolTableRecord
100
AcDbDimStyleTableRecord
  2
STANDARD
 70
0
  3

  4

 40
1.0
 41
0.1
 42
0.0625
 43
0.38
 44
0.125
 45
0.0
 46
0.0
 47
0.01
 48
0.01
140
0.08
141
0.09
142
0.0
143
25.4
144
1.0
145
0.0
146
1.0
147
0.09
 71
1.0
 72
0.0
 73
1
 74
1
 75
0
 76
0
 77
0
 78
4
 79
1
170
1
171
1
172
0
173
0
174
0
175
0
176
0
177
0
178
0
270
2
179
2
271
2
272
2
273
2
274
2
275
0
280
0
281
0
282
0
283
1
284
4
285
0
286
0
287
3
288
0
340
11
278
46
341
209
342
209
343
209
344
209
  0
ENDTAB
  0
ENDSEC
  0
SECTION
  2
BLOCKS
  0
BLOCK
  5
20
100
AcDbEntity
  8
0
100
AcDbBlockBegin
  2
*Model_Space
 70
0
 10
0.0
 20
0.0
 30
0.0
  3
*Model_Space
  1

  0
ENDBLK
  5
21
100
AcDbEntity
  8
0
100
AcDbBlockEnd
  0
BLOCK
  5
1C
100
AcDbEntity
  8
0
100
AcDbBlockBegin
  2
*Paper_Space
 70
0
 10
0.0
 20
0.0
 30
0.0
  3
*Paper_Space
  1

  0
ENDBLK
  5
1D
100
AcDbEntity
  8
0
100
AcDbBlockEnd
  0
BLOCK
  5
20B
100
AcDbEntity
  8
0
100
AcDbBlockBegin
  2
_FILLED
 70
64
 10
0.0
 20
0.0
  3
_FILLED
  1

  0
SOLID
  5
20C
100
AcDbEntity
  8
0
  6
BYBLOCK
 62
0
100
AcDbTrace
 10
0.0
 20
0.0
 11
-1.0
 21
0.2
 12
-1.0
 22
-0.2
 13
-1.0
 23
-0.2
  0
ENDBLK
  5
20D
100
AcDbEntity
  8
0
  6
BYBLOCK
 62
0
100
AcDbBlockEnd
  0
ENDSEC
  0
SECTION
  2
ENTITIES
  0
MTEXT
  5
20E
100
AcDbEntity
  8
0
100
AcDbMText
 62
2
  6
CONTINUOUS
  7
STANDARD
 71
3
 72
1
 10
4.9811723602
 20
0.8673796584
 30
0.0
 11
1.0
 21
0.0
 31
0.0
 73
2
 44
0.9
  1
SCALE  1.000
 40
0.08
 41
0.768
  0
LINE
  5
20F
100
AcDbEntity
  8
0
100
AcDbLine
 62
7
  6
CONTINUOUS
 10
0.0
 20
0.0
 11
0.0
 21
8.5
  0
LINE
  5
210
100
AcDbEntity
  8
0
100
AcDbLine
 62
7
  6
CONTINUOUS
 10
0.0
 20
0.0
 11
11.0
 21
0.0
  0
LINE
  5
211
100
AcDbEntity
  8
0
100
AcDbLine
 62
7
  6
CONTINUOUS
 10
0.0
 20
8.5
 11
11.0
 21
8.5
  0
LINE
  5
212
100
AcDbEntity
  8
0
100
AcDbLine
 62
7
  6
CONTINUOUS
 10
11.0
 20
0.0
 11
11.0
 21
8.5
  0
LINE
  5
213
100
AcDbEntity
  8
0
100
AcDbLine
 62
7
  6
CONTINUOUS
 10
1.895318323
 20
7.3077368012
 11
1.895318323
 21
1.5727368012
  0
LINE
  5
214
100
AcDbEntity
  8
0
100
AcDbLine
 62
7
  6
CONTINUOUS
 10
1.975318323
 20
1.4927368012
 11
7.710318323
 21
1.4927368012
  0
LINE
  5
215
100
AcDbEntity
  8
0
100
AcDbLine
 62
7
  6
CONTINUOUS
 10
2.262818323
 20
7.0003129073
 11
2.262818323
 21
6.6900770317
  0
LINE
  5
216
100
AcDbEntity
  8
0
100
AcDbLine
 62
7
  6
CONTINUOUS
 10
2.262818323
 20
2.1903260795
 11
2.262818323
 21
1.8801606952
  0
LINE
  5
217
100
AcDbEntity
  8
0
100
AcDbLine
 62
7
  6
CONTINUOUS
 10
2.2827422169
 20
1.8602368012
 11
2.5929780925
 21
1.8602368012
  0
LINE
  5
218
100
AcDbEntity
  8
0
100
AcDbLine
 62
7
  6
CONTINUOUS
 10
7.0927290448
 20
1.8602368012
 11
7.402894429
 21
1.8602368012
  0
LWPOLYLINE
  5
219
100
AcDbEntity
  8
0
100
AcDbPolyline
 62
7
  6
CONTINUOUS
 90
43
 70
0
 10
3.785992994
 20
4.0855288735
 10
3.7833864377
 20
4.0786678922
 10
3.7805254616
 20
4.0720135899
 10
3.777410066
 20
4.0655659664
 10
3.7740518161
 20
4.0593189814
 10
3.7704391465
 20
4.0532786753
 10
3.7665373608
 20
4.0474631692
 10
3.7623356132
 20
4.0418543298
 10
3.7578447496
 20
4.0364702904
 10
3.7530626108
 20
4.0313835717
 10
3.7479861003
 20
4.0265831074
 10
3.7426183146
 20
4.022079964
 10
3.7369663844
 20
4.0179798613
 10
3.7309960213
 20
4.0142827465
 10
3.7247415136
 20
4.0109886724
 10
3.7183128565
 20
4.0082035188
 10
3.7117210567
 20
4.0059721812
 10
3.7049551076
 20
4.0042497641
 10
3.698091984
 20
4.0030074595
 10
3.6911590061
 20
4.0022326971
 10
3.6841288538
 20
4.0019380473
 10
3.6769965418
 20
4.0021324138
 10
3.6697427045
 20
4.0027864676
 10
3.6623867074
 20
4.0039295377
 10
3.6549816619
 20
4.0056585142
 10
3.6475111129
 20
4.0079310722
 10
3.6399915155
 20
4.0107895366
 10
3.6325253459
 20
4.0144577718
 10
3.6250292107
 20
4.018978798
 10
3.6175865032
 20
4.0243095951
 10
3.6105498793
 20
4.0305449669
 10
3.6038903036
 20
4.0377965064
 10
3.5976368114
 20
4.0459526207
 10
3.5922291643
 20
4.0547733349
 10
3.5877228631
 20
4.0642156973
 10
3.5840624069
 20
4.0743226597
 10
3.5815210541
 20
4.0849831024
 10
3.58016658
 20
4.096222237
 10
3.5799312093
 20
4.1080148519
 10
3.5808848754
 20
4.1201741935
 10
3.5830531173
 20
4.1327378442
 10
3.586410396
 20
4.1456682217
 10
3.5909500276
 20
4.158665825
  0
LWPOLYLINE
  5
21A
100
AcDbEntity
  8
0
100
AcDbPolyline
 62
7
  6
CONTINUOUS
 90
65
 70
0
 10
3.5909500276
 20
4.158665825
 10
3.5967471632
 20
4.171855086
 10
3.6037266517
 20
4.1851115729
 10
3.6116563562
 20
4.197762489
 10
3.6205920017
 20
4.2097418554
 10
3.6304778631
 20
4.2211156508
 10
3.6409146289
 20
4.2314090152
 10
3.6518757552
 20
4.2404462775
 10
3.6633877859
 20
4.2484031086
 10
3.6751310411
 20
4.2553316615
 10
3.6870690086
 20
4.2611692324
 10
3.6992382006
 20
4.2659785251
 10
3.7114284732
 20
4.2699998037
 10
3.7235860583
 20
4.2732546682
 10
3.735764724
 20
4.2757215186
 10
3.74791563
 20
4.2775758193
 10
3.7600418345
 20
4.2788451462
 10
3.7721402794
 20
4.2795019234
 10
3.7841529505
 20
4.2796388877
 10
3.7960839957
 20
4.279268489
 10
3.8079292672
 20
4.2783782773
 10
3.8196183077
 20
4.2770236399
 10
3.8311386378
 20
4.2752217076
 10
3.842502737
 20
4.2729553497
 10
3.8536775866
 20
4.2702285612
 10
3.864669282
 20
4.2670582132
 10
3.8754717279
 20
4.2634274347
 10
3.8860336188
 20
4.2592896068
 10
3.8963657838
 20
4.2546368252
 10
3.9064573938
 20
4.2494769942
 10
3.916224657
 20
4.2437872091
 10
3.925662512
 20
4.2375315805
 10
3.9347760201
 20
4.2307459978
 10
3.9434965732
 20
4.2235152234
 10
3.951813875
 20
4.2158251653
 10
3.9597382218
 20
4.2076899156
 10
3.9672318947
 20
4.1992365133
 10
3.9742709622
 20
4.1904950765
 10
3.9808793559
 20
4.1814354871
 10
3.9870911508
 20
4.1720944305
 10
3.9928943367
 20
4.1625079566
 10
3.998300924
 20
4.1526400154
 10
4.0033810185
 20
4.1424191417
 10
4.0081596392
 20
4.1318308923
 10
4.0126117672
 20
4.1208897104
 10
4.0167324519
 20
4.1095674608
 10
4.0205531698
 20
4.0978235442
 10
4.0240424443
 20
4.0856985598
 10
4.0271008957
 20
4.0732861699
 10
4.0297234808
 20
4.0605994499
 10
4.0319152428
 20
4.0476253244
 10
4.0335919307
 20
4.0344182293
 10
4.0347426566
 20
4.0210262057
 10
4.0353783085
 20
4.0074012127
 10
4.0354473002
 20
3.9934535633
 10
4.0349674619
 20
3.979196092
 10
4.0339209634
 20
3.9646159644
 10
4.0322027275
 20
3.9495849901
 10
4.0298397246
 20
3.9341084848
 10
4.0268049844
 20
3.9181811328
 10
4.0229125193
 20
3.9016587976
 10
4.0181753699
 20
3.8844562423
 10
4.0125804956
 20
3.8666587038
 10
4.0059027866
 20
3.8483777561
 10
3.998087597
 20
3.8294322532
  0
LWPOLYLINE
  5
21B
100
AcDbEntity
  8
0
100
AcDbPolyline
 62
7
  6
CONTINUOUS
 90
65
 70
0
 10
5.1193521621
 20
5.6920434624
 10
5.1061638117
 20
5.6862319856
 10
5.0929097924
 20
5.6792383141
 10
5.0802643508
 20
5.6712964095
 10
5.0682947322
 20
5.6623513174
 10
5.0569336914
 20
5.6524579921
 10
5.0466537388
 20
5.6420152581
 10
5.0376303659
 20
5.6310496636
 10
5.0296880813
 20
5.6195346605
 10
5.0227729207
 20
5.6077894292
 10
5.0169469036
 20
5.5958504644
 10
5.0121480105
 20
5.5836812714
 10
5.0081362198
 20
5.5714915468
 10
5.0048899035
 20
5.5593351253
 10
5.0024306895
 20
5.5471581721
 10
5.000583439
 20
5.53500888
 10
4.9993205976
 20
5.5228838059
 10
4.9986697197
 20
5.5107863929
 10
4.9985383297
 20
5.4987751633
 10
4.9989140248
 20
5.4868462442
 10
4.9998092078
 20
5.4750035085
 10
5.0011686109
 20
5.4633170974
 10
5.0029750633
 20
5.451799389
 10
5.0052457358
 20
5.4404380052
 10
5.0079768728
 20
5.4292659528
 10
5.0111516682
 20
5.4182771016
 10
5.0147869281
 20
5.4074775819
 10
5.0189293153
 20
5.3969187909
 10
5.023586825
 20
5.3865899106
 10
5.028751462
 20
5.376501759
 10
5.0344459037
 20
5.3667381885
 10
5.0407060772
 20
5.3573043227
 10
5.0474960553
 20
5.3481950381
 10
5.0547307347
 20
5.3394788155
 10
5.0624240674
 20
5.3311659438
 10
5.0705621013
 20
5.3232461341
 10
5.0790178765
 20
5.3157570009
 10
5.0877611309
 20
5.3087225503
 10
5.0968221266
 20
5.302118776
 10
5.1061646898
 20
5.2959112744
 10
5.1157529013
 20
5.2901119039
 10
5.1256226803
 20
5.284708806
 10
5.1358456104
 20
5.2796320013
 10
5.1464363101
 20
5.2748564015
 10
5.157380161
 20
5.2704070949
 10
5.1687048914
 20
5.2662893667
 10
5.180451061
 20
5.2624718167
 10
5.1925781102
 20
5.2589858452
 10
5.2049920882
 20
5.2559309388
 10
5.217679616
 20
5.2533122411
 10
5.2306540726
 20
5.2511246084
 10
5.243861644
 20
5.2494520971
 10
5.257254475
 20
5.2483055208
 10
5.2708804208
 20
5.2476740658
 10
5.2848292327
 20
5.2476093465
 10
5.2990880632
 20
5.2480934847
 10
5.3136697598
 20
5.2491443586
 10
5.3287026171
 20
5.2508672184
 10
5.3441813717
 20
5.2532350908
 10
5.3601112869
 20
5.256274949
 10
5.3766364467
 20
5.2601729622
 10
5.3938425135
 20
5.2649162004
 10
5.4116438249
 20
5.2705175935
 10
5.4299274773
 20
5.2772021008
 10
5.4488744729
 20
5.2850246205
  0
LWPOLYLINE
  5
21C
100
AcDbEntity
  8
0
100
AcDbPolyline
 62
7
  6
CONTINUOUS
 90
43
 70
0
 10
5.1927542853
 20
5.4971009773
 10
5.1996117696
 20
5.4997108304
 10
5.2062625095
 20
5.502575226
 10
5.2127065051
 20
5.5056941642
 10
5.2189498176
 20
5.5090560942
 10
5.2249863859
 20
5.5126725668
 10
5.2307980255
 20
5.516578234
 10
5.2364029473
 20
5.5207839818
 10
5.2417829405
 20
5.5252789242
 10
5.2468651888
 20
5.5300650551
 10
5.2516606937
 20
5.5351454458
 10
5.2561584536
 20
5.5405170251
 10
5.2602526483
 20
5.5461725733
 10
5.2639431533
 20
5.5521465307
 10
5.267230093
 20
5.558404457
 10
5.2700080204
 20
5.5648358115
 10
5.2722320716
 20
5.5714292188
 10
5.2739471105
 20
5.5781960543
 10
5.2751822811
 20
5.585059904
 10
5.275950404
 20
5.5919935705
 10
5.2762386587
 20
5.5990242511
 10
5.2760377271
 20
5.6061571238
 10
5.2753769221
 20
5.6134117734
 10
5.2742269307
 20
5.620768615
 10
5.2724904963
 20
5.6281740723
 10
5.2702099806
 20
5.6356445591
 10
5.2673430219
 20
5.6431636615
 10
5.2636652781
 20
5.6506285612
 10
5.2591330817
 20
5.6581228877
 10
5.2537901002
 20
5.6655630116
 10
5.2475429938
 20
5.6725952252
 10
5.2402803157
 20
5.6792481563
 10
5.2321135127
 20
5.6854931772
 10
5.2232835846
 20
5.6908906978
 10
5.2138342513
 20
5.6953848682
 10
5.203721793
 20
5.6990315382
 10
5.1930560499
 20
5.7015586669
 10
5.1818110479
 20
5.7028986675
 10
5.1700127612
 20
5.7031191268
 10
5.157848953
 20
5.702150764
 10
5.14528226
 20
5.6999682764
 10
5.1323500455
 20
5.6965969667
 10
5.1193521621
 20
5.6920434624
  0
LWPOLYLINE
  5
21D
100
AcDbEntity
  8
0
100
AcDbPolyline
 62
7
  6
CONTINUOUS
 90
43
 70
0
 10
5.1975262508
 20
3.3834114722
 10
5.204387232
 20
3.3808049159
 10
5.2110415343
 20
3.3779439399
 10
5.2174891578
 20
3.3748285442
 10
5.2237361428
 20
3.3714702943
 10
5.2297764489
 20
3.3678576247
 10
5.235591955
 20
3.363955839
 10
5.2412007944
 20
3.3597540915
 10
5.2465848339
 20
3.3552632278
 10
5.2516715525
 20
3.350481089
 10
5.2564720168
 20
3.3454045785
 10
5.2609751603
 20
3.3400367929
 10
5.2650752629
 20
3.3343848626
 10
5.2687723778
 20
3.3284144996
 10
5.2720664518
 20
3.3221599919
 10
5.2748516054
 20
3.3157313348
 10
5.277082943
 20
3.309139535
 10
5.2788053602
 20
3.3023735858
 10
5.2800476647
 20
3.2955104622
 10
5.2808224271
 20
3.2885774844
 10
5.2811170769
 20
3.2815473321
 10
5.2809227105
 20
3.2744150201
 10
5.2802686566
 20
3.2671611827
 10
5.2791255865
 20
3.2598051857
 10
5.27739661
 20
3.2524001401
 10
5.275124052
 20
3.2449295912
 10
5.2722655876
 20
3.2374099938
 10
5.2685973524
 20
3.2299438241
 10
5.2640763262
 20
3.2224476889
 10
5.2587455292
 20
3.2150049815
 10
5.2525101573
 20
3.2079683575
 10
5.2452586178
 20
3.2013087819
 10
5.2371025035
 20
3.1950552897
 10
5.2282817893
 20
3.1896476425
 10
5.2188394269
 20
3.1851413413
 10
5.2087324645
 20
3.1814808851
 10
5.1980720218
 20
3.1789395324
 10
5.1868328873
 20
3.1775850582
 10
5.1750402724
 20
3.1773496875
 10
5.1628809307
 20
3.1783033536
 10
5.15031728
 20
3.1804715955
 10
5.1373869025
 20
3.1838288742
 10
5.1243892992
 20
3.1883685059
  0
LWPOLYLINE
  5
21E
100
AcDbEntity
  8
0
100
AcDbPolyline
 62
7
  6
CONTINUOUS
 90
65
 70
0
 10
5.1243892992
 20
3.1883685059
 10
5.1112000382
 20
3.1941656415
 10
5.0979435513
 20
3.20114513
 10
5.0852926352
 20
3.2090748345
 10
5.0733132689
 20
3.2180104799
 10
5.0619394734
 20
3.2278963413
 10
5.051646109
 20
3.2383331072
 10
5.0426088467
 20
3.2492942335
 10
5.0346520156
 20
3.2608062642
 10
5.0277234627
 20
3.2725495193
 10
5.0218858918
 20
3.2844874869
 10
5.0170765991
 20
3.2966566789
 10
5.0130553205
 20
3.3088469514
 10
5.0098004561
 20
3.3210045366
 10
5.0073336057
 20
3.3331832022
 10
5.0054793049
 20
3.3453341083
 10
5.004209978
 20
3.3574603128
 10
5.0035532008
 20
3.3695587576
 10
5.0034162365
 20
3.3815714288
 10
5.0037866353
 20
3.393502474
 10
5.004676847
 20
3.4053477454
 10
5.0060314843
 20
3.417036786
 10
5.0078334166
 20
3.4285571161
 10
5.0100997745
 20
3.4399212153
 10
5.012826563
 20
3.4510960648
 10
5.015996911
 20
3.4620877603
 10
5.0196276896
 20
3.4728902061
 10
5.0237655174
 20
3.4834520971
 10
5.0284182991
 20
3.493784262
 10
5.03357813
 20
3.5038758721
 10
5.0392679152
 20
3.5136431353
 10
5.0455235437
 20
3.5230809902
 10
5.0523091265
 20
3.5321944984
 10
5.0595399008
 20
3.5409150515
 10
5.0672299589
 20
3.5492323533
 10
5.0753652086
 20
3.5571567001
 10
5.0838186109
 20
3.564650373
 10
5.0925600477
 20
3.5716894405
 10
5.1016196371
 20
3.5782978341
 10
5.1109606938
 20
3.584509629
 10
5.1205471677
 20
3.590312815
 10
5.1304151089
 20
3.5957194023
 10
5.1406359825
 20
3.6007994968
 10
5.1512242319
 20
3.6055781175
 10
5.1621654138
 20
3.6100302455
 10
5.1734876634
 20
3.6141509302
 10
5.18523158
 20
3.617971648
 10
5.1973565644
 20
3.6214609226
 10
5.2097689543
 20
3.6245193739
 10
5.2224556743
 20
3.6271419591
 10
5.2354297999
 20
3.629333721
 10
5.2486368949
 20
3.631010409
 10
5.2620289185
 20
3.6321611349
 10
5.2756539115
 20
3.6327967868
 10
5.2896015609
 20
3.6328657785
 10
5.3038590322
 20
3.6323859402
 10
5.3184391599
 20
3.6313394416
 10
5.3334701341
 20
3.6296212058
 10
5.3489466395
 20
3.6272582029
 10
5.3648739915
 20
3.6242234627
 10
5.3813963266
 20
3.6203309976
 10
5.398598882
 20
3.6155938482
 10
5.4163964205
 20
3.6099989739
 10
5.4346773681
 20
3.6033212648
 10
5.453622871
 20
3.5955060753
  0
LWPOLYLINE
  5
21F
100
AcDbEntity
  8
0
100
AcDbPolyline
 62
7
  6
CONTINUOUS
 90
65
 70
0
 10
3.5910113111
 20
4.7167715375
 10
3.5968226775
 20
4.7035832454
 10
3.603816232
 20
4.6903292609
 10
3.6117580294
 20
4.6776838257
 10
3.6207030282
 20
4.6657141788
 10
3.6305962699
 20
4.6543530812
 10
3.6410389347
 20
4.6440730573
 10
3.6520044762
 20
4.6350495972
 10
3.6635194408
 20
4.6271072108
 10
3.6752646477
 20
4.6201919527
 10
3.6872036052
 20
4.6143658474
 10
3.6993728051
 20
4.6095668703
 10
3.7115625413
 20
4.6055550031
 10
3.7237189784
 20
4.6023086199
 10
3.7358959518
 20
4.5998493465
 10
3.7480452627
 20
4.5980020417
 10
3.760170352
 20
4.5967391512
 10
3.7722677787
 20
4.5960882293
 10
3.7842790215
 20
4.5959567976
 10
3.7962079529
 20
4.596332453
 10
3.8080507004
 20
4.5972275985
 10
3.8197371247
 20
4.5985869653
 10
3.8312548479
 20
4.6003933828
 10
3.8426162478
 20
4.6026640215
 10
3.8537883187
 20
4.6053951248
 10
3.8647771912
 20
4.6085698861
 10
3.8755767346
 20
4.612205112
 10
3.886135552
 20
4.6163474657
 10
3.8964644621
 20
4.6210049419
 10
3.9065526461
 20
4.6261695459
 10
3.9163162508
 20
4.6318639567
 10
3.9257501528
 20
4.6381241013
 10
3.9348594754
 20
4.6449140527
 10
3.9435757356
 20
4.6521487087
 10
3.9518886439
 20
4.6598420224
 10
3.9598084897
 20
4.6679800407
 10
3.9672976583
 20
4.676435803
 10
3.9743321436
 20
4.6851790471
 10
3.9809359517
 20
4.694240035
 10
3.987143486
 20
4.703582593
 10
3.992942888
 20
4.7131708017
 10
3.9983460162
 20
4.7230405804
 10
4.0034228501
 20
4.7332635124
 10
4.0081984779
 20
4.7438542167
 10
4.0126478113
 20
4.7547980743
 10
4.0167655651
 20
4.7661228119
 10
4.0205831395
 20
4.7778689889
 10
4.0240691344
 20
4.7899960459
 10
4.0271240637
 20
4.8024100307
 10
4.0297427839
 20
4.8150975632
 10
4.0319304385
 20
4.8280720235
 10
4.0336029715
 20
4.8412795995
 10
4.0347495694
 20
4.8546724358
 10
4.0353810457
 20
4.8682983878
 10
4.0354457849
 20
4.8822472099
 10
4.0349616658
 20
4.8965060549
 10
4.0339108096
 20
4.9110877699
 10
4.0321879648
 20
4.9261206515
 10
4.0298201046
 20
4.9415994371
 10
4.0267802557
 20
4.9575293891
 10
4.0228822469
 20
4.9740545913
 10
4.0181390066
 20
4.9912607095
 10
4.0125376065
 20
5.0090620778
 10
4.00585309
 20
5.0273457825
 10
3.9980305571
 20
5.046292826
  0
LWPOLYLINE
  5
220
100
AcDbEntity
  8
0
100
AcDbPolyline
 62
7
  6
CONTINUOUS
 90
43
 70
0
 10
3.7859541393
 20
4.7901727762
 10
3.7833442906
 20
4.797030253
 10
3.780479898
 20
4.8036809877
 10
3.7773609616
 20
4.8101249802
 10
3.7739990319
 20
4.8163682926
 10
3.7703825582
 20
4.8224048629
 10
3.7664768894
 20
4.8282165049
 10
3.7622711395
 20
4.8338214291
 10
3.7577761944
 20
4.8392014252
 10
3.7529900602
 20
4.844283676
 10
3.7479096658
 20
4.849079183
 10
3.7425380824
 20
4.8535769448
 10
3.7368825301
 20
4.8576711406
 10
3.7309085688
 20
4.8613616457
 10
3.7246506387
 20
4.8646485849
 10
3.7182192798
 20
4.8674265112
 10
3.7116258683
 20
4.8696505611
 10
3.704859028
 20
4.8713655982
 10
3.6979951715
 20
4.8726007663
 10
3.6910614949
 20
4.8733688864
 10
3.6840308021
 20
4.8736571374
 10
3.676897917
 20
4.8734562005
 10
3.6696432548
 20
4.8727953881
 10
3.6622864003
 20
4.8716453876
 10
3.6548809325
 20
4.8699089426
 10
3.6474104375
 20
4.8676284143
 10
3.6398913292
 20
4.8647614415
 10
3.6324264281
 20
4.8610836841
 10
3.6249321042
 20
4.8565514715
 10
3.6174919876
 20
4.8512084743
 10
3.6104597885
 20
4.8449613639
 10
3.6038068837
 20
4.8376986948
 10
3.5975618963
 20
4.8295319124
 10
3.5921644059
 20
4.820702025
 10
3.5876702637
 20
4.8112527574
 10
3.5840236185
 20
4.8011403848
 10
3.5814964955
 20
4.7904747412
 10
3.5801564758
 20
4.7792298571
 10
3.5799359784
 20
4.7674317019
 10
3.580904285
 20
4.7552680181
 10
3.583086695
 20
4.7427014411
 10
3.586457909
 20
4.7297693355
 10
3.5910113111
 20
4.7167715375
  0
LINE
  5
221
100
AcDbEntity
  8
0
100
AcDbLine
 62
7
  6
CONTINUOUS
 10
3.3008444195
 20
3.0598926843
 11
3.4716059124
 21
3.2505982022
  0
LINE
  5
222
100
AcDbEntity
  8
0
100
AcDbLine
 62
7
  6
CONTINUOUS
 10
6.0322607894
 20
5.8102542509
 11
6.2239661577
 21
5.9819110296
  0
LINE
  5
223
100
AcDbEntity
  8
0
100
AcDbLine
 62
7
  6
CONTINUOUS
 10
6.2231624399
 20
2.8982628977
 11
6.0324569221
 21
3.0690243906
  0
LINE
  5
224
100
AcDbEntity
  8
0
100
AcDbLine
 62
7
  6
CONTINUOUS
 10
3.4728008733
 20
5.6296792677
 11
3.3011440946
 21
5.821384636
  0
LINE
  5
225
100
AcDbEntity
  8
0
100
AcDbLine
 62
7
  6
CONTINUOUS
 10
6.3847922265
 20
5.8205809182
 11
6.2140307336
 21
5.6298754003
  0
LINE
  5
226
100
AcDbEntity
  8
0
100
AcDbLine
 62
7
  6
CONTINUOUS
 10
3.6533758566
 20
3.0702193516
 11
3.4616704883
 21
2.8985625728
  0
LINE
  5
227
100
AcDbEntity
  8
0
100
AcDbLine
 62
7
  6
CONTINUOUS
 10
3.4624742061
 20
5.9822107047
 11
3.6531797239
 21
5.8114492119
  0
LINE
  5
228
100
AcDbEntity
  8
0
100
AcDbLine
 62
7
  6
CONTINUOUS
 10
6.2128357726
 20
3.2507943348
 11
6.3844925514
 21
3.0590889665
  0
LWPOLYLINE
  5
229
100
AcDbEntity
  8
0
100
AcDbPolyline
 62
7
  6
CONTINUOUS
 90
43
 70
0
 10
5.899643652
 20
4.794944729
 10
5.9022502083
 20
4.8018057102
 10
5.9051111843
 20
4.8084600126
 10
5.90822658
 20
4.8149076361
 10
5.9115848299
 20
4.821154621
 10
5.9151974995
 20
4.8271949271
 10
5.9190992852
 20
4.8330104333
 10
5.9233010327
 20
4.8386192727
 10
5.9277918964
 20
4.8440033121
 10
5.9325740352
 20
4.8490900308
 10
5.9376505457
 20
4.853890495
 10
5.9430183313
 20
4.8583936385
 10
5.9486702616
 20
4.8624937411
 10
5.9546406247
 20
4.866190856
 10
5.9608951324
 20
4.86948493
 10
5.9673237895
 20
4.8722700837
 10
5.9739155892
 20
4.8745014212
 10
5.9806815384
 20
4.8762238384
 10
5.987544662
 20
4.877466143
 10
5.9944776398
 20
4.8782409054
 10
6.0015077921
 20
4.8785355552
 10
6.0086401041
 20
4.8783411887
 10
6.0158939415
 20
4.8776871349
 10
6.0232499386
 20
4.8765440648
 10
6.0306549841
 20
4.8748150883
 10
6.038125533
 20
4.8725425303
 10
6.0456451304
 20
4.8696840659
 10
6.0531113001
 20
4.8660158307
 10
6.0606074353
 20
4.8614948045
 10
6.0680501427
 20
4.8561640074
 10
6.0750867667
 20
4.8499286356
 10
6.0817463424
 20
4.8426770961
 10
6.0879998345
 20
4.8345209818
 10
6.0934074817
 20
4.8257002676
 10
6.0979137829
 20
4.8162579052
 10
6.1015742391
 20
4.8061509428
 10
6.1041155918
 20
4.7954905
 10
6.105470066
 20
4.7842513655
 10
6.1057054367
 20
4.7724587506
 10
6.1047517706
 20
4.760299409
 10
6.1025835287
 20
4.7477357583
 10
6.09922625
 20
4.7348053808
 10
6.0946866183
 20
4.7218077775
  0
LWPOLYLINE
  5
22A
100
AcDbEntity
  8
0
100
AcDbPolyline
 62
7
  6
CONTINUOUS
 90
43
 70
0
 10
4.4928823607
 20
3.3833726251
 10
4.4860248764
 20
3.3807627721
 10
4.4793741365
 20
3.3778983765
 10
4.4729301409
 20
3.3747794383
 10
4.4666868283
 20
3.3714175083
 10
4.4606502601
 20
3.3678010357
 10
4.4548386205
 20
3.3638953685
 10
4.4492336987
 20
3.3596896207
 10
4.4438537055
 20
3.3551946783
 10
4.4387714571
 20
3.3504085474
 10
4.4339759523
 20
3.3453281566
 10
4.4294781923
 20
3.3399565774
 10
4.4253839976
 20
3.3343010292
 10
4.4216934927
 20
3.3283270718
 10
4.4184065529
 20
3.3220691455
 10
4.4156286256
 20
3.3156377909
 10
4.4134045743
 20
3.3090443837
 10
4.4116895355
 20
3.3022775482
 10
4.4104543649
 20
3.2954136985
 10
4.4096862419
 20
3.288480032
 10
4.4093979872
 20
3.2814493514
 10
4.4095989188
 20
3.2743164787
 10
4.4102597239
 20
3.2670618291
 10
4.4114097153
 20
3.2597049875
 10
4.4131461497
 20
3.2522995302
 10
4.4154266653
 20
3.2448290434
 10
4.418293624
 20
3.237309941
 10
4.4219713679
 20
3.2298450413
 10
4.4265035642
 20
3.2223507147
 10
4.4318465457
 20
3.2149105909
 10
4.4380936522
 20
3.2078783773
 10
4.4453563302
 20
3.2012254462
 10
4.4535231333
 20
3.1949804253
 10
4.4623530614
 20
3.1895829047
 10
4.4718023947
 20
3.1850887343
 10
4.481914853
 20
3.1814420642
 10
4.492580596
 20
3.1789149356
 10
4.503825598
 20
3.1775749349
 10
4.5156238847
 20
3.1773544757
 10
4.527787693
 20
3.1783228385
 10
4.5403543859
 20
3.1805053261
 10
4.5532866004
 20
3.1838766358
 10
4.5662844839
 20
3.18843014
  0
LWPOLYLINE
  5
22B
100
AcDbEntity
  8
0
100
AcDbPolyline
 62
7
  6
CONTINUOUS
 90
43
 70
0
 10
4.4881103952
 20
5.4970621302
 10
4.4812494124
 20
5.4996686872
 10
4.4745951086
 20
5.5025296639
 10
4.4681474838
 20
5.5056450605
 10
4.4619004978
 20
5.5090033112
 10
4.4558601907
 20
5.5126159817
 10
4.4500446832
 20
5.5165177689
 10
4.4444358417
 20
5.5207195189
 10
4.4390517998
 20
5.5252103856
 10
4.4339650789
 20
5.5299925279
 10
4.4291646129
 20
5.5350690423
 10
4.424661468
 20
5.5404368324
 10
4.4205613647
 20
5.5460887671
 10
4.4168642502
 20
5.5520591343
 10
4.4135701773
 20
5.5583136461
 10
4.4107850252
 20
5.5647423077
 10
4.4085536896
 20
5.5713341119
 10
4.4068312747
 20
5.5781000659
 10
4.4055889732
 20
5.5849631963
 10
4.4048142142
 20
5.5918961843
 10
4.4045195685
 20
5.5989263488
 10
4.4047139407
 20
5.6060586732
 10
4.4053680025
 20
5.6133125233
 10
4.4065110822
 20
5.6206685333
 10
4.4082400698
 20
5.6280735895
 10
4.410512641
 20
5.6355441466
 10
4.4133711201
 20
5.6430637499
 10
4.4170393697
 20
5.650529921
 10
4.421560413
 20
5.6580260533
 10
4.4268912267
 20
5.6654687534
 10
4.4331266034
 20
5.6725053626
 10
4.4403781351
 20
5.6791649116
 10
4.4485342298
 20
5.6854183696
 10
4.4573549043
 20
5.6908259859
 10
4.4667972018
 20
5.6953322578
 10
4.4769040791
 20
5.698992688
 10
4.4875644231
 20
5.7015340338
 10
4.4988034403
 20
5.7028885256
 10
4.5105959243
 20
5.703123933
 10
4.5227551417
 20
5.7021703217
 10
4.5353186766
 20
5.7000021562
 10
4.5482489451
 20
5.6966449719
 10
4.5612464627
 20
5.6921054413
  0
LWPOLYLINE
  5
22C
100
AcDbEntity
  8
0
100
AcDbPolyline
 62
7
  6
CONTINUOUS
 90
43
 70
0
 10
5.8996825066
 20
4.0903008262
 10
5.9022923547
 20
4.083443351
 10
5.9051567466
 20
4.0767926178
 10
5.9082756821
 20
4.0703486266
 10
5.9116376111
 20
4.0641053153
 10
5.9152540838
 20
4.058068746
 10
5.9191597511
 20
4.0522571053
 10
5.9233654986
 20
4.0466521832
 10
5.9278604406
 20
4.0412721897
 10
5.9326465713
 20
4.036189941
 10
5.9377269617
 20
4.0313944358
 10
5.9430985407
 20
4.0268966754
 10
5.9487540886
 20
4.0228024802
 10
5.9547280457
 20
4.0191119748
 10
5.9609859718
 20
4.0158250345
 10
5.9674173261
 20
4.0130471066
 10
5.9740107332
 20
4.0108230548
 10
5.9807775687
 20
4.0091080154
 10
5.9876414183
 20
4.0078728442
 10
5.9945750847
 20
4.0071047207
 10
6.0016057653
 20
4.0068164655
 10
6.008738638
 20
4.0070173967
 10
6.0159932875
 20
4.0076782012
 10
6.0233501291
 20
4.008828192
 10
6.0307555863
 20
4.0105646259
 10
6.0382260731
 20
4.0128451409
 10
6.0457451756
 20
4.015712099
 10
6.0532100753
 20
4.0193898421
 10
6.060704402
 20
4.0239220376
 10
6.0681445261
 20
4.0292650181
 10
6.07517674
 20
4.0355121237
 10
6.0818296716
 20
4.0427748009
 10
6.0880746932
 20
4.0509416031
 10
6.0934722145
 20
4.0597715305
 10
6.0979663859
 20
4.0692208633
 10
6.101613057
 20
4.0793333212
 10
6.1041401868
 20
4.0899990638
 10
6.1054801885
 20
4.1012440653
 10
6.1057006489
 20
4.1130423516
 10
6.1047322872
 20
4.1252061595
 10
6.1025498007
 20
4.1377728522
 10
6.0991784921
 20
4.1507050666
 10
6.0946249889
 20
4.16370295
  0
LWPOLYLINE
  5
22D
100
AcDbEntity
  8
0
100
AcDbPolyline
 62
7
  6
CONTINUOUS
 90
65
 70
0
 10
6.0946866183
 20
4.7218077775
 10
6.0888894828
 20
4.7086185164
 10
6.0819099942
 20
4.6953620295
 10
6.0739802897
 20
4.6827111135
 10
6.0650446443
 20
4.6707317471
 10
6.0551587829
 20
4.6593579516
 10
6.0447220171
 20
4.6490645872
 10
6.0337608907
 20
4.640027325
 10
6.02224886
 20
4.6320704939
 10
6.0105056049
 20
4.6251419409
 10
5.9985676373
 20
4.61930437
 10
5.9863984453
 20
4.6144950774
 10
5.9742081728
 20
4.6104737988
 10
5.9620505877
 20
4.6072189343
 10
5.949871922
 20
4.6047520839
 10
5.9377210159
 20
4.6028977832
 10
5.9255948115
 20
4.6016284563
 10
5.9134963666
 20
4.600971679
 10
5.9014836954
 20
4.6008347147
 10
5.8895526503
 20
4.6012051135
 10
5.8777073788
 20
4.6020953252
 10
5.8660183383
 20
4.6034499626
 10
5.8544980082
 20
4.6052518949
 10
5.843133909
 20
4.6075182528
 10
5.8319590594
 20
4.6102450413
 10
5.8209673639
 20
4.6134153892
 10
5.8101649181
 20
4.6170461678
 10
5.7996030271
 20
4.6211839957
 10
5.7892708622
 20
4.6258367773
 10
5.7791792521
 20
4.6309966083
 10
5.769411989
 20
4.6366863934
 10
5.759974134
 20
4.642942022
 10
5.7508606259
 20
4.6497276047
 10
5.7421400727
 20
4.6569583791
 10
5.733822771
 20
4.6646484372
 10
5.7258984241
 20
4.6727836869
 10
5.7184047513
 20
4.6812370891
 10
5.7113656837
 20
4.689978526
 10
5.7047572901
 20
4.6990381153
 10
5.6985454952
 20
4.708379172
 10
5.6927423092
 20
4.7179656459
 10
5.687335722
 20
4.7278335871
 10
5.6822556274
 20
4.7380544608
 10
5.6774770067
 20
4.7486427102
 10
5.6730248787
 20
4.759583892
 10
5.6689041941
 20
4.7709061417
 10
5.6650834762
 20
4.7826500583
 10
5.6615942017
 20
4.7947750426
 10
5.6585357503
 20
4.8071874325
 10
5.6559131652
 20
4.8198741526
 10
5.6537214032
 20
4.8328482781
 10
5.6520447152
 20
4.8460553732
 10
5.6508939894
 20
4.8594473967
 10
5.6502583374
 20
4.8730723898
 10
5.6501893458
 20
4.8870200392
 10
5.6506691841
 20
4.9012775105
 10
5.6517156826
 20
4.9158576381
 10
5.6534339184
 20
4.9308886124
 10
5.6557969213
 20
4.9463651177
 10
5.6588316615
 20
4.9622924697
 10
5.6627241267
 20
4.9788148049
 10
5.667461276
 20
4.9960173602
 10
5.6730561503
 20
5.0138148987
 10
5.6797338594
 20
5.0320958464
 10
5.6875490489
 20
5.0510413493
  0
LWPOLYLINE
  5
22E
100
AcDbEntity
  8
0
100
AcDbPolyline
 62
7
  6
CONTINUOUS
 90
65
 70
0
 10
4.5662844839
 20
3.18843014
 10
4.5794728343
 20
3.1942416169
 10
4.5927268536
 20
3.2012352884
 10
4.6053722952
 20
3.209177193
 10
4.6173419137
 20
3.2181222851
 10
4.6287029545
 20
3.2280156104
 10
4.6389829072
 20
3.2384583443
 10
4.64800628
 20
3.2494239389
 10
4.6559485647
 20
3.260938942
 10
4.6628637252
 20
3.2726841733
 10
4.6686897424
 20
3.2846231381
 10
4.6734886354
 20
3.2967923311
 10
4.6775004262
 20
3.3089820557
 10
4.6807467425
 20
3.3211384772
 10
4.6832059565
 20
3.3333154304
 10
4.685053207
 20
3.3454647225
 10
4.6863160483
 20
3.3575897966
 10
4.6869669262
 20
3.3696872096
 10
4.6870983163
 20
3.3816984392
 10
4.6867226211
 20
3.3936273583
 10
4.6858274382
 20
3.405470094
 10
4.6844680351
 20
3.4171565051
 10
4.6826615827
 20
3.4286742135
 10
4.6803909102
 20
3.4400355973
 10
4.6776597731
 20
3.4512076497
 10
4.6744849778
 20
3.4621965008
 10
4.6708497179
 20
3.4729960206
 10
4.6667073307
 20
3.4835548115
 10
4.662049821
 20
3.4938836919
 10
4.656885184
 20
3.5039718435
 10
4.6511907422
 20
3.513735414
 10
4.6449305688
 20
3.5231692797
 10
4.6381405907
 20
3.5322785644
 10
4.6309059113
 20
3.540994787
 10
4.6232125786
 20
3.5493076587
 10
4.6150745447
 20
3.5572274684
 10
4.6066187695
 20
3.5647166016
 10
4.5978755151
 20
3.5717510522
 10
4.5888145194
 20
3.5783548264
 10
4.5794719562
 20
3.5845623281
 10
4.5698837447
 20
3.5903616986
 10
4.5600139657
 20
3.5957647965
 10
4.5497910356
 20
3.6008416012
 10
4.5392003358
 20
3.605617201
 10
4.528256485
 20
3.6100665076
 10
4.5169317546
 20
3.6141842357
 10
4.5051855849
 20
3.6180017858
 10
4.4930585357
 20
3.6214877573
 10
4.4806445578
 20
3.6245426637
 10
4.4679570299
 20
3.6271613614
 10
4.4549825733
 20
3.6293489941
 10
4.4417750019
 20
3.6310215054
 10
4.4283821709
 20
3.6321680817
 10
4.4147562252
 20
3.6327995367
 10
4.4008074132
 20
3.6328642559
 10
4.3865485828
 20
3.6323801178
 10
4.3719668861
 20
3.6313292439
 10
4.3569340289
 20
3.6296063841
 10
4.3414552743
 20
3.6272385117
 10
4.3255253591
 20
3.6241986535
 10
4.3090001993
 20
3.6203006403
 10
4.2917941324
 20
3.6155574021
 10
4.273992821
 20
3.609956009
 10
4.2557091687
 20
3.6032715017
 10
4.2367621731
 20
3.5954489819
  0
LWPOLYLINE
  5
22F
100
AcDbEntity
  8
0
100
AcDbPolyline
 62
7
  6
CONTINUOUS
 90
65
 70
0
 10
4.5612464627
 20
5.6921054413
 10
4.5744356651
 20
5.686308415
 10
4.5876921166
 20
5.6793290424
 10
4.6003430255
 20
5.6713994441
 10
4.6123224191
 20
5.6624638915
 10
4.6236962701
 20
5.6525781133
 10
4.6339897044
 20
5.6421414163
 10
4.6430270528
 20
5.6311803429
 10
4.6509839845
 20
5.6196683507
 10
4.657912634
 20
5.60792512
 10
4.6637502923
 20
5.5959871598
 10
4.6685596682
 20
5.583817961
 10
4.6725810227
 20
5.5716276769
 10
4.6758359535
 20
5.5594700764
 10
4.6783028628
 20
5.5472913906
 10
4.6801572173
 20
5.5351404658
 10
4.6814265929
 20
5.5230142463
 10
4.6820834137
 20
5.5109157877
 10
4.6822204193
 20
5.4989031035
 10
4.6818500599
 20
5.4869720461
 10
4.6809598853
 20
5.475126763
 10
4.6796052838
 20
5.4634377095
 10
4.6778033862
 20
5.4519173648
 10
4.6755370617
 20
5.4405532498
 10
4.6728103066
 20
5.4293783819
 10
4.6696399924
 20
5.4183866655
 10
4.6660092474
 20
5.4075841962
 10
4.6618714528
 20
5.397022279
 10
4.6572187042
 20
5.3866900847
 10
4.6520589059
 20
5.3765984425
 10
4.6463691514
 20
5.3668311454
 10
4.6401135514
 20
5.3573932545
 10
4.6333279951
 20
5.3482797087
 10
4.6260972437
 20
5.3395591183
 10
4.6184072044
 20
5.3312417803
 10
4.6102719701
 20
5.3233173977
 10
4.6018185806
 20
5.3158236897
 10
4.593077154
 20
5.3087845879
 10
4.5840175723
 20
5.3021761608
 10
4.5746765208
 20
5.2959643334
 10
4.5650900495
 20
5.2901611163
 10
4.5552221085
 20
5.2847544989
 10
4.5450012328
 20
5.2796743755
 10
4.5344129787
 20
5.2748957271
 10
4.5234717899
 20
5.2704435725
 10
4.512149533
 20
5.2663228624
 10
4.5004056088
 20
5.2625021203
 10
4.4882806165
 20
5.2590128226
 10
4.4758682196
 20
5.2559543487
 10
4.4631814949
 20
5.2533317414
 10
4.4502073656
 20
5.2511399578
 10
4.4370002658
 20
5.2494632485
 10
4.423608237
 20
5.2483125013
 10
4.4099832376
 20
5.2476768285
 10
4.396035578
 20
5.2476078171
 10
4.3817780921
 20
5.2480876367
 10
4.3671979459
 20
5.2491341178
 10
4.3521669473
 20
5.250852339
 10
4.3366904108
 20
5.2532153301
 10
4.3207630219
 20
5.2562500613
 10
4.3042406441
 20
5.2601425224
 10
4.2870380372
 20
5.2648796743
 10
4.2692404416
 20
5.2704745561
 10
4.2509594413
 20
5.2771522748
 10
4.2320138904
 20
5.284967478
  0
LWPOLYLINE
  5
230
100
AcDbEntity
  8
0
100
AcDbPolyline
 62
7
  6
CONTINUOUS
 90
65
 70
0
 10
6.0946249889
 20
4.16370295
 10
6.0888135132
 20
4.1768913005
 10
6.0818198428
 20
4.19014532
 10
6.0738779391
 20
4.202790762
 10
6.0649328477
 20
4.2147603813
 10
6.055039523
 20
4.2261214231
 10
6.0445967895
 20
4.2364013767
 10
6.0336311953
 20
4.2454247507
 10
6.0221161924
 20
4.2533670365
 10
6.0103709612
 20
4.260282198
 10
5.9984319965
 20
4.2661082161
 10
5.9862628035
 20
4.2709071099
 10
5.9740730789
 20
4.2749189014
 10
5.9619166573
 20
4.2781652183
 10
5.949739704
 20
4.2806244329
 10
5.9375904118
 20
4.282471684
 10
5.9254653376
 20
4.2837345258
 10
5.9133679245
 20
4.2843854042
 10
5.9013566948
 20
4.2845167946
 10
5.8894277755
 20
4.2841410999
 10
5.8775850397
 20
4.2832459173
 10
5.8658986284
 20
4.2818865146
 10
5.8543809198
 20
4.2800800625
 10
5.8430195357
 20
4.2778093904
 10
5.8318474831
 20
4.2750782537
 10
5.8208586317
 20
4.2719034586
 10
5.8100591117
 20
4.2682681991
 10
5.7995003206
 20
4.2641258123
 10
5.7891714399
 20
4.2594683029
 10
5.7790832881
 20
4.2543036663
 10
5.7693197173
 20
4.2486092249
 10
5.7598858513
 20
4.2423490518
 10
5.7507765663
 20
4.235559074
 10
5.7420603433
 20
4.2283243949
 10
5.7337474713
 20
4.2206310625
 10
5.7258276613
 20
4.2124930288
 10
5.7183385277
 20
4.2040372538
 10
5.7113040767
 20
4.1952939995
 10
5.7047003022
 20
4.1862330039
 10
5.6984928002
 20
4.1768904409
 10
5.6926934294
 20
4.1673022295
 10
5.6872903313
 20
4.1574324506
 10
5.6822135263
 20
4.1472095206
 10
5.6774379262
 20
4.1366188211
 10
5.6729886194
 20
4.1256749705
 10
5.668870891
 20
4.1143502402
 10
5.6650533408
 20
4.1026040708
 10
5.661567369
 20
4.0904770217
 10
5.6585124623
 20
4.0780630439
 10
5.6558937643
 20
4.0653755161
 10
5.6537061313
 20
4.0524010595
 10
5.6520336196
 20
4.0391934882
 10
5.6508870431
 20
4.0258006573
 10
5.6502555877
 20
4.0121747116
 10
5.6501908682
 20
3.9982258997
 10
5.650675006
 20
3.9839670693
 10
5.6517258796
 20
3.9693853728
 10
5.653448739
 20
3.9543525157
 10
5.655816611
 20
3.9388737613
 10
5.6588564688
 20
3.9229438463
 10
5.6627544816
 20
3.9064186867
 10
5.6674977193
 20
3.8892126201
 10
5.6730991119
 20
3.871411309
 10
5.6797836187
 20
3.8531276569
 10
5.6876061379
 20
3.8341806614
  0
LINE
  5
231
100
AcDbEntity
  8
0
100
AcDbLine
 62
7
  6
CONTINUOUS
 10
7.422818323
 20
1.8801606952
 11
7.422818323
 21
2.1903965708
  0
LINE
  5
232
100
AcDbEntity
  8
0
100
AcDbLine
 62
7
  6
CONTINUOUS
 10
7.422818323
 20
6.690147523
 11
7.422818323
 21
7.0003129073
  0
LINE
  5
233
100
AcDbEntity
  8
0
100
AcDbLine
 62
7
  6
CONTINUOUS
 10
7.402894429
 20
7.0202368012
 11
7.0926585535
 21
7.0202368012
  0
LINE
  5
234
100
AcDbEntity
  8
0
100
AcDbLine
 62
7
  6
CONTINUOUS
 10
2.5929076012
 20
7.0202368012
 11
2.2827422169
 21
7.0202368012
  0
LINE
  5
235
100
AcDbEntity
  8
0
100
AcDbLine
 62
7
  6
CONTINUOUS
 10
7.790318323
 20
1.5727368012
 11
7.790318323
 21
7.3077368012
  0
LINE
  5
236
100
AcDbEntity
  8
0
100
AcDbLine
 62
7
  6
CONTINUOUS
 10
7.710318323
 20
7.3877368012
 11
1.975318323
 21
7.3877368012
  0
ARC
  5
237
100
AcDbEntity
  8
0
100
AcDbCircle
 62
7
  6
CONTINUOUS
 10
3.8351806468
 20
1.7354831781
 40
1.2306754703
100
AcDbArc
 50
151.2735309339
 51
173.3567746328
  0
ARC
  5
238
100
AcDbEntity
  8
0
100
AcDbCircle
 62
7
  6
CONTINUOUS
 10
2.1467631471
 20
3.3963090577
 40
1.1937009456
100
AcDbArc
 50
276.4331418569
 51
299.1758918032
  0
ARC
  5
239
100
AcDbEntity
  8
0
100
AcDbCircle
 62
7
  6
CONTINUOUS
 10
4.201023953
 20
3.8871629942
 40
0.5321318744
100
AcDbArc
 50
345.5772166883
 51
13.5341810166
  0
ARC
  5
23A
100
AcDbEntity
  8
0
100
AcDbCircle
 62
7
  6
CONTINUOUS
 10
4.2895981579
 20
3.7984116
 40
0.532130868
100
AcDbArc
 50
76.3506442424
 51
104.2955130559
  0
ARC
  5
23B
100
AcDbEntity
  8
0
100
AcDbCircle
 62
7
  6
CONTINUOUS
 10
1.975318323
 20
1.5727368012
 40
0.08
100
AcDbArc
 50
180.0
 51
270.0
  0
ARC
  5
23C
100
AcDbEntity
  8
0
100
AcDbCircle
 62
7
  6
CONTINUOUS
 10
3.9815019455
 20
2.4580920297
 40
0.02
100
AcDbArc
 50
266.6844527395
 51
53.5104576121
  0
ARC
  5
23D
100
AcDbEntity
  8
0
100
AcDbCircle
 62
7
  6
CONTINUOUS
 10
2.7384330354
 20
2.3365936579
 40
0.02
100
AcDbArc
 50
331.2735309339
 51
119.1758918032
  0
ARC
  5
23E
100
AcDbEntity
  8
0
100
AcDbCircle
 62
7
  6
CONTINUOUS
 10
2.8615546223
 20
3.592092302
 40
0.02
100
AcDbArc
 50
32.432968398
 51
184.6096539505
  0
ARC
  5
23F
100
AcDbEntity
  8
0
100
AcDbCircle
 62
7
  6
CONTINUOUS
 10
4.4468743681
 20
2.9722145467
 40
0.02
100
AcDbArc
 50
323.3306319261
 51
106.5167810819
  0
ARC
  5
240
100
AcDbEntity
  8
0
100
AcDbCircle
 62
7
  6
CONTINUOUS
 10
3.3783025537
 20
4.0444525539
 40
0.02
100
AcDbArc
 50
342.741291091
 51
127.7718169051
  0
ARC
  5
241
100
AcDbEntity
  8
0
100
AcDbCircle
 62
7
  6
CONTINUOUS
 10
4.6175611738
 20
4.4377971796
 40
0.0199168432
100
AcDbArc
 50
331.0842386381
 51
28.9156804502
  0
ARC
  5
242
100
AcDbEntity
  8
0
100
AcDbCircle
 62
7
  6
CONTINUOUS
 10
3.0758619367
 20
1.8800221963
 40
0.0199103787
100
AcDbArc
 50
269.9808505048
 51
333.8506265408
  0
ARC
  5
243
100
AcDbEntity
  8
0
100
AcDbCircle
 62
7
  6
CONTINUOUS
 10
2.2826036295
 20
2.6732574947
 40
0.0199103145
100
AcDbArc
 50
116.0550184635
 51
180.01917521
  0
ARC
  5
244
100
AcDbEntity
  8
0
100
AcDbCircle
 62
7
  6
CONTINUOUS
 10
3.2860057374
 20
3.0731682064
 40
0.0199100411
100
AcDbArc
 50
253.6710853953
 51
318.182389754
  0
ARC
  5
245
100
AcDbEntity
  8
0
100
AcDbCircle
 62
7
  6
CONTINUOUS
 10
3.4749449068
 20
2.8837238921
 40
0.0199092313
100
AcDbArc
 50
131.8152460647
 51
198.0097594529
  0
ARC
  5
246
100
AcDbEntity
  8
0
100
AcDbCircle
 62
7
  6
CONTINUOUS
 10
4.6990343551
 20
4.0070714469
 40
0.0199014263
100
AcDbArc
 50
13.4433100935
 51
96.2092810442
  0
ARC
  5
247
100
AcDbEntity
  8
0
100
AcDbCircle
 62
7
  6
CONTINUOUS
 10
4.4105072342
 20
4.2961790218
 40
0.0199014195
100
AcDbArc
 50
353.6755228209
 51
76.4415272212
  0
ARC
  5
248
100
AcDbEntity
  8
0
100
AcDbCircle
 62
7
  6
CONTINUOUS
 10
2.5929983827
 20
1.8801379047
 40
0.0199009165
100
AcDbArc
 50
269.9415840757
 51
353.4151905337
  0
ARC
  5
249
100
AcDbEntity
  8
0
100
AcDbCircle
 62
7
  6
CONTINUOUS
 10
2.2827192804
 20
2.1903465752
 40
0.0199007682
100
AcDbArc
 50
96.3741337445
 51
180.0590080773
  0
ARC
  5
24A
100
AcDbEntity
  8
0
100
AcDbCircle
 62
7
  6
CONTINUOUS
 10
2.3921880209
 20
4.3109780652
 40
0.0198960303
100
AcDbArc
 50
81.422593783
 51
171.3170843527
  0
ARC
  5
24B
100
AcDbEntity
  8
0
100
AcDbCircle
 62
7
  6
CONTINUOUS
 10
4.7184167037
 20
1.9896030237
 40
0.0198959688
100
AcDbArc
 50
278.686069348
 51
8.6411738455
  0
ARC
  5
24C
100
AcDbEntity
  8
0
100
AcDbCircle
 62
7
  6
CONTINUOUS
 10
2.1380646999
 20
5.4478744774
 40
1.2306754703
100
AcDbArc
 50
61.2735309339
 51
83.3567746328
  0
ARC
  5
24D
100
AcDbEntity
  8
0
100
AcDbCircle
 62
7
  6
CONTINUOUS
 10
3.7988905794
 20
7.1362919771
 40
1.1937009456
100
AcDbArc
 50
186.4331418569
 51
209.1758918032
  0
ARC
  5
24E
100
AcDbEntity
  8
0
100
AcDbCircle
 62
7
  6
CONTINUOUS
 10
4.2006031319
 20
4.993454676
 40
0.5325165898
100
AcDbArc
 50
346.3607854727
 51
14.2853908092
  0
ARC
  5
24F
100
AcDbEntity
  8
0
100
AcDbCircle
 62
7
  6
CONTINUOUS
 10
4.2897444257
 20
5.0820311616
 40
0.5321318744
100
AcDbArc
 50
255.5772258867
 51
283.5341906879
  0
ARC
  5
250
100
AcDbEntity
  8
0
100
AcDbCircle
 62
7
  6
CONTINUOUS
 10
1.975318323
 20
7.3077368012
 40
0.08
100
AcDbArc
 50
90.0
 51
180.0
  0
ARC
  5
251
100
AcDbEntity
  8
0
100
AcDbCircle
 62
7
  6
CONTINUOUS
 10
2.8606735514
 20
5.3015531788
 40
0.02
100
AcDbArc
 50
176.6844527395
 51
323.5104576121
  0
ARC
  5
252
100
AcDbEntity
  8
0
100
AcDbCircle
 62
7
  6
CONTINUOUS
 10
2.7391751796
 20
6.5446220888
 40
0.02
100
AcDbArc
 50
241.2735309339
 51
29.1758918032
  0
ARC
  5
253
100
AcDbEntity
  8
0
100
AcDbCircle
 62
7
  6
CONTINUOUS
 10
3.9946738237
 20
6.4215005019
 40
0.02
100
AcDbArc
 50
302.432968398
 51
94.6096539505
  0
ARC
  5
254
100
AcDbEntity
  8
0
100
AcDbCircle
 62
7
  6
CONTINUOUS
 10
3.3747960684
 20
4.8361807562
 40
0.02
100
AcDbArc
 50
233.3306319261
 51
16.5167810819
  0
ARC
  5
255
100
AcDbEntity
  8
0
100
AcDbCircle
 62
7
  6
CONTINUOUS
 10
4.4470340756
 20
5.9047525705
 40
0.02
100
AcDbArc
 50
252.741291091
 51
37.7718169051
  0
ARC
  5
256
100
AcDbEntity
  8
0
100
AcDbCircle
 62
7
  6
CONTINUOUS
 10
2.2826037181
 20
6.2071931876
 40
0.0199103787
100
AcDbArc
 50
179.9808505028
 51
243.850626539
  0
ARC
  5
257
100
AcDbEntity
  8
0
100
AcDbCircle
 62
7
  6
CONTINUOUS
 10
3.0758390164
 20
7.0004514947
 40
0.0199103145
100
AcDbArc
 50
26.0550184665
 51
90.0191752058
  0
ARC
  5
258
100
AcDbEntity
  8
0
100
AcDbCircle
 62
7
  6
CONTINUOUS
 10
3.4757497281
 20
5.9970493869
 40
0.0199100411
100
AcDbArc
 50
163.6710854792
 51
228.1823898366
  0
ARC
  5
259
100
AcDbEntity
  8
0
100
AcDbCircle
 62
7
  6
CONTINUOUS
 10
3.286305414
 20
5.8081102193
 40
0.0199092301
100
AcDbArc
 50
41.8152422969
 51
108.0097614832
  0
ARC
  5
25A
100
AcDbEntity
  8
0
100
AcDbCircle
 62
7
  6
CONTINUOUS
 10
4.4096529677
 20
4.5840207697
 40
0.0199014271
100
AcDbArc
 50
283.443311849
 51
6.2092793563
  0
ARC
  5
25B
100
AcDbEntity
  8
0
100
AcDbCircle
 62
7
  6
CONTINUOUS
 10
4.6987605436
 20
4.87254789
 40
0.0199014195
100
AcDbArc
 50
263.6755228226
 51
346.4415272197
  0
ARC
  5
25C
100
AcDbEntity
  8
0
100
AcDbCircle
 62
7
  6
CONTINUOUS
 10
2.2827194264
 20
6.6900567415
 40
0.0199009165
100
AcDbArc
 50
179.9415840706
 51
263.4151905389
  0
ARC
  5
25D
100
AcDbEntity
  8
0
100
AcDbCircle
 62
7
  6
CONTINUOUS
 10
2.5929280969
 20
7.0003358438
 40
0.0199007682
100
AcDbArc
 50
6.3741337469
 51
90.0590080749
  0
ARC
  5
25E
100
AcDbEntity
  8
0
100
AcDbCircle
 62
7
  6
CONTINUOUS
 10
4.7135595869
 20
6.8908671034
 40
0.0198960303
100
AcDbArc
 50
351.4225934699
 51
81.3170840397
  0
ARC
  5
25F
100
AcDbEntity
  8
0
100
AcDbCircle
 62
7
  6
CONTINUOUS
 10
2.39218454
 20
4.5646384246
 40
0.0198959687
100
AcDbArc
 50
188.6860831693
 51
278.6411877461
  0
ARC
  5
260
100
AcDbEntity
  8
0
100
AcDbCircle
 62
7
  6
CONTINUOUS
 10
7.5475719461
 20
3.4325991251
 40
1.2306754703
100
AcDbArc
 50
241.2735309339
 51
263.3567746328
  0
ARC
  5
261
100
AcDbEntity
  8
0
100
AcDbCircle
 62
7
  6
CONTINUOUS
 10
5.8867460665
 20
1.7441816253
 40
1.1937009456
100
AcDbArc
 50
6.4331418569
 51
29.1758918032
  0
ARC
  5
262
100
AcDbEntity
  8
0
100
AcDbCircle
 62
7
  6
CONTINUOUS
 10
5.3958920175
 20
3.7984424334
 40
0.5321318744
100
AcDbArc
 50
75.5772049455
 51
103.5341692752
  0
ARC
  5
263
100
AcDbEntity
  8
0
100
AcDbCircle
 62
7
  6
CONTINUOUS
 10
5.4846435161
 20
3.8870167265
 40
0.532130868
100
AcDbArc
 50
166.35065349
 51
194.2955227005
  0
ARC
  5
264
100
AcDbEntity
  8
0
100
AcDbCircle
 62
7
  6
CONTINUOUS
 10
7.710318323
 20
1.5727368012
 40
0.08
100
AcDbArc
 50
270.0
 51
360.0
  0
ARC
  5
265
100
AcDbEntity
  8
0
100
AcDbCircle
 62
7
  6
CONTINUOUS
 10
6.8249630946
 20
3.5789204237
 40
0.02
100
AcDbArc
 50
356.6844527395
 51
143.5104576121
  0
ARC
  5
266
100
AcDbEntity
  8
0
100
AcDbCircle
 62
7
  6
CONTINUOUS
 10
6.9464614664
 20
2.3358515136
 40
0.02
100
AcDbArc
 50
61.2735309339
 51
209.1758918032
  0
ARC
  5
267
100
AcDbEntity
  8
0
100
AcDbCircle
 62
7
  6
CONTINUOUS
 10
5.6909628222
 20
2.4589731006
 40
0.02
100
AcDbArc
 50
122.432968398
 51
274.6096539505
  0
ARC
  5
268
100
AcDbEntity
  8
0
100
AcDbCircle
 62
7
  6
CONTINUOUS
 10
6.3108405775
 20
4.0442928463
 40
0.02
100
AcDbArc
 50
53.3306319261
 51
196.5167810819
  0
ARC
  5
269
100
AcDbEntity
  8
0
100
AcDbCircle
 62
7
  6
CONTINUOUS
 10
5.2386025703
 20
2.975721032
 40
0.02
100
AcDbArc
 50
72.741291091
 51
217.7718169051
  0
ARC
  5
26A
100
AcDbEntity
  8
0
100
AcDbCircle
 62
7
  6
CONTINUOUS
 10
4.8454556286
 20
4.2099026927
 40
0.0199168432
100
AcDbArc
 50
61.0842386234
 51
118.9156804654
  0
ARC
  5
26B
100
AcDbEntity
  8
0
100
AcDbCircle
 62
7
  6
CONTINUOUS
 10
5.0733501156
 20
4.4377971475
 40
0.0199168432
100
AcDbArc
 50
151.0842386417
 51
208.9156804454
  0
ARC
  5
26C
100
AcDbEntity
  8
0
100
AcDbCircle
 62
7
  6
CONTINUOUS
 10
7.4030329279
 20
2.6732804149
 40
0.0199103787
100
AcDbArc
 50
359.9808505117
 51
63.8506265405
  0
ARC
  5
26D
100
AcDbEntity
  8
0
100
AcDbCircle
 62
7
  6
CONTINUOUS
 10
6.6097976296
 20
1.8800221078
 40
0.0199103145
100
AcDbArc
 50
206.0550183815
 51
270.019175126
  0
ARC
  5
26E
100
AcDbEntity
  8
0
100
AcDbCircle
 62
7
  6
CONTINUOUS
 10
6.2098869179
 20
2.8834242156
 40
0.0199100411
100
AcDbArc
 50
343.6710853896
 51
48.1823897581
  0
ARC
  5
26F
100
AcDbEntity
  8
0
100
AcDbCircle
 62
7
  6
CONTINUOUS
 10
6.3993312321
 20
3.072363385
 40
0.0199092313
100
AcDbArc
 50
221.8152460712
 51
288.0097594418
  0
ARC
  5
270
100
AcDbEntity
  8
0
100
AcDbCircle
 62
7
  6
CONTINUOUS
 10
5.2759836812
 20
4.2964528412
 40
0.0199014259
100
AcDbArc
 50
103.4433257301
 51
186.2093025139
  0
ARC
  5
271
100
AcDbEntity
  8
0
100
AcDbCircle
 62
7
  6
CONTINUOUS
 10
4.9868761024
 20
4.0079257125
 40
0.0199014195
100
AcDbArc
 50
83.6755228247
 51
166.4415272176
  0
ARC
  5
272
100
AcDbEntity
  8
0
100
AcDbCircle
 62
7
  6
CONTINUOUS
 10
7.4029172195
 20
2.1904168609
 40
0.0199009165
100
AcDbArc
 50
359.941584068
 51
83.4151905415
  0
ARC
  5
273
100
AcDbEntity
  8
0
100
AcDbCircle
 62
7
  6
CONTINUOUS
 10
7.0927085492
 20
1.8801377588
 40
0.0199007683
100
AcDbArc
 50
186.3741341974
 51
270.0590076243
  0
ARC
  5
274
100
AcDbEntity
  8
0
100
AcDbCircle
 62
7
  6
CONTINUOUS
 10
4.972077059
 20
1.9896064992
 40
0.0198960302
100
AcDbArc
 50
171.4225938686
 51
261.3170845141
  0
ARC
  5
275
100
AcDbEntity
  8
0
100
AcDbCircle
 62
7
  6
CONTINUOUS
 10
7.2934521005
 20
4.3158351819
 40
0.0198959688
100
AcDbArc
 50
8.686069358
 51
98.6411738355
  0
ARC
  5
276
100
AcDbEntity
  8
0
100
AcDbCircle
 62
7
  6
CONTINUOUS
 10
5.8504559991
 20
7.1449904243
 40
1.2306754703
100
AcDbArc
 50
331.2735309339
 51
353.3567746328
  0
ARC
  5
277
100
AcDbEntity
  8
0
100
AcDbCircle
 62
7
  6
CONTINUOUS
 10
7.5388734989
 20
5.4841645448
 40
1.1937009456
100
AcDbArc
 50
96.4331418569
 51
119.1758918032
  0
ARC
  5
278
100
AcDbEntity
  8
0
100
AcDbCircle
 62
7
  6
CONTINUOUS
 10
5.4850029168
 20
4.9933075803
 40
0.5325178303
100
AcDbArc
 50
165.5873587484
 51
193.5240386268
  0
ARC
  5
279
100
AcDbEntity
  8
0
100
AcDbCircle
 62
7
  6
CONTINUOUS
 10
5.3960382816
 20
5.0820619923
 40
0.532130868
100
AcDbArc
 50
256.3506655883
 51
284.2955348684
  0
ARC
  5
27A
100
AcDbEntity
  8
0
100
AcDbCircle
 62
7
  6
CONTINUOUS
 10
7.710318323
 20
7.3077368012
 40
0.08
100
AcDbArc
 50
0.0
 51
90.0
  0
ARC
  5
27B
100
AcDbEntity
  8
0
100
AcDbCircle
 62
7
  6
CONTINUOUS
 10
5.7041347005
 20
6.4223815728
 40
0.02
100
AcDbArc
 50
86.6844527395
 51
233.5104576121
  0
ARC
  5
27C
100
AcDbEntity
  8
0
100
AcDbCircle
 62
7
  6
CONTINUOUS
 10
6.9472036106
 20
6.5438799446
 40
0.02
100
AcDbArc
 50
151.2735309339
 51
299.1758918032
  0
ARC
  5
27D
100
AcDbEntity
  8
0
100
AcDbCircle
 62
7
  6
CONTINUOUS
 10
6.8240820236
 20
5.2883813005
 40
0.02
100
AcDbArc
 50
212.432968398
 51
4.6096539505
  0
ARC
  5
27E
100
AcDbEntity
  8
0
100
AcDbCircle
 62
7
  6
CONTINUOUS
 10
5.2387622779
 20
5.9082590558
 40
0.02
100
AcDbArc
 50
143.3306319261
 51
286.5167810819
  0
ARC
  5
27F
100
AcDbEntity
  8
0
100
AcDbCircle
 62
7
  6
CONTINUOUS
 10
6.3073340922
 20
4.8360210486
 40
0.02
100
AcDbArc
 50
162.741291091
 51
307.7718169051
  0
ARC
  5
280
100
AcDbEntity
  8
0
100
AcDbCircle
 62
7
  6
CONTINUOUS
 10
4.8454556607
 20
4.6656916344
 40
0.0199168432
100
AcDbArc
 50
241.0842386163
 51
298.9156804711
  0
ARC
  5
281
100
AcDbEntity
  8
0
100
AcDbCircle
 62
7
  6
CONTINUOUS
 10
6.6097747093
 20
7.0004514062
 40
0.0199103787
100
AcDbArc
 50
89.9808505115
 51
153.8506265387
  0
ARC
  5
282
100
AcDbEntity
  8
0
100
AcDbCircle
 62
7
  6
CONTINUOUS
 10
7.4030330165
 20
6.2072161079
 40
0.0199103145
100
AcDbArc
 50
296.0550183773
 51
0.019175129
  0
ARC
  5
283
100
AcDbEntity
  8
0
100
AcDbCircle
 62
7
  6
CONTINUOUS
 10
6.3996309086
 20
5.8073053961
 40
0.0199100411
100
AcDbArc
 50
73.6710854719
 51
138.1823898427
  0
ARC
  5
284
100
AcDbEntity
  8
0
100
AcDbCircle
 62
7
  6
CONTINUOUS
 10
6.2106917399
 20
5.9967497113
 40
0.0199092317
100
AcDbArc
 50
311.8152428317
 51
18.0097574256
  0
ARC
  5
285
100
AcDbEntity
  8
0
100
AcDbCircle
 62
7
  6
CONTINUOUS
 10
4.9866022877
 20
4.8734021595
 40
0.0199014272
100
AcDbArc
 50
193.4433231201
 51
276.2092888653
  0
ARC
  5
286
100
AcDbEntity
  8
0
100
AcDbCircle
 62
7
  6
CONTINUOUS
 10
5.2751294118
 20
4.5842945807
 40
0.0199014195
100
AcDbArc
 50
173.6755228179
 51
256.4415272242
  0
ARC
  5
287
100
AcDbEntity
  8
0
100
AcDbCircle
 62
7
  6
CONTINUOUS
 10
7.0926382633
 20
7.0003356978
 40
0.0199009165
100
AcDbArc
 50
89.9415840745
 51
173.415190535
  0
ARC
  5
288
100
AcDbEntity
  8
0
100
AcDbCircle
 62
7
  6
CONTINUOUS
 10
7.4029173654
 20
6.6901270275
 40
0.0199007683
100
AcDbArc
 50
276.3741342005
 51
0.0590076212
  0
ARC
  5
289
100
AcDbEntity
  8
0
100
AcDbCircle
 62
7
  6
CONTINUOUS
 10
7.2934486251
 20
4.5694955373
 40
0.0198960303
100
AcDbArc
 50
261.4225936543
 51
351.3170842706
  0
ARC
  5
28A
100
AcDbEntity
  8
0
100
AcDbCircle
 62
7
  6
CONTINUOUS
 10
4.9672199446
 20
6.890870582
 40
0.0198959681
100
AcDbArc
 50
98.6860773801
 51
188.6411820508
  0
SPLINE
  5
28B
100
AcDbEntity
  8
0
100
AcDbSpline
 62
7
  6
CONTINUOUS
 70
0
 71
3
 72
17
 73
13
 74
0
 42
0.0000001
 43
0.0000001
 44
0.0000000001
 40
0.0
 40
0.0
 40
0.0
 40
0.0
 40
0.1307964674
 40
0.2597132887
 40
0.3234943389
 40
0.3868122101
 40
0.4496768131
 40
0.5121071455
 40
0.6358126125
 40
0.7583264683
 40
0.8797554198
 40
1.0
 40
1.0
 40
1.0
 40
1.0
 10
4.4294378198
 20
4.5861733346
 30
0.0
 10
4.4284248447
 20
4.5955699412
 30
0.0
 10
4.4274329214
 20
4.614353849
 30
0.0
 10
4.4287927953
 20
4.6377401775
 30
0.0
 10
4.4314306404
 20
4.6560589947
 30
0.0
 10
4.4341631806
 20
4.6695185144
 30
0.0
 10
4.4376492658
 20
4.6827023245
 30
0.0
 10
4.443280635
 20
4.6998000477
 30
0.0
 10
4.4521278139
 20
4.7203318626
 30
0.0
 10
4.465347599
 20
4.7434353439
 30
0.0
 10
4.4808301382
 20
4.764772782
 30
0.0
 10
4.4925265683
 20
4.7777887522
 30
0.0
 10
4.4986582712
 20
4.7839445538
 30
0.0
  0
SPLINE
  5
28C
100
AcDbEntity
  8
0
100
AcDbSpline
 62
7
  6
CONTINUOUS
 70
0
 71
3
 72
17
 73
13
 74
0
 42
0.0000001
 43
0.0000001
 44
0.0000000001
 40
0.0
 40
0.0
 40
0.0
 40
0.0
 40
0.1202445802
 40
0.2416735317
 40
0.3641873875
 40
0.4878928545
 40
0.5503231869
 40
0.6131877899
 40
0.6765056611
 40
0.7402867113
 40
0.8692035326
 40
1.0
 40
1.0
 40
1.0
 40
1.0
 10
4.4986582712
 20
4.7839445538
 30
0.0
 10
4.5048263833
 20
4.7900638729
 30
0.0
 10
4.5178658336
 20
4.8017341211
 30
0.0
 10
4.5392343439
 20
4.8171737471
 30
0.0
 10
4.5623643465
 20
4.8303470743
 30
0.0
 10
4.5829139002
 20
4.8391529725
 30
0.0
 10
4.6000229062
 20
4.8447499689
 30
0.0
 10
4.6132136957
 20
4.8482095515
 30
0.0
 10
4.6266786798
 20
4.8509150365
 30
0.0
 10
4.6450027613
 20
4.8535160607
 30
0.0
 10
4.6683917755
 20
4.8548289323
 30
0.0
 10
4.6871736519
 20
4.8537992608
 30
0.0
 10
4.6965682037
 20
4.8527674034
 30
0.0
  0
SPLINE
  5
28D
100
AcDbEntity
  8
0
100
AcDbSpline
 62
7
  6
CONTINUOUS
 70
0
 71
3
 72
23
 73
19
 74
0
 42
0.0000001
 43
0.0000001
 44
0.0000000001
 40
0.0
 40
0.0
 40
0.0
 40
0.0
 40
0.0625101028
 40
0.0937611127
 40
0.1250039494
 40
0.1562391809
 40
0.1874725805
 40
0.2499628584
 40
0.3125086334
 40
0.3750502203
 40
0.4375288588
 40
0.4999861895
 40
0.6249306697
 40
0.6874638905
 40
0.7500087162
 40
0.8125436467
 40
0.8750580778
 40
1.0
 40
1.0
 40
1.0
 40
1.0
 10
4.6859077052
 20
5.1362633256
 30
0.0
 10
4.677902813
 20
5.1306517924
 30
0.0
 10
4.6655910304
 20
5.122656931
 30
0.0
 10
4.6486375005
 20
5.1129170303
 30
0.0
 10
4.6356644869
 20
5.1060856183
 30
0.0
 10
4.6224474249
 20
5.0997457536
 30
0.0
 10
4.6045187902
 20
5.0919605288
 30
0.0
 10
4.5815960261
 20
5.0834278058
 30
0.0
 10
4.5534895111
 20
5.074967744
 30
0.0
 10
4.5249528807
 20
5.0681181361
 30
0.0
 10
4.4961175207
 20
5.0627427242
 30
0.0
 10
4.4573819096
 20
5.0574849367
 30
0.0
 10
4.418313227
 20
5.0549649977
 30
0.0
 10
4.3792050871
 20
5.0549498294
 30
0.0
 10
4.349879705
 20
5.0561220317
 30
0.0
 10
4.3206272858
 20
5.0584687226
 30
0.0
 10
4.2818128077
 20
5.0632097321
 30
0.0
 10
4.2529508853
 20
5.0686268924
 30
0.0
 10
4.2339297633
 20
5.073097771
 30
0.0
  0
SPLINE
  5
28E
100
AcDbEntity
  8
0
100
AcDbSpline
 62
7
  6
CONTINUOUS
 70
0
 71
3
 72
22
 73
18
 74
0
 42
0.0000001
 43
0.0000001
 44
0.0000000001
 40
0.0
 40
0.0
 40
0.0
 40
0.0
 40
0.0625393065
 40
0.1250994308
 40
0.1876406105
 40
0.2188847406
 40
0.2501023293
 40
0.312472261
 40
0.3748074082
 40
0.4371925021
 40
0.4997390734
 40
0.562457218
 40
0.6252390313
 40
0.7505944471
 40
0.8754376493
 40
0.937726024
 40
1.0
 40
1.0
 40
1.0
 40
1.0
 10
4.2099467054
 20
5.0492683903
 30
0.0
 10
4.212123567
 20
5.0397323598
 30
0.0
 10
4.2160241363
 20
5.0205508811
 30
0.0
 10
4.2206207395
 20
4.9915577415
 30
0.0
 10
4.2234974608
 20
4.9672684372
 30
0.0
 10
4.2252832858
 20
4.9477985536
 30
0.0
 10
4.226729581
 20
4.9283272986
 30
0.0
 10
4.2278607263
 20
4.9039601602
 30
0.0
 10
4.2280217779
 20
4.8746903737
 30
0.0
 10
4.2268728647
 20
4.8454130367
 30
0.0
 10
4.2242963906
 20
4.8161652084
 30
0.0
 10
4.2202182975
 20
4.787024068
 30
0.0
 10
4.2127327475
 20
4.7484948468
 30
0.0
 10
4.1994339739
 20
4.701267988
 30
0.0
 10
4.1805143825
 20
4.6560439576
 30
0.0
 10
4.1618666249
 20
4.6217524372
 30
0.0
 10
4.1513472378
 20
4.6053290953
 30
0.0
 10
4.1457890303
 20
4.5973309184
 30
0.0
  0
SPLINE
  5
28F
100
AcDbEntity
  8
0
100
AcDbSpline
 62
7
  6
CONTINUOUS
 70
0
 71
3
 72
25
 73
21
 74
0
 42
0.0000001
 43
0.0000001
 44
0.0000000001
 40
0.0
 40
0.0
 40
0.0
 40
0.0
 40
0.06204792
 40
0.1243194234
 40
0.1867442446
 40
0.2491846735
 40
0.3114350102
 40
0.3424478185
 40
0.3733653613
 40
0.4041837181
 40
0.4349072354
 40
0.4655723552
 40
0.4962365832
 40
0.5577314962
 40
0.6196743364
 40
0.6821853846
 40
0.7452613608
 40
0.808797493
 40
0.8726079261
 40
1.0
 40
1.0
 40
1.0
 40
1.0
 10
3.4550372255
 20
5.5966798159
 30
0.0
 10
3.4408182199
 20
5.5987871121
 30
0.0
 10
3.4121472416
 20
5.6018696464
 30
0.0
 10
3.3688609098
 20
5.6030997149
 30
0.0
 10
3.3255162572
 20
5.6009497032
 30
0.0
 10
3.2824805398
 20
5.595389228
 30
0.0
 10
3.247166499
 20
5.5878023558
 30
0.0
 10
3.2194948825
 20
5.579904832
 30
0.0
 10
3.1991176013
 20
5.573064805
 30
0.0
 10
3.1791497214
 20
5.5652903726
 30
0.0
 10
3.1596454989
 20
5.5565574664
 30
0.0
 10
3.1406305909
 20
5.5468842751
 30
0.0
 10
3.1158933276
 20
5.5328062807
 30
0.0
 10
3.0860722531
 20
5.5130959277
 30
0.0
 10
3.052070817
 20
5.4865869325
 30
0.0
 10
3.0196670048
 20
5.457606827
 30
0.0
 10
2.9887207888
 20
5.4265639793
 30
0.0
 10
2.9590916459
 20
5.3938624917
 30
0.0
 10
2.9211862296
 20
5.3486173151
 30
0.0
 10
2.894303084
 20
5.3133864802
 30
0.0
 10
2.8767528597
 20
5.2896596576
 30
0.0
  0
SPLINE
  5
290
100
AcDbEntity
  8
0
100
AcDbSpline
 62
7
  6
CONTINUOUS
 70
0
 71
3
 72
50
 73
46
 74
0
 42
0.0000001
 43
0.0000001
 44
0.0000000001
 40
0.0
 40
0.0
 40
0.0
 40
0.0
 40
0.0623490965
 40
0.1246994047
 40
0.15590621
 40
0.1871873214
 40
0.2028781287
 40
0.2185941946
 40
0.250012277
 40
0.2656862188
 40
0.2813214517
 40
0.2969145751
 40
0.3124684966
 40
0.3279930856
 40
0.3435068488
 40
0.3590363164
 40
0.3745990057
 40
0.3902002222
 40
0.4058349158
 40
0.4371424854
 40
0.4683810696
 40
0.4995217104
 40
0.5150622585
 40
0.5305932415
 40
0.5461304415
 40
0.5616931256
 40
0.5772781059
 40
0.5928765226
 40
0.624095988
 40
0.6397352766
 40
0.6553998496
 40
0.6867314687
 40
0.7023806599
 40
0.7180025287
 40
0.7335942534
 40
0.749161064
 40
0.7647257342
 40
0.7803120233
 40
0.8115977419
 40
0.8430841986
 40
0.8747337294
 40
0.9064362908
 40
0.9380256996
 40
0.9692934011
 40
1.0
 40
1.0
 40
1.0
 40
1.0
 10
2.2886549696
 20
6.4383711561
 30
0.0
 10
2.3137609288
 20
6.430352325
 30
0.0
 10
2.3636949809
 20
6.4134083836
 30
0.0
 10
2.4247802801
 20
6.3885004471
 30
0.0
 10
2.4723014973
 20
6.3655187593
 30
0.0
 10
2.501337544
 20
6.3497057742
 30
0.0
 10
2.5240817417
 20
6.3361020818
 30
0.0
 10
2.5464711562
 20
6.3218156704
 30
0.0
 10
2.5681726922
 20
6.3064778426
 30
0.0
 10
2.588944662
 20
6.2899889356
 30
0.0
 10
2.6039696362
 20
6.2770446132
 30
0.0
 10
2.6183832316
 20
6.2634957451
 30
0.0
 10
2.6321170735
 20
6.2493220896
 30
0.0
 10
2.6451068407
 20
6.2345060437
 30
0.0
 10
2.6572724927
 20
6.2190193289
 30
0.0
 10
2.6686720295
 20
6.2029433732
 30
0.0
 10
2.6793983364
 20
6.1863686304
 30
0.0
 10
2.6895383981
 20
6.1693787582
 30
0.0
 10
2.7023990838
 20
6.1462763807
 30
0.0
 10
2.7174250638
 20
6.1168321993
 30
0.0
 10
2.7345436806
 20
6.0811218902
 30
0.0
 10
2.7488407393
 20
6.0514472934
 30
0.0
 10
2.7607746923
 20
6.0280117427
 30
0.0
 10
2.7700919592
 20
6.0106500068
 30
0.0
 10
2.7799023635
 20
5.9935495764
 30
0.0
 10
2.7903221407
 20
5.9767854852
 30
0.0
 10
2.8013876511
 20
5.9604076991
 30
0.0
 10
2.8170324687
 20
5.939163574
 30
0.0
 10
2.8340642743
 20
5.918932484
 30
0.0
 10
2.8525304771
 20
5.9000106642
 30
0.0
 10
2.8719824275
 20
5.8820355717
 30
0.0
 10
2.8928321757
 20
5.8656107056
 30
0.0
 10
2.9149190729
 20
5.8510150801
 30
0.0
 10
2.9320567947
 20
5.841056408
 30
0.0
 10
2.9497270562
 20
5.8321525418
 30
0.0
 10
2.9678978825
 20
5.8243808388
 30
0.0
 10
2.9865054748
 20
5.817731557
 30
0.0
 10
3.0118426972
 20
5.8102997015
 30
0.0
 10
3.0443546694
 20
5.8036247261
 30
0.0
 10
3.0841122354
 20
5.7995121552
 30
0.0
 10
3.12424684
 20
5.7989726023
 30
0.0
 10
3.16432686
 20
5.8017034774
 30
0.0
 10
3.2039249155
 20
5.8074052622
 30
0.0
 10
3.242608232
 20
5.8157805044
 30
0.0
 10
3.2678039368
 20
5.8230370023
 30
0.0
 10
3.280149756
 20
5.8270444098
 30
0.0
  0
LINE
  5
291
100
AcDbEntity
  8
0
100
AcDbLine
 62
7
  6
CONTINUOUS
 10
2.2626929236
 20
6.2071998422
 11
2.2626691603
 21
6.4193886292
  0
SPLINE
  5
292
100
AcDbEntity
  8
0
100
AcDbSpline
 62
7
  6
CONTINUOUS
 70
0
 71
3
 72
26
 73
22
 74
0
 42
0.0000001
 43
0.0000001
 44
0.0000000001
 40
0.0
 40
0.0
 40
0.0
 40
0.0
 40
0.0619687529
 40
0.124533841
 40
0.1877408551
 40
0.2514734151
 40
0.315487004
 40
0.3794381358
 40
0.4429085205
 40
0.5055440635
 40
0.5675009853
 40
0.6290808271
 40
0.6598250648
 40
0.6905839878
 40
0.721392255
 40
0.7522796339
 40
0.7832378812
 40
0.8142396486
 40
0.8762695846
 40
0.9382205209
 40
1.0
 40
1.0
 40
1.0
 40
1.0
 10
2.8407070282
 20
5.3027098773
 30
0.0
 10
2.842028948
 20
5.3255283927
 30
0.0
 10
2.8420194369
 20
5.3715730545
 30
0.0
 10
2.8347841498
 20
5.4405463176
 30
0.0
 10
2.8210214971
 20
5.5091705116
 30
0.0
 10
2.8014067461
 20
5.5768931855
 30
0.0
 10
2.7766077815
 20
5.6431746223
 30
0.0
 10
2.7472863665
 20
5.707467013
 30
0.0
 10
2.7140831012
 20
5.7692592194
 30
0.0
 10
2.6774889677
 20
5.8282401668
 30
0.0
 10
2.6376567938
 20
5.8842303132
 30
0.0
 10
2.60178891
 20
5.928461015
 30
0.0
 10
2.5715740509
 20
5.9623521614
 30
0.0
 10
2.5481399554
 20
5.9870609471
 30
0.0
 10
2.5239262475
 20
6.01108056
 30
0.0
 10
2.4989512434
 20
6.0344152981
 30
0.0
 10
2.4732247975
 20
6.0570282622
 30
0.0
 10
2.4379408192
 20
6.0861328968
 30
0.0
 10
2.392094172
 20
6.1203557287
 30
0.0
 10
2.3344379386
 20
6.1574730436
 30
0.0
 10
2.2942793466
 20
6.1792694429
 30
0.0
 10
2.2738287835
 20
6.1893203177
 30
0.0
  0
SPLINE
  5
293
100
AcDbEntity
  8
0
100
AcDbSpline
 62
7
  6
CONTINUOUS
 70
0
 71
3
 72
54
 73
50
 74
0
 42
0.0000001
 43
0.0000001
 44
0.0000000001
 40
0.0
 40
0.0
 40
0.0
 40
0.0
 40
0.0623599141
 40
0.1247004074
 40
0.1558852788
 40
0.1871173315
 40
0.2184280171
 40
0.2497469721
 40
0.2653865791
 40
0.2810056963
 40
0.2966046836
 40
0.3121884514
 40
0.3277668688
 40
0.3433530755
 40
0.3589559921
 40
0.3745800891
 40
0.4058868088
 40
0.4372460146
 40
0.4685789192
 40
0.4842047471
 40
0.4998024133
 40
0.5153817369
 40
0.5309517118
 40
0.5387359067
 40
0.5465206468
 40
0.5620927212
 40
0.5776738266
 40
0.5932771166
 40
0.6089247215
 40
0.6246215026
 40
0.6403214514
 40
0.6559891516
 40
0.6716137027
 40
0.6872134707
 40
0.7028312872
 40
0.7184827344
 40
0.7341575689
 40
0.749832109
 40
0.7654772805
 40
0.7811072444
 40
0.796752501
 40
0.8124261573
 40
0.8438241779
 40
0.8595124583
 40
0.8751557725
 40
0.9063621754
 40
0.9375565437
 40
0.9687759673
 40
1.0
 40
1.0
 40
1.0
 40
1.0
 10
2.2953050946
 20
5.8797593204
 30
0.0
 10
2.3149026258
 20
5.8637127526
 30
0.0
 10
2.3540432158
 20
5.8315651794
 30
0.0
 10
2.4018069669
 20
5.7899673106
 30
0.0
 10
2.4386271567
 20
5.7551414261
 30
0.0
 10
2.4653895731
 20
5.7280539928
 30
0.0
 10
2.4910898334
 20
5.6998789792
 30
0.0
 10
2.511342503
 20
5.6753510053
 30
0.0
 10
2.5266318269
 20
5.6550416503
 30
0.0
 10
2.5375785494
 20
5.6394678597
 30
0.0
 10
2.5479547268
 20
5.6235347125
 30
0.0
 10
2.557706855
 20
5.607230593
 30
0.0
 10
2.5667775502
 20
5.5905426866
 30
0.0
 10
2.5751198473
 20
5.5734704856
 30
0.0
 10
2.5827651665
 20
5.5560553196
 30
0.0
 10
2.5920662447
 20
5.5324143694
 30
0.0
 10
2.6020685034
 20
5.5021989432
 30
0.0
 10
2.6116690433
 20
5.4652220352
 30
0.0
 10
2.6178525342
 20
5.4340002983
 30
0.0
 10
2.6218108511
 20
5.4088996725
 30
0.0
 10
2.6242955248
 20
5.3900505254
 30
0.0
 10
2.6263116418
 20
5.3711686798
 30
0.0
 10
2.6276134662
 20
5.3554069982
 30
0.0
 10
2.6284345239
 20
5.3427856366
 30
0.0
 10
2.629112273
 20
5.3301549383
 30
0.0
 10
2.6296613757
 20
5.3143467643
 30
0.0
 10
2.6297387666
 20
5.2953522125
 30
0.0
 10
2.6291305436
 20
5.2763352625
 30
0.0
 10
2.6277343531
 20
5.2573114799
 30
0.0
 10
2.6254483496
 20
5.2383324938
 30
0.0
 10
2.6221350484
 20
5.2194945678
 30
0.0
 10
2.61766032
 20
5.2009249441
 30
0.0
 10
2.6118880279
 20
5.1827556237
 30
0.0
 10
2.6046831711
 20
5.1651209452
 30
0.0
 10
2.5959207983
 20
5.1481921206
 30
0.0
 10
2.5857322191
 20
5.1320492324
 30
0.0
 10
2.5742544083
 20
5.1167693895
 30
0.0
 10
2.5616244478
 20
5.1024321736
 30
0.0
 10
2.5479546919
 20
5.0891105799
 30
0.0
 10
2.5333763169
 20
5.0768126617
 30
0.0
 10
2.5180164829
 20
5.065489937
 30
0.0
 10
2.4966363426
 20
5.0516183886
 30
0.0
 10
2.4741577918
 20
5.0394940847
 30
0.0
 10
2.4509890753
 20
5.0288830037
 30
0.0
 10
2.4274954806
 20
5.0192089929
 30
0.0
 10
2.3975649739
 20
5.0086972041
 30
0.0
 10
2.3610351996
 20
4.9980882839
 30
0.0
 10
2.324115743
 20
4.9889256737
 30
0.0
 10
2.299360193
 20
4.9834040286
 30
0.0
 10
2.2869705531
 20
4.9806948805
 30
0.0
  0
LINE
  5
294
100
AcDbEntity
  8
0
100
AcDbLine
 62
7
  6
CONTINUOUS
 10
2.2627906583
 20
5.0001580358
 11
2.2627590066
 21
5.8643431196
  0
LINE
  5
295
100
AcDbEntity
  8
0
100
AcDbLine
 62
7
  6
CONTINUOUS
 10
3.0758323529
 20
7.0203622024
 11
2.863689683
 21
7.0203859602
  0
SPLINE
  5
296
100
AcDbEntity
  8
0
100
AcDbSpline
 62
7
  6
CONTINUOUS
 70
0
 71
3
 72
51
 73
47
 74
0
 42
0.0000001
 43
0.0000001
 44
0.0000000001
 40
0.0
 40
0.0
 40
0.0
 40
0.0
 40
0.0623478992
 40
0.1246970104
 40
0.1559031993
 40
0.187183646
 40
0.2028741089
 40
0.2185899059
 40
0.2500076655
 40
0.2656815075
 40
0.2813166415
 40
0.2969096221
 40
0.3124633005
 40
0.3279874771
 40
0.3435005702
 40
0.3590291575
 40
0.3745909256
 40
0.3901913616
 40
0.4058256008
 40
0.4371339628
 40
0.4683756973
 40
0.4995187406
 40
0.5150590521
 40
0.5305882276
 40
0.5461216134
 40
0.5616785256
 40
0.5772575174
 40
0.5928516067
 40
0.6240737241
 40
0.6397221131
 40
0.6554007009
 40
0.686756618
 40
0.7024086229
 40
0.7180243379
 40
0.7336009795
 40
0.7491459409
 40
0.7646877008
 40
0.7802558047
 40
0.7958706911
 40
0.8115442773
 40
0.8430684405
 40
0.8747919552
 40
0.9065780591
 40
0.9382207264
 40
0.9694610293
 40
1.0
 40
1.0
 40
1.0
 40
1.0
 10
2.8447121162
 20
6.9943846439
 30
0.0
 10
2.8527531196
 20
6.9692800637
 30
0.0
 10
2.8697410898
 20
6.9193494863
 30
0.0
 10
2.8947025391
 20
6.8582713764
 30
0.0
 10
2.9177255795
 20
6.8107581202
 30
0.0
 10
2.9335636985
 20
6.7817280712
 30
0.0
 10
2.947187029
 20
6.7589892925
 30
0.0
 10
2.9614927057
 20
6.7366055419
 30
0.0
 10
2.976848982
 20
6.7149101061
 30
0.0
 10
2.9933552025
 20
6.6941445383
 30
0.0
 10
3.0063118476
 20
6.6791244806
 30
0.0
 10
3.0198722695
 20
6.664715919
 30
0.0
 10
3.0340566275
 20
6.6509872292
 30
0.0
 10
3.0488823763
 20
6.6380026621
 30
0.0
 10
3.0643779316
 20
6.6258424172
 30
0.0
 10
3.0804626199
 20
6.6144493004
 30
0.0
 10
3.0970460858
 20
6.6037302739
 30
0.0
 10
3.1140449838
 20
6.5935983888
 30
0.0
 10
3.1371605798
 20
6.5807495572
 30
0.0
 10
3.1666234736
 20
6.5657404781
 30
0.0
 10
3.2023588893
 20
6.5486473478
 30
0.0
 10
3.2320557654
 20
6.5343742939
 30
0.0
 10
3.2555083108
 20
6.5224603287
 30
0.0
 10
3.272880744
 20
6.5131588472
 30
0.0
 10
3.2899900539
 20
6.5033646574
 30
0.0
 10
3.3067612868
 20
6.4929603827
 30
0.0
 10
3.3231463758
 20
6.4819099269
 30
0.0
 10
3.3444076021
 20
6.4662837605
 30
0.0
 10
3.3646672977
 20
6.4492730633
 30
0.0
 10
3.3836411514
 20
6.4308365033
 30
0.0
 10
3.40168951
 20
6.4114174698
 30
0.0
 10
3.4181963381
 20
6.3906017754
 30
0.0
 10
3.4328446377
 20
6.3685312273
 30
0.0
 10
3.4428120278
 20
6.3514016742
 30
0.0
 10
3.4516853452
 20
6.3337303462
 30
0.0
 10
3.459373735
 20
6.3155453786
 30
0.0
 10
3.4658907991
 20
6.2969139781
 30
0.0
 10
3.4712903608
 20
6.2778993453
 30
0.0
 10
3.4756201344
 20
6.2585567176
 30
0.0
 10
3.4800405045
 20
6.2323593525
 30
0.0
 10
3.4831241626
 20
6.1990796527
 30
0.0
 10
3.4833273517
 20
6.1588566491
 30
0.0
 10
3.4804372699
 20
6.1186943067
 30
0.0
 10
3.4748427007
 20
6.0790325632
 30
0.0
 10
3.4669306066
 20
6.0403118213
 30
0.0
 10
3.4602672992
 20
6.0150399471
 30
0.0
 10
3.4566423623
 20
6.0026472404
 30
0.0
  0
SPLINE
  5
297
100
AcDbEntity
  8
0
100
AcDbSpline
 62
7
  6
CONTINUOUS
 70
0
 71
3
 72
26
 73
22
 74
0
 42
0.0000001
 43
0.0000001
 44
0.0000000001
 40
0.0
 40
0.0
 40
0.0
 40
0.0
 40
0.0619592627
 40
0.1240912741
 40
0.1863167286
 40
0.2485319312
 40
0.3106404868
 40
0.3416399225
 40
0.3725909977
 40
0.403492408
 40
0.434349478
 40
0.465193328
 40
0.4960614904
 40
0.5579729135
 40
0.6202599956
 40
0.6829848184
 40
0.7461231486
 40
0.8095774133
 40
0.8731886263
 40
0.9367468361
 40
1.0
 40
1.0
 40
1.0
 40
1.0
 10
3.6861833751
 20
5.8291843793
 30
0.0
 10
3.6840843458
 20
5.8434903456
 30
0.0
 10
3.6811124916
 20
5.8723376565
 30
0.0
 10
3.6803084402
 20
5.9158579596
 30
0.0
 10
3.6831309502
 20
5.9593575049
 30
0.0
 10
3.6895797599
 20
6.0024618888
 30
0.0
 10
3.6979871678
 20
6.0377713284
 30
0.0
 10
3.7065341546
 20
6.0654402817
 30
0.0
 10
3.7138507792
 20
6.0858441416
 30
0.0
 10
3.7220760225
 20
6.1058631079
 30
0.0
 10
3.7312183872
 20
6.1254527105
 30
0.0
 10
3.7412422851
 20
6.1445970666
 30
0.0
 10
3.7557328482
 20
6.1695520476
 30
0.0
 10
3.7758612192
 20
6.1996762609
 30
0.0
 10
3.8028143764
 20
6.2340211481
 30
0.0
 10
3.8322574134
 20
6.2666366533
 30
0.0
 10
3.8638547962
 20
6.297551351
 30
0.0
 10
3.8972738511
 20
6.3267948968
 30
0.0
 10
3.9321826073
 20
6.354395008
 30
0.0
 10
3.9682487009
 20
6.3803778664
 30
0.0
 10
3.9929414298
 20
6.3967035566
 30
0.0
 10
4.0054000745
 20
6.4046201125
 30
0.0
  0
SPLINE
  5
298
100
AcDbEntity
  8
0
100
AcDbSpline
 62
7
  6
CONTINUOUS
 70
0
 71
3
 72
25
 73
21
 74
0
 42
0.0000001
 43
0.0000001
 44
0.0000000001
 40
0.0
 40
0.0
 40
0.0
 40
0.0
 40
0.061880264
 40
0.1243335953
 40
0.1874460929
 40
0.2511257366
 40
0.3151393069
 40
0.3791444908
 40
0.4427164805
 40
0.5054560359
 40
0.5674720539
 40
0.6290755521
 40
0.6598217476
 40
0.6905778298
 40
0.7213798678
 40
0.7522604288
 40
0.8142107926
 40
0.8762487447
 40
0.9382109446
 40
1.0
 40
1.0
 40
1.0
 40
1.0
 10
3.9930664863
 20
6.4414358089
 30
0.0
 10
3.9700316172
 20
6.439578561
 30
0.0
 10
3.9234864953
 20
6.4386408885
 30
0.0
 10
3.8536420951
 20
6.4448187178
 30
0.0
 10
3.7840743508
 20
6.457839528
 30
0.0
 10
3.7153551083
 20
6.4769887829
 30
0.0
 10
3.6480421899
 20
6.5015608069
 30
0.0
 10
3.5827016869
 20
6.5308562728
 30
0.0
 10
3.5198758715
 20
6.5641955733
 30
0.0
 10
3.459904187
 20
6.6010272595
 30
0.0
 10
3.4029928814
 20
6.6411681186
 30
0.0
 10
3.3580624353
 20
6.6773553456
 30
0.0
 10
3.3236570916
 20
6.7078596608
 30
0.0
 10
3.2985859294
 20
6.7315267786
 30
0.0
 10
3.2742232789
 20
6.7559932462
 30
0.0
 10
3.2426482885
 20
6.7896882981
 30
0.0
 10
3.2050582632
 20
6.8336983073
 30
0.0
 10
3.1634655577
 20
6.8893752033
 30
0.0
 10
3.1258963528
 20
6.9477764755
 30
0.0
 10
3.1038704332
 20
6.988470716
 30
0.0
 10
3.0937262832
 20
7.0091969699
 30
0.0
  0
SPLINE
  5
299
100
AcDbEntity
  8
0
100
AcDbSpline
 62
7
  6
CONTINUOUS
 70
0
 71
3
 72
54
 73
50
 74
0
 42
0.0000001
 43
0.0000001
 44
0.0000000001
 40
0.0
 40
0.0
 40
0.0
 40
0.0
 40
0.0623599141
 40
0.1247004074
 40
0.1558852788
 40
0.1871173315
 40
0.2184280171
 40
0.2497469721
 40
0.2653865791
 40
0.2810056963
 40
0.2966046836
 40
0.3121884514
 40
0.3277668688
 40
0.3433530755
 40
0.3589559921
 40
0.3745800891
 40
0.4058868088
 40
0.4372460146
 40
0.4685789192
 40
0.4842047471
 40
0.4998024133
 40
0.5153817369
 40
0.5309517118
 40
0.5387359067
 40
0.5465206468
 40
0.5620927212
 40
0.5776738266
 40
0.5932771166
 40
0.6089247215
 40
0.6246215026
 40
0.6403214514
 40
0.6559891516
 40
0.6716137027
 40
0.6872134707
 40
0.7028312872
 40
0.7184827344
 40
0.7341575689
 40
0.749832109
 40
0.7654772805
 40
0.7811072444
 40
0.796752501
 40
0.8124261573
 40
0.8438241779
 40
0.8595124583
 40
0.8751557725
 40
0.9063621754
 40
0.9375565437
 40
0.9687759673
 40
1.0
 40
1.0
 40
1.0
 40
1.0
 10
3.4032958038
 20
6.9877500297
 30
0.0
 10
3.4193423716
 20
6.9681524984
 30
0.0
 10
3.4514899448
 20
6.9290119084
 30
0.0
 10
3.4930878136
 20
6.8812481573
 30
0.0
 10
3.5279136982
 20
6.8444279676
 30
0.0
 10
3.5550011314
 20
6.8176655511
 30
0.0
 10
3.583176145
 20
6.7919652908
 30
0.0
 10
3.6077041189
 20
6.7717126213
 30
0.0
 10
3.6280134739
 20
6.7564232973
 30
0.0
 10
3.6435872645
 20
6.7454765749
 30
0.0
 10
3.6595204117
 20
6.7351003974
 30
0.0
 10
3.6758245312
 20
6.7253482692
 30
0.0
 10
3.6925124376
 20
6.716277574
 30
0.0
 10
3.7095846386
 20
6.7079352769
 30
0.0
 10
3.7269998046
 20
6.7002899578
 30
0.0
 10
3.7506407548
 20
6.6909888795
 30
0.0
 10
3.780856181
 20
6.6809866208
 30
0.0
 10
3.817833089
 20
6.6713860809
 30
0.0
 10
3.8490548259
 20
6.66520259
 30
0.0
 10
3.8741554517
 20
6.6612442731
 30
0.0
 10
3.8930045988
 20
6.6587595994
 30
0.0
 10
3.9118864445
 20
6.6567434824
 30
0.0
 10
3.927648126
 20
6.655441658
 30
0.0
 10
3.9402694876
 20
6.6546206003
 30
0.0
 10
3.9529001859
 20
6.6539428512
 30
0.0
 10
3.9687083599
 20
6.6533937486
 30
0.0
 10
3.9877029118
 20
6.6533163576
 30
0.0
 10
4.0067198618
 20
6.6539245806
 30
0.0
 10
4.0257436444
 20
6.6553207711
 30
0.0
 10
4.0447226304
 20
6.6576067746
 30
0.0
 10
4.0635605564
 20
6.6609200758
 30
0.0
 10
4.0821301802
 20
6.6653948042
 30
0.0
 10
4.1002995006
 20
6.6711670964
 30
0.0
 10
4.117934179
 20
6.6783719531
 30
0.0
 10
4.1348630036
 20
6.6871343259
 30
0.0
 10
4.1510058918
 20
6.6973229051
 30
0.0
 10
4.1662857347
 20
6.7088007159
 30
0.0
 10
4.1806229506
 20
6.7214306765
 30
0.0
 10
4.1939445444
 20
6.7351004323
 30
0.0
 10
4.2062424625
 20
6.7496788073
 30
0.0
 10
4.2175651872
 20
6.7650386414
 30
0.0
 10
4.2314367356
 20
6.7864187817
 30
0.0
 10
4.2435610395
 20
6.8088973325
 30
0.0
 10
4.2541721206
 20
6.8320660489
 30
0.0
 10
4.2638461313
 20
6.8555596436
 30
0.0
 10
4.2743579201
 20
6.8854901504
 30
0.0
 10
4.2849668403
 20
6.9220199247
 30
0.0
 10
4.2941294505
 20
6.9589393812
 30
0.0
 10
4.2996510956
 20
6.9836949312
 30
0.0
 10
4.3023602437
 20
6.9960845711
 30
0.0
  0
LINE
  5
29A
100
AcDbEntity
  8
0
100
AcDbLine
 62
7
  6
CONTINUOUS
 10
4.2828970884
 20
7.020264466
 11
3.4187120046
 21
7.0202961176
  0
SPLINE
  5
29B
100
AcDbEntity
  8
0
100
AcDbSpline
 62
7
  6
CONTINUOUS
 70
0
 71
3
 72
19
 73
15
 74
0
 42
0.0000001
 43
0.0000001
 44
0.0000000001
 40
0.0
 40
0.0
 40
0.0
 40
0.0
 40
0.1247562516
 40
0.1874268154
 40
0.2500281023
 40
0.3125832163
 40
0.3751426882
 40
0.4999787438
 40
0.6248317605
 40
0.6873972544
 40
0.7499549836
 40
0.8125590809
 40
0.8752357666
 40
1.0
 40
1.0
 40
1.0
 40
1.0
 10
3.7859541393
 20
4.7901727762
 30
0.0
 10
3.7866048563
 20
4.7883764187
 30
0.0
 10
3.787972939
 20
4.7857971344
 30
0.0
 10
3.7904393035
 20
4.7828563554
 30
0.0
 10
3.792593364
 20
4.7809340393
 30
0.0
 10
3.7949981732
 20
4.7793400869
 30
0.0
 10
3.7984733672
 20
4.7777083503
 30
0.0
 10
3.8032110352
 20
4.776643069
 30
0.0
 10
3.8080528837
 20
4.7770135185
 30
0.0
 10
3.8117276922
 20
4.7781262931
 30
0.0
 10
3.8143376517
 20
4.7793563089
 30
0.0
 10
3.8167468823
 20
4.7809475188
 30
0.0
 10
3.8196121621
 20
4.783501567
 30
0.0
 10
3.8213388399
 20
4.7858561694
 30
0.0
 10
3.8222422493
 20
4.7875398117
 30
0.0
  0
SPLINE
  5
29C
100
AcDbEntity
  8
0
100
AcDbSpline
 62
7
  6
CONTINUOUS
 70
0
 71
3
 72
13
 73
9
 74
0
 42
0.0000001
 43
0.0000001
 44
0.0000000001
 40
0.0
 40
0.0
 40
0.0
 40
0.0
 40
0.1243957992
 40
0.2490689073
 40
0.3740427398
 40
0.4992471039
 40
0.7498629847
 40
1.0
 40
1.0
 40
1.0
 40
1.0
 10
2.32489982
 20
4.691121595
 30
0.0
 10
2.3279605861
 20
4.6862430774
 30
0.0
 10
2.3338492517
 20
4.6763215646
 30
0.0
 10
2.3418636789
 20
4.6609612054
 30
0.0
 10
2.3490565146
 20
4.6451581321
 30
0.0
 10
2.3575545453
 20
4.623576783
 30
0.0
 10
2.3661076116
 20
4.5958351172
 30
0.0
 10
2.3707516914
 20
4.5730790796
 30
0.0
 10
2.3725164685
 20
4.5616336757
 30
0.0
  0
SPLINE
  5
29D
100
AcDbEntity
  8
0
100
AcDbSpline
 62
7
  6
CONTINUOUS
 70
0
 71
3
 72
56
 73
52
 74
0
 42
0.0000001
 43
0.0000001
 44
0.0000000001
 40
0.0
 40
0.0
 40
0.0
 40
0.0
 40
0.1247165208
 40
0.1871539676
 40
0.249687962
 40
0.2810069219
 40
0.312367823
 40
0.3751607688
 40
0.4065313087
 40
0.4378498597
 40
0.4691047292
 40
0.5002965645
 40
0.5158737427
 40
0.5314418674
 40
0.5470051796
 40
0.5547867911
 40
0.5625693138
 40
0.578141081
 40
0.5937266313
 40
0.6093273116
 40
0.6249414613
 40
0.6405647945
 40
0.6561821809
 40
0.6717803919
 40
0.6873637003
 40
0.6951589707
 40
0.7029630646
 40
0.7185930627
 40
0.7342412706
 40
0.7498908425
 40
0.7655248376
 40
0.7811358888
 40
0.7967460714
 40
0.8123724315
 40
0.828019005
 40
0.8436784495
 40
0.8515082425
 40
0.859334122
 40
0.8671527155
 40
0.8749615391
 40
0.8827604876
 40
0.8905524962
 40
0.8983441494
 40
0.9061447211
 40
0.9139557541
 40
0.9217742249
 40
0.9374165546
 40
0.9530458459
 40
0.9686599759
 40
0.9843018064
 40
1.0
 40
1.0
 40
1.0
 40
1.0
 10
2.3951738747
 20
4.5449680171
 30
0.0
 10
2.4383773261
 20
4.5514725318
 30
0.0
 10
2.5028863016
 20
4.5636377539
 30
0.0
 10
2.5877747936
 20
4.5847935602
 30
0.0
 10
2.6403551667
 20
4.600118119
 30
0.0
 10
2.682081567
 20
4.6136549353
 30
0.0
 10
2.7236109486
 20
4.6280602214
 30
0.0
 10
2.7647074587
 20
4.6437622847
 30
0.0
 10
2.8050848475
 20
4.6611556428
 30
0.0
 10
2.8348907983
 20
4.6751234472
 30
0.0
 10
2.8641311285
 20
4.690104871
 30
0.0
 10
2.8879589114
 20
4.7035138825
 30
0.0
 10
2.9066361587
 20
4.7148326992
 30
0.0
 10
2.9204370246
 20
4.7236262136
 30
0.0
 10
2.931759698
 20
4.7312199326
 30
0.0
 10
2.9407037522
 20
4.7374582791
 30
0.0
 10
2.9495710208
 20
4.7438104186
 30
0.0
 10
2.9605233675
 20
4.7519442217
 30
0.0
 10
2.9735095946
 20
4.761928278
 30
0.0
 10
2.9863999302
 20
4.7720594007
 30
0.0
 10
2.9992556767
 20
4.7822554284
 30
0.0
 10
3.0121245779
 20
4.7924443442
 30
0.0
 10
3.0251192555
 20
4.8024648966
 30
0.0
 10
3.0383707195
 20
4.812122542
 30
0.0
 10
3.0497303114
 20
4.8197093651
 30
0.0
 10
3.0590579486
 20
4.8253978733
 30
0.0
 10
3.0685706469
 20
4.8308042276
 30
0.0
 10
3.0807792758
 20
4.8370210827
 30
0.0
 10
3.0958613714
 20
4.8435869433
 30
0.0
 10
3.1113123676
 20
4.8492349552
 30
0.0
 10
3.1270635287
 20
4.8539378109
 30
0.0
 10
3.1430576791
 20
4.8576693269
 30
0.0
 10
3.1592293604
 20
4.8605084235
 30
0.0
 10
3.1755331029
 20
4.8625414489
 30
0.0
 10
3.1919264161
 20
4.8638546164
 30
0.0
 10
3.2056277988
 20
4.8644212151
 30
0.0
 10
3.2165969102
 20
4.8645998527
 30
0.0
 10
3.2248206484
 20
4.8646092726
 30
0.0
 10
3.2330363584
 20
4.8644953345
 30
0.0
 10
3.241238865
 20
4.8642121727
 30
0.0
 10
3.2494225028
 20
4.8637199297
 30
0.0
 10
3.2575815412
 20
4.8629767478
 30
0.0
 10
3.2657099664
 20
4.8619423518
 30
0.0
 10
3.2737957386
 20
4.86057276
 30
0.0
 10
3.2818270575
 20
4.8588674378
 30
0.0
 10
3.2924438949
 20
4.8561562935
 30
0.0
 10
3.3054977099
 20
4.8519651273
 30
0.0
 10
3.3206975774
 20
4.8456950195
 30
0.0
 10
3.3353486412
 20
4.838234718
 30
0.0
 10
3.3494359996
 20
4.8297184425
 30
0.0
 10
3.3584411401
 20
4.8234230466
 30
0.0
 10
3.3628521402
 20
4.8201388554
 30
0.0
  0
SPLINE
  5
29E
100
AcDbEntity
  8
0
100
AcDbSpline
 62
7
  6
CONTINUOUS
 70
0
 71
3
 72
45
 73
41
 74
0
 42
0.0000001
 43
0.0000001
 44
0.0000000001
 40
0.0
 40
0.0
 40
0.0
 40
0.0
 40
0.032549621
 40
0.0648426959
 40
0.0967378177
 40
0.1281574812
 40
0.1591054434
 40
0.1896861826
 40
0.2049113036
 40
0.220139553
 40
0.2354186728
 40
0.2507763456
 40
0.266209639
 40
0.2817075687
 40
0.3128131193
 40
0.3439261573
 40
0.3594240839
 40
0.3748632509
 40
0.4056504642
 40
0.4364727748
 40
0.4674555059
 40
0.4986683937
 40
0.5300639754
 40
0.5615433728
 40
0.6243220101
 40
0.6555604092
 40
0.6711266467
 40
0.6866574978
 40
0.7021598866
 40
0.7176457087
 40
0.7331328576
 40
0.7486371793
 40
0.7797313187
 40
0.8109917857
 40
0.8739266528
 40
0.905562643
 40
0.9371852944
 40
0.9529653208
 40
0.9687048377
 40
1.0
 40
1.0
 40
1.0
 40
1.0
 10
3.3939707986
 20
4.8418666793
 30
0.0
 10
3.3916238764
 20
4.8497812428
 30
0.0
 10
3.3873999083
 20
4.8656871671
 30
0.0
 10
3.382652782
 20
4.8897773816
 30
0.0
 10
3.3797336994
 20
4.9138744679
 30
0.0
 10
3.378873989
 20
4.9377987445
 30
0.0
 10
3.3803080169
 20
4.9613687805
 30
0.0
 10
3.3836233791
 20
4.9806003244
 30
0.0
 10
3.3876521609
 20
4.9955554672
 30
0.0
 10
3.3913861106
 20
5.0065458564
 30
0.0
 10
3.395868048
 20
5.0172897002
 30
0.0
 10
3.4010847205
 20
5.0277540634
 30
0.0
 10
3.4069857961
 20
5.0379120364
 30
0.0
 10
3.4157150709
 20
5.0510119909
 30
0.0
 10
3.4280908894
 20
5.0664134411
 30
0.0
 10
3.4421232935
 20
5.0803169696
 30
0.0
 10
3.4541965864
 20
5.0904223609
 30
0.0
 10
3.4667491081
 20
5.099788123
 30
0.0
 10
3.4833497054
 20
5.1101738952
 30
0.0
 10
3.5044820635
 20
5.1205048499
 30
0.0
 10
3.5266286986
 20
5.1287381253
 30
0.0
 10
3.5495802242
 20
5.1349165206
 30
0.0
 10
3.5731217413
 20
5.1390239397
 30
0.0
 10
3.6049104942
 20
5.1416660617
 30
0.0
 10
3.6369167951
 20
5.1399697672
 30
0.0
 10
3.6641990604
 20
5.1344584405
 30
0.0
 10
3.6794138911
 20
5.1301373107
 30
0.0
 10
3.6906005663
 20
5.1263070186
 30
0.0
 10
3.7015422426
 20
5.1218774148
 30
0.0
 10
3.7122052274
 20
5.1168394818
 30
0.0
 10
3.7225736469
 20
5.1112194606
 30
0.0
 10
3.7360004068
 20
5.1029822986
 30
0.0
 10
3.7520069122
 20
5.0913532388
 30
0.0
 10
3.7757992259
 20
5.0702347983
 30
0.0
 10
3.79664973
 20
5.0458129548
 30
0.0
 10
3.8142179757
 20
5.0190319502
 30
0.0
 10
3.8238104896
 20
5.0014004011
 30
0.0
 10
3.8305896702
 20
4.9868878061
 30
0.0
 10
3.8367356111
 20
4.9721869026
 30
0.0
 10
3.8406233713
 20
4.9608864581
 30
0.0
 10
3.8428418325
 20
4.9532657526
 30
0.0
  0
SPLINE
  5
29F
100
AcDbEntity
  8
0
100
AcDbSpline
 62
7
  6
CONTINUOUS
 70
0
 71
3
 72
19
 73
15
 74
0
 42
0.0000001
 43
0.0000001
 44
0.0000000001
 40
0.0
 40
0.0
 40
0.0
 40
0.0
 40
0.1247624931
 40
0.1874380631
 40
0.2500423869
 40
0.3125990148
 40
0.3751583899
 40
0.4999951014
 40
0.624845315
 40
0.6874105745
 40
0.7499676639
 40
0.8125696368
 40
0.8752415175
 40
1.0
 40
1.0
 40
1.0
 40
1.0
 10
4.4907899934
 20
5.4607895234
 30
0.0
 10
4.4924706352
 20
5.4616957737
 30
0.0
 10
4.4948202425
 20
5.4634258149
 30
0.0
 10
4.4973671548
 20
5.4662939686
 30
0.0
 10
4.4989529583
 20
5.4687044092
 30
0.0
 10
4.5001777568
 20
5.4713145543
 30
0.0
 10
4.5012842784
 20
5.4749881934
 30
0.0
 10
4.5016475337
 20
5.4798271536
 30
0.0
 10
4.5005773216
 20
5.4845603002
 30
0.0
 10
4.4989432523
 20
5.4880319327
 30
0.0
 10
4.4973480655
 20
5.4904337735
 30
0.0
 10
4.4954251378
 20
5.4925847814
 30
0.0
 10
4.4924843571
 20
5.4950472453
 30
0.0
 10
4.4899059611
 20
5.4964128574
 30
0.0
 10
4.4881103952
 20
5.4970621302
 30
0.0
  0
SPLINE
  5
2A0
100
AcDbEntity
  8
0
100
AcDbSpline
 62
7
  6
CONTINUOUS
 70
0
 71
3
 72
44
 73
40
 74
0
 42
0.0000001
 43
0.0000001
 44
0.0000000001
 40
0.0
 40
0.0
 40
0.0
 40
0.0
 40
0.032569842
 40
0.0649193077
 40
0.0968965611
 40
0.1284102898
 40
0.1594464543
 40
0.1900874218
 40
0.205323916
 40
0.2205465483
 40
0.2358005617
 40
0.2511266291
 40
0.2665294831
 40
0.2820006301
 40
0.3130709975
 40
0.3441828483
 40
0.359694556
 40
0.3751448649
 40
0.4059304639
 40
0.4367275285
 40
0.4676695372
 40
0.4988376857
 40
0.5616009627
 40
0.593065529
 40
0.6244494867
 40
0.6556967838
 40
0.6867899705
 40
0.7022930603
 40
0.717775992
 40
0.7332559601
 40
0.7487498769
 40
0.7798171797
 40
0.8110483836
 40
0.8739339282
 40
0.9055559761
 40
0.9371728279
 40
0.9529530133
 40
0.968694934
 40
1.0
 40
1.0
 40
1.0
 40
1.0
 10
4.441100341
 20
5.8856530733
 30
0.0
 10
4.4332041318
 20
5.8881062274
 30
0.0
 10
4.4173200617
 20
5.8925458808
 30
0.0
 10
4.3932335006
 20
5.8976318441
 30
0.0
 10
4.3690998215
 20
5.9009121103
 30
0.0
 10
4.3451027854
 20
5.9021590338
 30
0.0
 10
4.3214275317
 20
5.9011422404
 30
0.0
 10
4.3020761245
 20
5.8982026677
 30
0.0
 10
4.2870067672
 20
5.894489234
 30
0.0
 10
4.2759294745
 20
5.8910008343
 30
0.0
 10
4.2650868853
 20
5.8867752807
 30
0.0
 10
4.2545174492
 20
5.8817987581
 30
0.0
 10
4.2442461772
 20
5.8761192056
 30
0.0
 10
4.2309796616
 20
5.8676593676
 30
0.0
 10
4.2153451718
 20
5.8555714107
 30
0.0
 10
4.2011878797
 20
5.8417745129
 30
0.0
 10
4.1908622118
 20
5.8298603796
 30
0.0
 10
4.1812749592
 20
5.8174489524
 30
0.0
 10
4.1706214221
 20
5.8009991792
 30
0.0
 10
4.1599866953
 20
5.7800106254
 30
0.0
 10
4.1514690721
 20
5.7579736496
 30
0.0
 10
4.14286279
 20
5.7274276938
 30
0.0
 10
4.1384369874
 20
5.695691569
 30
0.0
 10
4.1383590129
 20
5.6637687976
 30
0.0
 10
4.1405352715
 20
5.6399411736
 30
0.0
 10
4.1450029461
 20
5.6165320165
 30
0.0
 10
4.1506934511
 20
5.5975642328
 30
0.0
 10
4.1564454702
 20
5.5828838825
 30
0.0
 10
4.1613668792
 20
5.5721560296
 30
0.0
 10
4.1668810822
 20
5.5617235105
 30
0.0
 10
4.1749874992
 20
5.5482122251
 30
0.0
 10
4.1864749205
 20
5.5320994265
 30
0.0
 10
4.2074096997
 20
5.5081379687
 30
0.0
 10
4.2317064862
 20
5.4871238712
 30
0.0
 10
4.2584036468
 20
5.4694024993
 30
0.0
 10
4.27600097
 20
5.459715773
 30
0.0
 10
4.2904958474
 20
5.4528635448
 30
0.0
 10
4.3051857894
 20
5.4466427862
 30
0.0
 10
4.316481177
 20
5.44269532
 30
0.0
 10
4.3241005915
 20
5.440435704
 30
0.0
  0
SPLINE
  5
2A1
100
AcDbEntity
  8
0
100
AcDbSpline
 62
7
  6
CONTINUOUS
 70
0
 71
3
 72
56
 73
52
 74
0
 42
0.0000001
 43
0.0000001
 44
0.0000000001
 40
0.0
 40
0.0
 40
0.0
 40
0.0
 40
0.124711908
 40
0.1871479864
 40
0.2496817836
 40
0.2810012827
 40
0.3123632125
 40
0.3751537914
 40
0.4065203545
 40
0.4378335218
 40
0.4690823006
 40
0.500268343
 40
0.5158431652
 40
0.5314095411
 40
0.5469719363
 40
0.5547534817
 40
0.5625363184
 40
0.5781098008
 40
0.593697708
 40
0.6249166001
 40
0.6405397095
 40
0.6561530648
 40
0.6717462688
 40
0.6873287637
 40
0.6951274016
 40
0.7029353477
 40
0.7185704474
 40
0.734219908
 40
0.7498666139
 40
0.7654937488
 40
0.781101688
 40
0.7967145046
 40
0.8123458036
 40
0.8279964162
 40
0.8358264605
 40
0.8436566581
 40
0.8514842614
 40
0.859306014
 40
0.8671187881
 40
0.8749213922
 40
0.8827154504
 40
0.8905060248
 40
0.8983020374
 40
0.9061092227
 40
0.9217431026
 40
0.9373837013
 40
0.9451986627
 40
0.9530065822
 40
0.968623629
 40
0.9842808468
 40
1.0
 40
1.0
 40
1.0
 40
1.0
 10
4.7332333645
 20
6.8878996592
 30
0.0
 10
4.726753012
 20
6.8445302009
 30
0.0
 10
4.7146023055
 20
6.7797717446
 30
0.0
 10
4.6934201365
 20
6.6945571716
 30
0.0
 10
4.678059574
 20
6.6417756769
 30
0.0
 10
4.6644815224
 20
6.5998908976
 30
0.0
 10
4.6500286616
 20
6.5582055744
 30
0.0
 10
4.6342589009
 20
6.5169614826
 30
0.0
 10
4.6167698301
 20
6.4764519323
 30
0.0
 10
4.6027160133
 20
6.4465571738
 30
0.0
 10
4.5876325033
 20
6.417238751
 30
0.0
 10
4.5741239685
 20
6.3933560654
 30
0.0
 10
4.5627164488
 20
6.3746418722
 30
0.0
 10
4.5538514114
 20
6.3608166737
 30
0.0
 10
4.5461943144
 20
6.349476749
 30
0.0
 10
4.5399021251
 20
6.3405212489
 30
0.0
 10
4.5334963099
 20
6.3316418592
 30
0.0
 10
4.525304324
 20
6.3206679114
 30
0.0
 10
4.5119098215
 20
6.3032980269
 30
0.0
 10
4.4982602001
 20
6.2861058394
 30
0.0
 10
4.4846714544
 20
6.2688544603
 30
0.0
 10
4.4746906869
 20
6.2557561028
 30
0.0
 10
4.4651174388
 20
6.2423722061
 30
0.0
 10
4.4576414625
 20
6.2308787216
 30
0.0
 10
4.4520715566
 20
6.2214299097
 30
0.0
 10
4.4467897769
 20
6.2117961912
 30
0.0
 10
4.440736565
 20
6.1994448724
 30
0.0
 10
4.4343823236
 20
6.1842048247
 30
0.0
 10
4.4289599878
 20
6.168611461
 30
0.0
 10
4.4245022197
 20
6.1527304143
 30
0.0
 10
4.4210132349
 20
6.1366222464
 30
0.0
 10
4.4184004717
 20
6.1203494738
 30
0.0
 10
4.4165787469
 20
6.1039556941
 30
0.0
 10
4.4156463964
 20
6.0902309481
 30
0.0
 10
4.4152082959
 20
6.0792297778
 30
0.0
 10
4.4150225589
 20
6.0709726953
 30
0.0
 10
4.4149701726
 20
6.0627167396
 30
0.0
 10
4.4150355477
 20
6.0544669661
 30
0.0
 10
4.4152507691
 20
6.0462282685
 30
0.0
 10
4.4156598348
 20
6.0380063256
 30
0.0
 10
4.4163041302
 20
6.0298069022
 30
0.0
 10
4.4172245862
 20
6.0216357171
 30
0.0
 10
4.4184666425
 20
6.0135018767
 30
0.0
 10
4.4205811228
 20
6.0027210575
 30
0.0
 10
4.42405598
 20
5.9894090145
 30
0.0
 10
4.4285999567
 20
5.9764204082
 30
0.0
 10
4.4328547459
 20
5.9662815394
 30
0.0
 10
4.4375140756
 20
5.9563312653
 30
0.0
 10
4.4440637829
 20
5.9442345658
 30
0.0
 10
4.452945967
 20
5.9302874197
 30
0.0
 10
4.4594577318
 20
5.9213718965
 30
0.0
 10
4.4628432036
 20
5.9170029367
 30
0.0
  0
SPLINE
  5
2A2
100
AcDbEntity
  8
0
100
AcDbSpline
 62
7
  6
CONTINUOUS
 70
0
 71
3
 72
13
 73
9
 74
0
 42
0.0000001
 43
0.0000001
 44
0.0000000001
 40
0.0
 40
0.0
 40
0.0
 40
0.0
 40
0.1243958571
 40
0.2490690793
 40
0.3740430551
 40
0.4992475589
 40
0.7498635099
 40
1.0
 40
1.0
 40
1.0
 40
1.0
 10
4.5870542539
 20
6.9581553043
 30
0.0
 10
4.5919335225
 20
6.9550940669
 30
0.0
 10
4.6018565896
 20
6.9492045307
 30
0.0
 10
4.617219424
 20
6.9411890617
 30
0.0
 10
4.633025088
 20
6.9339954349
 30
0.0
 10
4.6546100028
 20
6.9254966912
 30
0.0
 10
4.6823562531
 20
6.9169433739
 30
0.0
 10
4.7051160167
 20
6.9122997683
 30
0.0
 10
4.7165632584
 20
6.9105354052
 30
0.0
  0
SPLINE
  5
2A3
100
AcDbEntity
  8
0
100
AcDbSpline
 62
7
  6
CONTINUOUS
 70
0
 71
3
 72
17
 73
13
 74
0
 42
0.0000001
 43
0.0000001
 44
0.0000000001
 40
0.0
 40
0.0
 40
0.0
 40
0.0
 40
0.1307964674
 40
0.2597132887
 40
0.323494339
 40
0.3868122101
 40
0.4496768132
 40
0.5121071455
 40
0.6358126125
 40
0.7583264683
 40
0.8797554198
 40
1.0
 40
1.0
 40
1.0
 40
1.0
 10
4.9887548562
 20
4.8536173044
 30
0.0
 10
4.9981514628
 20
4.8546302795
 30
0.0
 10
5.0169353706
 20
4.8556222028
 30
0.0
 10
5.0403216992
 20
4.8542623289
 30
0.0
 10
5.0586405163
 20
4.8516244839
 30
0.0
 10
5.072100036
 20
4.8488919437
 30
0.0
 10
5.0852838461
 20
4.8454058585
 30
0.0
 10
5.1023815693
 20
4.8397744893
 30
0.0
 10
5.1229133843
 20
4.8309273103
 30
0.0
 10
5.1460168657
 20
4.8177075253
 30
0.0
 10
5.1673543038
 20
4.802224986
 30
0.0
 10
5.1803702739
 20
4.7905285559
 30
0.0
 10
5.1865260755
 20
4.784396853
 30
0.0
  0
SPLINE
  5
2A4
100
AcDbEntity
  8
0
100
AcDbSpline
 62
7
  6
CONTINUOUS
 70
0
 71
3
 72
17
 73
13
 74
0
 42
0.0000001
 43
0.0000001
 44
0.0000000001
 40
0.0
 40
0.0
 40
0.0
 40
0.0
 40
0.1202445802
 40
0.2416735317
 40
0.3641873875
 40
0.4878928545
 40
0.5503231869
 40
0.6131877899
 40
0.6765056611
 40
0.7402867113
 40
0.8692035326
 40
1.0
 40
1.0
 40
1.0
 40
1.0
 10
5.1865260755
 20
4.784396853
 30
0.0
 10
5.1926453947
 20
4.7782287409
 30
0.0
 10
5.2043156429
 20
4.7651892907
 30
0.0
 10
5.2197552689
 20
4.7438207803
 30
0.0
 10
5.232928596
 20
4.7206907778
 30
0.0
 10
5.2417344942
 20
4.700141224
 30
0.0
 10
5.2473314906
 20
4.683032218
 30
0.0
 10
5.2507910732
 20
4.6698414285
 30
0.0
 10
5.2534965582
 20
4.6563764444
 30
0.0
 10
5.2560975825
 20
4.638052363
 30
0.0
 10
5.257410454
 20
4.6146633487
 30
0.0
 10
5.2563807826
 20
4.5958814723
 30
0.0
 10
5.2553489251
 20
4.5864869205
 30
0.0
  0
SPLINE
  5
2A5
100
AcDbEntity
  8
0
100
AcDbSpline
 62
7
  6
CONTINUOUS
 70
0
 71
3
 72
23
 73
19
 74
0
 42
0.0000001
 43
0.0000001
 44
0.0000000001
 40
0.0
 40
0.0
 40
0.0
 40
0.0
 40
0.0625101028
 40
0.0937611127
 40
0.1250039494
 40
0.1562391809
 40
0.1874725805
 40
0.2499628584
 40
0.3125086334
 40
0.3750502203
 40
0.4375288588
 40
0.4999861895
 40
0.6249306697
 40
0.6874638905
 40
0.7500087162
 40
0.8125436467
 40
0.8750580778
 40
1.0
 40
1.0
 40
1.0
 40
1.0
 10
5.5388448473
 20
4.597147419
 30
0.0
 10
5.5332333141
 20
4.6051523112
 30
0.0
 10
5.5252384528
 20
4.6174640938
 30
0.0
 10
5.515498552
 20
4.6344176237
 30
0.0
 10
5.50866714
 20
4.6473906373
 30
0.0
 10
5.5023272754
 20
4.6606076992
 30
0.0
 10
5.4945420505
 20
4.678536334
 30
0.0
 10
5.4860093276
 20
4.701459098
 30
0.0
 10
5.4775492658
 20
4.729565613
 30
0.0
 10
5.4706996579
 20
4.7581022434
 30
0.0
 10
5.4653242459
 20
4.7869376033
 30
0.0
 10
5.4600664585
 20
4.8256732144
 30
0.0
 10
5.4575465194
 20
4.8647418969
 30
0.0
 10
5.4575313512
 20
4.9038500368
 30
0.0
 10
5.4587035534
 20
4.9331754189
 30
0.0
 10
5.4610502443
 20
4.9624278381
 30
0.0
 10
5.4657912538
 20
5.0012423162
 30
0.0
 10
5.4712084141
 20
5.0301042385
 30
0.0
 10
5.4756792926
 20
5.0491253605
 30
0.0
  0
SPLINE
  5
2A6
100
AcDbEntity
  8
0
100
AcDbSpline
 62
7
  6
CONTINUOUS
 70
0
 71
3
 72
22
 73
18
 74
0
 42
0.0000001
 43
0.0000001
 44
0.0000000001
 40
0.0
 40
0.0
 40
0.0
 40
0.0
 40
0.0625393065
 40
0.1250994308
 40
0.1876406105
 40
0.2188847406
 40
0.2501023293
 40
0.312472261
 40
0.3748074082
 40
0.4371925021
 40
0.4997390734
 40
0.562457218
 40
0.6252390313
 40
0.7505944471
 40
0.8754376493
 40
0.937726024
 40
1.0
 40
1.0
 40
1.0
 40
1.0
 10
5.4518499116
 20
5.0731084187
 30
0.0
 10
5.4423138811
 20
5.0709315572
 30
0.0
 10
5.4231324024
 20
5.0670309878
 30
0.0
 10
5.3941392628
 20
5.0624343846
 30
0.0
 10
5.3698499585
 20
5.0595576634
 30
0.0
 10
5.3503800749
 20
5.0577718383
 30
0.0
 10
5.3309088199
 20
5.0563255432
 30
0.0
 10
5.3065416815
 20
5.0551943979
 30
0.0
 10
5.277271895
 20
5.0550333464
 30
0.0
 10
5.247994558
 20
5.0561822596
 30
0.0
 10
5.2187467297
 20
5.0587587337
 30
0.0
 10
5.1896055893
 20
5.0628368268
 30
0.0
 10
5.151076368
 20
5.0703223769
 30
0.0
 10
5.1038495093
 20
5.0836211505
 30
0.0
 10
5.0586254789
 20
5.1025407419
 30
0.0
 10
5.0243339585
 20
5.1211884995
 30
0.0
 10
5.0079106167
 20
5.1317078867
 30
0.0
 10
4.9999124398
 20
5.1372660942
 30
0.0
  0
SPLINE
  5
2A7
100
AcDbEntity
  8
0
100
AcDbSpline
 62
7
  6
CONTINUOUS
 70
0
 71
3
 72
25
 73
21
 74
0
 42
0.0000001
 43
0.0000001
 44
0.0000000001
 40
0.0
 40
0.0
 40
0.0
 40
0.0
 40
0.06204792
 40
0.1243194234
 40
0.1867442447
 40
0.2491846735
 40
0.3114350102
 40
0.3424478185
 40
0.3733653612
 40
0.4041837181
 40
0.4349072353
 40
0.4655723551
 40
0.4962365831
 40
0.5577314962
 40
0.6196743363
 40
0.6821853846
 40
0.7452613608
 40
0.8087974931
 40
0.8726079261
 40
1.0
 40
1.0
 40
1.0
 40
1.0
 10
5.9992613387
 20
5.8280179056
 30
0.0
 10
6.0013686346
 20
5.842236911
 30
0.0
 10
6.0044511686
 20
5.8709078891
 30
0.0
 10
6.0056812365
 20
5.9141942205
 30
0.0
 10
6.0035312245
 20
5.9575388726
 30
0.0
 10
5.9979707488
 20
6.0005745896
 30
0.0
 10
5.9903838764
 20
6.0358886299
 30
0.0
 10
5.9824863524
 20
6.0635602461
 30
0.0
 10
5.9756463253
 20
6.083937527
 30
0.0
 10
5.9678718928
 20
6.1039054066
 30
0.0
 10
5.9591389865
 20
6.1234096288
 30
0.0
 10
5.9494657951
 20
6.1424245365
 30
0.0
 10
5.9353878007
 20
6.1671617995
 30
0.0
 10
5.9156774477
 20
6.1969828736
 30
0.0
 10
5.8891684525
 20
6.2309843092
 30
0.0
 10
5.8601883472
 20
6.263388121
 30
0.0
 10
5.8291454997
 20
6.2943343367
 30
0.0
 10
5.7964440124
 20
6.3239634792
 30
0.0
 10
5.7511988362
 20
6.3618688951
 30
0.0
 10
5.7159680017
 20
6.3887520404
 30
0.0
 10
5.6922411794
 20
6.4063022645
 30
0.0
  0
SPLINE
  5
2A8
100
AcDbEntity
  8
0
100
AcDbSpline
 62
7
  6
CONTINUOUS
 70
0
 71
3
 72
50
 73
46
 74
0
 42
0.0000001
 43
0.0000001
 44
0.0000000001
 40
0.0
 40
0.0
 40
0.0
 40
0.0
 40
0.0623490965
 40
0.1246994047
 40
0.15590621
 40
0.1871873214
 40
0.2028781287
 40
0.2185941946
 40
0.250012277
 40
0.2656862188
 40
0.2813214517
 40
0.2969145751
 40
0.3124684966
 40
0.3279930856
 40
0.3435068488
 40
0.3590363164
 40
0.3745990057
 40
0.3902002222
 40
0.4058349158
 40
0.4371424854
 40
0.4683810696
 40
0.4995217104
 40
0.5150622585
 40
0.5305932415
 40
0.5461304415
 40
0.5616931256
 40
0.5772781059
 40
0.5928765226
 40
0.624095988
 40
0.6397352766
 40
0.6553998496
 40
0.6867314687
 40
0.7023806599
 40
0.7180025287
 40
0.7335942534
 40
0.749161064
 40
0.7647257342
 40
0.7803120233
 40
0.8115977419
 40
0.8430841986
 40
0.8747337294
 40
0.9064362908
 40
0.9380256996
 40
0.9692934011
 40
1.0
 40
1.0
 40
1.0
 40
1.0
 10
6.8409526778
 20
6.9944001546
 30
0.0
 10
6.8329338467
 20
6.9692941954
 30
0.0
 10
6.8159899053
 20
6.9193601433
 30
0.0
 10
6.7910819689
 20
6.8582748442
 30
0.0
 10
6.768100281
 20
6.810753627
 30
0.0
 10
6.7522872959
 20
6.7817175802
 30
0.0
 10
6.7386836035
 20
6.7589733825
 30
0.0
 10
6.7243971921
 20
6.736583968
 30
0.0
 10
6.7090593643
 20
6.714882432
 30
0.0
 10
6.6925704574
 20
6.6941104623
 30
0.0
 10
6.6796261349
 20
6.6790854881
 30
0.0
 10
6.6660772669
 20
6.6646718926
 30
0.0
 10
6.6519036113
 20
6.6509380507
 30
0.0
 10
6.6370875655
 20
6.6379482836
 30
0.0
 10
6.6216008506
 20
6.6257826315
 30
0.0
 10
6.605524895
 20
6.6143830947
 30
0.0
 10
6.5889501521
 20
6.6036567878
 30
0.0
 10
6.5719602799
 20
6.5935167261
 30
0.0
 10
6.5488579025
 20
6.5806560405
 30
0.0
 10
6.519413721
 20
6.5656300604
 30
0.0
 10
6.4837034119
 20
6.5485114437
 30
0.0
 10
6.4540288151
 20
6.5342143849
 30
0.0
 10
6.4305932644
 20
6.5222804319
 30
0.0
 10
6.4132315286
 20
6.512963165
 30
0.0
 10
6.3961310982
 20
6.5031527607
 30
0.0
 10
6.3793670069
 20
6.4927329835
 30
0.0
 10
6.3629892209
 20
6.4816674731
 30
0.0
 10
6.3417450957
 20
6.4660226555
 30
0.0
 10
6.3215140058
 20
6.4489908499
 30
0.0
 10
6.302592186
 20
6.4305246471
 30
0.0
 10
6.2846170935
 20
6.4110726967
 30
0.0
 10
6.2681922273
 20
6.3902229485
 30
0.0
 10
6.2535966019
 20
6.3681360513
 30
0.0
 10
6.2436379297
 20
6.3509983295
 30
0.0
 10
6.2347340636
 20
6.333328068
 30
0.0
 10
6.2269623605
 20
6.3151572417
 30
0.0
 10
6.2203130787
 20
6.2965496494
 30
0.0
 10
6.2128812232
 20
6.271212427
 30
0.0
 10
6.2062062478
 20
6.2387004549
 30
0.0
 10
6.2020936769
 20
6.1989428889
 30
0.0
 10
6.2015541241
 20
6.1588082842
 30
0.0
 10
6.2042849992
 20
6.1187282642
 30
0.0
 10
6.2099867839
 20
6.0791302087
 30
0.0
 10
6.2183620261
 20
6.0404468922
 30
0.0
 10
6.2256185241
 20
6.0152511875
 30
0.0
 10
6.2296259315
 20
6.0029053682
 30
0.0
  0
LINE
  5
2A9
100
AcDbEntity
  8
0
100
AcDbLine
 62
7
  6
CONTINUOUS
 10
6.6097813639
 20
7.0203622006
 11
6.821970151
 21
7.0203859639
  0
SPLINE
  5
2AA
100
AcDbEntity
  8
0
100
AcDbSpline
 62
7
  6
CONTINUOUS
 70
0
 71
3
 72
26
 73
22
 74
0
 42
0.0000001
 43
0.0000001
 44
0.0000000001
 40
0.0
 40
0.0
 40
0.0
 40
0.0
 40
0.0619687529
 40
0.124533841
 40
0.1877408551
 40
0.2514734151
 40
0.315487004
 40
0.3794381358
 40
0.4429085205
 40
0.5055440635
 40
0.5675009853
 40
0.6290808271
 40
0.6598250648
 40
0.6905839878
 40
0.721392255
 40
0.7522796339
 40
0.7832378812
 40
0.8142396486
 40
0.8762695846
 40
0.9382205209
 40
1.0
 40
1.0
 40
1.0
 40
1.0
 10
5.705291399
 20
6.442348096
 30
0.0
 10
5.7281099144
 20
6.4410261762
 30
0.0
 10
5.7741545762
 20
6.4410356873
 30
0.0
 10
5.8431278394
 20
6.4482709744
 30
0.0
 10
5.9117520334
 20
6.4620336271
 30
0.0
 10
5.9794747072
 20
6.4816483782
 30
0.0
 10
6.045756144
 20
6.5064473427
 30
0.0
 10
6.1100485348
 20
6.5357687577
 30
0.0
 10
6.1718407411
 20
6.568972023
 30
0.0
 10
6.2308216886
 20
6.6055661565
 30
0.0
 10
6.286811835
 20
6.6453983304
 30
0.0
 10
6.3310425368
 20
6.6812662142
 30
0.0
 10
6.3649336832
 20
6.7114810733
 30
0.0
 10
6.3896424689
 20
6.7349151688
 30
0.0
 10
6.4136620817
 20
6.7591288767
 30
0.0
 10
6.4369968199
 20
6.7841038808
 30
0.0
 10
6.4596097839
 20
6.8098303267
 30
0.0
 10
6.4887144185
 20
6.845114305
 30
0.0
 10
6.5229372504
 20
6.8909609522
 30
0.0
 10
6.5600545654
 20
6.9486171856
 30
0.0
 10
6.5818509647
 20
6.9887757776
 30
0.0
 10
6.5919018394
 20
7.0092263407
 30
0.0
  0
SPLINE
  5
2AB
100
AcDbEntity
  8
0
100
AcDbSpline
 62
7
  6
CONTINUOUS
 70
0
 71
3
 72
54
 73
50
 74
0
 42
0.0000001
 43
0.0000001
 44
0.0000000001
 40
0.0
 40
0.0
 40
0.0
 40
0.0
 40
0.0623599141
 40
0.1247004074
 40
0.1558852788
 40
0.1871173315
 40
0.2184280171
 40
0.2497469721
 40
0.2653865791
 40
0.2810056963
 40
0.2966046836
 40
0.3121884514
 40
0.3277668688
 40
0.3433530755
 40
0.3589559921
 40
0.3745800891
 40
0.4058868088
 40
0.4372460146
 40
0.4685789192
 40
0.4842047471
 40
0.4998024133
 40
0.5153817369
 40
0.5309517118
 40
0.5387359067
 40
0.5465206468
 40
0.5620927212
 40
0.5776738266
 40
0.5932771166
 40
0.6089247215
 40
0.6246215026
 40
0.6403214514
 40
0.6559891516
 40
0.6716137027
 40
0.6872134707
 40
0.7028312872
 40
0.7184827344
 40
0.7341575689
 40
0.749832109
 40
0.7654772805
 40
0.7811072444
 40
0.796752501
 40
0.8124261573
 40
0.8438241779
 40
0.8595124583
 40
0.8751557725
 40
0.9063621754
 40
0.9375565437
 40
0.9687759673
 40
1.0
 40
1.0
 40
1.0
 40
1.0
 10
6.2823408421
 20
6.9877500297
 30
0.0
 10
6.2662942744
 20
6.9681524984
 30
0.0
 10
6.2341467012
 20
6.9290119084
 30
0.0
 10
6.1925488324
 20
6.8812481573
 30
0.0
 10
6.1577229478
 20
6.8444279676
 30
0.0
 10
6.1306355146
 20
6.8176655511
 30
0.0
 10
6.1024605009
 20
6.7919652908
 30
0.0
 10
6.077932527
 20
6.7717126213
 30
0.0
 10
6.0576231721
 20
6.7564232973
 30
0.0
 10
6.0420493815
 20
6.7454765749
 30
0.0
 10
6.0261162342
 20
6.7351003974
 30
0.0
 10
6.0098121147
 20
6.7253482692
 30
0.0
 10
5.9931242083
 20
6.716277574
 30
0.0
 10
5.9760520074
 20
6.7079352769
 30
0.0
 10
5.9586368413
 20
6.7002899578
 30
0.0
 10
5.9349958911
 20
6.6909888795
 30
0.0
 10
5.904780465
 20
6.6809866208
 30
0.0
 10
5.8678035569
 20
6.6713860809
 30
0.0
 10
5.83658182
 20
6.66520259
 30
0.0
 10
5.8114811942
 20
6.6612442731
 30
0.0
 10
5.7926320472
 20
6.6587595994
 30
0.0
 10
5.7737502015
 20
6.6567434824
 30
0.0
 10
5.75798852
 20
6.655441658
 30
0.0
 10
5.7453671584
 20
6.6546206003
 30
0.0
 10
5.7327364601
 20
6.6539428512
 30
0.0
 10
5.716928286
 20
6.6533937486
 30
0.0
 10
5.6979337342
 20
6.6533163576
 30
0.0
 10
5.6789167842
 20
6.6539245806
 30
0.0
 10
5.6598930016
 20
6.6553207711
 30
0.0
 10
5.6409140156
 20
6.6576067746
 30
0.0
 10
5.6220760895
 20
6.6609200758
 30
0.0
 10
5.6035064658
 20
6.6653948042
 30
0.0
 10
5.5853371454
 20
6.6711670964
 30
0.0
 10
5.567702467
 20
6.6783719531
 30
0.0
 10
5.5507736423
 20
6.6871343259
 30
0.0
 10
5.5346307542
 20
6.6973229051
 30
0.0
 10
5.5193509113
 20
6.7088007159
 30
0.0
 10
5.5050136953
 20
6.7214306765
 30
0.0
 10
5.4916921016
 20
6.7351004323
 30
0.0
 10
5.4793941835
 20
6.7496788073
 30
0.0
 10
5.4680714587
 20
6.7650386414
 30
0.0
 10
5.4541999104
 20
6.7864187817
 30
0.0
 10
5.4420756064
 20
6.8088973325
 30
0.0
 10
5.4314645254
 20
6.8320660489
 30
0.0
 10
5.4217905146
 20
6.8555596436
 30
0.0
 10
5.4112787258
 20
6.8854901504
 30
0.0
 10
5.4006698057
 20
6.9220199247
 30
0.0
 10
5.3915071954
 20
6.9589393812
 30
0.0
 10
5.3859855504
 20
6.9836949312
 30
0.0
 10
5.3832764023
 20
6.9960845711
 30
0.0
  0
LINE
  5
2AC
100
AcDbEntity
  8
0
100
AcDbLine
 62
7
  6
CONTINUOUS
 10
5.4027395575
 20
7.020264466
 11
6.2669246413
 21
7.0202961176
  0
LINE
  5
2AD
100
AcDbEntity
  8
0
100
AcDbLine
 62
7
  6
CONTINUOUS
 10
7.4229437241
 20
6.2072227714
 11
7.4229674819
 21
6.4193654413
  0
SPLINE
  5
2AE
100
AcDbEntity
  8
0
100
AcDbSpline
 62
7
  6
CONTINUOUS
 70
0
 71
3
 72
51
 73
47
 74
0
 42
0.0000001
 43
0.0000001
 44
0.0000000001
 40
0.0
 40
0.0
 40
0.0
 40
0.0
 40
0.0623478992
 40
0.1246970104
 40
0.1559031993
 40
0.187183646
 40
0.2028741089
 40
0.2185899059
 40
0.2500076655
 40
0.2656815075
 40
0.2813166415
 40
0.2969096221
 40
0.3124633005
 40
0.3279874771
 40
0.3435005702
 40
0.3590291575
 40
0.3745909256
 40
0.3901913616
 40
0.4058256008
 40
0.4371339628
 40
0.4683756973
 40
0.4995187406
 40
0.5150590521
 40
0.5305882276
 40
0.5461216134
 40
0.5616785256
 40
0.5772575174
 40
0.5928516067
 40
0.6240737241
 40
0.6397221131
 40
0.6554007009
 40
0.686756618
 40
0.7024086229
 40
0.7180243379
 40
0.7336009795
 40
0.7491459409
 40
0.7646877008
 40
0.7802558047
 40
0.7958706911
 40
0.8115442773
 40
0.8430684405
 40
0.8747919552
 40
0.9065780591
 40
0.9382207264
 40
0.9694610293
 40
1.0
 40
1.0
 40
1.0
 40
1.0
 10
7.3969661657
 20
6.438343008
 30
0.0
 10
7.3718615855
 20
6.4303020046
 30
0.0
 10
7.3219310081
 20
6.4133140345
 30
0.0
 10
7.2608528982
 20
6.3883525851
 30
0.0
 10
7.213339642
 20
6.3653295447
 30
0.0
 10
7.184309593
 20
6.3494914257
 30
0.0
 10
7.1615708142
 20
6.3358680952
 30
0.0
 10
7.1391870637
 20
6.3215624185
 30
0.0
 10
7.1174916278
 20
6.3062061422
 30
0.0
 10
7.09672606
 20
6.2896999217
 30
0.0
 10
7.0817060023
 20
6.2767432766
 30
0.0
 10
7.0672974407
 20
6.2631828548
 30
0.0
 10
7.0535687509
 20
6.2489984967
 30
0.0
 10
7.0405841839
 20
6.234172748
 30
0.0
 10
7.0284239389
 20
6.2186771926
 30
0.0
 10
7.0170308221
 20
6.2025925043
 30
0.0
 10
7.0063117956
 20
6.1860090384
 30
0.0
 10
6.9961799105
 20
6.1690101404
 30
0.0
 10
6.9833310789
 20
6.1458945444
 30
0.0
 10
6.9683219998
 20
6.1164316506
 30
0.0
 10
6.9512288696
 20
6.0806962349
 30
0.0
 10
6.9369558156
 20
6.0509993589
 30
0.0
 10
6.9250418504
 20
6.0275468135
 30
0.0
 10
6.915740369
 20
6.0101743802
 30
0.0
 10
6.9059461791
 20
5.9930650703
 30
0.0
 10
6.8955419044
 20
5.9762938374
 30
0.0
 10
6.8844914486
 20
5.9599087485
 30
0.0
 10
6.8688652823
 20
5.9386475222
 30
0.0
 10
6.8518545851
 20
5.9183878265
 30
0.0
 10
6.833418025
 20
5.8994139728
 30
0.0
 10
6.8139989915
 20
5.8813656142
 30
0.0
 10
6.7931832971
 20
5.8648587861
 30
0.0
 10
6.771112749
 20
5.8502104866
 30
0.0
 10
6.753983196
 20
5.8402430964
 30
0.0
 10
6.7363118679
 20
5.831369779
 30
0.0
 10
6.7181269003
 20
5.8236813892
 30
0.0
 10
6.6994954998
 20
5.8171643251
 30
0.0
 10
6.6804808671
 20
5.8117647634
 30
0.0
 10
6.6611382394
 20
5.8074349898
 30
0.0
 10
6.6349408742
 20
5.8030146197
 30
0.0
 10
6.6016611744
 20
5.7999309616
 30
0.0
 10
6.5614381708
 20
5.7997277725
 30
0.0
 10
6.5212758285
 20
5.8026178543
 30
0.0
 10
6.4816140849
 20
5.8082124236
 30
0.0
 10
6.442893343
 20
5.8161245176
 30
0.0
 10
6.4176214689
 20
5.8227878251
 30
0.0
 10
6.4052287621
 20
5.8264127619
 30
0.0
  0
SPLINE
  5
2AF
100
AcDbEntity
  8
0
100
AcDbSpline
 62
7
  6
CONTINUOUS
 70
0
 71
3
 72
26
 73
22
 74
0
 42
0.0000001
 43
0.0000001
 44
0.0000000001
 40
0.0
 40
0.0
 40
0.0
 40
0.0
 40
0.0619592627
 40
0.1240912741
 40
0.1863167286
 40
0.2485319312
 40
0.3106404868
 40
0.3416399225
 40
0.3725909977
 40
0.403492408
 40
0.434349478
 40
0.465193328
 40
0.4960614904
 40
0.5579729135
 40
0.6202599956
 40
0.6829848184
 40
0.7461231486
 40
0.8095774133
 40
0.8731886263
 40
0.9367468361
 40
1.0
 40
1.0
 40
1.0
 40
1.0
 10
6.2317659009
 20
5.5968717491
 30
0.0
 10
6.2460718672
 20
5.5989707784
 30
0.0
 10
6.2749191781
 20
5.6019426326
 30
0.0
 10
6.3184394813
 20
5.602746684
 30
0.0
 10
6.3619390266
 20
5.599924174
 30
0.0
 10
6.4050434105
 20
5.5934753643
 30
0.0
 10
6.44035285
 20
5.5850679564
 30
0.0
 10
6.4680218034
 20
5.5765209697
 30
0.0
 10
6.4884256633
 20
5.5692043451
 30
0.0
 10
6.5084446296
 20
5.5609791017
 30
0.0
 10
6.5280342322
 20
5.5518367371
 30
0.0
 10
6.5471785883
 20
5.5418128392
 30
0.0
 10
6.5721335693
 20
5.5273222761
 30
0.0
 10
6.6022577826
 20
5.507193905
 30
0.0
 10
6.6366026699
 20
5.4802407478
 30
0.0
 10
6.669218175
 20
5.4507977108
 30
0.0
 10
6.7001328727
 20
5.4192003281
 30
0.0
 10
6.7293764185
 20
5.3857812732
 30
0.0
 10
6.7569765297
 20
5.3508725169
 30
0.0
 10
6.7829593882
 20
5.3148064233
 30
0.0
 10
6.7992850783
 20
5.2901136944
 30
0.0
 10
6.8072016343
 20
5.2776550497
 30
0.0
  0
SPLINE
  5
2B0
100
AcDbEntity
  8
0
100
AcDbSpline
 62
7
  6
CONTINUOUS
 70
0
 71
3
 72
25
 73
21
 74
0
 42
0.0000001
 43
0.0000001
 44
0.0000000001
 40
0.0
 40
0.0
 40
0.0
 40
0.0
 40
0.061880264
 40
0.1243335953
 40
0.1874460929
 40
0.2511257366
 40
0.3151393069
 40
0.3791444908
 40
0.4427164805
 40
0.5054560359
 40
0.5674720539
 40
0.6290755521
 40
0.6598217476
 40
0.6905778298
 40
0.7213798678
 40
0.7522604288
 40
0.8142107926
 40
0.8762487447
 40
0.9382109446
 40
1.0
 40
1.0
 40
1.0
 40
1.0
 10
6.8440173307
 20
5.289988638
 30
0.0
 10
6.8421600827
 20
5.313023507
 30
0.0
 10
6.8412224102
 20
5.3595686289
 30
0.0
 10
6.8474002395
 20
5.4294130291
 30
0.0
 10
6.8604210498
 20
5.4989807734
 30
0.0
 10
6.8795703046
 20
5.5677000159
 30
0.0
 10
6.9041423287
 20
5.6350129343
 30
0.0
 10
6.9334377945
 20
5.7003534373
 30
0.0
 10
6.9667770951
 20
5.7631792527
 30
0.0
 10
7.0036087812
 20
5.8231509372
 30
0.0
 10
7.0437496403
 20
5.8800622429
 30
0.0
 10
7.0799368674
 20
5.9249926889
 30
0.0
 10
7.1104411825
 20
5.9593980326
 30
0.0
 10
7.1341083004
 20
5.9844691948
 30
0.0
 10
7.1585747679
 20
6.0088318453
 30
0.0
 10
7.1922698198
 20
6.0404068357
 30
0.0
 10
7.236279829
 20
6.077996861
 30
0.0
 10
7.291956725
 20
6.1195895665
 30
0.0
 10
7.3503579972
 20
6.1571587714
 30
0.0
 10
7.3910522378
 20
6.179184691
 30
0.0
 10
7.4117784916
 20
6.189328841
 30
0.0
  0
SPLINE
  5
2B1
100
AcDbEntity
  8
0
100
AcDbSpline
 62
7
  6
CONTINUOUS
 70
0
 71
3
 72
54
 73
50
 74
0
 42
0.0000001
 43
0.0000001
 44
0.0000000001
 40
0.0
 40
0.0
 40
0.0
 40
0.0
 40
0.0623599141
 40
0.1247004074
 40
0.1558852788
 40
0.1871173315
 40
0.2184280171
 40
0.2497469721
 40
0.2653865791
 40
0.2810056963
 40
0.2966046836
 40
0.3121884514
 40
0.3277668688
 40
0.3433530755
 40
0.3589559921
 40
0.3745800891
 40
0.4058868088
 40
0.4372460146
 40
0.4685789192
 40
0.4842047471
 40
0.4998024133
 40
0.5153817369
 40
0.5309517118
 40
0.5387359067
 40
0.5465206468
 40
0.5620927212
 40
0.5776738266
 40
0.5932771166
 40
0.6089247215
 40
0.6246215026
 40
0.6403214514
 40
0.6559891516
 40
0.6716137027
 40
0.6872134707
 40
0.7028312872
 40
0.7184827344
 40
0.7341575689
 40
0.749832109
 40
0.7654772805
 40
0.7811072444
 40
0.796752501
 40
0.8124261573
 40
0.8438241779
 40
0.8595124583
 40
0.8751557725
 40
0.9063621754
 40
0.9375565437
 40
0.9687759673
 40
1.0
 40
1.0
 40
1.0
 40
1.0
 10
7.3903315514
 20
5.8797593204
 30
0.0
 10
7.3707340202
 20
5.8637127526
 30
0.0
 10
7.3315934302
 20
5.8315651794
 30
0.0
 10
7.2838296791
 20
5.7899673106
 30
0.0
 10
7.2470094893
 20
5.7551414261
 30
0.0
 10
7.2202470728
 20
5.7280539928
 30
0.0
 10
7.1945468125
 20
5.6998789792
 30
0.0
 10
7.174294143
 20
5.6753510053
 30
0.0
 10
7.1590048191
 20
5.6550416503
 30
0.0
 10
7.1480580966
 20
5.6394678597
 30
0.0
 10
7.1376819191
 20
5.6235347125
 30
0.0
 10
7.1279297909
 20
5.607230593
 30
0.0
 10
7.1188590958
 20
5.5905426866
 30
0.0
 10
7.1105167986
 20
5.5734704856
 30
0.0
 10
7.1028714795
 20
5.5560553196
 30
0.0
 10
7.0935704013
 20
5.5324143694
 30
0.0
 10
7.0835681426
 20
5.5021989432
 30
0.0
 10
7.0739676027
 20
5.4652220352
 30
0.0
 10
7.0677841118
 20
5.4340002983
 30
0.0
 10
7.0638257949
 20
5.4088996725
 30
0.0
 10
7.0613411211
 20
5.3900505254
 30
0.0
 10
7.0593250042
 20
5.3711686798
 30
0.0
 10
7.0580231797
 20
5.3554069982
 30
0.0
 10
7.0572021221
 20
5.3427856366
 30
0.0
 10
7.056524373
 20
5.3301549383
 30
0.0
 10
7.0559752703
 20
5.3143467643
 30
0.0
 10
7.0558978794
 20
5.2953522125
 30
0.0
 10
7.0565061023
 20
5.2763352625
 30
0.0
 10
7.0579022928
 20
5.2573114799
 30
0.0
 10
7.0601882963
 20
5.2383324938
 30
0.0
 10
7.0635015976
 20
5.2194945678
 30
0.0
 10
7.0679763259
 20
5.2009249441
 30
0.0
 10
7.0737486181
 20
5.1827556237
 30
0.0
 10
7.0809534749
 20
5.1651209452
 30
0.0
 10
7.0897158477
 20
5.1481921206
 30
0.0
 10
7.0999044268
 20
5.1320492324
 30
0.0
 10
7.1113822376
 20
5.1167693895
 30
0.0
 10
7.1240121982
 20
5.1024321736
 30
0.0
 10
7.137681954
 20
5.0891105799
 30
0.0
 10
7.152260329
 20
5.0768126617
 30
0.0
 10
7.1676201631
 20
5.065489937
 30
0.0
 10
7.1890003034
 20
5.0516183886
 30
0.0
 10
7.2114788542
 20
5.0394940847
 30
0.0
 10
7.2346475707
 20
5.0288830037
 30
0.0
 10
7.2581411653
 20
5.0192089929
 30
0.0
 10
7.2880716721
 20
5.0086972041
 30
0.0
 10
7.3246014464
 20
4.9980882839
 30
0.0
 10
7.3615209029
 20
4.9889256737
 30
0.0
 10
7.386276453
 20
4.9834040286
 30
0.0
 10
7.3986660929
 20
4.9806948805
 30
0.0
  0
LINE
  5
2B2
100
AcDbEntity
  8
0
100
AcDbLine
 62
7
  6
CONTINUOUS
 10
7.4228459877
 20
5.0001580358
 11
7.4228776393
 21
5.8643431196
  0
SPLINE
  5
2B3
100
AcDbEntity
  8
0
100
AcDbSpline
 62
7
  6
CONTINUOUS
 70
0
 71
3
 72
19
 73
15
 74
0
 42
0.0000001
 43
0.0000001
 44
0.0000000001
 40
0.0
 40
0.0
 40
0.0
 40
0.0
 40
0.1247562464
 40
0.1874268166
 40
0.2500281053
 40
0.3125832153
 40
0.3751426838
 40
0.4999787427
 40
0.62483176
 40
0.6873972531
 40
0.7499549822
 40
0.8125590799
 40
0.8752357657
 40
1.0
 40
1.0
 40
1.0
 40
1.0
 10
5.1927542853
 20
5.4971009773
 30
0.0
 10
5.190957929
 20
5.4964502601
 30
0.0
 10
5.1883786479
 20
5.4950821737
 30
0.0
 10
5.1854378738
 20
5.4926158066
 30
0.0
 10
5.1835155602
 20
5.4904617459
 30
0.0
 10
5.1819216095
 20
5.4880569374
 30
0.0
 10
5.1802898754
 20
5.4845817445
 30
0.0
 10
5.1792245971
 20
5.4798440784
 30
0.0
 10
5.1795950481
 20
5.4750022326
 30
0.0
 10
5.180707823
 20
5.4713274263
 30
0.0
 10
5.1819378387
 20
5.4687174684
 30
0.0
 10
5.1835290478
 20
5.4663082392
 30
0.0
 10
5.1860830945
 20
5.4634429606
 30
0.0
 10
5.188437695
 20
5.4617162829
 30
0.0
 10
5.1901213359
 20
5.4608128729
 30
0.0
  0
SPLINE
  5
2B4
100
AcDbEntity
  8
0
100
AcDbSpline
 62
7
  6
CONTINUOUS
 70
0
 71
3
 72
13
 73
9
 74
0
 42
0.0000001
 43
0.0000001
 44
0.0000000001
 40
0.0
 40
0.0
 40
0.0
 40
0.0
 40
0.1243957992
 40
0.2490689073
 40
0.3740427398
 40
0.4992471039
 40
0.7498629847
 40
1.0
 40
1.0
 40
1.0
 40
1.0
 10
5.0937031167
 20
6.9581553043
 30
0.0
 10
5.0888245992
 20
6.9550945381
 30
0.0
 10
5.0789030863
 20
6.9492058726
 30
0.0
 10
5.0635427271
 20
6.9411914453
 30
0.0
 10
5.0477396538
 20
6.9339986097
 30
0.0
 10
5.0261583047
 20
6.9255005789
 30
0.0
 10
4.998416639
 20
6.9169475126
 30
0.0
 10
4.9756606014
 20
6.9123034328
 30
0.0
 10
4.9642151974
 20
6.9105386557
 30
0.0
  0
SPLINE
  5
2B5
100
AcDbEntity
  8
0
100
AcDbSpline
 62
7
  6
CONTINUOUS
 70
0
 71
3
 72
56
 73
52
 74
0
 42
0.0000001
 43
0.0000001
 44
0.0000000001
 40
0.0
 40
0.0
 40
0.0
 40
0.0
 40
0.1247165208
 40
0.1871539676
 40
0.249687962
 40
0.2810069219
 40
0.312367823
 40
0.3751607688
 40
0.4065313087
 40
0.4378498597
 40
0.4691047292
 40
0.5002965645
 40
0.5158737427
 40
0.5314418674
 40
0.5470051796
 40
0.5547867911
 40
0.5625693138
 40
0.578141081
 40
0.5937266313
 40
0.6093273116
 40
0.6249414613
 40
0.6405647945
 40
0.6561821809
 40
0.6717803919
 40
0.6873637003
 40
0.6951589707
 40
0.7029630646
 40
0.7185930627
 40
0.7342412706
 40
0.7498908425
 40
0.7655248376
 40
0.7811358888
 40
0.7967460714
 40
0.8123724315
 40
0.828019005
 40
0.8436784495
 40
0.8515082425
 40
0.859334122
 40
0.8671527155
 40
0.8749615391
 40
0.8827604876
 40
0.8905524962
 40
0.8983441494
 40
0.9061447211
 40
0.9139557541
 40
0.9217742249
 40
0.9374165546
 40
0.9530458459
 40
0.9686599759
 40
0.9843018064
 40
1.0
 40
1.0
 40
1.0
 40
1.0
 10
4.9475495388
 20
6.8878812495
 30
0.0
 10
4.9540540536
 20
6.8446777981
 30
0.0
 10
4.9662192756
 20
6.7801688226
 30
0.0
 10
4.987375082
 20
6.6952803306
 30
0.0
 10
5.0026996407
 20
6.6426999576
 30
0.0
 10
5.016236457
 20
6.6009735573
 30
0.0
 10
5.0306417431
 20
6.5594441757
 30
0.0
 10
5.0463438064
 20
6.5183476655
 30
0.0
 10
5.0637371646
 20
6.4779702767
 30
0.0
 10
5.0777049689
 20
6.4481643259
 30
0.0
 10
5.0926863928
 20
6.4189239957
 30
0.0
 10
5.1060954042
 20
6.3950962128
 30
0.0
 10
5.117414221
 20
6.3764189656
 30
0.0
 10
5.1262077353
 20
6.3626180997
 30
0.0
 10
5.1338014544
 20
6.3512954262
 30
0.0
 10
5.1400398008
 20
6.342351372
 30
0.0
 10
5.1463919403
 20
6.3334841034
 30
0.0
 10
5.1545257434
 20
6.3225317567
 30
0.0
 10
5.1645097998
 20
6.3095455296
 30
0.0
 10
5.1746409225
 20
6.296655194
 30
0.0
 10
5.1848369501
 20
6.2837994475
 30
0.0
 10
5.195025866
 20
6.2709305463
 30
0.0
 10
5.2050464183
 20
6.2579358687
 30
0.0
 10
5.2147040637
 20
6.2446844047
 30
0.0
 10
5.2222908869
 20
6.2333248128
 30
0.0
 10
5.227979395
 20
6.2239971756
 30
0.0
 10
5.2333857493
 20
6.2144844773
 30
0.0
 10
5.2396026044
 20
6.2022758484
 30
0.0
 10
5.246168465
 20
6.1871937528
 30
0.0
 10
5.251816477
 20
6.1717427566
 30
0.0
 10
5.2565193326
 20
6.1559915955
 30
0.0
 10
5.2602508487
 20
6.1399974451
 30
0.0
 10
5.2630899452
 20
6.1238257638
 30
0.0
 10
5.2651229707
 20
6.1075220213
 30
0.0
 10
5.2664361381
 20
6.0911287081
 30
0.0
 10
5.2670027368
 20
6.0774273254
 30
0.0
 10
5.2671813745
 20
6.066458214
 30
0.0
 10
5.2671907944
 20
6.0582344759
 30
0.0
 10
5.2670768563
 20
6.0500187658
 30
0.0
 10
5.2667936944
 20
6.0418162592
 30
0.0
 10
5.2663014515
 20
6.0336326214
 30
0.0
 10
5.2655582695
 20
6.025473583
 30
0.0
 10
5.2645238735
 20
6.0173451578
 30
0.0
 10
5.2631542817
 20
6.0092593856
 30
0.0
 10
5.2614489596
 20
6.0012280667
 30
0.0
 10
5.2587378152
 20
5.9906112294
 30
0.0
 10
5.254546649
 20
5.9775574143
 30
0.0
 10
5.2482765413
 20
5.9623575469
 30
0.0
 10
5.2408162398
 20
5.947706483
 30
0.0
 10
5.2322999642
 20
5.9336191247
 30
0.0
 10
5.2260045684
 20
5.9246139842
 30
0.0
 10
5.2227203772
 20
5.920202984
 30
0.0
  0
SPLINE
  5
2B6
100
AcDbEntity
  8
0
100
AcDbSpline
 62
7
  6
CONTINUOUS
 70
0
 71
3
 72
45
 73
41
 74
0
 42
0.0000001
 43
0.0000001
 44
0.0000000001
 40
0.0
 40
0.0
 40
0.0
 40
0.0
 40
0.032549621
 40
0.0648426959
 40
0.0967378179
 40
0.1281574816
 40
0.1591054441
 40
0.1896861835
 40
0.2049113046
 40
0.2201395539
 40
0.2354186735
 40
0.2507763462
 40
0.2662096394
 40
0.2817075689
 40
0.3128131193
 40
0.3439261575
 40
0.3594240843
 40
0.3748632515
 40
0.4056504648
 40
0.4364727751
 40
0.4674555058
 40
0.4986683931
 40
0.5300639745
 40
0.5615433717
 40
0.6243220096
 40
0.6555604091
 40
0.6711266469
 40
0.6866574981
 40
0.7021598871
 40
0.7176457093
 40
0.733132858
 40
0.7486371796
 40
0.7797313184
 40
0.8109917847
 40
0.8739266508
 40
0.9055626408
 40
0.9371852924
 40
0.9529653191
 40
0.9687048364
 40
1.0
 40
1.0
 40
1.0
 40
1.0
 10
5.244448201
 20
5.8890843256
 30
0.0
 10
5.2523627634
 20
5.8914312475
 30
0.0
 10
5.2682686853
 20
5.895655215
 30
0.0
 10
5.2923588963
 20
5.900402341
 30
0.0
 10
5.316455979
 20
5.9033214239
 30
0.0
 10
5.3403802521
 20
5.9041811352
 30
0.0
 10
5.3639502849
 20
5.9027471092
 30
0.0
 10
5.3831818264
 20
5.8994317492
 30
0.0
 10
5.3981369674
 20
5.8954029698
 30
0.0
 10
5.4091273555
 20
5.8916690221
 30
0.0
 10
5.4198711982
 20
5.887187087
 30
0.0
 10
5.4303355606
 20
5.8819704169
 30
0.0
 10
5.4404935328
 20
5.8760693438
 30
0.0
 10
5.4535934866
 20
5.8673400725
 30
0.0
 10
5.4689949365
 20
5.8549642583
 30
0.0
 10
5.4828984654
 20
5.8409318588
 30
0.0
 10
5.4930038576
 20
5.8288585695
 30
0.0
 10
5.5023696208
 20
5.8163060513
 30
0.0
 10
5.5127553948
 20
5.7997054585
 30
0.0
 10
5.5230863522
 20
5.7785731058
 30
0.0
 10
5.5313196308
 20
5.756426476
 30
0.0
 10
5.53749803
 20
5.7334749554
 30
0.0
 10
5.5416054536
 20
5.7099334429
 30
0.0
 10
5.5442475826
 20
5.6781446953
 30
0.0
 10
5.5425512968
 20
5.6461383986
 30
0.0
 10
5.5370399792
 20
5.6188561355
 30
0.0
 10
5.532718855
 20
5.6036413054
 30
0.0
 10
5.5288885674
 20
5.5924546304
 30
0.0
 10
5.5244589682
 20
5.581512954
 30
0.0
 10
5.5194210401
 20
5.5708499688
 30
0.0
 10
5.5138010236
 20
5.5604815488
 30
0.0
 10
5.5055638679
 20
5.547054788
 30
0.0
 10
5.4939348159
 20
5.531048281
 30
0.0
 10
5.4728163875
 20
5.5072559636
 30
0.0
 10
5.4483945553
 20
5.4864054544
 30
0.0
 10
5.421613561
 20
5.468837202
 30
0.0
 10
5.4039820179
 20
5.4592446831
 30
0.0
 10
5.3894694273
 20
5.4524654981
 30
0.0
 10
5.3747685279
 20
5.4463195523
 30
0.0
 10
5.3634680863
 20
5.4424317877
 30
0.0
 10
5.3558473827
 20
5.4402133233
 30
0.0
  0
SPLINE
  5
2B7
100
AcDbEntity
  8
0
100
AcDbSpline
 62
7
  6
CONTINUOUS
 70
0
 71
3
 72
19
 73
15
 74
0
 42
0.0000001
 43
0.0000001
 44
0.0000000001
 40
0.0
 40
0.0
 40
0.0
 40
0.0
 40
0.1247624931
 40
0.1874380631
 40
0.2500423869
 40
0.3125990148
 40
0.3751583899
 40
0.4999951014
 40
0.624845315
 40
0.6874105745
 40
0.7499676639
 40
0.8125696368
 40
0.8752415175
 40
1.0
 40
1.0
 40
1.0
 40
1.0
 10
5.8633710452
 20
4.7922651308
 30
0.0
 10
5.8642772955
 20
4.790584489
 30
0.0
 10
5.8660073366
 20
4.7882348817
 30
0.0
 10
5.8688754904
 20
4.7856879694
 30
0.0
 10
5.871285931
 20
4.784102166
 30
0.0
 10
5.873896076
 20
4.7828773674
 30
0.0
 10
5.8775697152
 20
4.7817708459
 30
0.0
 10
5.8824086754
 20
4.7814075905
 30
0.0
 10
5.887141822
 20
4.7824778027
 30
0.0
 10
5.8906134545
 20
4.7841118719
 30
0.0
 10
5.8930152952
 20
4.7857070587
 30
0.0
 10
5.8951663032
 20
4.7876299864
 30
0.0
 10
5.897628767
 20
4.7905707672
 30
0.0
 10
5.8989943792
 20
4.7931491632
 30
0.0
 10
5.899643652
 20
4.794944729
 30
0.0
  0
SPLINE
  5
2B8
100
AcDbEntity
  8
0
100
AcDbSpline
 62
7
  6
CONTINUOUS
 70
0
 71
3
 72
44
 73
40
 74
0
 42
0.0000001
 43
0.0000001
 44
0.0000000001
 40
0.0
 40
0.0
 40
0.0
 40
0.0
 40
0.032569842
 40
0.0649193078
 40
0.0968965613
 40
0.1284102902
 40
0.1594464549
 40
0.1900874227
 40
0.205323917
 40
0.2205465492
 40
0.2358005625
 40
0.2511266297
 40
0.2665294836
 40
0.2820006304
 40
0.3130709977
 40
0.3441828485
 40
0.3596945564
 40
0.3751448654
 40
0.4059304646
 40
0.436727529
 40
0.4676695373
 40
0.4988376853
 40
0.5616009618
 40
0.5930655282
 40
0.6244494862
 40
0.6556967837
 40
0.6867899708
 40
0.7022930608
 40
0.7177759925
 40
0.7332559607
 40
0.7487498773
 40
0.7798171796
 40
0.8110483829
 40
0.8739339264
 40
0.9055559742
 40
0.9371728261
 40
0.9529530118
 40
0.9686949329
 40
1.0
 40
1.0
 40
1.0
 40
1.0
 10
6.2882345951
 20
4.8419547833
 30
0.0
 10
6.2906877488
 20
4.8498509913
 30
0.0
 10
6.2951274016
 20
4.8657350592
 30
0.0
 10
6.3002133646
 20
4.889821617
 30
0.0
 10
6.303493631
 20
4.9139552928
 30
0.0
 10
6.3047405554
 20
4.9379523257
 30
0.0
 10
6.3037237636
 20
4.9616275764
 30
0.0
 10
6.3007841929
 20
4.9809789814
 30
0.0
 10
6.2970707613
 20
4.996048337
 30
0.0
 10
6.2935823634
 20
5.0071256286
 30
0.0
 10
6.2893568119
 20
5.0179682168
 30
0.0
 10
6.2843802916
 20
5.0285376521
 30
0.0
 10
6.2787007414
 20
5.0388089233
 30
0.0
 10
6.2702409066
 20
5.0520754382
 30
0.0
 10
6.2581529538
 20
5.0677099277
 30
0.0
 10
6.2443560602
 20
5.0818672201
 30
0.0
 10
6.2324419302
 20
5.0921928887
 30
0.0
 10
6.2200305064
 20
5.1017801424
 30
0.0
 10
6.2035807374
 20
5.1124336811
 30
0.0
 10
6.1825921886
 20
5.1230684104
 30
0.0
 10
6.1605552178
 20
5.1315860366
 30
0.0
 10
6.1300092682
 20
5.1401923234
 30
0.0
 10
6.098273149
 20
5.144618132
 30
0.0
 10
6.066350382
 20
5.1446961139
 30
0.0
 10
6.0425227604
 20
5.1425198617
 30
0.0
 10
6.019113605
 20
5.1380521943
 30
0.0
 10
6.0001458219
 20
5.1323616959
 30
0.0
 10
5.9854654715
 20
5.1266096825
 30
0.0
 10
5.9747376183
 20
5.121688278
 30
0.0
 10
5.9643050987
 20
5.1161740795
 30
0.0
 10
5.9507938125
 20
5.1080676684
 30
0.0
 10
5.9346810124
 20
5.0965802544
 30
0.0
 10
5.9107195512
 20
5.0756454865
 30
0.0
 10
5.889705449
 20
5.0513487105
 30
0.0
 10
5.8719840709
 20
5.0246515597
 30
0.0
 10
5.8622973401
 20
5.007054242
 30
0.0
 10
5.8554451077
 20
4.9925593687
 30
0.0
 10
5.8492243446
 20
4.9778694305
 30
0.0
 10
5.8452768745
 20
4.9665740458
 30
0.0
 10
5.8430172555
 20
4.958954633
 30
0.0
  0
SPLINE
  5
2B9
100
AcDbEntity
  8
0
100
AcDbSpline
 62
7
  6
CONTINUOUS
 70
0
 71
3
 72
56
 73
52
 74
0
 42
0.0000001
 43
0.0000001
 44
0.0000000001
 40
0.0
 40
0.0
 40
0.0
 40
0.0
 40
0.124711908
 40
0.1871479864
 40
0.2496817836
 40
0.2810012827
 40
0.3123632125
 40
0.3751537914
 40
0.4065203545
 40
0.4378335218
 40
0.4690823006
 40
0.500268343
 40
0.5158431652
 40
0.5314095411
 40
0.5469719363
 40
0.5547534817
 40
0.5625363184
 40
0.5781098008
 40
0.593697708
 40
0.6249166001
 40
0.6405397095
 40
0.6561530648
 40
0.6717462688
 40
0.6873287637
 40
0.6951274016
 40
0.7029353477
 40
0.7185704474
 40
0.734219908
 40
0.7498666139
 40
0.7654937488
 40
0.781101688
 40
0.7967145046
 40
0.8123458036
 40
0.8279964162
 40
0.8358264605
 40
0.8436566581
 40
0.8514842614
 40
0.859306014
 40
0.8671187881
 40
0.8749213922
 40
0.8827154504
 40
0.8905060248
 40
0.8983020374
 40
0.9061092227
 40
0.9217431026
 40
0.9373837013
 40
0.9451986627
 40
0.9530065822
 40
0.968623629
 40
0.9842808468
 40
1.0
 40
1.0
 40
1.0
 40
1.0
 10
7.2904811809
 20
4.5498217597
 30
0.0
 10
7.2471117226
 20
4.5563021123
 30
0.0
 10
7.1823532664
 20
4.5684528187
 30
0.0
 10
7.0971386934
 20
4.5896349877
 30
0.0
 10
7.0443571986
 20
4.6049955502
 30
0.0
 10
7.0024724193
 20
4.6185736018
 30
0.0
 10
6.9607870961
 20
4.6330264626
 30
0.0
 10
6.9195430043
 20
4.6487962233
 30
0.0
 10
6.879033454
 20
4.6662852941
 30
0.0
 10
6.8491386955
 20
4.6803391109
 30
0.0
 10
6.8198202728
 20
4.6954226209
 30
0.0
 10
6.7959375871
 20
4.7089311557
 30
0.0
 10
6.7772233939
 20
4.7203386754
 30
0.0
 10
6.7633981955
 20
4.7292037128
 30
0.0
 10
6.7520582707
 20
4.7368608098
 30
0.0
 10
6.7431027706
 20
4.7431529991
 30
0.0
 10
6.7342233809
 20
4.7495588143
 30
0.0
 10
6.7232494331
 20
4.7577508002
 30
0.0
 10
6.7058795487
 20
4.7711453027
 30
0.0
 10
6.6886873611
 20
4.7847949241
 30
0.0
 10
6.6714359821
 20
4.7983836698
 30
0.0
 10
6.6583376246
 20
4.8083644374
 30
0.0
 10
6.6449537278
 20
4.8179376855
 30
0.0
 10
6.6334602434
 20
4.8254136618
 30
0.0
 10
6.6240114314
 20
4.8309835677
 30
0.0
 10
6.6143777129
 20
4.8362653473
 30
0.0
 10
6.6020263941
 20
4.8423185592
 30
0.0
 10
6.5867863465
 20
4.8486728007
 30
0.0
 10
6.5711929827
 20
4.8540951364
 30
0.0
 10
6.5553119361
 20
4.8585529045
 30
0.0
 10
6.5392037681
 20
4.8620418894
 30
0.0
 10
6.5229309955
 20
4.8646546526
 30
0.0
 10
6.5065372158
 20
4.8664763773
 30
0.0
 10
6.4928124698
 20
4.8674087278
 30
0.0
 10
6.4818112995
 20
4.8678468283
 30
0.0
 10
6.473554217
 20
4.8680325654
 30
0.0
 10
6.4652982613
 20
4.8680849516
 30
0.0
 10
6.4570484878
 20
4.8680195766
 30
0.0
 10
6.4488097902
 20
4.8678043551
 30
0.0
 10
6.4405878473
 20
4.8673952894
 30
0.0
 10
6.4323884239
 20
4.8667509941
 30
0.0
 10
6.4242172388
 20
4.865830538
 30
0.0
 10
6.4160833984
 20
4.8645884817
 30
0.0
 10
6.4053025793
 20
4.8624740014
 30
0.0
 10
6.3919905362
 20
4.8589991442
 30
0.0
 10
6.3790019299
 20
4.8544551675
 30
0.0
 10
6.3688630612
 20
4.8502003783
 30
0.0
 10
6.3589127871
 20
4.8455410486
 30
0.0
 10
6.3468160875
 20
4.8389913413
 30
0.0
 10
6.3328689414
 20
4.8301091572
 30
0.0
 10
6.3239534182
 20
4.8235973924
 30
0.0
 10
6.3195844585
 20
4.8202119206
 30
0.0
  0
SPLINE
  5
2BA
100
AcDbEntity
  8
0
100
AcDbSpline
 62
7
  6
CONTINUOUS
 70
0
 71
3
 72
13
 73
9
 74
0
 42
0.0000001
 43
0.0000001
 44
0.0000000001
 40
0.0
 40
0.0
 40
0.0
 40
0.0
 40
0.1243958571
 40
0.2490690793
 40
0.3740430551
 40
0.4992475589
 40
0.7498635099
 40
1.0
 40
1.0
 40
1.0
 40
1.0
 10
7.360736826
 20
4.6960008703
 30
0.0
 10
7.3576755886
 20
4.6911216017
 30
0.0
 10
7.3517860525
 20
4.6811985347
 30
0.0
 10
7.3437705834
 20
4.6658357003
 30
0.0
 10
7.3365769566
 20
4.6500300362
 30
0.0
 10
7.328078213
 20
4.6284451214
 30
0.0
 10
7.3195248956
 20
4.6006988711
 30
0.0
 10
7.3148812901
 20
4.5779391076
 30
0.0
 10
7.3131169269
 20
4.5664918659
 30
0.0
  0
SPLINE
  5
2BB
100
AcDbEntity
  8
0
100
AcDbSpline
 62
7
  6
CONTINUOUS
 70
0
 71
3
 72
17
 73
13
 74
0
 42
0.0000001
 43
0.0000001
 44
0.0000000001
 40
0.0
 40
0.0
 40
0.0
 40
0.0
 40
0.1307964674
 40
0.2597132887
 40
0.3234943389
 40
0.3868122101
 40
0.4496768131
 40
0.5121071455
 40
0.6358126125
 40
0.7583264683
 40
0.8797554198
 40
1.0
 40
1.0
 40
1.0
 40
1.0
 10
5.2561988261
 20
4.2943002679
 30
0.0
 10
5.2572118012
 20
4.2849036613
 30
0.0
 10
5.2582037246
 20
4.2661197535
 30
0.0
 10
5.2568438506
 20
4.2427334249
 30
0.0
 10
5.2542060056
 20
4.2244146078
 30
0.0
 10
5.2514734654
 20
4.2109550881
 30
0.0
 10
5.2479873802
 20
4.197771278
 30
0.0
 10
5.242356011
 20
4.1806735548
 30
0.0
 10
5.233508832
 20
4.1601417399
 30
0.0
 10
5.220289047
 20
4.1370382585
 30
0.0
 10
5.2048065077
 20
4.1157008205
 30
0.0
 10
5.1931100776
 20
4.1026848503
 30
0.0
 10
5.1869783747
 20
4.0965290487
 30
0.0
  0
SPLINE
  5
2BC
100
AcDbEntity
  8
0
100
AcDbSpline
 62
7
  6
CONTINUOUS
 70
0
 71
3
 72
17
 73
13
 74
0
 42
0.0000001
 43
0.0000001
 44
0.0000000001
 40
0.0
 40
0.0
 40
0.0
 40
0.0
 40
0.1202445802
 40
0.2416735317
 40
0.3641873875
 40
0.4878928545
 40
0.5503231869
 40
0.6131877899
 40
0.6765056611
 40
0.7402867113
 40
0.8692035326
 40
1.0
 40
1.0
 40
1.0
 40
1.0
 10
5.1869783747
 20
4.0965290487
 30
0.0
 10
5.1808102627
 20
4.0904097296
 30
0.0
 10
5.1677708124
 20
4.0787394814
 30
0.0
 10
5.1464023021
 20
4.0632998554
 30
0.0
 10
5.1232722995
 20
4.0501265282
 30
0.0
 10
5.1027227458
 20
4.04132063
 30
0.0
 10
5.0856137398
 20
4.0357236336
 30
0.0
 10
5.0724229502
 20
4.032264051
 30
0.0
 10
5.0589579661
 20
4.029558566
 30
0.0
 10
5.0406338847
 20
4.0269575417
 30
0.0
 10
5.0172448705
 20
4.0256446702
 30
0.0
 10
4.998462994
 20
4.0266743416
 30
0.0
 10
4.9890684422
 20
4.0277061991
 30
0.0
  0
SPLINE
  5
2BD
100
AcDbEntity
  8
0
100
AcDbSpline
 62
7
  6
CONTINUOUS
 70
0
 71
3
 72
23
 73
19
 74
0
 42
0.0000001
 43
0.0000001
 44
0.0000000001
 40
0.0
 40
0.0
 40
0.0
 40
0.0
 40
0.0625101028
 40
0.0937611127
 40
0.1250039494
 40
0.1562391809
 40
0.1874725805
 40
0.2499628584
 40
0.3125086334
 40
0.3750502203
 40
0.4375288588
 40
0.4999861895
 40
0.6249306697
 40
0.6874638905
 40
0.7500087162
 40
0.8125436467
 40
0.8750580778
 40
1.0
 40
1.0
 40
1.0
 40
1.0
 10
4.9997289407
 20
3.7442102769
 30
0.0
 10
5.0077338329
 20
3.7498218101
 30
0.0
 10
5.0200456156
 20
3.7578166715
 30
0.0
 10
5.0369991454
 20
3.7675565722
 30
0.0
 10
5.0499721591
 20
3.7743879842
 30
0.0
 10
5.063189221
 20
3.7807278489
 30
0.0
 10
5.0811178558
 20
3.7885130737
 30
0.0
 10
5.1040406199
 20
3.7970457967
 30
0.0
 10
5.1321471349
 20
3.8055058585
 30
0.0
 10
5.1606837653
 20
3.8123554664
 30
0.0
 10
5.1895191252
 20
3.8177308783
 30
0.0
 10
5.2282547363
 20
3.8229886658
 30
0.0
 10
5.2673234189
 20
3.8255086048
 30
0.0
 10
5.3064315589
 20
3.825523773
 30
0.0
 10
5.335756941
 20
3.8243515708
 30
0.0
 10
5.3650093602
 20
3.8220048799
 30
0.0
 10
5.4038238383
 20
3.8172638703
 30
0.0
 10
5.4326857606
 20
3.8118467101
 30
0.0
 10
5.4517068827
 20
3.8073758315
 30
0.0
  0
SPLINE
  5
2BE
100
AcDbEntity
  8
0
100
AcDbSpline
 62
7
  6
CONTINUOUS
 70
0
 71
3
 72
22
 73
18
 74
0
 42
0.0000001
 43
0.0000001
 44
0.0000000001
 40
0.0
 40
0.0
 40
0.0
 40
0.0
 40
0.0625393065
 40
0.1250994308
 40
0.1876406105
 40
0.2188847406
 40
0.2501023293
 40
0.312472261
 40
0.3748074082
 40
0.4371925021
 40
0.4997390734
 40
0.562457218
 40
0.6252390313
 40
0.7505944471
 40
0.8754376493
 40
0.937726024
 40
1.0
 40
1.0
 40
1.0
 40
1.0
 10
5.4756899405
 20
3.8312052122
 30
0.0
 10
5.473513079
 20
3.8407412427
 30
0.0
 10
5.4696125096
 20
3.8599227214
 30
0.0
 10
5.4650159064
 20
3.888915861
 30
0.0
 10
5.4621391852
 20
3.9132051653
 30
0.0
 10
5.4603533601
 20
3.9326750489
 30
0.0
 10
5.458907065
 20
3.9521463038
 30
0.0
 10
5.4577759197
 20
3.9765134423
 30
0.0
 10
5.4576148681
 20
4.0057832288
 30
0.0
 10
5.4587637813
 20
4.0350605657
 30
0.0
 10
5.4613402554
 20
4.0643083941
 30
0.0
 10
5.4654183485
 20
4.0934495344
 30
0.0
 10
5.4729038985
 20
4.1319787557
 30
0.0
 10
5.4862026721
 20
4.1792056145
 30
0.0
 10
5.5051222635
 20
4.2244296449
 30
0.0
 10
5.523770021
 20
4.2587211653
 30
0.0
 10
5.5342894081
 20
4.2751445072
 30
0.0
 10
5.5398476156
 20
4.2831426841
 30
0.0
  0
SPLINE
  5
2BF
100
AcDbEntity
  8
0
100
AcDbSpline
 62
7
  6
CONTINUOUS
 70
0
 71
3
 72
25
 73
21
 74
0
 42
0.0000001
 43
0.0000001
 44
0.0000000001
 40
0.0
 40
0.0
 40
0.0
 40
0.0
 40
0.06204792
 40
0.1243194234
 40
0.1867442447
 40
0.2491846735
 40
0.3114350102
 40
0.3424478185
 40
0.3733653613
 40
0.4041837181
 40
0.4349072354
 40
0.4655723552
 40
0.4962365832
 40
0.5577314962
 40
0.6196743364
 40
0.6821853846
 40
0.7452613608
 40
0.808797493
 40
0.8726079261
 40
1.0
 40
1.0
 40
1.0
 40
1.0
 10
6.2305994209
 20
3.2837937865
 30
0.0
 10
6.2448184265
 20
3.2816864904
 30
0.0
 10
6.2734894047
 20
3.2786039561
 30
0.0
 10
6.3167757366
 20
3.2773738876
 30
0.0
 10
6.3601203891
 20
3.2795238993
 30
0.0
 10
6.4031561065
 20
3.2850843746
 30
0.0
 10
6.4384701472
 20
3.2926712467
 30
0.0
 10
6.4661417637
 20
3.3005687706
 30
0.0
 10
6.4865190449
 20
3.3074087976
 30
0.0
 10
6.5064869248
 20
3.31518323
 30
0.0
 10
6.5259911472
 20
3.3239161362
 30
0.0
 10
6.5450060553
 20
3.3335893275
 30
0.0
 10
6.5697433185
 20
3.3476673219
 30
0.0
 10
6.5995643931
 20
3.3673776749
 30
0.0
 10
6.633565829
 20
3.3938866701
 30
0.0
 10
6.6659696413
 20
3.4228667756
 30
0.0
 10
6.6969158573
 20
3.4539096233
 30
0.0
 10
6.7265450002
 20
3.4866111109
 30
0.0
 10
6.7644504164
 20
3.5318562874
 30
0.0
 10
6.791333562
 20
3.5670871223
 30
0.0
 10
6.8088837863
 20
3.5908139449
 30
0.0
  0
SPLINE
  5
2C0
100
AcDbEntity
  8
0
100
AcDbSpline
 62
7
  6
CONTINUOUS
 70
0
 71
3
 72
50
 73
46
 74
0
 42
0.0000001
 43
0.0000001
 44
0.0000000001
 40
0.0
 40
0.0
 40
0.0
 40
0.0
 40
0.0623490965
 40
0.1246994047
 40
0.15590621
 40
0.1871873214
 40
0.2028781287
 40
0.2185941946
 40
0.250012277
 40
0.2656862188
 40
0.2813214517
 40
0.2969145751
 40
0.3124684966
 40
0.3279930856
 40
0.3435068488
 40
0.3590363164
 40
0.3745990057
 40
0.3902002222
 40
0.4058349158
 40
0.4371424854
 40
0.4683810696
 40
0.4995217104
 40
0.5150622585
 40
0.5305932415
 40
0.5461304415
 40
0.5616931256
 40
0.5772781059
 40
0.5928765226
 40
0.624095988
 40
0.6397352766
 40
0.6553998496
 40
0.6867314687
 40
0.7023806599
 40
0.7180025287
 40
0.7335942534
 40
0.749161064
 40
0.7647257342
 40
0.7803120233
 40
0.8115977419
 40
0.8430841986
 40
0.8747337294
 40
0.9064362908
 40
0.9380256996
 40
0.9692934011
 40
1.0
 40
1.0
 40
1.0
 40
1.0
 10
7.3969816764
 20
2.4421024464
 30
0.0
 10
7.3718757171
 20
2.4501212775
 30
0.0
 10
7.321941665
 20
2.4670652189
 30
0.0
 10
7.2608563659
 20
2.4919731554
 30
0.0
 10
7.2133351487
 20
2.5149548432
 30
0.0
 10
7.1842991019
 20
2.5307678283
 30
0.0
 10
7.1615549042
 20
2.5443715207
 30
0.0
 10
7.1391654898
 20
2.5586579321
 30
0.0
 10
7.1174639537
 20
2.5739957599
 30
0.0
 10
7.096691984
 20
2.5904846668
 30
0.0
 10
7.0816670098
 20
2.6034289893
 30
0.0
 10
7.0672534144
 20
2.6169778574
 30
0.0
 10
7.0535195724
 20
2.6311515129
 30
0.0
 10
7.0405298053
 20
2.6459675587
 30
0.0
 10
7.0283641532
 20
2.6614542736
 30
0.0
 10
7.0169646165
 20
2.6775302293
 30
0.0
 10
7.0062383095
 20
2.6941049721
 30
0.0
 10
6.9960982479
 20
2.7110948443
 30
0.0
 10
6.9832375622
 20
2.7341972217
 30
0.0
 10
6.9682115822
 20
2.7636414032
 30
0.0
 10
6.9510929654
 20
2.7993517123
 30
0.0
 10
6.9367959067
 20
2.8290263091
 30
0.0
 10
6.9248619536
 20
2.8524618598
 30
0.0
 10
6.9155446868
 20
2.8698235956
 30
0.0
 10
6.9057342825
 20
2.886924026
 30
0.0
 10
6.8953145052
 20
2.9036881173
 30
0.0
 10
6.8842489948
 20
2.9200659034
 30
0.0
 10
6.8686041772
 20
2.9413100285
 30
0.0
 10
6.8515723716
 20
2.9615411185
 30
0.0
 10
6.8331061688
 20
2.9804629383
 30
0.0
 10
6.8136542185
 20
2.9984380308
 30
0.0
 10
6.7928044702
 20
3.0148628969
 30
0.0
 10
6.7707175731
 20
3.0294585224
 30
0.0
 10
6.7535798513
 20
3.0394171945
 30
0.0
 10
6.7359095897
 20
3.0483210606
 30
0.0
 10
6.7177387634
 20
3.0560927637
 30
0.0
 10
6.6991311712
 20
3.0627420455
 30
0.0
 10
6.6737939488
 20
3.070173901
 30
0.0
 10
6.6412819766
 20
3.0768488764
 30
0.0
 10
6.6015244106
 20
3.0809614473
 30
0.0
 10
6.5613898059
 20
3.0815010001
 30
0.0
 10
6.5213097859
 20
3.0787701251
 30
0.0
 10
6.4817117305
 20
3.0730683403
 30
0.0
 10
6.4430284139
 20
3.0646930981
 30
0.0
 10
6.4178327092
 20
3.0574366001
 30
0.0
 10
6.40548689
 20
3.0534291927
 30
0.0
  0
LINE
  5
2C1
100
AcDbEntity
  8
0
100
AcDbLine
 62
7
  6
CONTINUOUS
 10
7.4229437223
 20
2.6732737603
 11
7.4229674857
 21
2.4610849733
  0
SPLINE
  5
2C2
100
AcDbEntity
  8
0
100
AcDbSpline
 62
7
  6
CONTINUOUS
 70
0
 71
3
 72
26
 73
22
 74
0
 42
0.0000001
 43
0.0000001
 44
0.0000000001
 40
0.0
 40
0.0
 40
0.0
 40
0.0
 40
0.0619687529
 40
0.124533841
 40
0.1877408551
 40
0.2514734151
 40
0.315487004
 40
0.3794381358
 40
0.4429085205
 40
0.5055440635
 40
0.5675009853
 40
0.6290808271
 40
0.6598250648
 40
0.6905839878
 40
0.721392255
 40
0.7522796339
 40
0.7832378812
 40
0.8142396486
 40
0.8762695846
 40
0.9382205209
 40
1.0
 40
1.0
 40
1.0
 40
1.0
 10
6.8449296178
 20
3.5777637252
 30
0.0
 10
6.8436076979
 20
3.5549452098
 30
0.0
 10
6.8436172091
 20
3.508900548
 30
0.0
 10
6.8508524962
 20
3.4399272848
 30
0.0
 10
6.8646151489
 20
3.3713030909
 30
0.0
 10
6.8842298999
 20
3.303580417
 30
0.0
 10
6.9090288645
 20
3.2372989802
 30
0.0
 10
6.9383502794
 20
3.1730065895
 30
0.0
 10
6.9715535447
 20
3.1112143831
 30
0.0
 10
7.0081476783
 20
3.0522334356
 30
0.0
 10
7.0479798521
 20
2.9962432893
 30
0.0
 10
7.0838477359
 20
2.9520125875
 30
0.0
 10
7.114062595
 20
2.918121441
 30
0.0
 10
7.1374966906
 20
2.8934126554
 30
0.0
 10
7.1617103984
 20
2.8693930425
 30
0.0
 10
7.1866854026
 20
2.8460583043
 30
0.0
 10
7.2124118485
 20
2.8234453403
 30
0.0
 10
7.2476958267
 20
2.7943407057
 30
0.0
 10
7.293542474
 20
2.7601178738
 30
0.0
 10
7.3511987073
 20
2.7230005589
 30
0.0
 10
7.3913572993
 20
2.7012041595
 30
0.0
 10
7.4118078625
 20
2.6911532848
 30
0.0
  0
SPLINE
  5
2C3
100
AcDbEntity
  8
0
100
AcDbSpline
 62
7
  6
CONTINUOUS
 70
0
 71
3
 72
54
 73
50
 74
0
 42
0.0000001
 43
0.0000001
 44
0.0000000001
 40
0.0
 40
0.0
 40
0.0
 40
0.0
 40
0.0623599141
 40
0.1247004074
 40
0.1558852788
 40
0.1871173315
 40
0.2184280171
 40
0.2497469721
 40
0.2653865791
 40
0.2810056963
 40
0.2966046836
 40
0.3121884514
 40
0.3277668688
 40
0.3433530755
 40
0.3589559921
 40
0.3745800891
 40
0.4058868088
 40
0.4372460146
 40
0.4685789192
 40
0.4842047471
 40
0.4998024133
 40
0.5153817369
 40
0.5309517118
 40
0.5387359067
 40
0.5465206468
 40
0.5620927212
 40
0.5776738266
 40
0.5932771166
 40
0.6089247215
 40
0.6246215026
 40
0.6403214514
 40
0.6559891516
 40
0.6716137027
 40
0.6872134707
 40
0.7028312872
 40
0.7184827344
 40
0.7341575689
 40
0.749832109
 40
0.7654772805
 40
0.7811072444
 40
0.796752501
 40
0.8124261573
 40
0.8438241779
 40
0.8595124583
 40
0.8751557725
 40
0.9063621754
 40
0.9375565437
 40
0.9687759673
 40
1.0
 40
1.0
 40
1.0
 40
1.0
 10
7.3903315514
 20
3.0007142821
 30
0.0
 10
7.3707340202
 20
3.0167608499
 30
0.0
 10
7.3315934302
 20
3.0489084231
 30
0.0
 10
7.2838296791
 20
3.0905062919
 30
0.0
 10
7.2470094893
 20
3.1253321764
 30
0.0
 10
7.2202470728
 20
3.1524196096
 30
0.0
 10
7.1945468125
 20
3.1805946233
 30
0.0
 10
7.174294143
 20
3.2051225972
 30
0.0
 10
7.1590048191
 20
3.2254319521
 30
0.0
 10
7.1480580966
 20
3.2410057428
 30
0.0
 10
7.1376819191
 20
3.25693889
 30
0.0
 10
7.1279297909
 20
3.2732430095
 30
0.0
 10
7.1188590958
 20
3.2899309159
 30
0.0
 10
7.1105167986
 20
3.3070031169
 30
0.0
 10
7.1028714795
 20
3.3244182829
 30
0.0
 10
7.0935704013
 20
3.3480592331
 30
0.0
 10
7.0835681426
 20
3.3782746593
 30
0.0
 10
7.0739676027
 20
3.4152515673
 30
0.0
 10
7.0677841118
 20
3.4464733042
 30
0.0
 10
7.0638257949
 20
3.47157393
 30
0.0
 10
7.0613411211
 20
3.4904230771
 30
0.0
 10
7.0593250042
 20
3.5093049227
 30
0.0
 10
7.0580231797
 20
3.5250666042
 30
0.0
 10
7.0572021221
 20
3.5376879658
 30
0.0
 10
7.056524373
 20
3.5503186641
 30
0.0
 10
7.0559752703
 20
3.5661268382
 30
0.0
 10
7.0558978794
 20
3.58512139
 30
0.0
 10
7.0565061023
 20
3.60413834
 30
0.0
 10
7.0579022928
 20
3.6231621226
 30
0.0
 10
7.0601882963
 20
3.6421411086
 30
0.0
 10
7.0635015976
 20
3.6609790347
 30
0.0
 10
7.0679763259
 20
3.6795486584
 30
0.0
 10
7.0737486181
 20
3.6977179788
 30
0.0
 10
7.0809534749
 20
3.7153526573
 30
0.0
 10
7.0897158477
 20
3.7322814819
 30
0.0
 10
7.0999044268
 20
3.74842437
 30
0.0
 10
7.1113822376
 20
3.7637042129
 30
0.0
 10
7.1240121982
 20
3.7780414289
 30
0.0
 10
7.137681954
 20
3.7913630226
 30
0.0
 10
7.152260329
 20
3.8036609407
 30
0.0
 10
7.1676201631
 20
3.8149836655
 30
0.0
 10
7.1890003034
 20
3.8288552139
 30
0.0
 10
7.2114788542
 20
3.8409795178
 30
0.0
 10
7.2346475707
 20
3.8515905988
 30
0.0
 10
7.2581411653
 20
3.8612646096
 30
0.0
 10
7.2880716721
 20
3.8717763984
 30
0.0
 10
7.3246014464
 20
3.8823853186
 30
0.0
 10
7.3615209029
 20
3.8915479288
 30
0.0
 10
7.386276453
 20
3.8970695739
 30
0.0
 10
7.3986660929
 20
3.8997787219
 30
0.0
  0
LINE
  5
2C4
100
AcDbEntity
  8
0
100
AcDbLine
 62
7
  6
CONTINUOUS
 10
7.4228459877
 20
3.8803155667
 11
7.4228776393
 21
3.0161304829
  0
LINE
  5
2C5
100
AcDbEntity
  8
0
100
AcDbLine
 62
7
  6
CONTINUOUS
 10
6.6098042931
 20
1.8601114001
 11
6.821946963
 21
1.8600876423
  0
SPLINE
  5
2C6
100
AcDbEntity
  8
0
100
AcDbSpline
 62
7
  6
CONTINUOUS
 70
0
 71
3
 72
51
 73
47
 74
0
 42
0.0000001
 43
0.0000001
 44
0.0000000001
 40
0.0
 40
0.0
 40
0.0
 40
0.0
 40
0.0623478992
 40
0.1246970104
 40
0.1559031993
 40
0.187183646
 40
0.2028741089
 40
0.2185899059
 40
0.2500076655
 40
0.2656815075
 40
0.2813166415
 40
0.2969096221
 40
0.3124633005
 40
0.3279874771
 40
0.3435005702
 40
0.3590291575
 40
0.3745909256
 40
0.3901913616
 40
0.4058256008
 40
0.4371339628
 40
0.4683756973
 40
0.4995187406
 40
0.5150590521
 40
0.5305882276
 40
0.5461216134
 40
0.5616785256
 40
0.5772575174
 40
0.5928516067
 40
0.6240737241
 40
0.6397221131
 40
0.6554007009
 40
0.686756618
 40
0.7024086229
 40
0.7180243379
 40
0.7336009795
 40
0.7491459409
 40
0.7646877008
 40
0.7802558047
 40
0.7958706911
 40
0.8115442773
 40
0.8430684405
 40
0.8747919552
 40
0.9065780591
 40
0.9382207264
 40
0.9694610293
 40
1.0
 40
1.0
 40
1.0
 40
1.0
 10
6.8409245298
 20
1.8860889586
 30
0.0
 10
6.8328835264
 20
1.9111935387
 30
0.0
 10
6.8158955562
 20
1.9611241161
 30
0.0
 10
6.7909341069
 20
2.0222022261
 30
0.0
 10
6.7679110665
 20
2.0697154822
 30
0.0
 10
6.7520729475
 20
2.0987455312
 30
0.0
 10
6.7384496169
 20
2.12148431
 30
0.0
 10
6.7241439402
 20
2.1438680606
 30
0.0
 10
6.708787664
 20
2.1655634964
 30
0.0
 10
6.6922814434
 20
2.1863290642
 30
0.0
 10
6.6793247984
 20
2.2013491219
 30
0.0
 10
6.6657643765
 20
2.2157576835
 30
0.0
 10
6.6515800184
 20
2.2294863733
 30
0.0
 10
6.6367542697
 20
2.2424709404
 30
0.0
 10
6.6212587143
 20
2.2546311853
 30
0.0
 10
6.605174026
 20
2.2660243021
 30
0.0
 10
6.5885905602
 20
2.2767433286
 30
0.0
 10
6.5715916622
 20
2.2868752137
 30
0.0
 10
6.5484760661
 20
2.2997240453
 30
0.0
 10
6.5190131724
 20
2.3147331244
 30
0.0
 10
6.4832777567
 20
2.3318262547
 30
0.0
 10
6.4535808806
 20
2.3460993086
 30
0.0
 10
6.4301283352
 20
2.3580132738
 30
0.0
 10
6.412755902
 20
2.3673147552
 30
0.0
 10
6.3956465921
 20
2.3771089451
 30
0.0
 10
6.3788753592
 20
2.3875132198
 30
0.0
 10
6.3624902702
 20
2.3985636756
 30
0.0
 10
6.3412290439
 20
2.414189842
 30
0.0
 10
6.3209693483
 20
2.4312005392
 30
0.0
 10
6.3019954946
 20
2.4496370992
 30
0.0
 10
6.2839471359
 20
2.4690561327
 30
0.0
 10
6.2674403079
 20
2.4898718271
 30
0.0
 10
6.2527920083
 20
2.5119423752
 30
0.0
 10
6.2428246182
 20
2.5290719282
 30
0.0
 10
6.2339513008
 20
2.5467432563
 30
0.0
 10
6.2262629109
 20
2.5649282239
 30
0.0
 10
6.2197458469
 20
2.5835596244
 30
0.0
 10
6.2143462852
 20
2.6025742572
 30
0.0
 10
6.2100165116
 20
2.6219168849
 30
0.0
 10
6.2055961415
 20
2.64811425
 30
0.0
 10
6.2025124833
 20
2.6813939498
 30
0.0
 10
6.2023092942
 20
2.7216169534
 30
0.0
 10
6.205199376
 20
2.7617792957
 30
0.0
 10
6.2107939453
 20
2.8014410393
 30
0.0
 10
6.2187060394
 20
2.8401617812
 30
0.0
 10
6.2253693468
 20
2.8654336554
 30
0.0
 10
6.2289942836
 20
2.8778263621
 30
0.0
  0
SPLINE
  5
2C7
100
AcDbEntity
  8
0
100
AcDbSpline
 62
7
  6
CONTINUOUS
 70
0
 71
3
 72
26
 73
22
 74
0
 42
0.0000001
 43
0.0000001
 44
0.0000000001
 40
0.0
 40
0.0
 40
0.0
 40
0.0
 40
0.0619592627
 40
0.1240912741
 40
0.1863167286
 40
0.2485319312
 40
0.3106404868
 40
0.3416399225
 40
0.3725909977
 40
0.403492408
 40
0.434349478
 40
0.465193328
 40
0.4960614904
 40
0.5579729135
 40
0.6202599956
 40
0.6829848184
 40
0.7461231486
 40
0.8095774133
 40
0.8731886263
 40
0.9367468361
 40
1.0
 40
1.0
 40
1.0
 40
1.0
 10
5.9994532709
 20
3.0512892232
 30
0.0
 10
6.0015523002
 20
3.0369832569
 30
0.0
 10
6.0045241544
 20
3.008135946
 30
0.0
 10
6.0053282057
 20
2.9646156429
 30
0.0
 10
6.0025056957
 20
2.9211160976
 30
0.0
 10
5.996056886
 20
2.8780117137
 30
0.0
 10
5.9876494782
 20
2.8427022741
 30
0.0
 10
5.9791024914
 20
2.8150333207
 30
0.0
 10
5.9717858668
 20
2.7946294609
 30
0.0
 10
5.9635606234
 20
2.7746104946
 30
0.0
 10
5.9544182588
 20
2.755020892
 30
0.0
 10
5.9443943609
 20
2.7358765359
 30
0.0
 10
5.9299037978
 20
2.7109215549
 30
0.0
 10
5.9097754268
 20
2.6807973416
 30
0.0
 10
5.8828222695
 20
2.6464524543
 30
0.0
 10
5.8533792326
 20
2.6138369492
 30
0.0
 10
5.8217818498
 20
2.5829222515
 30
0.0
 10
5.7883627949
 20
2.5536787057
 30
0.0
 10
5.7534540386
 20
2.5260785945
 30
0.0
 10
5.7173879451
 20
2.5000957361
 30
0.0
 10
5.6926952162
 20
2.4837700459
 30
0.0
 10
5.6802365715
 20
2.4758534899
 30
0.0
  0
SPLINE
  5
2C8
100
AcDbEntity
  8
0
100
AcDbSpline
 62
7
  6
CONTINUOUS
 70
0
 71
3
 72
25
 73
21
 74
0
 42
0.0000001
 43
0.0000001
 44
0.0000000001
 40
0.0
 40
0.0
 40
0.0
 40
0.0
 40
0.061880264
 40
0.1243335953
 40
0.1874460929
 40
0.2511257366
 40
0.3151393069
 40
0.3791444908
 40
0.4427164805
 40
0.5054560359
 40
0.5674720539
 40
0.6290755521
 40
0.6598217476
 40
0.6905778298
 40
0.7213798678
 40
0.7522604288
 40
0.8142107926
 40
0.8762487447
 40
0.9382109446
 40
1.0
 40
1.0
 40
1.0
 40
1.0
 10
5.6925701597
 20
2.4390377936
 30
0.0
 10
5.7156050287
 20
2.4408950415
 30
0.0
 10
5.7621501507
 20
2.441832714
 30
0.0
 10
5.8319945509
 20
2.4356548847
 30
0.0
 10
5.9015622952
 20
2.4226340745
 30
0.0
 10
5.9702815377
 20
2.4034848196
 30
0.0
 10
6.037594456
 20
2.3789127955
 30
0.0
 10
6.1029349591
 20
2.3496173297
 30
0.0
 10
6.1657607745
 20
2.3162780291
 30
0.0
 10
6.2257324589
 20
2.279446343
 30
0.0
 10
6.2826437646
 20
2.2393054839
 30
0.0
 10
6.3275742107
 20
2.2031182568
 30
0.0
 10
6.3619795543
 20
2.1726139417
 30
0.0
 10
6.3870507166
 20
2.1489468239
 30
0.0
 10
6.411413367
 20
2.1244803563
 30
0.0
 10
6.4429883575
 20
2.0907853044
 30
0.0
 10
6.4805783828
 20
2.0467752952
 30
0.0
 10
6.5221710883
 20
1.9910983992
 30
0.0
 10
6.5597402932
 20
1.932697127
 30
0.0
 10
6.5817662127
 20
1.8920028865
 30
0.0
 10
6.5919103627
 20
1.8712766326
 30
0.0
  0
SPLINE
  5
2C9
100
AcDbEntity
  8
0
100
AcDbSpline
 62
7
  6
CONTINUOUS
 70
0
 71
3
 72
54
 73
50
 74
0
 42
0.0000001
 43
0.0000001
 44
0.0000000001
 40
0.0
 40
0.0
 40
0.0
 40
0.0
 40
0.0623599141
 40
0.1247004074
 40
0.1558852788
 40
0.1871173315
 40
0.2184280171
 40
0.2497469721
 40
0.2653865791
 40
0.2810056963
 40
0.2966046836
 40
0.3121884514
 40
0.3277668688
 40
0.3433530755
 40
0.3589559921
 40
0.3745800891
 40
0.4058868088
 40
0.4372460146
 40
0.4685789192
 40
0.4842047471
 40
0.4998024133
 40
0.5153817369
 40
0.5309517118
 40
0.5387359067
 40
0.5465206468
 40
0.5620927212
 40
0.5776738266
 40
0.5932771166
 40
0.6089247215
 40
0.6246215026
 40
0.6403214514
 40
0.6559891516
 40
0.6716137027
 40
0.6872134707
 40
0.7028312872
 40
0.7184827344
 40
0.7341575689
 40
0.749832109
 40
0.7654772805
 40
0.7811072444
 40
0.796752501
 40
0.8124261573
 40
0.8438241779
 40
0.8595124583
 40
0.8751557725
 40
0.9063621754
 40
0.9375565437
 40
0.9687759673
 40
1.0
 40
1.0
 40
1.0
 40
1.0
 10
6.2823408421
 20
1.8927235728
 30
0.0
 10
6.2662942744
 20
1.912321104
 30
0.0
 10
6.2341467012
 20
1.951461694
 30
0.0
 10
6.1925488324
 20
1.9992254452
 30
0.0
 10
6.1577229478
 20
2.0360456349
 30
0.0
 10
6.1306355146
 20
2.0628080514
 30
0.0
 10
6.1024605009
 20
2.0885083117
 30
0.0
 10
6.077932527
 20
2.1087609812
 30
0.0
 10
6.0576231721
 20
2.1240503051
 30
0.0
 10
6.0420493815
 20
2.1349970276
 30
0.0
 10
6.0261162342
 20
2.1453732051
 30
0.0
 10
6.0098121147
 20
2.1551253333
 30
0.0
 10
5.9931242083
 20
2.1641960284
 30
0.0
 10
5.9760520074
 20
2.1725383256
 30
0.0
 10
5.9586368413
 20
2.1801836447
 30
0.0
 10
5.9349958911
 20
2.189484723
 30
0.0
 10
5.904780465
 20
2.1994869816
 30
0.0
 10
5.8678035569
 20
2.2090875215
 30
0.0
 10
5.83658182
 20
2.2152710124
 30
0.0
 10
5.8114811942
 20
2.2192293294
 30
0.0
 10
5.7926320472
 20
2.2217140031
 30
0.0
 10
5.7737502015
 20
2.2237301201
 30
0.0
 10
5.75798852
 20
2.2250319445
 30
0.0
 10
5.7453671584
 20
2.2258530022
 30
0.0
 10
5.7327364601
 20
2.2265307512
 30
0.0
 10
5.716928286
 20
2.2270798539
 30
0.0
 10
5.6979337342
 20
2.2271572449
 30
0.0
 10
5.6789167842
 20
2.2265490219
 30
0.0
 10
5.6598930016
 20
2.2251528314
 30
0.0
 10
5.6409140156
 20
2.2228668279
 30
0.0
 10
5.6220760895
 20
2.2195535267
 30
0.0
 10
5.6035064658
 20
2.2150787983
 30
0.0
 10
5.5853371454
 20
2.2093065061
 30
0.0
 10
5.567702467
 20
2.2021016493
 30
0.0
 10
5.5507736423
 20
2.1933392766
 30
0.0
 10
5.5346307542
 20
2.1831506974
 30
0.0
 10
5.5193509113
 20
2.1716728866
 30
0.0
 10
5.5050136953
 20
2.159042926
 30
0.0
 10
5.4916921016
 20
2.1453731702
 30
0.0
 10
5.4793941835
 20
2.1307947952
 30
0.0
 10
5.4680714587
 20
2.1154349611
 30
0.0
 10
5.4541999104
 20
2.0940548208
 30
0.0
 10
5.4420756064
 20
2.07157627
 30
0.0
 10
5.4314645254
 20
2.0484075536
 30
0.0
 10
5.4217905146
 20
2.0249139589
 30
0.0
 10
5.4112787258
 20
1.9949834521
 30
0.0
 10
5.4006698057
 20
1.9584536778
 30
0.0
 10
5.3915071954
 20
1.9215342213
 30
0.0
 10
5.3859855504
 20
1.8967786712
 30
0.0
 10
5.3832764023
 20
1.8843890314
 30
0.0
  0
LINE
  5
2CA
100
AcDbEntity
  8
0
100
AcDbLine
 62
7
  6
CONTINUOUS
 10
5.4027395575
 20
1.8602091365
 11
6.2669246413
 21
1.8601774849
  0
SPLINE
  5
2CB
100
AcDbEntity
  8
0
100
AcDbSpline
 62
7
  6
CONTINUOUS
 70
0
 71
3
 72
19
 73
15
 74
0
 42
0.0000001
 43
0.0000001
 44
0.0000000001
 40
0.0
 40
0.0
 40
0.0
 40
0.0
 40
0.1247562516
 40
0.1874268154
 40
0.2500281023
 40
0.3125832163
 40
0.3751426882
 40
0.4999787438
 40
0.6248317605
 40
0.6873972544
 40
0.7499549836
 40
0.8125590809
 40
0.8752357666
 40
1.0
 40
1.0
 40
1.0
 40
1.0
 10
5.8996825066
 20
4.0903008262
 30
0.0
 10
5.8990317896
 20
4.0920971838
 30
0.0
 10
5.8976637069
 20
4.0946764681
 30
0.0
 10
5.8951973425
 20
4.0976172471
 30
0.0
 10
5.893043282
 20
4.0995395632
 30
0.0
 10
5.8906384727
 20
4.1011335156
 30
0.0
 10
5.8871632787
 20
4.1027652522
 30
0.0
 10
5.8824256108
 20
4.1038305334
 30
0.0
 10
5.8775837622
 20
4.103460084
 30
0.0
 10
5.8739089538
 20
4.1023473094
 30
0.0
 10
5.8712989943
 20
4.1011172936
 30
0.0
 10
5.8688897637
 20
4.0995260837
 30
0.0
 10
5.8660244839
 20
4.0969720355
 30
0.0
 10
5.864297806
 20
4.0946174331
 30
0.0
 10
5.8633943966
 20
4.0929337907
 30
0.0
  0
SPLINE
  5
2CC
100
AcDbEntity
  8
0
100
AcDbSpline
 62
7
  6
CONTINUOUS
 70
0
 71
3
 72
13
 73
9
 74
0
 42
0.0000001
 43
0.0000001
 44
0.0000000001
 40
0.0
 40
0.0
 40
0.0
 40
0.0
 40
0.1243957992
 40
0.2490689073
 40
0.3740427398
 40
0.4992471039
 40
0.7498629847
 40
1.0
 40
1.0
 40
1.0
 40
1.0
 10
7.360736826
 20
4.1893520075
 30
0.0
 10
7.3576760599
 20
4.1942305251
 30
0.0
 10
7.3517873943
 20
4.2041520379
 30
0.0
 10
7.343772967
 20
4.2195123971
 30
0.0
 10
7.3365801314
 20
4.2353154704
 30
0.0
 10
7.3280821007
 20
4.2568968195
 30
0.0
 10
7.3195290343
 20
4.2846384852
 30
0.0
 10
7.3148849546
 20
4.3073945228
 30
0.0
 10
7.3131201774
 20
4.3188399268
 30
0.0
  0
SPLINE
  5
2CD
100
AcDbEntity
  8
0
100
AcDbSpline
 62
7
  6
CONTINUOUS
 70
0
 71
3
 72
56
 73
52
 74
0
 42
0.0000001
 43
0.0000001
 44
0.0000000001
 40
0.0
 40
0.0
 40
0.0
 40
0.0
 40
0.1247165208
 40
0.1871539676
 40
0.249687962
 40
0.2810069219
 40
0.312367823
 40
0.3751607688
 40
0.4065313087
 40
0.4378498597
 40
0.4691047292
 40
0.5002965645
 40
0.5158737427
 40
0.5314418674
 40
0.5470051796
 40
0.5547867911
 40
0.5625693138
 40
0.578141081
 40
0.5937266313
 40
0.6093273116
 40
0.6249414613
 40
0.6405647945
 40
0.6561821809
 40
0.6717803919
 40
0.6873637003
 40
0.6951589707
 40
0.7029630646
 40
0.7185930627
 40
0.7342412706
 40
0.7498908425
 40
0.7655248376
 40
0.7811358888
 40
0.7967460714
 40
0.8123724315
 40
0.828019005
 40
0.8436784495
 40
0.8515082425
 40
0.859334122
 40
0.8671527155
 40
0.8749615391
 40
0.8827604876
 40
0.8905524962
 40
0.8983441494
 40
0.9061447211
 40
0.9139557541
 40
0.9217742249
 40
0.9374165546
 40
0.9530458459
 40
0.9686599759
 40
0.9843018064
 40
1.0
 40
1.0
 40
1.0
 40
1.0
 10
7.2904627713
 20
4.3355055854
 30
0.0
 10
7.2472593198
 20
4.3290010707
 30
0.0
 10
7.1827503444
 20
4.3168358486
 30
0.0
 10
7.0978618524
 20
4.2956800422
 30
0.0
 10
7.0452814793
 20
4.2803554835
 30
0.0
 10
7.003555079
 20
4.2668186672
 30
0.0
 10
6.9620256974
 20
4.2524133811
 30
0.0
 10
6.9209291872
 20
4.2367113178
 30
0.0
 10
6.8805517985
 20
4.2193179596
 30
0.0
 10
6.8507458477
 20
4.2053501553
 30
0.0
 10
6.8215055175
 20
4.1903687315
 30
0.0
 10
6.7976777345
 20
4.17695972
 30
0.0
 10
6.7790004873
 20
4.1656409033
 30
0.0
 10
6.7651996214
 20
4.1568473889
 30
0.0
 10
6.7538769479
 20
4.1492536698
 30
0.0
 10
6.7449328938
 20
4.1430153234
 30
0.0
 10
6.7360656251
 20
4.1366631839
 30
0.0
 10
6.7251132785
 20
4.1285293808
 30
0.0
 10
6.7121270514
 20
4.1185453245
 30
0.0
 10
6.6992367157
 20
4.1084142018
 30
0.0
 10
6.6863809692
 20
4.0982181741
 30
0.0
 10
6.673512068
 20
4.0880292582
 30
0.0
 10
6.6605173904
 20
4.0780087059
 30
0.0
 10
6.6472659264
 20
4.0683510605
 30
0.0
 10
6.6359063345
 20
4.0607642374
 30
0.0
 10
6.6265786973
 20
4.0550757292
 30
0.0
 10
6.617065999
 20
4.0496693749
 30
0.0
 10
6.6048573702
 20
4.0434525198
 30
0.0
 10
6.5897752745
 20
4.0368866592
 30
0.0
 10
6.5743242783
 20
4.0312386473
 30
0.0
 10
6.5585731172
 20
4.0265357916
 30
0.0
 10
6.5425789668
 20
4.0228042756
 30
0.0
 10
6.5264072856
 20
4.019965179
 30
0.0
 10
6.5101035431
 20
4.0179321536
 30
0.0
 10
6.4937102299
 20
4.0166189861
 30
0.0
 10
6.4800088471
 20
4.0160523874
 30
0.0
 10
6.4690397357
 20
4.0158737498
 30
0.0
 10
6.4608159976
 20
4.0158643299
 30
0.0
 10
6.4526002875
 20
4.015978268
 30
0.0
 10
6.4443977809
 20
4.0162614298
 30
0.0
 10
6.4362141431
 20
4.0167536727
 30
0.0
 10
6.4280551047
 20
4.0174968547
 30
0.0
 10
6.4199266795
 20
4.0185312507
 30
0.0
 10
6.4118409074
 20
4.0199008425
 30
0.0
 10
6.4038095885
 20
4.0216061647
 30
0.0
 10
6.3931927511
 20
4.024317309
 30
0.0
 10
6.380138936
 20
4.0285084752
 30
0.0
 10
6.3649390686
 20
4.034778583
 30
0.0
 10
6.3502880047
 20
4.0422388844
 30
0.0
 10
6.3362006464
 20
4.05075516
 30
0.0
 10
6.3271955059
 20
4.0570505559
 30
0.0
 10
6.3227845057
 20
4.0603347471
 30
0.0
  0
SPLINE
  5
2CE
100
AcDbEntity
  8
0
100
AcDbSpline
 62
7
  6
CONTINUOUS
 70
0
 71
3
 72
45
 73
41
 74
0
 42
0.0000001
 43
0.0000001
 44
0.0000000001
 40
0.0
 40
0.0
 40
0.0
 40
0.0
 40
0.032549621
 40
0.0648426959
 40
0.0967378179
 40
0.1281574816
 40
0.1591054441
 40
0.1896861834
 40
0.2049113045
 40
0.2201395538
 40
0.2354186735
 40
0.2507763461
 40
0.2662096393
 40
0.2817075689
 40
0.3128131193
 40
0.3439261575
 40
0.3594240843
 40
0.3748632514
 40
0.4056504647
 40
0.4364727751
 40
0.4674555058
 40
0.4986683932
 40
0.5300639746
 40
0.5615433718
 40
0.6243220096
 40
0.6555604091
 40
0.6711266469
 40
0.6866574981
 40
0.7021598871
 40
0.7176457092
 40
0.733132858
 40
0.7486371795
 40
0.7797313185
 40
0.8109917848
 40
0.8739266509
 40
0.905562641
 40
0.9371852926
 40
0.9529653193
 40
0.9687048365
 40
1.0
 40
1.0
 40
1.0
 40
1.0
 10
6.2916658473
 20
4.0386069232
 30
0.0
 10
6.2940127692
 20
4.0306923607
 30
0.0
 10
6.2982367368
 20
4.0147864387
 30
0.0
 10
6.3029838629
 20
3.9906962273
 30
0.0
 10
6.3059029457
 20
3.9665991443
 30
0.0
 10
6.3067626569
 20
3.9426748709
 30
0.0
 10
6.3053286307
 20
3.9191048378
 30
0.0
 10
6.3020132706
 20
3.8998732961
 30
0.0
 10
6.297984491
 20
3.8849181549
 30
0.0
 10
6.2942505431
 20
3.8739277667
 30
0.0
 10
6.2897686078
 20
3.8631839239
 30
0.0
 10
6.2845519375
 20
3.8527195615
 30
0.0
 10
6.2786508642
 20
3.8425615892
 30
0.0
 10
6.2699215925
 20
3.8294616353
 30
0.0
 10
6.257545778
 20
3.8140601854
 30
0.0
 10
6.2435133781
 20
3.8001566565
 30
0.0
 10
6.2314400884
 20
3.7900512644
 30
0.0
 10
6.21888757
 20
3.7806855013
 30
0.0
 10
6.2022869768
 20
3.7702997275
 30
0.0
 10
6.1811546236
 20
3.7599687703
 30
0.0
 10
6.1590079933
 20
3.751735492
 30
0.0
 10
6.1360564723
 20
3.7455570932
 30
0.0
 10
6.1125149594
 20
3.7414496699
 30
0.0
 10
6.0807262114
 20
3.7388075415
 30
0.0
 10
6.0487199143
 20
3.7405038281
 30
0.0
 10
6.0214376509
 20
3.7460151465
 30
0.0
 10
6.0062228208
 20
3.7503362712
 30
0.0
 10
5.9950361458
 20
3.7541665592
 30
0.0
 10
5.9840944694
 20
3.7585961588
 30
0.0
 10
5.9734314842
 20
3.7636340874
 30
0.0
 10
5.9630630643
 20
3.7692541043
 30
0.0
 10
5.9496363036
 20
3.7774912604
 30
0.0
 10
5.9336297967
 20
3.7891203131
 30
0.0
 10
5.9098374797
 20
3.8102387426
 30
0.0
 10
5.8889869709
 20
3.8346605758
 30
0.0
 10
5.8714187191
 20
3.861441571
 30
0.0
 10
5.8618262006
 20
3.8790731146
 30
0.0
 10
5.855047016
 20
3.8935857056
 30
0.0
 10
5.8489010706
 20
3.9082866053
 30
0.0
 10
5.8450133064
 20
3.9195870472
 30
0.0
 10
5.8427948422
 20
3.927207751
 30
0.0
  0
SPLINE
  5
2CF
100
AcDbEntity
  8
0
100
AcDbSpline
 62
7
  6
CONTINUOUS
 70
0
 71
3
 72
19
 73
15
 74
0
 42
0.0000001
 43
0.0000001
 44
0.0000000001
 40
0.0
 40
0.0
 40
0.0
 40
0.0
 40
0.1247624931
 40
0.1874380631
 40
0.2500423869
 40
0.3125990148
 40
0.3751583899
 40
0.4999951014
 40
0.624845315
 40
0.6874105745
 40
0.7499676639
 40
0.8125696368
 40
0.8752415175
 40
1.0
 40
1.0
 40
1.0
 40
1.0
 10
5.1948466525
 20
3.419684079
 30
0.0
 10
5.1931660107
 20
3.4187778287
 30
0.0
 10
5.1908164034
 20
3.4170477876
 30
0.0
 10
5.1882694912
 20
3.4141796339
 30
0.0
 10
5.1866836877
 20
3.4117691933
 30
0.0
 10
5.1854588891
 20
3.4091590482
 30
0.0
 10
5.1843523676
 20
3.4054854091
 30
0.0
 10
5.1839891123
 20
3.4006464488
 30
0.0
 10
5.1850593244
 20
3.3959133023
 30
0.0
 10
5.1866933936
 20
3.3924416698
 30
0.0
 10
5.1882885804
 20
3.390039829
 30
0.0
 10
5.1902115081
 20
3.387888821
 30
0.0
 10
5.1931522889
 20
3.3854263572
 30
0.0
 10
5.1957306849
 20
3.384060745
 30
0.0
 10
5.1975262508
 20
3.3834114722
 30
0.0
  0
SPLINE
  5
2D0
100
AcDbEntity
  8
0
100
AcDbSpline
 62
7
  6
CONTINUOUS
 70
0
 71
3
 72
44
 73
40
 74
0
 42
0.0000001
 43
0.0000001
 44
0.0000000001
 40
0.0
 40
0.0
 40
0.0
 40
0.0
 40
0.032569842
 40
0.0649193078
 40
0.0968965613
 40
0.1284102902
 40
0.1594464549
 40
0.1900874227
 40
0.205323917
 40
0.2205465492
 40
0.2358005625
 40
0.2511266297
 40
0.2665294836
 40
0.2820006304
 40
0.3130709977
 40
0.3441828485
 40
0.3596945564
 40
0.3751448654
 40
0.4059304646
 40
0.436727529
 40
0.4676695373
 40
0.4988376853
 40
0.5616009618
 40
0.5930655282
 40
0.6244494862
 40
0.6556967837
 40
0.6867899708
 40
0.7022930608
 40
0.7177759925
 40
0.7332559607
 40
0.7487498773
 40
0.7798171796
 40
0.8110483829
 40
0.8739339264
 40
0.9055559742
 40
0.9371728261
 40
0.9529530118
 40
0.9686949329
 40
1.0
 40
1.0
 40
1.0
 40
1.0
 10
5.244536305
 20
2.9948205292
 30
0.0
 10
5.2524325131
 20
2.9923673754
 30
0.0
 10
5.2683165809
 20
2.9879277226
 30
0.0
 10
5.2924031387
 20
2.9828417596
 30
0.0
 10
5.3165368146
 20
2.9795614932
 30
0.0
 10
5.3405338474
 20
2.9783145689
 30
0.0
 10
5.3642090981
 20
2.9793313607
 30
0.0
 10
5.3835605031
 20
2.9822709313
 30
0.0
 10
5.3986298588
 20
2.9859843629
 30
0.0
 10
5.4097071503
 20
2.9894727608
 30
0.0
 10
5.4205497385
 20
2.9936983123
 30
0.0
 10
5.4311191738
 20
2.9986748326
 30
0.0
 10
5.4413904451
 20
3.0043543828
 30
0.0
 10
5.45465696
 20
3.0128142176
 30
0.0
 10
5.4702914494
 20
3.0249021704
 30
0.0
 10
5.4844487419
 20
3.0386990641
 30
0.0
 10
5.4947744105
 20
3.050613194
 30
0.0
 10
5.5043616641
 20
3.0630246178
 30
0.0
 10
5.5150152028
 20
3.0794743869
 30
0.0
 10
5.5256499321
 20
3.1004629356
 30
0.0
 10
5.5341675583
 20
3.1224999065
 30
0.0
 10
5.5427738451
 20
3.153045856
 30
0.0
 10
5.5471996538
 20
3.1847819753
 30
0.0
 10
5.5472776357
 20
3.2167047423
 30
0.0
 10
5.5451013834
 20
3.2405323638
 30
0.0
 10
5.540633716
 20
3.2639415192
 30
0.0
 10
5.5349432177
 20
3.2829093023
 30
0.0
 10
5.5291912043
 20
3.2975896527
 30
0.0
 10
5.5242697998
 20
3.3083175059
 30
0.0
 10
5.5187556012
 20
3.3187500255
 30
0.0
 10
5.5106491901
 20
3.3322613117
 30
0.0
 10
5.4991617762
 20
3.3483741118
 30
0.0
 10
5.4782270083
 20
3.372335573
 30
0.0
 10
5.4539302323
 20
3.3933496752
 30
0.0
 10
5.4272330814
 20
3.4110710533
 30
0.0
 10
5.4096357638
 20
3.4207577842
 30
0.0
 10
5.3951408905
 20
3.4276100165
 30
0.0
 10
5.3804509523
 20
3.4338307796
 30
0.0
 10
5.3691555675
 20
3.4377782497
 30
0.0
 10
5.3615361547
 20
3.4400378688
 30
0.0
  0
SPLINE
  5
2D1
100
AcDbEntity
  8
0
100
AcDbSpline
 62
7
  6
CONTINUOUS
 70
0
 71
3
 72
56
 73
52
 74
0
 42
0.0000001
 43
0.0000001
 44
0.0000000001
 40
0.0
 40
0.0
 40
0.0
 40
0.0
 40
0.124711908
 40
0.1871479864
 40
0.2496817836
 40
0.2810012827
 40
0.3123632125
 40
0.3751537914
 40
0.4065203545
 40
0.4378335218
 40
0.4690823006
 40
0.500268343
 40
0.5158431652
 40
0.5314095411
 40
0.5469719363
 40
0.5547534817
 40
0.5625363184
 40
0.5781098008
 40
0.593697708
 40
0.6249166001
 40
0.6405397095
 40
0.6561530648
 40
0.6717462688
 40
0.6873287637
 40
0.6951274016
 40
0.7029353477
 40
0.7185704474
 40
0.734219908
 40
0.7498666139
 40
0.7654937488
 40
0.781101688
 40
0.7967145046
 40
0.8123458036
 40
0.8279964162
 40
0.8358264605
 40
0.8436566581
 40
0.8514842614
 40
0.859306014
 40
0.8671187881
 40
0.8749213922
 40
0.8827154504
 40
0.8905060248
 40
0.8983020374
 40
0.9061092227
 40
0.9217431026
 40
0.9373837013
 40
0.9451986627
 40
0.9530065822
 40
0.968623629
 40
0.9842808468
 40
1.0
 40
1.0
 40
1.0
 40
1.0
 10
4.9524032815
 20
1.9925739433
 30
0.0
 10
4.958883634
 20
2.0359434016
 30
0.0
 10
4.9710343405
 20
2.1007018578
 30
0.0
 10
4.9922165094
 20
2.1859164309
 30
0.0
 10
5.007577072
 20
2.2386979256
 30
0.0
 10
5.0211551235
 20
2.2805827049
 30
0.0
 10
5.0356079843
 20
2.3222680281
 30
0.0
 10
5.051377745
 20
2.3635121199
 30
0.0
 10
5.0688668159
 20
2.4040216702
 30
0.0
 10
5.0829206326
 20
2.4339164287
 30
0.0
 10
5.0980041427
 20
2.4632348514
 30
0.0
 10
5.1115126775
 20
2.4871175371
 30
0.0
 10
5.1229201972
 20
2.5058317303
 30
0.0
 10
5.1317852346
 20
2.5196569288
 30
0.0
 10
5.1394423316
 20
2.5309968535
 30
0.0
 10
5.1457345209
 20
2.5399523536
 30
0.0
 10
5.152140336
 20
2.5488317433
 30
0.0
 10
5.1603323219
 20
2.5598056911
 30
0.0
 10
5.1737268245
 20
2.5771755756
 30
0.0
 10
5.1873764458
 20
2.5943677631
 30
0.0
 10
5.2009651916
 20
2.6116191422
 30
0.0
 10
5.2109459591
 20
2.6247174997
 30
0.0
 10
5.2205192072
 20
2.6381013964
 30
0.0
 10
5.2279951835
 20
2.6495948809
 30
0.0
 10
5.2335650894
 20
2.6590436928
 30
0.0
 10
5.2388468691
 20
2.6686774113
 30
0.0
 10
5.244900081
 20
2.6810287301
 30
0.0
 10
5.2512543224
 20
2.6962687778
 30
0.0
 10
5.2566766582
 20
2.7118621415
 30
0.0
 10
5.2611344263
 20
2.7277431882
 30
0.0
 10
5.2646234111
 20
2.7438513561
 30
0.0
 10
5.2672361743
 20
2.7601241287
 30
0.0
 10
5.2690578991
 20
2.7765179084
 30
0.0
 10
5.2699902495
 20
2.7902426544
 30
0.0
 10
5.27042835
 20
2.8012438247
 30
0.0
 10
5.2706140871
 20
2.8095009072
 30
0.0
 10
5.2706664733
 20
2.8177568629
 30
0.0
 10
5.2706010983
 20
2.8260066364
 30
0.0
 10
5.2703858769
 20
2.834245334
 30
0.0
 10
5.2699768111
 20
2.8424672769
 30
0.0
 10
5.2693325158
 20
2.8506667003
 30
0.0
 10
5.2684120597
 20
2.8588378854
 30
0.0
 10
5.2671700035
 20
2.8669717258
 30
0.0
 10
5.2650555232
 20
2.8777525449
 30
0.0
 10
5.2615806659
 20
2.891064588
 30
0.0
 10
5.2570366892
 20
2.9040531943
 30
0.0
 10
5.2527819001
 20
2.9141920631
 30
0.0
 10
5.2481225703
 20
2.9241423372
 30
0.0
 10
5.2415728631
 20
2.9362390367
 30
0.0
 10
5.2326906789
 20
2.9501861828
 30
0.0
 10
5.2261789142
 20
2.959101706
 30
0.0
 10
5.2227934424
 20
2.9634706657
 30
0.0
  0
SPLINE
  5
2D2
100
AcDbEntity
  8
0
100
AcDbSpline
 62
7
  6
CONTINUOUS
 70
0
 71
3
 72
13
 73
9
 74
0
 42
0.0000001
 43
0.0000001
 44
0.0000000001
 40
0.0
 40
0.0
 40
0.0
 40
0.0
 40
0.1243958571
 40
0.2490690793
 40
0.3740430551
 40
0.4992475589
 40
0.7498635099
 40
1.0
 40
1.0
 40
1.0
 40
1.0
 10
5.0985823921
 20
1.9223182982
 30
0.0
 10
5.0937031234
 20
1.9253795356
 30
0.0
 10
5.0837800564
 20
1.9312690717
 30
0.0
 10
5.068417222
 20
1.9392845408
 30
0.0
 10
5.0526115579
 20
1.9464781676
 30
0.0
 10
5.0310266432
 20
1.9549769113
 30
0.0
 10
5.0032803929
 20
1.9635302286
 30
0.0
 10
4.9805206293
 20
1.9681738341
 30
0.0
 10
4.9690733876
 20
1.9699381973
 30
0.0
  0
SPLINE
  5
2D3
100
AcDbEntity
  8
0
100
AcDbSpline
 62
7
  6
CONTINUOUS
 70
0
 71
3
 72
17
 73
13
 74
0
 42
0.0000001
 43
0.0000001
 44
0.0000000001
 40
0.0
 40
0.0
 40
0.0
 40
0.0
 40
0.1307964674
 40
0.2597132887
 40
0.323494339
 40
0.3868122101
 40
0.4496768132
 40
0.5121071455
 40
0.6358126125
 40
0.7583264683
 40
0.8797554198
 40
1.0
 40
1.0
 40
1.0
 40
1.0
 10
4.6968817898
 20
4.0268562981
 30
0.0
 10
4.6874851832
 20
4.025843323
 30
0.0
 10
4.6687012753
 20
4.0248513997
 30
0.0
 10
4.6453149468
 20
4.0262112736
 30
0.0
 10
4.6269961297
 20
4.0288491186
 30
0.0
 10
4.61353661
 20
4.0315816588
 30
0.0
 10
4.6003527998
 20
4.035067744
 30
0.0
 10
4.5832550766
 20
4.0406991132
 30
0.0
 10
4.5627232617
 20
4.0495462921
 30
0.0
 10
4.5396197803
 20
4.0627660772
 30
0.0
 10
4.5182823422
 20
4.0782486165
 30
0.0
 10
4.505266372
 20
4.0899450466
 30
0.0
 10
4.4991105705
 20
4.0960767495
 30
0.0
  0
SPLINE
  5
2D4
100
AcDbEntity
  8
0
100
AcDbSpline
 62
7
  6
CONTINUOUS
 70
0
 71
3
 72
17
 73
13
 74
0
 42
0.0000001
 43
0.0000001
 44
0.0000000001
 40
0.0
 40
0.0
 40
0.0
 40
0.0
 40
0.1202445802
 40
0.2416735317
 40
0.3641873875
 40
0.4878928545
 40
0.5503231869
 40
0.6131877899
 40
0.6765056611
 40
0.7402867113
 40
0.8692035326
 40
1.0
 40
1.0
 40
1.0
 40
1.0
 10
4.4991105705
 20
4.0960767495
 30
0.0
 10
4.4929912513
 20
4.1022448615
 30
0.0
 10
4.4813210031
 20
4.1152843118
 30
0.0
 10
4.4658813771
 20
4.1366528222
 30
0.0
 10
4.4527080499
 20
4.1597828247
 30
0.0
 10
4.4439021518
 20
4.1803323784
 30
0.0
 10
4.4383051553
 20
4.1974413845
 30
0.0
 10
4.4348455728
 20
4.210632174
 30
0.0
 10
4.4321400878
 20
4.2240971581
 30
0.0
 10
4.4295390635
 20
4.2424212395
 30
0.0
 10
4.4282261919
 20
4.2658102538
 30
0.0
 10
4.4292558634
 20
4.2845921302
 30
0.0
 10
4.4302877209
 20
4.293986682
 30
0.0
  0
SPLINE
  5
2D5
100
AcDbEntity
  8
0
100
AcDbSpline
 62
7
  6
CONTINUOUS
 70
0
 71
3
 72
23
 73
19
 74
0
 42
0.0000001
 43
0.0000001
 44
0.0000000001
 40
0.0
 40
0.0
 40
0.0
 40
0.0
 40
0.0625101028
 40
0.0937611127
 40
0.1250039494
 40
0.1562391809
 40
0.1874725805
 40
0.2499628584
 40
0.3125086334
 40
0.3750502203
 40
0.4375288588
 40
0.4999861895
 40
0.6249306697
 40
0.6874638905
 40
0.7500087162
 40
0.8125436467
 40
0.8750580778
 40
1.0
 40
1.0
 40
1.0
 40
1.0
 10
4.1467917986
 20
4.2833261835
 30
0.0
 10
4.1524033319
 20
4.2753212913
 30
0.0
 10
4.1603981932
 20
4.2630095087
 30
0.0
 10
4.1701380939
 20
4.2460559788
 30
0.0
 10
4.1769695059
 20
4.2330829652
 30
0.0
 10
4.1833093706
 20
4.2198659033
 30
0.0
 10
4.1910945954
 20
4.2019372685
 30
0.0
 10
4.1996273184
 20
4.1790145044
 30
0.0
 10
4.2080873802
 20
4.1509079895
 30
0.0
 10
4.2149369881
 20
4.1223713591
 30
0.0
 10
4.2203124
 20
4.0935359992
 30
0.0
 10
4.2255701875
 20
4.0548003881
 30
0.0
 10
4.2280901265
 20
4.0157317055
 30
0.0
 10
4.2281052948
 20
3.9766235656
 30
0.0
 10
4.2269330925
 20
3.9472981836
 30
0.0
 10
4.2245864017
 20
3.9180457644
 30
0.0
 10
4.2198453921
 20
3.8792312863
 30
0.0
 10
4.2144282319
 20
3.850369364
 30
0.0
 10
4.2099573533
 20
3.831348242
 30
0.0
  0
SPLINE
  5
2D6
100
AcDbEntity
  8
0
100
AcDbSpline
 62
7
  6
CONTINUOUS
 70
0
 71
3
 72
22
 73
18
 74
0
 42
0.0000001
 43
0.0000001
 44
0.0000000001
 40
0.0
 40
0.0
 40
0.0
 40
0.0
 40
0.0625393065
 40
0.1250994308
 40
0.1876406105
 40
0.2188847406
 40
0.2501023293
 40
0.312472261
 40
0.3748074082
 40
0.4371925021
 40
0.4997390734
 40
0.562457218
 40
0.6252390313
 40
0.7505944471
 40
0.8754376493
 40
0.937726024
 40
1.0
 40
1.0
 40
1.0
 40
1.0
 10
4.2337867343
 20
3.8073651838
 30
0.0
 10
4.2433227648
 20
3.8095420453
 30
0.0
 10
4.2625042435
 20
3.8134426147
 30
0.0
 10
4.2914973831
 20
3.8180392178
 30
0.0
 10
4.3157866875
 20
3.8209159391
 30
0.0
 10
4.3352565711
 20
3.8227017641
 30
0.0
 10
4.354727826
 20
3.8241480593
 30
0.0
 10
4.3790949645
 20
3.8252792046
 30
0.0
 10
4.408364751
 20
3.8254402561
 30
0.0
 10
4.4376420879
 20
3.8242913429
 30
0.0
 10
4.4668899163
 20
3.8217148688
 30
0.0
 10
4.4960310566
 20
3.8176367756
 30
0.0
 10
4.5345602779
 20
3.8101512256
 30
0.0
 10
4.5817871367
 20
3.796852452
 30
0.0
 10
4.627011167
 20
3.7779328605
 30
0.0
 10
4.6613026875
 20
3.759285103
 30
0.0
 10
4.6777260293
 20
3.7487657158
 30
0.0
 10
4.6857242062
 20
3.7432075083
 30
0.0
  0
SPLINE
  5
2D7
100
AcDbEntity
  8
0
100
AcDbSpline
 62
7
  6
CONTINUOUS
 70
0
 71
3
 72
25
 73
21
 74
0
 42
0.0000001
 43
0.0000001
 44
0.0000000001
 40
0.0
 40
0.0
 40
0.0
 40
0.0
 40
0.06204792
 40
0.1243194234
 40
0.1867442447
 40
0.2491846735
 40
0.3114350102
 40
0.3424478185
 40
0.3733653612
 40
0.4041837181
 40
0.4349072354
 40
0.4655723551
 40
0.4962365831
 40
0.5577314962
 40
0.6196743363
 40
0.6821853846
 40
0.7452613608
 40
0.8087974931
 40
0.8726079261
 40
1.0
 40
1.0
 40
1.0
 40
1.0
 10
3.6863753073
 20
3.0524556972
 30
0.0
 10
3.6842680114
 20
3.0382366917
 30
0.0
 10
3.6811854774
 20
3.0095657137
 30
0.0
 10
3.6799554094
 20
2.9662793822
 30
0.0
 10
3.6821054215
 20
2.9229347301
 30
0.0
 10
3.6876658971
 20
2.8798990131
 30
0.0
 10
3.6952527695
 20
2.8445849728
 30
0.0
 10
3.7031502935
 20
2.8169133566
 30
0.0
 10
3.7099903206
 20
2.7965360757
 30
0.0
 10
3.7177647531
 20
2.7765681961
 30
0.0
 10
3.7264976594
 20
2.7570639739
 30
0.0
 10
3.7361708508
 20
2.7380490661
 30
0.0
 10
3.7502488452
 20
2.7133118031
 30
0.0
 10
3.7699591982
 20
2.683490729
 30
0.0
 10
3.7964681934
 20
2.6494892934
 30
0.0
 10
3.8254482987
 20
2.6170854815
 30
0.0
 10
3.8564911462
 20
2.5861392659
 30
0.0
 10
3.8891926335
 20
2.5565101233
 30
0.0
 10
3.9344378097
 20
2.5186047074
 30
0.0
 10
3.9696686442
 20
2.491721562
 30
0.0
 10
3.9933954666
 20
2.474171338
 30
0.0
  0
SPLINE
  5
2D8
100
AcDbEntity
  8
0
100
AcDbSpline
 62
7
  6
CONTINUOUS
 70
0
 71
3
 72
50
 73
46
 74
0
 42
0.0000001
 43
0.0000001
 44
0.0000000001
 40
0.0
 40
0.0
 40
0.0
 40
0.0
 40
0.0623490965
 40
0.1246994047
 40
0.15590621
 40
0.1871873214
 40
0.2028781287
 40
0.2185941946
 40
0.250012277
 40
0.2656862188
 40
0.2813214517
 40
0.2969145751
 40
0.3124684966
 40
0.3279930856
 40
0.3435068488
 40
0.3590363164
 40
0.3745990057
 40
0.3902002222
 40
0.4058349158
 40
0.4371424854
 40
0.4683810696
 40
0.4995217104
 40
0.5150622585
 40
0.5305932415
 40
0.5461304415
 40
0.5616931256
 40
0.5772781059
 40
0.5928765226
 40
0.624095988
 40
0.6397352766
 40
0.6553998496
 40
0.6867314687
 40
0.7023806599
 40
0.7180025287
 40
0.7335942534
 40
0.749161064
 40
0.7647257342
 40
0.7803120233
 40
0.8115977419
 40
0.8430841986
 40
0.8747337294
 40
0.9064362908
 40
0.9380256996
 40
0.9692934011
 40
1.0
 40
1.0
 40
1.0
 40
1.0
 10
2.8446839682
 20
1.8860734479
 30
0.0
 10
2.8527027992
 20
1.9111794071
 30
0.0
 10
2.8696467407
 20
1.9611134592
 30
0.0
 10
2.8945546771
 20
2.0221987583
 30
0.0
 10
2.9175363649
 20
2.0697199755
 30
0.0
 10
2.93334935
 20
2.0987560223
 30
0.0
 10
2.9469530425
 20
2.12150022
 30
0.0
 10
2.9612394539
 20
2.1438896344
 30
0.0
 10
2.9765772816
 20
2.1655911705
 30
0.0
 10
2.9930661886
 20
2.1863631402
 30
0.0
 10
3.0060105111
 20
2.2013881144
 30
0.0
 10
3.0195593791
 20
2.2158017099
 30
0.0
 10
3.0337330346
 20
2.2295355518
 30
0.0
 10
3.0485490805
 20
2.2425253189
 30
0.0
 10
3.0640357953
 20
2.254690971
 30
0.0
 10
3.080111751
 20
2.2660905078
 30
0.0
 10
3.0966864939
 20
2.2768168147
 30
0.0
 10
3.113676366
 20
2.2869568764
 30
0.0
 10
3.1367787435
 20
2.299817562
 30
0.0
 10
3.1662229249
 20
2.3148435421
 30
0.0
 10
3.2019332341
 20
2.3319621588
 30
0.0
 10
3.2316078308
 20
2.3462592175
 30
0.0
 10
3.2550433816
 20
2.3581931706
 30
0.0
 10
3.2724051174
 20
2.3675104375
 30
0.0
 10
3.2895055478
 20
2.3773208418
 30
0.0
 10
3.306269639
 20
2.387740619
 30
0.0
 10
3.3226474251
 20
2.3988061294
 30
0.0
 10
3.3438915503
 20
2.414450947
 30
0.0
 10
3.3641226402
 20
2.4314827526
 30
0.0
 10
3.38304446
 20
2.4499489554
 30
0.0
 10
3.4010195525
 20
2.4694009058
 30
0.0
 10
3.4174444187
 20
2.490250654
 30
0.0
 10
3.4320400441
 20
2.5123375512
 30
0.0
 10
3.4419987163
 20
2.529475273
 30
0.0
 10
3.4509025824
 20
2.5471455345
 30
0.0
 10
3.4586742854
 20
2.5653163608
 30
0.0
 10
3.4653235672
 20
2.583923953
 30
0.0
 10
3.4727554227
 20
2.6092611755
 30
0.0
 10
3.4794303982
 20
2.6417731476
 30
0.0
 10
3.483542969
 20
2.6815307136
 30
0.0
 10
3.4840825219
 20
2.7216653183
 30
0.0
 10
3.4813516468
 20
2.7617453383
 30
0.0
 10
3.475649862
 20
2.8013433938
 30
0.0
 10
3.4672746199
 20
2.8400267103
 30
0.0
 10
3.4600181219
 20
2.865222415
 30
0.0
 10
3.4560107144
 20
2.8775682342
 30
0.0
  0
LINE
  5
2D9
100
AcDbEntity
  8
0
100
AcDbLine
 62
7
  6
CONTINUOUS
 10
3.075855282
 20
1.8601114019
 11
2.863666495
 21
1.8600876386
  0
SPLINE
  5
2DA
100
AcDbEntity
  8
0
100
AcDbSpline
 62
7
  6
CONTINUOUS
 70
0
 71
3
 72
26
 73
22
 74
0
 42
0.0000001
 43
0.0000001
 44
0.0000000001
 40
0.0
 40
0.0
 40
0.0
 40
0.0
 40
0.0619687529
 40
0.124533841
 40
0.1877408551
 40
0.2514734151
 40
0.315487004
 40
0.3794381358
 40
0.4429085205
 40
0.5055440635
 40
0.5675009853
 40
0.6290808271
 40
0.6598250648
 40
0.6905839878
 40
0.721392255
 40
0.7522796339
 40
0.7832378812
 40
0.8142396486
 40
0.8762695846
 40
0.9382205209
 40
1.0
 40
1.0
 40
1.0
 40
1.0
 10
3.9803452469
 20
2.4381255065
 30
0.0
 10
3.9575267316
 20
2.4394474263
 30
0.0
 10
3.9114820698
 20
2.4394379151
 30
0.0
 10
3.8425088066
 20
2.432202628
 30
0.0
 10
3.7738846126
 20
2.4184399754
 30
0.0
 10
3.7061619387
 20
2.3988252243
 30
0.0
 10
3.639880502
 20
2.3740262597
 30
0.0
 10
3.5755881112
 20
2.3447048448
 30
0.0
 10
3.5137959048
 20
2.3115015795
 30
0.0
 10
3.4548149574
 20
2.2749074459
 30
0.0
 10
3.398824811
 20
2.2350752721
 30
0.0
 10
3.3545941092
 20
2.1992073883
 30
0.0
 10
3.3207029628
 20
2.1689925292
 30
0.0
 10
3.2959941771
 20
2.1455584337
 30
0.0
 10
3.2719745642
 20
2.1213447258
 30
0.0
 10
3.2486398261
 20
2.0963697217
 30
0.0
 10
3.2260268621
 20
2.0706432758
 30
0.0
 10
3.1969222274
 20
2.0353592975
 30
0.0
 10
3.1626993955
 20
1.9895126503
 30
0.0
 10
3.1255820806
 20
1.9318564169
 30
0.0
 10
3.1037856813
 20
1.8916978249
 30
0.0
 10
3.0937348065
 20
1.8712472617
 30
0.0
  0
SPLINE
  5
2DB
100
AcDbEntity
  8
0
100
AcDbSpline
 62
7
  6
CONTINUOUS
 70
0
 71
3
 72
54
 73
50
 74
0
 42
0.0000001
 43
0.0000001
 44
0.0000000001
 40
0.0
 40
0.0
 40
0.0
 40
0.0
 40
0.0623599141
 40
0.1247004074
 40
0.1558852788
 40
0.1871173315
 40
0.2184280171
 40
0.2497469721
 40
0.2653865791
 40
0.2810056963
 40
0.2966046836
 40
0.3121884514
 40
0.3277668688
 40
0.3433530755
 40
0.3589559921
 40
0.3745800891
 40
0.4058868088
 40
0.4372460146
 40
0.4685789192
 40
0.4842047471
 40
0.4998024133
 40
0.5153817369
 40
0.5309517118
 40
0.5387359067
 40
0.5465206468
 40
0.5620927212
 40
0.5776738266
 40
0.5932771166
 40
0.6089247215
 40
0.6246215026
 40
0.6403214514
 40
0.6559891516
 40
0.6716137027
 40
0.6872134707
 40
0.7028312872
 40
0.7184827344
 40
0.7341575689
 40
0.749832109
 40
0.7654772805
 40
0.7811072444
 40
0.796752501
 40
0.8124261573
 40
0.8438241779
 40
0.8595124583
 40
0.8751557725
 40
0.9063621754
 40
0.9375565437
 40
0.9687759673
 40
1.0
 40
1.0
 40
1.0
 40
1.0
 10
3.4032958038
 20
1.8927235728
 30
0.0
 10
3.4193423716
 20
1.912321104
 30
0.0
 10
3.4514899448
 20
1.951461694
 30
0.0
 10
3.4930878136
 20
1.9992254452
 30
0.0
 10
3.5279136982
 20
2.0360456349
 30
0.0
 10
3.5550011314
 20
2.0628080514
 30
0.0
 10
3.583176145
 20
2.0885083117
 30
0.0
 10
3.6077041189
 20
2.1087609812
 30
0.0
 10
3.6280134739
 20
2.1240503051
 30
0.0
 10
3.6435872645
 20
2.1349970276
 30
0.0
 10
3.6595204117
 20
2.1453732051
 30
0.0
 10
3.6758245312
 20
2.1551253333
 30
0.0
 10
3.6925124376
 20
2.1641960284
 30
0.0
 10
3.7095846386
 20
2.1725383256
 30
0.0
 10
3.7269998046
 20
2.1801836447
 30
0.0
 10
3.7506407548
 20
2.189484723
 30
0.0
 10
3.780856181
 20
2.1994869816
 30
0.0
 10
3.817833089
 20
2.2090875215
 30
0.0
 10
3.8490548259
 20
2.2152710124
 30
0.0
 10
3.8741554517
 20
2.2192293294
 30
0.0
 10
3.8930045988
 20
2.2217140031
 30
0.0
 10
3.9118864445
 20
2.2237301201
 30
0.0
 10
3.927648126
 20
2.2250319445
 30
0.0
 10
3.9402694876
 20
2.2258530022
 30
0.0
 10
3.9529001859
 20
2.2265307512
 30
0.0
 10
3.9687083599
 20
2.2270798539
 30
0.0
 10
3.9877029118
 20
2.2271572449
 30
0.0
 10
4.0067198618
 20
2.2265490219
 30
0.0
 10
4.0257436444
 20
2.2251528314
 30
0.0
 10
4.0447226304
 20
2.2228668279
 30
0.0
 10
4.0635605564
 20
2.2195535267
 30
0.0
 10
4.0821301802
 20
2.2150787983
 30
0.0
 10
4.1002995006
 20
2.2093065061
 30
0.0
 10
4.117934179
 20
2.2021016493
 30
0.0
 10
4.1348630036
 20
2.1933392766
 30
0.0
 10
4.1510058918
 20
2.1831506974
 30
0.0
 10
4.1662857347
 20
2.1716728866
 30
0.0
 10
4.1806229506
 20
2.159042926
 30
0.0
 10
4.1939445444
 20
2.1453731702
 30
0.0
 10
4.2062424625
 20
2.1307947952
 30
0.0
 10
4.2175651872
 20
2.1154349611
 30
0.0
 10
4.2314367356
 20
2.0940548208
 30
0.0
 10
4.2435610395
 20
2.07157627
 30
0.0
 10
4.2541721206
 20
2.0484075536
 30
0.0
 10
4.2638461313
 20
2.0249139589
 30
0.0
 10
4.2743579201
 20
1.9949834521
 30
0.0
 10
4.2849668403
 20
1.9584536778
 30
0.0
 10
4.2941294505
 20
1.9215342213
 30
0.0
 10
4.2996510956
 20
1.8967786712
 30
0.0
 10
4.3023602437
 20
1.8843890314
 30
0.0
  0
LINE
  5
2DC
100
AcDbEntity
  8
0
100
AcDbLine
 62
7
  6
CONTINUOUS
 10
4.2828970884
 20
1.8602091365
 11
3.4187120046
 21
1.8601774849
  0
LINE
  5
2DD
100
AcDbEntity
  8
0
100
AcDbLine
 62
7
  6
CONTINUOUS
 10
2.2626929219
 20
2.6732508311
 11
2.262669164
 21
2.4611081612
  0
SPLINE
  5
2DE
100
AcDbEntity
  8
0
100
AcDbSpline
 62
7
  6
CONTINUOUS
 70
0
 71
3
 72
51
 73
47
 74
0
 42
0.0000001
 43
0.0000001
 44
0.0000000001
 40
0.0
 40
0.0
 40
0.0
 40
0.0
 40
0.0623478992
 40
0.1246970104
 40
0.1559031993
 40
0.187183646
 40
0.2028741089
 40
0.2185899059
 40
0.2500076655
 40
0.2656815075
 40
0.2813166415
 40
0.2969096221
 40
0.3124633005
 40
0.3279874771
 40
0.3435005702
 40
0.3590291575
 40
0.3745909256
 40
0.3901913616
 40
0.4058256008
 40
0.4371339628
 40
0.4683756973
 40
0.4995187406
 40
0.5150590521
 40
0.5305882276
 40
0.5461216134
 40
0.5616785256
 40
0.5772575174
 40
0.5928516067
 40
0.6240737241
 40
0.6397221131
 40
0.6554007009
 40
0.686756618
 40
0.7024086229
 40
0.7180243379
 40
0.7336009795
 40
0.7491459409
 40
0.7646877008
 40
0.7802558047
 40
0.7958706911
 40
0.8115442773
 40
0.8430684405
 40
0.8747919552
 40
0.9065780591
 40
0.9382207264
 40
0.9694610293
 40
1.0
 40
1.0
 40
1.0
 40
1.0
 10
2.2886704803
 20
2.4421305945
 30
0.0
 10
2.3137750605
 20
2.4501715979
 30
0.0
 10
2.3637056379
 20
2.467159568
 30
0.0
 10
2.4247837478
 20
2.4921210173
 30
0.0
 10
2.472297004
 20
2.5151440577
 30
0.0
 10
2.501327053
 20
2.5309821768
 30
0.0
 10
2.5240658318
 20
2.5446055073
 30
0.0
 10
2.5464495823
 20
2.558911184
 30
0.0
 10
2.5681450182
 20
2.5742674602
 30
0.0
 10
2.5889105859
 20
2.5907736808
 30
0.0
 10
2.6039306437
 20
2.6037303258
 30
0.0
 10
2.6183392052
 20
2.6172907477
 30
0.0
 10
2.632067895
 20
2.6314751058
 30
0.0
 10
2.6450524621
 20
2.6463008545
 30
0.0
 10
2.657212707
 20
2.6617964099
 30
0.0
 10
2.6686058239
 20
2.6778810982
 30
0.0
 10
2.6793248503
 20
2.6944645641
 30
0.0
 10
2.6894567355
 20
2.711463462
 30
0.0
 10
2.702305567
 20
2.7345790581
 30
0.0
 10
2.7173146461
 20
2.7640419518
 30
0.0
 10
2.7344077764
 20
2.7997773676
 30
0.0
 10
2.7486808303
 20
2.8294742436
 30
0.0
 10
2.7605947955
 20
2.852926789
 30
0.0
 10
2.769896277
 20
2.8702992223
 30
0.0
 10
2.7796904668
 20
2.8874085322
 30
0.0
 10
2.7900947416
 20
2.9041797651
 30
0.0
 10
2.8011451973
 20
2.920564854
 30
0.0
 10
2.8167713637
 20
2.9418260803
 30
0.0
 10
2.8337820609
 20
2.962085776
 30
0.0
 10
2.8522186209
 20
2.9810596296
 30
0.0
 10
2.8716376544
 20
2.9991079883
 30
0.0
 10
2.8924533488
 20
3.0156148164
 30
0.0
 10
2.914523897
 20
3.0302631159
 30
0.0
 10
2.93165345
 20
3.040230506
 30
0.0
 10
2.949324778
 20
3.0491038235
 30
0.0
 10
2.9675097456
 20
3.0567922133
 30
0.0
 10
2.9861411462
 20
3.0633092774
 30
0.0
 10
3.0051557789
 20
3.0687088391
 30
0.0
 10
3.0244984066
 20
3.0730386127
 30
0.0
 10
3.0506957718
 20
3.0774589828
 30
0.0
 10
3.0839754715
 20
3.0805426409
 30
0.0
 10
3.1241984751
 20
3.08074583
 30
0.0
 10
3.1643608175
 20
3.0778557482
 30
0.0
 10
3.2040225611
 20
3.0722611789
 30
0.0
 10
3.242743303
 20
3.0643490849
 30
0.0
 10
3.2680151771
 20
3.0576857774
 30
0.0
 10
3.2804078839
 20
3.0540608406
 30
0.0
  0
SPLINE
  5
2DF
100
AcDbEntity
  8
0
100
AcDbSpline
 62
7
  6
CONTINUOUS
 70
0
 71
3
 72
26
 73
22
 74
0
 42
0.0000001
 43
0.0000001
 44
0.0000000001
 40
0.0
 40
0.0
 40
0.0
 40
0.0
 40
0.0619592627
 40
0.1240912741
 40
0.1863167286
 40
0.2485319312
 40
0.3106404868
 40
0.3416399225
 40
0.3725909977
 40
0.403492408
 40
0.434349478
 40
0.465193328
 40
0.4960614904
 40
0.5579729135
 40
0.6202599956
 40
0.6829848184
 40
0.7461231486
 40
0.8095774133
 40
0.8731886263
 40
0.9367468361
 40
1.0
 40
1.0
 40
1.0
 40
1.0
 10
3.453870745
 20
3.2836018533
 30
0.0
 10
3.4395647787
 20
3.281502824
 30
0.0
 10
3.4107174678
 20
3.2785309699
 30
0.0
 10
3.3671971647
 20
3.2777269185
 30
0.0
 10
3.3236976194
 20
3.2805494285
 30
0.0
 10
3.2805932355
 20
3.2869982382
 30
0.0
 10
3.2452837959
 20
3.295405646
 30
0.0
 10
3.2176148425
 20
3.3039526328
 30
0.0
 10
3.1972109827
 20
3.3112692574
 30
0.0
 10
3.1771920164
 20
3.3194945008
 30
0.0
 10
3.1576024138
 20
3.3286368654
 30
0.0
 10
3.1384580577
 20
3.3386607633
 30
0.0
 10
3.1135030766
 20
3.3531513264
 30
0.0
 10
3.0833788634
 20
3.3732796974
 30
0.0
 10
3.0490339761
 20
3.4002328547
 30
0.0
 10
3.016418471
 20
3.4296758916
 30
0.0
 10
2.9855037733
 20
3.4612732744
 30
0.0
 10
2.9562602274
 20
3.4946923293
 30
0.0
 10
2.9286601162
 20
3.5296010856
 30
0.0
 10
2.9026772578
 20
3.5656671791
 30
0.0
 10
2.8863515677
 20
3.5903599081
 30
0.0
 10
2.8784350117
 20
3.6028185528
 30
0.0
  0
SPLINE
  5
2E0
100
AcDbEntity
  8
0
100
AcDbSpline
 62
7
  6
CONTINUOUS
 70
0
 71
3
 72
25
 73
21
 74
0
 42
0.0000001
 43
0.0000001
 44
0.0000000001
 40
0.0
 40
0.0
 40
0.0
 40
0.0
 40
0.061880264
 40
0.1243335953
 40
0.1874460929
 40
0.2511257366
 40
0.3151393069
 40
0.3791444908
 40
0.4427164805
 40
0.5054560359
 40
0.5674720539
 40
0.6290755521
 40
0.6598217476
 40
0.6905778298
 40
0.7213798678
 40
0.7522604288
 40
0.8142107926
 40
0.8762487447
 40
0.9382109446
 40
1.0
 40
1.0
 40
1.0
 40
1.0
 10
2.8416193153
 20
3.5904849645
 30
0.0
 10
2.8434765633
 20
3.5674500955
 30
0.0
 10
2.8444142358
 20
3.5209049736
 30
0.0
 10
2.8382364064
 20
3.4510605734
 30
0.0
 10
2.8252155962
 20
3.381492829
 30
0.0
 10
2.8060663414
 20
3.3127735865
 30
0.0
 10
2.7814943173
 20
3.2454606682
 30
0.0
 10
2.7521988514
 20
3.1801201652
 30
0.0
 10
2.7188595509
 20
3.1172943497
 30
0.0
 10
2.6820278648
 20
3.0573226653
 30
0.0
 10
2.6418870057
 20
3.0004113596
 30
0.0
 10
2.6056997786
 20
2.9554809135
 30
0.0
 10
2.5751954634
 20
2.9210755699
 30
0.0
 10
2.5515283456
 20
2.8960044077
 30
0.0
 10
2.527061878
 20
2.8716417572
 30
0.0
 10
2.4933668262
 20
2.8400667668
 30
0.0
 10
2.449356817
 20
2.8024767414
 30
0.0
 10
2.393679921
 20
2.760884036
 30
0.0
 10
2.3352786488
 20
2.7233148311
 30
0.0
 10
2.2945844082
 20
2.7012889115
 30
0.0
 10
2.2738581543
 20
2.6911447615
 30
0.0
  0
SPLINE
  5
2E1
100
AcDbEntity
  8
0
100
AcDbSpline
 62
7
  6
CONTINUOUS
 70
0
 71
3
 72
54
 73
50
 74
0
 42
0.0000001
 43
0.0000001
 44
0.0000000001
 40
0.0
 40
0.0
 40
0.0
 40
0.0
 40
0.0623599141
 40
0.1247004074
 40
0.1558852788
 40
0.1871173315
 40
0.2184280171
 40
0.2497469721
 40
0.2653865791
 40
0.2810056963
 40
0.2966046836
 40
0.3121884514
 40
0.3277668688
 40
0.3433530755
 40
0.3589559921
 40
0.3745800891
 40
0.4058868088
 40
0.4372460146
 40
0.4685789192
 40
0.4842047471
 40
0.4998024133
 40
0.5153817369
 40
0.5309517118
 40
0.5387359067
 40
0.5465206468
 40
0.5620927212
 40
0.5776738266
 40
0.5932771166
 40
0.6089247215
 40
0.6246215026
 40
0.6403214514
 40
0.6559891516
 40
0.6716137027
 40
0.6872134707
 40
0.7028312872
 40
0.7184827344
 40
0.7341575689
 40
0.749832109
 40
0.7654772805
 40
0.7811072444
 40
0.796752501
 40
0.8124261573
 40
0.8438241779
 40
0.8595124583
 40
0.8751557725
 40
0.9063621754
 40
0.9375565437
 40
0.9687759673
 40
1.0
 40
1.0
 40
1.0
 40
1.0
 10
2.2953050946
 20
3.0007142821
 30
0.0
 10
2.3149026258
 20
3.0167608499
 30
0.0
 10
2.3540432158
 20
3.0489084231
 30
0.0
 10
2.4018069669
 20
3.0905062919
 30
0.0
 10
2.4386271567
 20
3.1253321764
 30
0.0
 10
2.4653895731
 20
3.1524196096
 30
0.0
 10
2.4910898334
 20
3.1805946233
 30
0.0
 10
2.511342503
 20
3.2051225972
 30
0.0
 10
2.5266318269
 20
3.2254319521
 30
0.0
 10
2.5375785494
 20
3.2410057428
 30
0.0
 10
2.5479547268
 20
3.25693889
 30
0.0
 10
2.557706855
 20
3.2732430095
 30
0.0
 10
2.5667775502
 20
3.2899309159
 30
0.0
 10
2.5751198473
 20
3.3070031169
 30
0.0
 10
2.5827651665
 20
3.3244182829
 30
0.0
 10
2.5920662447
 20
3.3480592331
 30
0.0
 10
2.6020685034
 20
3.3782746593
 30
0.0
 10
2.6116690433
 20
3.4152515673
 30
0.0
 10
2.6178525342
 20
3.4464733042
 30
0.0
 10
2.6218108511
 20
3.47157393
 30
0.0
 10
2.6242955248
 20
3.4904230771
 30
0.0
 10
2.6263116418
 20
3.5093049227
 30
0.0
 10
2.6276134662
 20
3.5250666042
 30
0.0
 10
2.6284345239
 20
3.5376879658
 30
0.0
 10
2.629112273
 20
3.5503186641
 30
0.0
 10
2.6296613757
 20
3.5661268382
 30
0.0
 10
2.6297387666
 20
3.58512139
 30
0.0
 10
2.6291305436
 20
3.60413834
 30
0.0
 10
2.6277343531
 20
3.6231621226
 30
0.0
 10
2.6254483496
 20
3.6421411086
 30
0.0
 10
2.6221350484
 20
3.6609790347
 30
0.0
 10
2.61766032
 20
3.6795486584
 30
0.0
 10
2.6118880279
 20
3.6977179788
 30
0.0
 10
2.6046831711
 20
3.7153526573
 30
0.0
 10
2.5959207983
 20
3.7322814819
 30
0.0
 10
2.5857322191
 20
3.74842437
 30
0.0
 10
2.5742544083
 20
3.7637042129
 30
0.0
 10
2.5616244478
 20
3.7780414289
 30
0.0
 10
2.5479546919
 20
3.7913630226
 30
0.0
 10
2.5333763169
 20
3.8036609407
 30
0.0
 10
2.5180164829
 20
3.8149836655
 30
0.0
 10
2.4966363426
 20
3.8288552139
 30
0.0
 10
2.4741577918
 20
3.8409795178
 30
0.0
 10
2.4509890753
 20
3.8515905988
 30
0.0
 10
2.4274954806
 20
3.8612646096
 30
0.0
 10
2.3975649739
 20
3.8717763984
 30
0.0
 10
2.3610351996
 20
3.8823853186
 30
0.0
 10
2.324115743
 20
3.8915479288
 30
0.0
 10
2.299360193
 20
3.8970695739
 30
0.0
 10
2.2869705531
 20
3.8997787219
 30
0.0
  0
LINE
  5
2E2
100
AcDbEntity
  8
0
100
AcDbLine
 62
7
  6
CONTINUOUS
 10
2.2627906583
 20
3.8803155667
 11
2.2627590066
 21
3.0161304829
  0
SPLINE
  5
2E3
100
AcDbEntity
  8
0
100
AcDbSpline
 62
7
  6
CONTINUOUS
 70
0
 71
3
 72
19
 73
15
 74
0
 42
0.0000001
 43
0.0000001
 44
0.0000000001
 40
0.0
 40
0.0
 40
0.0
 40
0.0
 40
0.1247562464
 40
0.1874268166
 40
0.2500281053
 40
0.3125832153
 40
0.3751426838
 40
0.4999787427
 40
0.62483176
 40
0.6873972531
 40
0.7499549822
 40
0.8125590799
 40
0.8752357657
 40
1.0
 40
1.0
 40
1.0
 40
1.0
 10
4.4928823607
 20
3.3833726251
 30
0.0
 10
4.494678717
 20
3.3840233424
 30
0.0
 10
4.4972579981
 20
3.3853914288
 30
0.0
 10
4.5001987721
 20
3.3878577959
 30
0.0
 10
4.5021210858
 20
3.3900118565
 30
0.0
 10
4.5037150364
 20
3.3924166651
 30
0.0
 10
4.5053467706
 20
3.395891858
 30
0.0
 10
4.5064120488
 20
3.400629524
 30
0.0
 10
4.5060415979
 20
3.4054713699
 30
0.0
 10
4.5049288229
 20
3.4091461762
 30
0.0
 10
4.5036988073
 20
3.4117561341
 30
0.0
 10
4.5021075981
 20
3.4141653633
 30
0.0
 10
4.4995535515
 20
3.4170306419
 30
0.0
 10
4.497198951
 20
3.4187573196
 30
0.0
 10
4.4955153101
 20
3.4196607295
 30
0.0
  0
SPLINE
  5
2E4
100
AcDbEntity
  8
0
100
AcDbSpline
 62
7
  6
CONTINUOUS
 70
0
 71
3
 72
13
 73
9
 74
0
 42
0.0000001
 43
0.0000001
 44
0.0000000001
 40
0.0
 40
0.0
 40
0.0
 40
0.0
 40
0.1243957992
 40
0.2490689073
 40
0.3740427398
 40
0.4992471039
 40
0.7498629847
 40
1.0
 40
1.0
 40
1.0
 40
1.0
 10
4.5919335292
 20
1.9223182982
 30
0.0
 10
4.5968120468
 20
1.9253790644
 30
0.0
 10
4.6067335596
 20
1.9312677299
 30
0.0
 10
4.6220939188
 20
1.9392821572
 30
0.0
 10
4.6378969921
 20
1.9464749928
 30
0.0
 10
4.6594783413
 20
1.9549730235
 30
0.0
 10
4.687220007
 20
1.9635260899
 30
0.0
 10
4.7099760446
 20
1.9681701697
 30
0.0
 10
4.7214214486
 20
1.9699349468
 30
0.0
  0
SPLINE
  5
2E5
100
AcDbEntity
  8
0
100
AcDbSpline
 62
7
  6
CONTINUOUS
 70
0
 71
3
 72
56
 73
52
 74
0
 42
0.0000001
 43
0.0000001
 44
0.0000000001
 40
0.0
 40
0.0
 40
0.0
 40
0.0
 40
0.1247165208
 40
0.1871539676
 40
0.249687962
 40
0.2810069219
 40
0.312367823
 40
0.3751607688
 40
0.4065313087
 40
0.4378498597
 40
0.4691047292
 40
0.5002965645
 40
0.5158737427
 40
0.5314418674
 40
0.5470051796
 40
0.5547867911
 40
0.5625693138
 40
0.578141081
 40
0.5937266313
 40
0.6093273116
 40
0.6249414613
 40
0.6405647945
 40
0.6561821809
 40
0.6717803919
 40
0.6873637003
 40
0.6951589707
 40
0.7029630646
 40
0.7185930627
 40
0.7342412706
 40
0.7498908425
 40
0.7655248376
 40
0.7811358888
 40
0.7967460714
 40
0.8123724315
 40
0.828019005
 40
0.8436784495
 40
0.8515082425
 40
0.859334122
 40
0.8671527155
 40
0.8749615391
 40
0.8827604876
 40
0.8905524962
 40
0.8983441494
 40
0.9061447211
 40
0.9139557541
 40
0.9217742249
 40
0.9374165546
 40
0.9530458459
 40
0.9686599759
 40
0.9843018064
 40
1.0
 40
1.0
 40
1.0
 40
1.0
 10
4.7380871071
 20
1.992592353
 30
0.0
 10
4.7315825924
 20
2.0357958044
 30
0.0
 10
4.7194173704
 20
2.1003047799
 30
0.0
 10
4.698261564
 20
2.1851932719
 30
0.0
 10
4.6829370053
 20
2.2377736449
 30
0.0
 10
4.6694001889
 20
2.2795000452
 30
0.0
 10
4.6549949028
 20
2.3210294268
 30
0.0
 10
4.6392928395
 20
2.362125937
 30
0.0
 10
4.6218994814
 20
2.4025033257
 30
0.0
 10
4.6079316771
 20
2.4323092766
 30
0.0
 10
4.5929502532
 20
2.4615496068
 30
0.0
 10
4.5795412418
 20
2.4853773897
 30
0.0
 10
4.568222425
 20
2.5040546369
 30
0.0
 10
4.5594289106
 20
2.5178555028
 30
0.0
 10
4.5518351916
 20
2.5291781763
 30
0.0
 10
4.5455968451
 20
2.5381222304
 30
0.0
 10
4.5392447056
 20
2.5469894991
 30
0.0
 10
4.5311109025
 20
2.5579418457
 30
0.0
 10
4.5211268462
 20
2.5709280728
 30
0.0
 10
4.5109957235
 20
2.5838184085
 30
0.0
 10
4.5007996958
 20
2.596674155
 30
0.0
 10
4.49061078
 20
2.6095430562
 30
0.0
 10
4.4805902277
 20
2.6225377338
 30
0.0
 10
4.4709325822
 20
2.6357891978
 30
0.0
 10
4.4633457591
 20
2.6471487897
 30
0.0
 10
4.4576572509
 20
2.6564764269
 30
0.0
 10
4.4522508967
 20
2.6659891252
 30
0.0
 10
4.4460340415
 20
2.6781977541
 30
0.0
 10
4.4394681809
 20
2.6932798497
 30
0.0
 10
4.433820169
 20
2.7087308459
 30
0.0
 10
4.4291173133
 20
2.724482007
 30
0.0
 10
4.4253857973
 20
2.7404761574
 30
0.0
 10
4.4225467007
 20
2.7566478387
 30
0.0
 10
4.4205136753
 20
2.7729515812
 30
0.0
 10
4.4192005079
 20
2.7893448943
 30
0.0
 10
4.4186339091
 20
2.8030462771
 30
0.0
 10
4.4184552715
 20
2.8140153885
 30
0.0
 10
4.4184458516
 20
2.8222391266
 30
0.0
 10
4.4185597897
 20
2.8304548367
 30
0.0
 10
4.4188429516
 20
2.8386573433
 30
0.0
 10
4.4193351945
 20
2.8468409811
 30
0.0
 10
4.4200783764
 20
2.8550000195
 30
0.0
 10
4.4211127724
 20
2.8631284447
 30
0.0
 10
4.4224823642
 20
2.8712142168
 30
0.0
 10
4.4241876864
 20
2.8792455357
 30
0.0
 10
4.4268988307
 20
2.8898623731
 30
0.0
 10
4.4310899969
 20
2.9029161882
 30
0.0
 10
4.4373601047
 20
2.9181160556
 30
0.0
 10
4.4448204062
 20
2.9327671195
 30
0.0
 10
4.4533366817
 20
2.9468544778
 30
0.0
 10
4.4596320776
 20
2.9558596183
 30
0.0
 10
4.4629162688
 20
2.9602706185
 30
0.0
  0
SPLINE
  5
2E6
100
AcDbEntity
  8
0
100
AcDbSpline
 62
7
  6
CONTINUOUS
 70
0
 71
3
 72
45
 73
41
 74
0
 42
0.0000001
 43
0.0000001
 44
0.0000000001
 40
0.0
 40
0.0
 40
0.0
 40
0.0
 40
0.032549621
 40
0.0648426959
 40
0.0967378179
 40
0.1281574816
 40
0.1591054441
 40
0.1896861835
 40
0.2049113046
 40
0.2201395539
 40
0.2354186735
 40
0.2507763462
 40
0.2662096394
 40
0.2817075689
 40
0.3128131193
 40
0.3439261575
 40
0.3594240843
 40
0.3748632515
 40
0.4056504648
 40
0.4364727751
 40
0.4674555058
 40
0.4986683931
 40
0.5300639745
 40
0.5615433717
 40
0.6243220096
 40
0.6555604091
 40
0.6711266469
 40
0.6866574981
 40
0.7021598871
 40
0.7176457093
 40
0.733132858
 40
0.7486371796
 40
0.7797313184
 40
0.8109917847
 40
0.8739266508
 40
0.9055626408
 40
0.9371852924
 40
0.9529653191
 40
0.9687048364
 40
1.0
 40
1.0
 40
1.0
 40
1.0
 10
4.4411884449
 20
2.9913892769
 30
0.0
 10
4.4332738826
 20
2.989042355
 30
0.0
 10
4.4173679607
 20
2.9848183875
 30
0.0
 10
4.3932777497
 20
2.9800712615
 30
0.0
 10
4.369180667
 20
2.9771521786
 30
0.0
 10
4.3452563939
 20
2.9762924673
 30
0.0
 10
4.3216863611
 20
2.9777264933
 30
0.0
 10
4.3024548196
 20
2.9810418533
 30
0.0
 10
4.2874996785
 20
2.9850706327
 30
0.0
 10
4.2765092904
 20
2.9888045804
 30
0.0
 10
4.2657654477
 20
2.9932865154
 30
0.0
 10
4.2553010854
 20
2.9985031856
 30
0.0
 10
4.2451431131
 20
3.0044042587
 30
0.0
 10
4.2320431593
 20
3.01313353
 30
0.0
 10
4.2166417094
 20
3.0255093442
 30
0.0
 10
4.2027381805
 20
3.0395417437
 30
0.0
 10
4.1926327883
 20
3.051615033
 30
0.0
 10
4.1832670251
 20
3.0641675512
 30
0.0
 10
4.1728812511
 20
3.080768144
 30
0.0
 10
4.1625502938
 20
3.1019004967
 30
0.0
 10
4.1543170151
 20
3.1240471265
 30
0.0
 10
4.148138616
 20
3.1469986471
 30
0.0
 10
4.1440311923
 20
3.1705401596
 30
0.0
 10
4.1413890633
 20
3.2023289071
 30
0.0
 10
4.1430853492
 20
3.2343352038
 30
0.0
 10
4.1485966667
 20
3.261617467
 30
0.0
 10
4.152917791
 20
3.2768322971
 30
0.0
 10
4.1567480786
 20
3.2880189721
 30
0.0
 10
4.1611776778
 20
3.2989606485
 30
0.0
 10
4.1662156059
 20
3.3096236337
 30
0.0
 10
4.1718356224
 20
3.3199920537
 30
0.0
 10
4.180072778
 20
3.3334188145
 30
0.0
 10
4.19170183
 20
3.3494253215
 30
0.0
 10
4.2128202585
 20
3.3732176388
 30
0.0
 10
4.2372420907
 20
3.3940681481
 30
0.0
 10
4.2640230849
 20
3.4116364005
 30
0.0
 10
4.2816546281
 20
3.4212289193
 30
0.0
 10
4.2961672186
 20
3.4280081044
 30
0.0
 10
4.310868118
 20
3.4341540502
 30
0.0
 10
4.3221685596
 20
3.4380418148
 30
0.0
 10
4.3297892633
 20
3.4402602792
 30
0.0
  0
SPLINE
  5
2E7
100
AcDbEntity
  8
0
100
AcDbSpline
 62
7
  6
CONTINUOUS
 70
0
 71
3
 72
19
 73
15
 74
0
 42
0.0000001
 43
0.0000001
 44
0.0000000001
 40
0.0
 40
0.0
 40
0.0
 40
0.0
 40
0.1247624931
 40
0.1874380631
 40
0.2500423869
 40
0.3125990148
 40
0.3751583899
 40
0.4999951014
 40
0.624845315
 40
0.6874105745
 40
0.7499676639
 40
0.8125696368
 40
0.8752415175
 40
1.0
 40
1.0
 40
1.0
 40
1.0
 10
3.8222656008
 20
4.0882084717
 30
0.0
 10
3.8213593505
 20
4.0898891135
 30
0.0
 10
3.8196293093
 20
4.0922387208
 30
0.0
 10
3.8167611556
 20
4.094785633
 30
0.0
 10
3.814350715
 20
4.0963714365
 30
0.0
 10
3.81174057
 20
4.0975962351
 30
0.0
 10
3.8080669308
 20
4.0987027566
 30
0.0
 10
3.8032279706
 20
4.099066012
 30
0.0
 10
3.798494824
 20
4.0979957998
 30
0.0
 10
3.7950231915
 20
4.0963617306
 30
0.0
 10
3.7926213508
 20
4.0947665438
 30
0.0
 10
3.7904703428
 20
4.0928436161
 30
0.0
 10
3.788007879
 20
4.0899028353
 30
0.0
 10
3.7866422668
 20
4.0873244393
 30
0.0
 10
3.785992994
 20
4.0855288735
 30
0.0
  0
SPLINE
  5
2E8
100
AcDbEntity
  8
0
100
AcDbSpline
 62
7
  6
CONTINUOUS
 70
0
 71
3
 72
44
 73
40
 74
0
 42
0.0000001
 43
0.0000001
 44
0.0000000001
 40
0.0
 40
0.0
 40
0.0
 40
0.0
 40
0.032569842
 40
0.0649193078
 40
0.0968965613
 40
0.1284102902
 40
0.1594464549
 40
0.1900874227
 40
0.205323917
 40
0.2205465492
 40
0.2358005625
 40
0.2511266297
 40
0.2665294836
 40
0.2820006304
 40
0.3130709977
 40
0.3441828485
 40
0.3596945564
 40
0.3751448654
 40
0.4059304646
 40
0.436727529
 40
0.4676695373
 40
0.4988376853
 40
0.5616009618
 40
0.5930655282
 40
0.6244494862
 40
0.6556967837
 40
0.6867899708
 40
0.7022930608
 40
0.7177759925
 40
0.7332559607
 40
0.7487498773
 40
0.7798171796
 40
0.8110483829
 40
0.8739339264
 40
0.9055559742
 40
0.9371728261
 40
0.9529530118
 40
0.9686949329
 40
1.0
 40
1.0
 40
1.0
 40
1.0
 10
3.3974020509
 20
4.0385188192
 30
0.0
 10
3.3949488971
 20
4.0306226112
 30
0.0
 10
3.3905092444
 20
4.0147385433
 30
0.0
 10
3.3854232814
 20
3.9906519855
 30
0.0
 10
3.382143015
 20
3.9665183097
 30
0.0
 10
3.3808960906
 20
3.9425212768
 30
0.0
 10
3.3819128824
 20
3.9188460261
 30
0.0
 10
3.3848524531
 20
3.8994946211
 30
0.0
 10
3.3885658846
 20
3.8844252654
 30
0.0
 10
3.3920542826
 20
3.8733479739
 30
0.0
 10
3.3962798341
 20
3.8625053857
 30
0.0
 10
3.4012563544
 20
3.8519359504
 30
0.0
 10
3.4069359046
 20
3.8416646791
 30
0.0
 10
3.4153957394
 20
3.8283981643
 30
0.0
 10
3.4274836922
 20
3.8127636748
 30
0.0
 10
3.4412805858
 20
3.7986063824
 30
0.0
 10
3.4531947157
 20
3.7882807137
 30
0.0
 10
3.4656061396
 20
3.7786934601
 30
0.0
 10
3.4820559086
 20
3.7680399214
 30
0.0
 10
3.5030444574
 20
3.7574051921
 30
0.0
 10
3.5250814282
 20
3.7488875659
 30
0.0
 10
3.5556273778
 20
3.7402812791
 30
0.0
 10
3.587363497
 20
3.7358554705
 30
0.0
 10
3.619286264
 20
3.7357774885
 30
0.0
 10
3.6431138855
 20
3.7379537408
 30
0.0
 10
3.6665230409
 20
3.7424214082
 30
0.0
 10
3.6854908241
 20
3.7481119066
 30
0.0
 10
3.7001711744
 20
3.75386392
 30
0.0
 10
3.7108990277
 20
3.7587853245
 30
0.0
 10
3.7213315472
 20
3.764299523
 30
0.0
 10
3.7348428334
 20
3.7724059341
 30
0.0
 10
3.7509556335
 20
3.7838933481
 30
0.0
 10
3.7749170947
 20
3.8048281159
 30
0.0
 10
3.795931197
 20
3.829124892
 30
0.0
 10
3.813652575
 20
3.8558220428
 30
0.0
 10
3.8233393059
 20
3.8734193604
 30
0.0
 10
3.8301915382
 20
3.8879142338
 30
0.0
 10
3.8364123013
 20
3.9026041719
 30
0.0
 10
3.8403597715
 20
3.9138995567
 30
0.0
 10
3.8426193905
 20
3.9215189695
 30
0.0
  0
SPLINE
  5
2E9
100
AcDbEntity
  8
0
100
AcDbSpline
 62
7
  6
CONTINUOUS
 70
0
 71
3
 72
56
 73
52
 74
0
 42
0.0000001
 43
0.0000001
 44
0.0000000001
 40
0.0
 40
0.0
 40
0.0
 40
0.0
 40
0.124711908
 40
0.1871479864
 40
0.2496817836
 40
0.2810012827
 40
0.3123632125
 40
0.3751537914
 40
0.4065203545
 40
0.4378335218
 40
0.4690823006
 40
0.500268343
 40
0.5158431652
 40
0.5314095411
 40
0.5469719363
 40
0.5547534817
 40
0.5625363184
 40
0.5781098008
 40
0.593697708
 40
0.6249166001
 40
0.6405397095
 40
0.6561530648
 40
0.6717462688
 40
0.6873287637
 40
0.6951274016
 40
0.7029353477
 40
0.7185704474
 40
0.734219908
 40
0.7498666139
 40
0.7654937488
 40
0.781101688
 40
0.7967145046
 40
0.8123458036
 40
0.8279964162
 40
0.8358264605
 40
0.8436566581
 40
0.8514842614
 40
0.859306014
 40
0.8671187881
 40
0.8749213922
 40
0.8827154504
 40
0.8905060248
 40
0.8983020374
 40
0.9061092227
 40
0.9217431026
 40
0.9373837013
 40
0.9451986627
 40
0.9530065822
 40
0.968623629
 40
0.9842808468
 40
1.0
 40
1.0
 40
1.0
 40
1.0
 10
2.395155465
 20
4.3306518428
 30
0.0
 10
2.4385249234
 20
4.3241714902
 30
0.0
 10
2.5032833796
 20
4.3120207838
 30
0.0
 10
2.5884979526
 20
4.2908386148
 30
0.0
 10
2.6412794474
 20
4.2754780522
 30
0.0
 10
2.6831642266
 20
4.2619000007
 30
0.0
 10
2.7248495498
 20
4.2474471399
 30
0.0
 10
2.7660936416
 20
4.2316773792
 30
0.0
 10
2.806603192
 20
4.2141883084
 30
0.0
 10
2.8364979504
 20
4.2001344916
 30
0.0
 10
2.8658163732
 20
4.1850509816
 30
0.0
 10
2.8896990589
 20
4.1715424468
 30
0.0
 10
2.9084132521
 20
4.1601349271
 30
0.0
 10
2.9222384505
 20
4.1512698897
 30
0.0
 10
2.9335783752
 20
4.1436127927
 30
0.0
 10
2.9425338753
 20
4.1373206033
 30
0.0
 10
2.951413265
 20
4.1309147882
 30
0.0
 10
2.9623872128
 20
4.1227228023
 30
0.0
 10
2.9797570973
 20
4.1093282997
 30
0.0
 10
2.9969492848
 20
4.0956786784
 30
0.0
 10
3.0142006639
 20
4.0820899327
 30
0.0
 10
3.0272990214
 20
4.0721091651
 30
0.0
 10
3.0406829181
 20
4.062535917
 30
0.0
 10
3.0521764026
 20
4.0550599407
 30
0.0
 10
3.0616252146
 20
4.0494900348
 30
0.0
 10
3.071258933
 20
4.0442082552
 30
0.0
 10
3.0836102519
 20
4.0381550432
 30
0.0
 10
3.0988502995
 20
4.0318008018
 30
0.0
 10
3.1144436632
 20
4.0263784661
 30
0.0
 10
3.1303247099
 20
4.0219206979
 30
0.0
 10
3.1464328778
 20
4.0184317131
 30
0.0
 10
3.1627056504
 20
4.0158189499
 30
0.0
 10
3.1790994302
 20
4.0139972252
 30
0.0
 10
3.1928241762
 20
4.0130648747
 30
0.0
 10
3.2038253464
 20
4.0126267742
 30
0.0
 10
3.2120824289
 20
4.0124410371
 30
0.0
 10
3.2203383846
 20
4.0123886509
 30
0.0
 10
3.2285881582
 20
4.0124540259
 30
0.0
 10
3.2368268557
 20
4.0126692473
 30
0.0
 10
3.2450487987
 20
4.0130783131
 30
0.0
 10
3.253248222
 20
4.0137226084
 30
0.0
 10
3.2614194071
 20
4.0146430645
 30
0.0
 10
3.2695532476
 20
4.0158851208
 30
0.0
 10
3.2803340667
 20
4.017999601
 30
0.0
 10
3.2936461098
 20
4.0214744583
 30
0.0
 10
3.3066347161
 20
4.026018435
 30
0.0
 10
3.3167735848
 20
4.0302732241
 30
0.0
 10
3.3267238589
 20
4.0349325539
 30
0.0
 10
3.3388205585
 20
4.0414822612
 30
0.0
 10
3.3527677046
 20
4.0503644453
 30
0.0
 10
3.3616832277
 20
4.0568762101
 30
0.0
 10
3.3660521875
 20
4.0602616819
 30
0.0
  0
SPLINE
  5
2EA
100
AcDbEntity
  8
0
100
AcDbSpline
 62
7
  6
CONTINUOUS
 70
0
 71
3
 72
13
 73
9
 74
0
 42
0.0000001
 43
0.0000001
 44
0.0000000001
 40
0.0
 40
0.0
 40
0.0
 40
0.0
 40
0.1243958571
 40
0.2490690793
 40
0.3740430551
 40
0.4992475589
 40
0.7498635099
 40
1.0
 40
1.0
 40
1.0
 40
1.0
 10
2.32489982
 20
4.1844727322
 30
0.0
 10
2.3279610573
 20
4.1893520008
 30
0.0
 10
2.3338505935
 20
4.1992750678
 30
0.0
 10
2.3418660626
 20
4.2146379022
 30
0.0
 10
2.3490596894
 20
4.2304435663
 30
0.0
 10
2.357558433
 20
4.2520284811
 30
0.0
 10
2.3661117504
 20
4.2797747313
 30
0.0
 10
2.3707553559
 20
4.3025344949
 30
0.0
 10
2.372519719
 20
4.3139817366
 30
0.0
  0
SPLINE
  5
2EB
100
AcDbEntity
  8
0
100
AcDbSpline
 62
7
  6
CONTINUOUS
 70
0
 71
3
 72
37
 73
33
 74
0
 42
0.0000001
 43
0.0000001
 44
0.0000000001
 40
0.0
 40
0.0
 40
0.0
 40
0.0
 40
0.0622162464
 40
0.1261406214
 40
0.1584682659
 40
0.190886152
 40
0.2233196541
 40
0.239531862
 40
0.2557333428
 40
0.2880362024
 40
0.3200720128
 40
0.3516334466
 40
0.3824878671
 40
0.4125435382
 40
0.4420035694
 40
0.4710893516
 40
0.5
 40
0.5289106484
 40
0.5579964306
 40
0.5874564618
 40
0.6175121329
 40
0.6483665534
 40
0.6799279872
 40
0.7119637976
 40
0.7442666572
 40
0.760468138
 40
0.7766803459
 40
0.809113848
 40
0.8415317341
 40
0.8738593786
 40
0.9377837536
 40
1.0
 40
1.0
 40
1.0
 40
1.0
 10
4.6349952125
 20
4.4281668149
 30
0.0
 10
4.6311619502
 20
4.4212242937
 30
0.0
 10
4.6245703778
 20
4.4064716982
 30
0.0
 10
4.619257503
 20
4.386897048
 30
0.0
 10
4.6168390018
 20
4.3706599865
 30
0.0
 10
4.6160110004
 20
4.3582864237
 30
0.0
 10
4.6161936166
 20
4.3479411022
 30
0.0
 10
4.6168906099
 20
4.3397021632
 30
0.0
 10
4.6179622909
 20
4.3315203632
 30
0.0
 10
4.6199686721
 20
4.3214381606
 30
0.0
 10
4.6233437128
 20
4.3096757587
 30
0.0
 10
4.6275790635
 20
4.2983925387
 30
0.0
 10
4.6325784976
 20
4.2877047847
 30
0.0
 10
4.6382806572
 20
4.2776818432
 30
0.0
 10
4.6446352282
 20
4.2683313192
 30
0.0
 10
4.6516072628
 20
4.2596187875
 30
0.0
 10
4.6591640789
 20
4.2515055978
 30
0.0
 10
4.6672772686
 20
4.2439487817
 30
0.0
 10
4.6759898003
 20
4.2369767471
 30
0.0
 10
4.6853403243
 20
4.2306221761
 30
0.0
 10
4.6953632658
 20
4.2249200165
 30
0.0
 10
4.7060510198
 20
4.2199205824
 30
0.0
 10
4.7173342398
 20
4.2156852317
 30
0.0
 10
4.7290966417
 20
4.212310191
 30
0.0
 10
4.7391788443
 20
4.2103038098
 30
0.0
 10
4.7473606443
 20
4.2092321288
 30
0.0
 10
4.7555995833
 20
4.2085351355
 30
0.0
 10
4.7659449048
 20
4.2083525193
 30
0.0
 10
4.7783184676
 20
4.2091805207
 30
0.0
 10
4.7945555291
 20
4.2115990219
 30
0.0
 10
4.8141301793
 20
4.2169118967
 30
0.0
 10
4.8288827748
 20
4.2235034691
 30
0.0
 10
4.835825296
 20
4.2273367314
 30
0.0
  0
SPLINE
  5
2EC
100
AcDbEntity
  8
0
100
AcDbSpline
 62
7
  6
CONTINUOUS
 70
0
 71
3
 72
37
 73
33
 74
0
 42
0.0000001
 43
0.0000001
 44
0.0000000001
 40
0.0
 40
0.0
 40
0.0
 40
0.0
 40
0.0622162464
 40
0.1261406214
 40
0.1584682659
 40
0.190886152
 40
0.2233196541
 40
0.239531862
 40
0.2557333428
 40
0.2880362024
 40
0.3200720128
 40
0.3516334466
 40
0.3824878671
 40
0.4125435382
 40
0.4420035694
 40
0.4710893516
 40
0.5
 40
0.5289106484
 40
0.5579964306
 40
0.5874564618
 40
0.6175121329
 40
0.6483665534
 40
0.6799279872
 40
0.7119637976
 40
0.7442666572
 40
0.760468138
 40
0.7766803459
 40
0.809113848
 40
0.8415317341
 40
0.8738593786
 40
0.9377837536
 40
1.0
 40
1.0
 40
1.0
 40
1.0
 10
4.8550859933
 20
4.2273367314
 30
0.0
 10
4.8620285146
 20
4.2235034691
 30
0.0
 10
4.8767811101
 20
4.2169118967
 30
0.0
 10
4.8963557603
 20
4.2115990219
 30
0.0
 10
4.9125928218
 20
4.2091805207
 30
0.0
 10
4.9249663846
 20
4.2083525193
 30
0.0
 10
4.935311706
 20
4.2085351355
 30
0.0
 10
4.9435506451
 20
4.2092321288
 30
0.0
 10
4.951732445
 20
4.2103038098
 30
0.0
 10
4.9618146477
 20
4.212310191
 30
0.0
 10
4.9735770495
 20
4.2156852317
 30
0.0
 10
4.9848602696
 20
4.2199205824
 30
0.0
 10
4.9955480236
 20
4.2249200165
 30
0.0
 10
5.0055709651
 20
4.2306221761
 30
0.0
 10
5.014921489
 20
4.2369767471
 30
0.0
 10
5.0236340208
 20
4.2439487817
 30
0.0
 10
5.0317472104
 20
4.2515055978
 30
0.0
 10
5.0393040266
 20
4.2596187875
 30
0.0
 10
5.0462760612
 20
4.2683313192
 30
0.0
 10
5.0526306322
 20
4.2776818432
 30
0.0
 10
5.0583327918
 20
4.2877047847
 30
0.0
 10
5.0633322259
 20
4.2983925387
 30
0.0
 10
5.0675675765
 20
4.3096757587
 30
0.0
 10
5.0709426173
 20
4.3214381606
 30
0.0
 10
5.0729489985
 20
4.3315203632
 30
0.0
 10
5.0740206794
 20
4.3397021632
 30
0.0
 10
5.0747176728
 20
4.3479411022
 30
0.0
 10
5.074900289
 20
4.3582864237
 30
0.0
 10
5.0740722876
 20
4.3706599865
 30
0.0
 10
5.0716537864
 20
4.386897048
 30
0.0
 10
5.0663409116
 20
4.4064716982
 30
0.0
 10
5.0597493392
 20
4.4212242937
 30
0.0
 10
5.0559160769
 20
4.4281668149
 30
0.0
  0
SPLINE
  5
2ED
100
AcDbEntity
  8
0
100
AcDbSpline
 62
7
  6
CONTINUOUS
 70
0
 71
3
 72
37
 73
33
 74
0
 42
0.0000001
 43
0.0000001
 44
0.0000000001
 40
0.0
 40
0.0
 40
0.0
 40
0.0
 40
0.0622162464
 40
0.1261406214
 40
0.1584682659
 40
0.190886152
 40
0.2233196541
 40
0.239531862
 40
0.2557333428
 40
0.2880362024
 40
0.3200720128
 40
0.3516334466
 40
0.3824878671
 40
0.4125435382
 40
0.4420035694
 40
0.4710893516
 40
0.5
 40
0.5289106484
 40
0.5579964306
 40
0.5874564618
 40
0.6175121329
 40
0.6483665534
 40
0.6799279872
 40
0.7119637976
 40
0.7442666572
 40
0.760468138
 40
0.7766803459
 40
0.809113848
 40
0.8415317341
 40
0.8738593786
 40
0.9377837536
 40
1.0
 40
1.0
 40
1.0
 40
1.0
 10
5.0559160769
 20
4.4474275122
 30
0.0
 10
5.0597493392
 20
4.4543700335
 30
0.0
 10
5.0663409116
 20
4.469122629
 30
0.0
 10
5.0716537864
 20
4.4886972792
 30
0.0
 10
5.0740722876
 20
4.5049343407
 30
0.0
 10
5.074900289
 20
4.5173079035
 30
0.0
 10
5.0747176728
 20
4.5276532249
 30
0.0
 10
5.0740206794
 20
4.535892164
 30
0.0
 10
5.0729489985
 20
4.5440739639
 30
0.0
 10
5.0709426173
 20
4.5541561666
 30
0.0
 10
5.0675675765
 20
4.5659185684
 30
0.0
 10
5.0633322259
 20
4.5772017885
 30
0.0
 10
5.0583327918
 20
4.5878895425
 30
0.0
 10
5.0526306322
 20
4.597912484
 30
0.0
 10
5.0462760612
 20
4.6072630079
 30
0.0
 10
5.0393040266
 20
4.6159755397
 30
0.0
 10
5.0317472104
 20
4.6240887293
 30
0.0
 10
5.0236340208
 20
4.6316455455
 30
0.0
 10
5.014921489
 20
4.6386175801
 30
0.0
 10
5.0055709651
 20
4.6449721511
 30
0.0
 10
4.9955480236
 20
4.6506743107
 30
0.0
 10
4.9848602696
 20
4.6556737448
 30
0.0
 10
4.9735770496
 20
4.6599090954
 30
0.0
 10
4.9618146477
 20
4.6632841362
 30
0.0
 10
4.951732445
 20
4.6652905173
 30
0.0
 10
4.9435506451
 20
4.6663621983
 30
0.0
 10
4.935311706
 20
4.6670591917
 30
0.0
 10
4.9249663846
 20
4.6672418079
 30
0.0
 10
4.9125928218
 20
4.6664138065
 30
0.0
 10
4.8963557603
 20
4.6639953053
 30
0.0
 10
4.8767811101
 20
4.6586824305
 30
0.0
 10
4.8620285146
 20
4.6520908581
 30
0.0
 10
4.8550859933
 20
4.6482575958
 30
0.0
  0
SPLINE
  5
2EE
100
AcDbEntity
  8
0
100
AcDbSpline
 62
7
  6
CONTINUOUS
 70
0
 71
3
 72
37
 73
33
 74
0
 42
0.0000001
 43
0.0000001
 44
0.0000000001
 40
0.0
 40
0.0
 40
0.0
 40
0.0
 40
0.0622162464
 40
0.1261406214
 40
0.1584682659
 40
0.190886152
 40
0.2233196541
 40
0.239531862
 40
0.2557333428
 40
0.2880362024
 40
0.3200720128
 40
0.3516334466
 40
0.3824878671
 40
0.4125435382
 40
0.4420035694
 40
0.4710893516
 40
0.5
 40
0.5289106484
 40
0.5579964306
 40
0.5874564618
 40
0.6175121329
 40
0.6483665534
 40
0.6799279872
 40
0.7119637976
 40
0.7442666572
 40
0.760468138
 40
0.7766803459
 40
0.809113848
 40
0.8415317341
 40
0.8738593786
 40
0.9377837536
 40
1.0
 40
1.0
 40
1.0
 40
1.0
 10
4.835825296
 20
4.6482575958
 30
0.0
 10
4.8288827748
 20
4.6520908581
 30
0.0
 10
4.8141301793
 20
4.6586824305
 30
0.0
 10
4.7945555291
 20
4.6639953053
 30
0.0
 10
4.7783184676
 20
4.6664138065
 30
0.0
 10
4.7659449048
 20
4.6672418079
 30
0.0
 10
4.7555995833
 20
4.6670591917
 30
0.0
 10
4.7473606443
 20
4.6663621983
 30
0.0
 10
4.7391788443
 20
4.6652905173
 30
0.0
 10
4.7290966417
 20
4.6632841362
 30
0.0
 10
4.7173342398
 20
4.6599090954
 30
0.0
 10
4.7060510198
 20
4.6556737448
 30
0.0
 10
4.6953632658
 20
4.6506743107
 30
0.0
 10
4.6853403243
 20
4.6449721511
 30
0.0
 10
4.6759898003
 20
4.6386175801
 30
0.0
 10
4.6672772686
 20
4.6316455455
 30
0.0
 10
4.6591640789
 20
4.6240887293
 30
0.0
 10
4.6516072628
 20
4.6159755397
 30
0.0
 10
4.6446352282
 20
4.6072630079
 30
0.0
 10
4.6382806572
 20
4.597912484
 30
0.0
 10
4.6325784976
 20
4.5878895425
 30
0.0
 10
4.6275790635
 20
4.5772017885
 30
0.0
 10
4.6233437128
 20
4.5659185684
 30
0.0
 10
4.6199686721
 20
4.5541561666
 30
0.0
 10
4.6179622909
 20
4.5440739639
 30
0.0
 10
4.6168906099
 20
4.535892164
 30
0.0
 10
4.6161936166
 20
4.5276532249
 30
0.0
 10
4.6160110004
 20
4.5173079035
 30
0.0
 10
4.6168390018
 20
4.5049343407
 30
0.0
 10
4.619257503
 20
4.4886972792
 30
0.0
 10
4.6245703778
 20
4.469122629
 30
0.0
 10
4.6311619502
 20
4.4543700335
 30
0.0
 10
4.6349952125
 20
4.4474275122
 30
0.0
  0
SPLINE
  5
2EF
100
AcDbEntity
  8
0
100
AcDbSpline
 62
7
  6
CONTINUOUS
 70
0
 71
3
 72
17
 73
13
 74
0
 42
0.0000001
 43
0.0000001
 44
0.0000000001
 40
0.0
 40
0.0
 40
0.0
 40
0.0
 40
0.124791549
 40
0.1875032747
 40
0.2501705233
 40
0.3751406553
 40
0.5000600401
 40
0.6249654119
 40
0.7498778771
 40
0.8125190779
 40
0.8752156042
 40
1.0
 40
1.0
 40
1.0
 40
1.0
 10
4.1467917986
 20
4.2833261835
 30
0.0
 10
4.1458728074
 20
4.2846371311
 30
0.0
 10
4.1447251685
 20
4.2867851214
 30
0.0
 10
4.1437334454
 20
4.2898434118
 30
0.0
 10
4.143120239
 20
4.2930033569
 30
0.0
 10
4.1430776638
 20
4.2970559167
 30
0.0
 10
4.1442054531
 20
4.3017784407
 30
0.0
 10
4.146431611
 20
4.3060924921
 30
0.0
 10
4.1491069402
 20
4.3091350567
 30
0.0
 10
4.1516321644
 20
4.3111291196
 30
0.0
 10
4.1543782701
 20
4.312799904
 30
0.0
 10
4.1566490137
 20
4.3136792466
 30
0.0
 10
4.158200614
 20
4.3140734184
 30
0.0
  0
SPLINE
  5
2F0
100
AcDbEntity
  8
0
100
AcDbSpline
 62
7
  6
CONTINUOUS
 70
0
 71
3
 72
17
 73
13
 74
0
 42
0.0000001
 43
0.0000001
 44
0.0000000001
 40
0.0
 40
0.0
 40
0.0
 40
0.0
 40
0.1247899739
 40
0.1875121776
 40
0.2501842274
 40
0.3751441733
 40
0.5000658527
 40
0.6249760506
 40
0.7498779403
 40
0.8125205734
 40
0.8752226346
 40
1.0
 40
1.0
 40
1.0
 40
1.0
 10
2.3385696786
 20
4.15421995
 30
0.0
 10
2.3369600624
 20
4.1544824902
 30
0.0
 10
2.3345778486
 20
4.1551794563
 30
0.0
 10
2.3316497443
 20
4.1566476001
 30
0.0
 10
2.3289227352
 20
4.1584691206
 30
0.0
 10
2.3259677407
 20
4.1613547675
 30
0.0
 10
2.3233921
 20
4.165579429
 30
0.0
 10
2.3219250738
 20
4.1703040488
 30
0.0
 10
2.321713268
 20
4.1744275137
 30
0.0
 10
2.3221486195
 20
4.1776764615
 30
0.0
 10
2.3229818492
 20
4.1808434242
 30
0.0
 10
2.3240331595
 20
4.1830913727
 30
0.0
 10
2.32489982
 20
4.1844727322
 30
0.0
  0
SPLINE
  5
2F1
100
AcDbEntity
  8
0
100
AcDbSpline
 62
7
  6
CONTINUOUS
 70
0
 71
3
 72
19
 73
15
 74
0
 42
0.0000001
 43
0.0000001
 44
0.0000000001
 40
0.0
 40
0.0
 40
0.0
 40
0.0
 40
0.1247691558
 40
0.1874362611
 40
0.2500323869
 40
0.3125844443
 40
0.3751427697
 40
0.4999924008
 40
0.6248488063
 40
0.6874100803
 40
0.7499638217
 40
0.8125611833
 40
0.8752296016
 40
1.0
 40
1.0
 40
1.0
 40
1.0
 10
2.2953050946
 20
3.0007142821
 30
0.0
 10
2.2938561376
 20
2.999527868
 30
0.0
 10
2.2914150772
 20
2.9980375238
 30
0.0
 10
2.2878710525
 20
2.9967774692
 30
0.0
 10
2.2850984299
 20
2.9962154445
 30
0.0
 10
2.282276357
 20
2.9960474284
 30
0.0
 10
2.278527166
 20
2.9963624253
 30
0.0
 10
2.2739790842
 20
2.9977541492
 30
0.0
 10
2.2700209967
 20
3.0003915336
 30
0.0
 10
2.267401933
 20
3.0030929138
 30
0.0
 10
2.2657440786
 20
3.0053829713
 30
0.0
 10
2.2644224549
 20
3.007884368
 30
0.0
 10
2.2631522848
 20
3.0114248384
 30
0.0
 10
2.2627589534
 20
3.014257751
 30
0.0
 10
2.2627590066
 20
3.0161304829
 30
0.0
  0
SPLINE
  5
2F2
100
AcDbEntity
  8
0
100
AcDbSpline
 62
7
  6
CONTINUOUS
 70
0
 71
3
 72
15
 73
11
 74
0
 42
0.0000001
 43
0.0000001
 44
0.0000000001
 40
0.0
 40
0.0
 40
0.0
 40
0.0
 40
0.1248731654
 40
0.250053552
 40
0.3750701632
 40
0.5000622298
 40
0.6250435742
 40
0.750007719
 40
0.8751398577
 40
1.0
 40
1.0
 40
1.0
 40
1.0
 10
2.2627906583
 20
3.8803155667
 30
0.0
 10
2.2627907223
 20
3.8817946707
 30
0.0
 10
2.2631227003
 20
3.8847665157
 30
0.0
 10
2.2645815157
 20
3.8889999504
 30
0.0
 10
2.2669485302
 20
3.892806329
 30
0.0
 10
2.2701031315
 20
3.8959858171
 30
0.0
 10
2.2738831477
 20
3.8983871962
 30
0.0
 10
2.2781063267
 20
3.8998850947
 30
0.0
 10
2.2825523404
 20
3.900405438
 30
0.0
 10
2.2855257406
 20
3.9000946481
 30
0.0
 10
2.2869705531
 20
3.8997787219
 30
0.0
  0
SPLINE
  5
2F3
100
AcDbEntity
  8
0
100
AcDbSpline
 62
7
  6
CONTINUOUS
 70
0
 71
3
 72
19
 73
15
 74
0
 42
0.0000001
 43
0.0000001
 44
0.0000000001
 40
0.0
 40
0.0
 40
0.0
 40
0.0
 40
0.1247332656
 40
0.1874257069
 40
0.2500442428
 40
0.3126066771
 40
0.3751791537
 40
0.5000060753
 40
0.6248305772
 40
0.6874021914
 40
0.749962772
 40
0.8125789416
 40
0.8752690042
 40
1.0
 40
1.0
 40
1.0
 40
1.0
 10
3.4538707454
 20
3.283601851
 30
0.0
 10
3.4558856412
 20
3.2838974824
 30
0.0
 10
3.4590034804
 20
3.283894118
 30
0.0
 10
3.4629961472
 20
3.2829923814
 30
0.0
 10
3.4658621436
 20
3.2818642808
 30
0.0
 10
3.4685220704
 20
3.2803156022
 30
0.0
 10
3.471696027
 20
3.2777284269
 30
0.0
 10
3.4748512336
 20
3.2736089304
 30
0.0
 10
3.4765450121
 20
3.2687042054
 30
0.0
 10
3.4769508029
 20
3.2646296402
 30
0.0
 10
3.4767743269
 20
3.261556864
 30
0.0
 10
3.4761334428
 20
3.2585443703
 30
0.0
 10
3.4746821556
 20
3.2547171868
 30
0.0
 10
3.4729643666
 20
3.2521153226
 30
0.0
 10
3.4716059124
 20
3.2505982022
 30
0.0
  0
SPLINE
  5
2F4
100
AcDbEntity
  8
0
100
AcDbSpline
 62
7
  6
CONTINUOUS
 70
0
 71
3
 72
17
 73
13
 74
0
 42
0.0000001
 43
0.0000001
 44
0.0000000001
 40
0.0
 40
0.0
 40
0.0
 40
0.0
 40
0.124790807
 40
0.1874780883
 40
0.2501200845
 40
0.3750631324
 40
0.4999812186
 40
0.6249054821
 40
0.7498696712
 40
0.8125195396
 40
0.8752097036
 40
1.0
 40
1.0
 40
1.0
 40
1.0
 10
2.2886704803
 20
2.4421305945
 30
0.0
 10
2.2871873134
 20
2.4416555357
 30
0.0
 10
2.2848637873
 20
2.4412025742
 30
0.0
 10
2.2817377629
 20
2.441140457
 30
0.0
 10
2.2786230535
 20
2.4414488289
 30
0.0
 10
2.2748314062
 20
2.4425178585
 30
0.0
 10
2.2707180909
 20
2.4448338689
 30
0.0
 10
2.267257896
 20
2.4480452476
 30
0.0
 10
2.2650834587
 20
2.4513307816
 30
0.0
 10
2.2638398446
 20
2.454203485
 30
0.0
 10
2.2629458726
 20
2.4571997396
 30
0.0
 10
2.2626689137
 20
2.4595507772
 30
0.0
 10
2.262669164
 20
2.4611081612
 30
0.0
  0
SPLINE
  5
2F5
100
AcDbEntity
  8
0
100
AcDbSpline
 62
7
  6
CONTINUOUS
 70
0
 71
3
 72
11
 73
7
 74
0
 42
0.0000001
 43
0.0000001
 44
0.0000000001
 40
0.0
 40
0.0
 40
0.0
 40
0.0
 40
0.2499623154
 40
0.4999969835
 40
0.750036612
 40
1.0
 40
1.0
 40
1.0
 40
1.0
 10
4.3023602437
 20
1.8843890314
 30
0.0
 10
4.3029887895
 20
1.8815145273
 30
0.0
 10
4.302963924
 20
1.8753983041
 30
0.0
 10
4.2989631108
 20
1.8672003635
 30
0.0
 10
4.2918092716
 20
1.8615403471
 30
0.0
 10
4.2858395224
 20
1.860209264
 30
0.0
 10
4.2828970884
 20
1.8602091365
 30
0.0
  0
SPLINE
  5
2F6
100
AcDbEntity
  8
0
100
AcDbSpline
 62
7
  6
CONTINUOUS
 70
0
 71
3
 72
20
 73
16
 74
0
 42
0.0000001
 43
0.0000001
 44
0.0000000001
 40
0.0
 40
0.0
 40
0.0
 40
0.0
 40
0.124735674
 40
0.1873977682
 40
0.2499960101
 40
0.312545662
 40
0.375082884
 40
0.4376377241
 40
0.5001891909
 40
0.6249946448
 40
0.687533943
 40
0.7500630609
 40
0.8126343404
 40
0.8752760411
 40
1.0
 40
1.0
 40
1.0
 40
1.0
 10
3.4187120046
 20
1.8601774849
 30
0.0
 10
3.4168391935
 20
1.8601774316
 30
0.0
 10
3.4140059766
 20
1.8605707821
 30
0.0
 10
3.4104650026
 20
1.8618412932
 30
0.0
 10
3.4079631015
 20
1.8631638559
 30
0.0
 10
3.4056731058
 20
1.864821837
 30
0.0
 10
3.4036432483
 20
1.8667894059
 30
0.0
 10
3.4019151084
 20
1.8690272016
 30
0.0
 10
3.4000606823
 20
1.8723007365
 30
0.0
 10
3.3989435577
 20
1.8759473118
 30
0.0
 10
3.3986289508
 20
1.8796954678
 30
0.0
 10
3.3987969682
 20
1.8825176335
 30
0.0
 10
3.3993591515
 20
1.8852899728
 30
0.0
 10
3.4006190933
 20
1.8888338045
 30
0.0
 10
3.4021094392
 20
1.8912746761
 30
0.0
 10
3.4032958038
 20
1.8927235728
 30
0.0
  0
SPLINE
  5
2F7
100
AcDbEntity
  8
0
100
AcDbSpline
 62
7
  6
CONTINUOUS
 70
0
 71
3
 72
17
 73
13
 74
0
 42
0.0000001
 43
0.0000001
 44
0.0000000001
 40
0.0
 40
0.0
 40
0.0
 40
0.0
 40
0.1248061284
 40
0.1875108883
 40
0.2501717539
 40
0.3751445118
 40
0.50007796
 40
0.6249947632
 40
0.7498944353
 40
0.812520733
 40
0.8752044803
 40
1.0
 40
1.0
 40
1.0
 40
1.0
 10
2.863666495
 20
1.8600876386
 30
0.0
 10
2.8621095928
 20
1.8600873883
 30
0.0
 10
2.8597592431
 20
1.8603645021
 30
0.0
 10
2.8567637128
 20
1.8612578483
 30
0.0
 10
2.8538915558
 20
1.8625003714
 30
0.0
 10
2.8506069051
 20
1.8646737554
 30
0.0
 10
2.8473962854
 20
1.8681320075
 30
0.0
 10
2.8450796631
 20
1.8722420056
 30
0.0
 10
2.8440092111
 20
1.876030682
 30
0.0
 10
2.8436995245
 20
1.8791430972
 30
0.0
 10
2.8437595234
 20
1.8822675925
 30
0.0
 10
2.8442103104
 20
1.8845904844
 30
0.0
 10
2.8446839682
 20
1.8860734479
 30
0.0
  0
SPLINE
  5
2F8
100
AcDbEntity
  8
0
100
AcDbSpline
 62
7
  6
CONTINUOUS
 70
0
 71
3
 72
20
 73
16
 74
0
 42
0.0000001
 43
0.0000001
 44
0.0000000001
 40
0.0
 40
0.0
 40
0.0
 40
0.0
 40
0.1246715823
 40
0.1873324845
 40
0.249926284
 40
0.3124723236
 40
0.3750423544
 40
0.4376629771
 40
0.5002642337
 40
0.6250345234
 40
0.6875750884
 40
0.7500989568
 40
0.8126763284
 40
0.8753288769
 40
1.0
 40
1.0
 40
1.0
 40
1.0
 10
3.6533758566
 20
3.0702193516
 30
0.0
 10
3.6548937957
 20
3.0715785369
 30
0.0
 10
3.6574971136
 20
3.0732973226
 30
0.0
 10
3.6613267029
 20
3.0747487665
 30
0.0
 10
3.6643414429
 20
3.0753896188
 30
0.0
 10
3.6674162074
 20
3.0755655282
 30
0.0
 10
3.670481714
 20
3.0752580025
 30
0.0
 10
3.6734627288
 20
3.0744747736
 30
0.0
 10
3.6772179307
 20
3.072831125
 30
0.0
 10
3.6805237495
 20
3.0702958209
 30
0.0
 10
3.6831072071
 20
3.06711779
 30
0.0
 10
3.6846535221
 20
3.0644547014
 30
0.0
 10
3.6857781479
 20
3.0615861524
 30
0.0
 10
3.6866753328
 20
3.0575905765
 30
0.0
 10
3.6866740043
 20
3.0544712055
 30
0.0
 10
3.6863753042
 20
3.0524556977
 30
0.0
  0
SPLINE
  5
2F9
100
AcDbEntity
  8
0
100
AcDbSpline
 62
7
  6
CONTINUOUS
 70
0
 71
3
 72
17
 73
13
 74
0
 42
0.0000001
 43
0.0000001
 44
0.0000000001
 40
0.0
 40
0.0
 40
0.0
 40
0.0
 40
0.1247779518
 40
0.1874925447
 40
0.2501652573
 40
0.3751406528
 40
0.5000497559
 40
0.6249466293
 40
0.7498743054
 40
0.8125258525
 40
0.8752280279
 40
1.0
 40
1.0
 40
1.0
 40
1.0
 10
4.5919335292
 20
1.9223182982
 30
0.0
 10
4.5905521621
 20
1.921451633
 30
0.0
 10
4.588304127
 20
1.9204000976
 30
0.0
 10
4.5851365544
 20
1.9195668536
 30
0.0
 10
4.5818859834
 20
1.9191320528
 30
0.0
 10
4.5777612592
 20
1.9193444953
 30
0.0
 10
4.5730359946
 20
1.9208117941
 30
0.0
 10
4.5688128724
 20
1.9233886297
 30
0.0
 10
4.5659285898
 20
1.9263433518
 30
0.0
 10
4.5641074803
 20
1.9290694833
 30
0.0
 10
4.562639684
 20
1.9319969325
 30
0.0
 10
4.5619432496
 20
1.9343787714
 30
0.0
 10
4.5616807471
 20
1.9359881569
 30
0.0
  0
SPLINE
  5
2FA
100
AcDbEntity
  8
0
100
AcDbSpline
 62
7
  6
CONTINUOUS
 70
0
 71
3
 72
17
 73
13
 74
0
 42
0.0000001
 43
0.0000001
 44
0.0000000001
 40
0.0
 40
0.0
 40
0.0
 40
0.0
 40
0.1247551145
 40
0.1874698128
 40
0.2501421224
 40
0.3751063224
 40
0.5000156628
 40
0.6249200324
 40
0.7498663309
 40
0.8125320911
 40
0.875244445
 40
1.0
 40
1.0
 40
1.0
 40
1.0
 10
4.2337867341
 20
3.8073651846
 30
0.0
 10
4.2321512346
 20
3.8069918378
 30
0.0
 10
4.2296085718
 20
3.8067409324
 30
0.0
 10
4.2262511877
 20
3.8070333026
 30
0.0
 10
4.222954082
 20
3.8077524162
 30
0.0
 10
4.2190446644
 20
3.8094251338
 30
0.0
 10
4.2150254032
 20
3.812554766
 30
0.0
 10
4.2119220394
 20
3.8165940207
 30
0.0
 10
4.2102747182
 20
3.8205137727
 30
0.0
 10
4.2095770571
 20
3.8238151156
 30
0.0
 10
4.2093063152
 20
3.8271741916
 30
0.0
 10
4.2095735047
 20
3.8297151692
 30
0.0
 10
4.2099573541
 20
3.8313482418
 30
0.0
  0
SPLINE
  5
2FB
100
AcDbEntity
  8
0
100
AcDbSpline
 62
7
  6
CONTINUOUS
 70
0
 71
3
 72
17
 73
13
 74
0
 42
0.0000001
 43
0.0000001
 44
0.0000000001
 40
0.0
 40
0.0
 40
0.0
 40
0.0
 40
0.1247801472
 40
0.1874749645
 40
0.2501228061
 40
0.3750622457
 40
0.4999743051
 40
0.6248945537
 40
0.749862663
 40
0.8125212759
 40
0.8752202175
 40
1.0
 40
1.0
 40
1.0
 40
1.0
 10
4.7163936588
 20
3.7546200784
 30
0.0
 10
4.7159973556
 20
3.7530744868
 30
0.0
 10
4.7151169933
 20
3.7508129729
 30
0.0
 10
4.7134480896
 20
3.748078056
 30
0.0
 10
4.7114578289
 20
3.7455627951
 30
0.0
 10
4.7084243044
 20
3.7428969521
 30
0.0
 10
4.7041253928
 20
3.7406757664
 30
0.0
 10
4.69941992
 20
3.7395459037
 30
0.0
 10
4.6953810076
 20
3.7395800885
 30
0.0
 10
4.6922300432
 20
3.7401823158
 30
0.0
 10
4.689179067
 20
3.7411609916
 30
0.0
 10
4.6870344718
 20
3.7422969598
 30
0.0
 10
4.6857242062
 20
3.7432075083
 30
0.0
  0
SPLINE
  5
2FC
100
AcDbEntity
  8
0
100
AcDbSpline
 62
7
  6
CONTINUOUS
 70
0
 71
3
 72
17
 73
13
 74
0
 42
0.0000001
 43
0.0000001
 44
0.0000000001
 40
0.0
 40
0.0
 40
0.0
 40
0.0
 40
0.1247915045
 40
0.1875031751
 40
0.2501703613
 40
0.3751403838
 40
0.5000597071
 40
0.6249649518
 40
0.7498773213
 40
0.8125186244
 40
0.8752153545
 40
1.0
 40
1.0
 40
1.0
 40
1.0
 10
4.9997289407
 20
3.7442102769
 30
0.0
 10
4.9984179936
 20
3.743291286
 30
0.0
 10
4.9962700048
 20
3.742143647
 30
0.0
 10
4.9932117164
 20
3.7411519244
 30
0.0
 10
4.9900517744
 20
3.7405387185
 30
0.0
 10
4.9859992177
 20
3.7404961403
 30
0.0
 10
4.9812766969
 20
3.7416239274
 30
0.0
 10
4.9769626478
 20
3.7438500797
 30
0.0
 10
4.9739200777
 20
3.7465254012
 30
0.0
 10
4.9719260161
 20
3.7490506301
 30
0.0
 10
4.9702552286
 20
3.7517967418
 30
0.0
 10
4.9693758784
 20
3.7540674889
 30
0.0
 10
4.9689817058
 20
3.7556190922
 30
0.0
  0
SPLINE
  5
2FD
100
AcDbEntity
  8
0
100
AcDbSpline
 62
7
  6
CONTINUOUS
 70
0
 71
3
 72
17
 73
13
 74
0
 42
0.0000001
 43
0.0000001
 44
0.0000000001
 40
0.0
 40
0.0
 40
0.0
 40
0.0
 40
0.1247899739
 40
0.1875121776
 40
0.2501842274
 40
0.3751441733
 40
0.5000658527
 40
0.6249760506
 40
0.7498779403
 40
0.8125205734
 40
0.8752226346
 40
1.0
 40
1.0
 40
1.0
 40
1.0
 10
5.1288351742
 20
1.9359881569
 30
0.0
 10
5.128572634
 20
1.9343785406
 30
0.0
 10
5.1278756679
 20
1.9319963269
 30
0.0
 10
5.1264075241
 20
1.9290682225
 30
0.0
 10
5.1245860037
 20
1.9263412134
 30
0.0
 10
5.1217003567
 20
1.923386219
 30
0.0
 10
5.1174756952
 20
1.9208105782
 30
0.0
 10
5.1127510754
 20
1.919343552
 30
0.0
 10
5.1086276105
 20
1.9191317463
 30
0.0
 10
5.1053786627
 20
1.9195670977
 30
0.0
 10
5.1022117
 20
1.9204003274
 30
0.0
 10
5.0999637515
 20
1.9214516378
 30
0.0
 10
5.0985823921
 20
1.9223182982
 30
0.0
  0
SPLINE
  5
2FE
100
AcDbEntity
  8
0
100
AcDbSpline
 62
7
  6
CONTINUOUS
 70
0
 71
3
 72
19
 73
15
 74
0
 42
0.0000001
 43
0.0000001
 44
0.0000000001
 40
0.0
 40
0.0
 40
0.0
 40
0.0
 40
0.1247691558
 40
0.1874362611
 40
0.2500323869
 40
0.3125844443
 40
0.3751427697
 40
0.4999924008
 40
0.6248488063
 40
0.6874100803
 40
0.7499638217
 40
0.8125611833
 40
0.8752296016
 40
1.0
 40
1.0
 40
1.0
 40
1.0
 10
6.2823408421
 20
1.8927235728
 30
0.0
 10
6.2835272562
 20
1.8912746158
 30
0.0
 10
6.2850176005
 20
1.8888335555
 30
0.0
 10
6.286277655
 20
1.8852895307
 30
0.0
 10
6.2868396797
 20
1.8825169082
 30
0.0
 10
6.2870076958
 20
1.8796948353
 30
0.0
 10
6.2866926989
 20
1.8759456443
 30
0.0
 10
6.285300975
 20
1.8713975624
 30
0.0
 10
6.2826635906
 20
1.8674394749
 30
0.0
 10
6.2799622105
 20
1.8648204113
 30
0.0
 10
6.277672153
 20
1.8631625568
 30
0.0
 10
6.2751707562
 20
1.8618409331
 30
0.0
 10
6.2716302858
 20
1.8605707631
 30
0.0
 10
6.2687973732
 20
1.8601774316
 30
0.0
 10
6.2669246413
 20
1.8601774849
 30
0.0
  0
SPLINE
  5
2FF
100
AcDbEntity
  8
0
100
AcDbSpline
 62
7
  6
CONTINUOUS
 70
0
 71
3
 72
15
 73
11
 74
0
 42
0.0000001
 43
0.0000001
 44
0.0000000001
 40
0.0
 40
0.0
 40
0.0
 40
0.0
 40
0.1248731654
 40
0.250053552
 40
0.3750701632
 40
0.5000622298
 40
0.6250435742
 40
0.750007719
 40
0.8751398577
 40
1.0
 40
1.0
 40
1.0
 40
1.0
 10
5.4027395575
 20
1.8602091365
 30
0.0
 10
5.4012604535
 20
1.8602092006
 30
0.0
 10
5.3982886086
 20
1.8605411785
 30
0.0
 10
5.3940551738
 20
1.861999994
 30
0.0
 10
5.3902487952
 20
1.8643670085
 30
0.0
 10
5.3870693072
 20
1.8675216098
 30
0.0
 10
5.384667928
 20
1.8713016259
 30
0.0
 10
5.3831700295
 20
1.875524805
 30
0.0
 10
5.3826496862
 20
1.8799708187
 30
0.0
 10
5.3829604762
 20
1.8829442189
 30
0.0
 10
5.3832764023
 20
1.8843890314
 30
0.0
  0
SPLINE
  5
300
100
AcDbEntity
  8
0
100
AcDbSpline
 62
7
  6
CONTINUOUS
 70
0
 71
3
 72
19
 73
15
 74
0
 42
0.0000001
 43
0.0000001
 44
0.0000000001
 40
0.0
 40
0.0
 40
0.0
 40
0.0
 40
0.1247332658
 40
0.1874257068
 40
0.2500442426
 40
0.3126066771
 40
0.3751791538
 40
0.5000060754
 40
0.6248305772
 40
0.6874021914
 40
0.749962772
 40
0.8125789416
 40
0.8752690043
 40
1.0
 40
1.0
 40
1.0
 40
1.0
 10
5.9994532732
 20
3.0512892236
 30
0.0
 10
5.9991576418
 20
3.0533041194
 30
0.0
 10
5.9991610061
 20
3.0564219587
 30
0.0
 10
6.0000627426
 20
3.0604146255
 30
0.0
 10
6.0011908431
 20
3.0632806219
 30
0.0
 10
6.0027395217
 20
3.0659405487
 30
0.0
 10
6.0053266971
 20
3.0691145054
 30
0.0
 10
6.0094461936
 20
3.072269712
 30
0.0
 10
6.0143509187
 20
3.0739634905
 30
0.0
 10
6.0184254839
 20
3.0743692813
 30
0.0
 10
6.0214982601
 20
3.0741928054
 30
0.0
 10
6.0245107539
 20
3.0735519212
 30
0.0
 10
6.0283379374
 20
3.0721006339
 30
0.0
 10
6.0309398017
 20
3.0703828449
 30
0.0
 10
6.0324569221
 20
3.0690243906
 30
0.0
  0
SPLINE
  5
301
100
AcDbEntity
  8
0
100
AcDbSpline
 62
7
  6
CONTINUOUS
 70
0
 71
3
 72
17
 73
13
 74
0
 42
0.0000001
 43
0.0000001
 44
0.0000000001
 40
0.0
 40
0.0
 40
0.0
 40
0.0
 40
0.124790807
 40
0.1874780883
 40
0.2501200845
 40
0.3750631324
 40
0.4999812186
 40
0.6249054821
 40
0.7498696712
 40
0.8125195396
 40
0.8752097036
 40
1.0
 40
1.0
 40
1.0
 40
1.0
 10
6.8409245298
 20
1.8860889586
 30
0.0
 10
6.8413995885
 20
1.8846057916
 30
0.0
 10
6.8418525501
 20
1.8822822655
 30
0.0
 10
6.8419146672
 20
1.8791562411
 30
0.0
 10
6.8416062953
 20
1.8760415317
 30
0.0
 10
6.8405372657
 20
1.8722498845
 30
0.0
 10
6.8382212553
 20
1.8681365691
 30
0.0
 10
6.8350098766
 20
1.8646763742
 30
0.0
 10
6.8317243426
 20
1.862501937
 30
0.0
 10
6.8288516392
 20
1.8612583229
 30
0.0
 10
6.8258553846
 20
1.8603643509
 30
0.0
 10
6.823504347
 20
1.8600873919
 30
0.0
 10
6.821946963
 20
1.8600876423
 30
0.0
  0
SPLINE
  5
302
100
AcDbEntity
  8
0
100
AcDbSpline
 62
7
  6
CONTINUOUS
 70
0
 71
3
 72
11
 73
7
 74
0
 42
0.0000001
 43
0.0000001
 44
0.0000000001
 40
0.0
 40
0.0
 40
0.0
 40
0.0
 40
0.2499505688
 40
0.4999999376
 40
0.7500472467
 40
1.0
 40
1.0
 40
1.0
 40
1.0
 10
7.3986660929
 20
3.8997787219
 30
0.0
 10
7.4015404625
 20
3.9004072384
 30
0.0
 10
7.4076566995
 20
3.9003824579
 30
0.0
 10
7.4158548183
 20
3.8963816145
 30
0.0
 10
7.4215148653
 20
3.8892275885
 30
0.0
 10
7.4228458602
 20
3.8832578762
 30
0.0
 10
7.4228459877
 20
3.8803155667
 30
0.0
  0
SPLINE
  5
303
100
AcDbEntity
  8
0
100
AcDbSpline
 62
7
  6
CONTINUOUS
 70
0
 71
3
 72
20
 73
16
 74
0
 42
0.0000001
 43
0.0000001
 44
0.0000000001
 40
0.0
 40
0.0
 40
0.0
 40
0.0
 40
0.124735674
 40
0.1873977682
 40
0.2499960101
 40
0.312545662
 40
0.375082884
 40
0.4376377241
 40
0.5001891909
 40
0.6249946448
 40
0.687533943
 40
0.7500630609
 40
0.8126343404
 40
0.8752760411
 40
1.0
 40
1.0
 40
1.0
 40
1.0
 10
7.4228776393
 20
3.0161304829
 30
0.0
 10
7.4228776926
 20
3.0142576718
 30
0.0
 10
7.4224843421
 20
3.0114244548
 30
0.0
 10
7.421213831
 20
3.0078834808
 30
0.0
 10
7.4198912684
 20
3.0053815797
 30
0.0
 10
7.4182332873
 20
3.003091584
 30
0.0
 10
7.4162657183
 20
3.0010617266
 30
0.0
 10
7.4140279226
 20
2.9993335866
 30
0.0
 10
7.4107543878
 20
2.9974791605
 30
0.0
 10
7.4071078124
 20
2.9963620359
 30
0.0
 10
7.4033596564
 20
2.996047429
 30
0.0
 10
7.4005374907
 20
2.9962154465
 30
0.0
 10
7.3977651515
 20
2.9967776298
 30
0.0
 10
7.3942213197
 20
2.9980375716
 30
0.0
 10
7.3917804481
 20
2.9995279174
 30
0.0
 10
7.3903315514
 20
3.0007142821
 30
0.0
  0
SPLINE
  5
304
100
AcDbEntity
  8
0
100
AcDbSpline
 62
7
  6
CONTINUOUS
 70
0
 71
3
 72
17
 73
13
 74
0
 42
0.0000001
 43
0.0000001
 44
0.0000000001
 40
0.0
 40
0.0
 40
0.0
 40
0.0
 40
0.1248061284
 40
0.1875108883
 40
0.2501717539
 40
0.3751445118
 40
0.50007796
 40
0.6249947632
 40
0.7498944353
 40
0.812520733
 40
0.8752044803
 40
1.0
 40
1.0
 40
1.0
 40
1.0
 10
7.4229674857
 20
2.4610849733
 30
0.0
 10
7.422967736
 20
2.4595280711
 30
0.0
 10
7.4226906221
 20
2.4571777213
 30
0.0
 10
7.4217972759
 20
2.4541821911
 30
0.0
 10
7.4205547528
 20
2.451310034
 30
0.0
 10
7.4183813689
 20
2.4480253834
 30
0.0
 10
7.4149231167
 20
2.4448147636
 30
0.0
 10
7.4108131186
 20
2.4424981413
 30
0.0
 10
7.4070244422
 20
2.4414276894
 30
0.0
 10
7.403912027
 20
2.4411180028
 30
0.0
 10
7.4007875318
 20
2.4411780016
 30
0.0
 10
7.3984646398
 20
2.4416287886
 30
0.0
 10
7.3969816764
 20
2.4421024464
 30
0.0
  0
SPLINE
  5
305
100
AcDbEntity
  8
0
100
AcDbSpline
 62
7
  6
CONTINUOUS
 70
0
 71
3
 72
19
 73
15
 74
0
 42
0.0000001
 43
0.0000001
 44
0.0000000001
 40
0.0
 40
0.0
 40
0.0
 40
0.0
 40
0.1247383344
 40
0.1874362224
 40
0.2500595067
 40
0.3126250878
 40
0.3751979188
 40
0.5000217723
 40
0.6248260026
 40
0.6873909696
 40
0.7499516502
 40
0.8125711495
 40
0.8752652272
 40
1.0
 40
1.0
 40
1.0
 40
1.0
 10
6.2128357726
 20
3.2507943348
 30
0.0
 10
6.2114763871
 20
3.2523125008
 30
0.0
 10
6.2097576857
 20
3.2549164597
 30
0.0
 10
6.2083058534
 20
3.2587465895
 30
0.0
 10
6.2076654098
 20
3.2617615188
 30
0.0
 10
6.2074900295
 20
3.2648365234
 30
0.0
 10
6.2078980505
 20
3.2689135768
 30
0.0
 10
6.2095963022
 20
3.273819924
 30
0.0
 10
6.2127565808
 20
3.2779391575
 30
0.0
 10
6.2159350278
 20
3.2805241119
 30
0.0
 10
6.2185982112
 20
3.2820707614
 30
0.0
 10
6.2214673528
 20
3.2831962414
 30
0.0
 10
6.2254637587
 20
3.2840934623
 30
0.0
 10
6.2285836629
 20
3.2840925166
 30
0.0
 10
6.2305994203
 20
3.283793782
 30
0.0
  0
SPLINE
  5
306
100
AcDbEntity
  8
0
100
AcDbSpline
 62
7
  6
CONTINUOUS
 70
0
 71
3
 72
17
 73
13
 74
0
 42
0.0000001
 43
0.0000001
 44
0.0000000001
 40
0.0
 40
0.0
 40
0.0
 40
0.0
 40
0.1247779518
 40
0.1874925447
 40
0.2501652573
 40
0.3751406528
 40
0.5000497559
 40
0.6249466293
 40
0.7498743054
 40
0.8125258525
 40
0.8752280279
 40
1.0
 40
1.0
 40
1.0
 40
1.0
 10
7.360736826
 20
4.1893520075
 30
0.0
 10
7.3616034912
 20
4.1879706403
 30
0.0
 10
7.3626550266
 20
4.1857226053
 30
0.0
 10
7.3634882706
 20
4.1825550327
 30
0.0
 10
7.3639230714
 20
4.1793044617
 30
0.0
 10
7.3637106289
 20
4.1751797375
 30
0.0
 10
7.3622433301
 20
4.1704544728
 30
0.0
 10
7.3596664945
 20
4.1662313507
 30
0.0
 10
7.3567117724
 20
4.1633470681
 30
0.0
 10
7.3539856409
 20
4.1615259586
 30
0.0
 10
7.3510581917
 20
4.1600581623
 30
0.0
 10
7.3486763528
 20
4.1593617279
 30
0.0
 10
7.3470669674
 20
4.1590992253
 30
0.0
  0
SPLINE
  5
307
100
AcDbEntity
  8
0
100
AcDbSpline
 62
7
  6
CONTINUOUS
 70
0
 71
3
 72
17
 73
13
 74
0
 42
0.0000001
 43
0.0000001
 44
0.0000000001
 40
0.0
 40
0.0
 40
0.0
 40
0.0
 40
0.1247551137
 40
0.1874698128
 40
0.2501421234
 40
0.3751063225
 40
0.5000156626
 40
0.6249200324
 40
0.7498663302
 40
0.812532091
 40
0.8752444456
 40
1.0
 40
1.0
 40
1.0
 40
1.0
 10
5.4756899396
 20
3.8312052119
 30
0.0
 10
5.4760632862
 20
3.8295697126
 30
0.0
 10
5.4763141911
 20
3.8270270498
 30
0.0
 10
5.4760218201
 20
3.8236696661
 30
0.0
 10
5.4753027062
 20
3.8203725608
 30
0.0
 10
5.4736299888
 20
3.8164631436
 30
0.0
 10
5.4705003569
 20
3.8124438827
 30
0.0
 10
5.4664611026
 20
3.8093405192
 30
0.0
 10
5.462541351
 20
3.807693198
 30
0.0
 10
5.4592400084
 20
3.8069955367
 30
0.0
 10
5.4558809328
 20
3.8067247942
 30
0.0
 10
5.4533399553
 20
3.8069919831
 30
0.0
 10
5.4517068829
 20
3.8073758324
 30
0.0
  0
SPLINE
  5
308
100
AcDbEntity
  8
0
100
AcDbSpline
 62
7
  6
CONTINUOUS
 70
0
 71
3
 72
17
 73
13
 74
0
 42
0.0000001
 43
0.0000001
 44
0.0000000001
 40
0.0
 40
0.0
 40
0.0
 40
0.0
 40
0.1247801493
 40
0.1874749646
 40
0.250122804
 40
0.3750622455
 40
0.4999743082
 40
0.6248945533
 40
0.7498626611
 40
0.812521276
 40
0.8752202192
 40
1.0
 40
1.0
 40
1.0
 40
1.0
 10
5.5284350454
 20
4.3138121373
 30
0.0
 10
5.529980637
 20
4.3134158339
 30
0.0
 10
5.5322421512
 20
4.3125354722
 30
0.0
 10
5.5349770686
 20
4.3108665692
 30
0.0
 10
5.5374923296
 20
4.3088763086
 30
0.0
 10
5.5401581722
 20
4.3058427834
 30
0.0
 10
5.5423793577
 20
4.3015438716
 30
0.0
 10
5.54350922
 20
4.2968383986
 30
0.0
 10
5.5434750346
 20
4.2927994861
 30
0.0
 10
5.5428728073
 20
4.2896485216
 30
0.0
 10
5.5418941321
 20
4.2865975451
 30
0.0
 10
5.5407581643
 20
4.2844529496
 30
0.0
 10
5.5398476157
 20
4.283142684
 30
0.0
  0
SPLINE
  5
309
100
AcDbEntity
  8
0
100
AcDbSpline
 62
7
  6
CONTINUOUS
 70
0
 71
3
 72
17
 73
13
 74
0
 42
0.0000001
 43
0.0000001
 44
0.0000000001
 40
0.0
 40
0.0
 40
0.0
 40
0.0
 40
0.1247915045
 40
0.1875031751
 40
0.2501703613
 40
0.3751403838
 40
0.5000597071
 40
0.6249649518
 40
0.7498773213
 40
0.8125186244
 40
0.8752153545
 40
1.0
 40
1.0
 40
1.0
 40
1.0
 10
5.5388448473
 20
4.597147419
 30
0.0
 10
5.5397638383
 20
4.5958364719
 30
0.0
 10
5.5409114773
 20
4.5936884831
 30
0.0
 10
5.5419031998
 20
4.5906301947
 30
0.0
 10
5.5425164057
 20
4.5874702526
 30
0.0
 10
5.5425589839
 20
4.583417696
 30
0.0
 10
5.5414311968
 20
4.5786951752
 30
0.0
 10
5.5392050445
 20
4.5743811261
 30
0.0
 10
5.5365297231
 20
4.571338556
 30
0.0
 10
5.5340044941
 20
4.5693444944
 30
0.0
 10
5.5312583824
 20
4.5676737068
 30
0.0
 10
5.5289876353
 20
4.5667943567
 30
0.0
 10
5.527436032
 20
4.5664001841
 30
0.0
  0
SPLINE
  5
30A
100
AcDbEntity
  8
0
100
AcDbSpline
 62
7
  6
CONTINUOUS
 70
0
 71
3
 72
17
 73
13
 74
0
 42
0.0000001
 43
0.0000001
 44
0.0000000001
 40
0.0
 40
0.0
 40
0.0
 40
0.0
 40
0.1247899739
 40
0.1875121776
 40
0.2501842274
 40
0.3751441733
 40
0.5000658527
 40
0.6249760506
 40
0.7498779403
 40
0.8125205734
 40
0.8752226346
 40
1.0
 40
1.0
 40
1.0
 40
1.0
 10
7.3470669674
 20
4.7262536525
 30
0.0
 10
7.3486765836
 20
4.7259911123
 30
0.0
 10
7.3510587973
 20
4.7252941462
 30
0.0
 10
7.3539869017
 20
4.7238260024
 30
0.0
 10
7.3567139108
 20
4.7220044819
 30
0.0
 10
7.3596689052
 20
4.719118835
 30
0.0
 10
7.362244546
 20
4.7148941735
 30
0.0
 10
7.3637115722
 20
4.7101695537
 30
0.0
 10
7.363923378
 20
4.7060460888
 30
0.0
 10
7.3634880265
 20
4.702797141
 30
0.0
 10
7.3626547968
 20
4.6996301783
 30
0.0
 10
7.3616034864
 20
4.6973822298
 30
0.0
 10
7.360736826
 20
4.6960008703
 30
0.0
  0
SPLINE
  5
30B
100
AcDbEntity
  8
0
100
AcDbSpline
 62
7
  6
CONTINUOUS
 70
0
 71
3
 72
19
 73
15
 74
0
 42
0.0000001
 43
0.0000001
 44
0.0000000001
 40
0.0
 40
0.0
 40
0.0
 40
0.0
 40
0.1247691558
 40
0.1874362611
 40
0.2500323869
 40
0.3125844443
 40
0.3751427697
 40
0.4999924008
 40
0.6248488063
 40
0.6874100803
 40
0.7499638217
 40
0.8125611833
 40
0.8752296016
 40
1.0
 40
1.0
 40
1.0
 40
1.0
 10
7.3903315514
 20
5.8797593204
 30
0.0
 10
7.3917805084
 20
5.8809457344
 30
0.0
 10
7.3942215687
 20
5.8824360787
 30
0.0
 10
7.3977655935
 20
5.8836961333
 30
0.0
 10
7.4005382161
 20
5.884258158
 30
0.0
 10
7.403360289
 20
5.8844261741
 30
0.0
 10
7.40710948
 20
5.8841111772
 30
0.0
 10
7.4116575618
 20
5.8827194533
 30
0.0
 10
7.4156156493
 20
5.8800820689
 30
0.0
 10
7.418234713
 20
5.8773806887
 30
0.0
 10
7.4198925674
 20
5.8750906312
 30
0.0
 10
7.4212141911
 20
5.8725892345
 30
0.0
 10
7.4224843612
 20
5.8690487641
 30
0.0
 10
7.4228776926
 20
5.8662158515
 30
0.0
 10
7.4228776393
 20
5.8643431196
 30
0.0
  0
SPLINE
  5
30C
100
AcDbEntity
  8
0
100
AcDbSpline
 62
7
  6
CONTINUOUS
 70
0
 71
3
 72
15
 73
11
 74
0
 42
0.0000001
 43
0.0000001
 44
0.0000000001
 40
0.0
 40
0.0
 40
0.0
 40
0.0
 40
0.1248731654
 40
0.250053552
 40
0.3750701632
 40
0.5000622298
 40
0.6250435742
 40
0.750007719
 40
0.8751398577
 40
1.0
 40
1.0
 40
1.0
 40
1.0
 10
7.4228459877
 20
5.0001580358
 30
0.0
 10
7.4228459236
 20
4.9986789318
 30
0.0
 10
7.4225139457
 20
4.9957070868
 30
0.0
 10
7.4210551303
 20
4.9914736521
 30
0.0
 10
7.4186881157
 20
4.9876672734
 30
0.0
 10
7.4155335144
 20
4.9844877854
 30
0.0
 10
7.4117534983
 20
4.9820864062
 30
0.0
 10
7.4075303192
 20
4.9805885078
 30
0.0
 10
7.4030843055
 20
4.9800681645
 30
0.0
 10
7.4001109053
 20
4.9803789544
 30
0.0
 10
7.3986660929
 20
4.9806948805
 30
0.0
  0
SPLINE
  5
30D
100
AcDbEntity
  8
0
100
AcDbSpline
 62
7
  6
CONTINUOUS
 70
0
 71
3
 72
19
 73
15
 74
0
 42
0.0000001
 43
0.0000001
 44
0.0000000001
 40
0.0
 40
0.0
 40
0.0
 40
0.0
 40
0.1247332656
 40
0.1874257069
 40
0.2500442428
 40
0.3126066771
 40
0.3751791537
 40
0.5000060753
 40
0.6248305772
 40
0.6874021914
 40
0.749962772
 40
0.8125789416
 40
0.8752690042
 40
1.0
 40
1.0
 40
1.0
 40
1.0
 10
6.2317659006
 20
5.5968717515
 30
0.0
 10
6.2297510047
 20
5.5965761201
 30
0.0
 10
6.2266331655
 20
5.5965794845
 30
0.0
 10
6.2226404988
 20
5.5974812211
 30
0.0
 10
6.2197745024
 20
5.5986093217
 30
0.0
 10
6.2171145756
 20
5.6001580003
 30
0.0
 10
6.213940619
 20
5.6027451756
 30
0.0
 10
6.2107854124
 20
5.6068646721
 30
0.0
 10
6.2090916339
 20
5.6117693971
 30
0.0
 10
6.2086858431
 20
5.6158439623
 30
0.0
 10
6.208862319
 20
5.6189167385
 30
0.0
 10
6.2095032031
 20
5.6219292322
 30
0.0
 10
6.2109544904
 20
5.6257564157
 30
0.0
 10
6.2126722793
 20
5.6283582799
 30
0.0
 10
6.2140307336
 20
5.6298754003
 30
0.0
  0
SPLINE
  5
30E
100
AcDbEntity
  8
0
100
AcDbSpline
 62
7
  6
CONTINUOUS
 70
0
 71
3
 72
17
 73
13
 74
0
 42
0.0000001
 43
0.0000001
 44
0.0000000001
 40
0.0
 40
0.0
 40
0.0
 40
0.0
 40
0.124790807
 40
0.1874780883
 40
0.2501200845
 40
0.3750631324
 40
0.4999812186
 40
0.6249054821
 40
0.7498696712
 40
0.8125195396
 40
0.8752097036
 40
1.0
 40
1.0
 40
1.0
 40
1.0
 10
7.3969661657
 20
6.438343008
 30
0.0
 10
7.3984493326
 20
6.4388180668
 30
0.0
 10
7.4007728587
 20
6.4392710283
 30
0.0
 10
7.4038988831
 20
6.4393331455
 30
0.0
 10
7.4070135925
 20
6.4390247736
 30
0.0
 10
7.4108052397
 20
6.437955744
 30
0.0
 10
7.4149185551
 20
6.4356397336
 30
0.0
 10
7.41837875
 20
6.4324283549
 30
0.0
 10
7.4205531872
 20
6.4291428209
 30
0.0
 10
7.4217968013
 20
6.4262701175
 30
0.0
 10
7.4226907733
 20
6.4232738628
 30
0.0
 10
7.4229677323
 20
6.4209228253
 30
0.0
 10
7.4229674819
 20
6.4193654413
 30
0.0
  0
SPLINE
  5
30F
100
AcDbEntity
  8
0
100
AcDbSpline
 62
7
  6
CONTINUOUS
 70
0
 71
3
 72
11
 73
7
 74
0
 42
0.0000001
 43
0.0000001
 44
0.0000000001
 40
0.0
 40
0.0
 40
0.0
 40
0.0
 40
0.2499623155
 40
0.4999969838
 40
0.7500366119
 40
1.0
 40
1.0
 40
1.0
 40
1.0
 10
5.3832764023
 20
6.9960845711
 30
0.0
 10
5.3826478564
 20
6.9989590751
 30
0.0
 10
5.382672722
 20
7.0050752984
 30
0.0
 10
5.3866735352
 20
7.013273239
 30
0.0
 10
5.3938273744
 20
7.0189332554
 30
0.0
 10
5.3997971236
 20
7.0202643385
 30
0.0
 10
5.4027395575
 20
7.020264466
 30
0.0
  0
SPLINE
  5
310
100
AcDbEntity
  8
0
100
AcDbSpline
 62
7
  6
CONTINUOUS
 70
0
 71
3
 72
20
 73
16
 74
0
 42
0.0000001
 43
0.0000001
 44
0.0000000001
 40
0.0
 40
0.0
 40
0.0
 40
0.0
 40
0.124735674
 40
0.1873977682
 40
0.2499960101
 40
0.312545662
 40
0.375082884
 40
0.4376377241
 40
0.5001891909
 40
0.6249946448
 40
0.687533943
 40
0.7500630609
 40
0.8126343404
 40
0.8752760411
 40
1.0
 40
1.0
 40
1.0
 40
1.0
 10
6.2669246413
 20
7.0202961176
 30
0.0
 10
6.2687974525
 20
7.0202961709
 30
0.0
 10
6.2716306694
 20
7.0199028203
 30
0.0
 10
6.2751716434
 20
7.0186323093
 30
0.0
 10
6.2776735445
 20
7.0173097466
 30
0.0
 10
6.2799635402
 20
7.0156517655
 30
0.0
 10
6.2819933976
 20
7.0136841966
 30
0.0
 10
6.2837215376
 20
7.0114464009
 30
0.0
 10
6.2855759637
 20
7.008172866
 30
0.0
 10
6.2866930883
 20
7.0045262906
 30
0.0
 10
6.2870076952
 20
7.0007781347
 30
0.0
 10
6.2868396777
 20
6.997955969
 30
0.0
 10
6.2862774944
 20
6.9951836297
 30
0.0
 10
6.2850175526
 20
6.991639798
 30
0.0
 10
6.2835272068
 20
6.9891989263
 30
0.0
 10
6.2823408421
 20
6.9877500297
 30
0.0
  0
SPLINE
  5
311
100
AcDbEntity
  8
0
100
AcDbSpline
 62
7
  6
CONTINUOUS
 70
0
 71
3
 72
17
 73
13
 74
0
 42
0.0000001
 43
0.0000001
 44
0.0000000001
 40
0.0
 40
0.0
 40
0.0
 40
0.0
 40
0.1248061284
 40
0.1875108883
 40
0.2501717539
 40
0.3751445118
 40
0.50007796
 40
0.6249947632
 40
0.7498944353
 40
0.812520733
 40
0.8752044803
 40
1.0
 40
1.0
 40
1.0
 40
1.0
 10
6.821970151
 20
7.0203859639
 30
0.0
 10
6.8235270531
 20
7.0203862142
 30
0.0
 10
6.8258774029
 20
7.0201091004
 30
0.0
 10
6.8288729331
 20
7.0192157542
 30
0.0
 10
6.8317450902
 20
7.0179732311
 30
0.0
 10
6.8350297408
 20
7.0157998471
 30
0.0
 10
6.8382403606
 20
7.012341595
 30
0.0
 10
6.8405569829
 20
7.0082315968
 30
0.0
 10
6.8416274349
 20
7.0044429205
 30
0.0
 10
6.8419371214
 20
7.0013305053
 30
0.0
 10
6.8418771226
 20
6.99820601
 30
0.0
 10
6.8414263356
 20
6.9958831181
 30
0.0
 10
6.8409526778
 20
6.9944001546
 30
0.0
  0
SPLINE
  5
312
100
AcDbEntity
  8
0
100
AcDbSpline
 62
7
  6
CONTINUOUS
 70
0
 71
3
 72
19
 73
15
 74
0
 42
0.0000001
 43
0.0000001
 44
0.0000000001
 40
0.0
 40
0.0
 40
0.0
 40
0.0
 40
0.1247383332
 40
0.1874362218
 40
0.2500595063
 40
0.3126250867
 40
0.3751979185
 40
0.50002177
 40
0.6248259924
 40
0.6873909695
 40
0.7499516612
 40
0.8125711556
 40
0.8752652168
 40
1.0
 40
1.0
 40
1.0
 40
1.0
 10
6.0322607894
 20
5.8102542509
 30
0.0
 10
6.0307426232
 20
5.8088948622
 30
0.0
 10
6.0281386631
 20
5.8071761564
 30
0.0
 10
6.0243085305
 20
5.8057243185
 30
0.0
 10
6.0212935985
 20
5.805083871
 30
0.0
 10
6.0182185906
 20
5.8049084876
 30
0.0
 10
6.0141415323
 20
5.8053165058
 30
0.0
 10
6.0092351785
 20
5.8070147571
 30
0.0
 10
6.0051159412
 20
5.8101750407
 30
0.0
 10
6.0025309849
 20
5.8133534923
 30
0.0
 10
6.0009843344
 20
5.8160166794
 30
0.0
 10
5.9998588563
 20
5.8188858256
 30
0.0
 10
5.9989616462
 20
5.8228822389
 30
0.0
 10
5.9989626044
 20
5.8260021458
 30
0.0
 10
5.9992613418
 20
5.8280179051
 30
0.0
  0
SPLINE
  5
313
100
AcDbEntity
  8
0
100
AcDbSpline
 62
7
  6
CONTINUOUS
 70
0
 71
3
 72
17
 73
13
 74
0
 42
0.0000001
 43
0.0000001
 44
0.0000000001
 40
0.0
 40
0.0
 40
0.0
 40
0.0
 40
0.124777929
 40
0.187492487
 40
0.2501651521
 40
0.3751404495
 40
0.5000495171
 40
0.6249463157
 40
0.7498739074
 40
0.8125255195
 40
0.8752278417
 40
1.0
 40
1.0
 40
1.0
 40
1.0
 10
5.0937031167
 20
6.9581553042
 30
0.0
 10
5.0950844836
 20
6.9590219693
 30
0.0
 10
5.0973325178
 20
6.9600735047
 30
0.0
 10
5.1005000891
 20
6.9609067485
 30
0.0
 10
5.1037506576
 20
6.9613415494
 30
0.0
 10
5.1078753795
 20
6.9611291092
 30
0.0
 10
5.1126006417
 20
6.9596618113
 30
0.0
 10
5.1168237628
 20
6.9570849805
 30
0.0
 10
5.1197080502
 20
6.954130264
 30
0.0
 10
5.1215291579
 20
6.9514041292
 30
0.0
 10
5.1229969559
 20
6.9484766754
 30
0.0
 10
5.123693396
 20
6.9460948334
 30
0.0
 10
5.1239558989
 20
6.9444854456
 30
0.0
  0
SPLINE
  5
314
100
AcDbEntity
  8
0
100
AcDbSpline
 62
7
  6
CONTINUOUS
 70
0
 71
3
 72
17
 73
13
 74
0
 42
0.0000001
 43
0.0000001
 44
0.0000000001
 40
0.0
 40
0.0
 40
0.0
 40
0.0
 40
0.1247551145
 40
0.1874698128
 40
0.2501421224
 40
0.3751063224
 40
0.5000156628
 40
0.6249200324
 40
0.7498663309
 40
0.8125320911
 40
0.875244445
 40
1.0
 40
1.0
 40
1.0
 40
1.0
 10
5.4518499118
 20
5.0731084179
 30
0.0
 10
5.4534854113
 20
5.0734817647
 30
0.0
 10
5.4560280742
 20
5.0737326701
 30
0.0
 10
5.4593854583
 20
5.0734402999
 30
0.0
 10
5.462682564
 20
5.0727211863
 30
0.0
 10
5.4665919815
 20
5.0710484687
 30
0.0
 10
5.4706112428
 20
5.0679188365
 30
0.0
 10
5.4737146065
 20
5.0638795818
 30
0.0
 10
5.4753619277
 20
5.0599598298
 30
0.0
 10
5.4760595888
 20
5.0566584869
 30
0.0
 10
5.4763303307
 20
5.0532994109
 30
0.0
 10
5.4760631413
 20
5.0507584333
 30
0.0
 10
5.4756792918
 20
5.0491253607
 30
0.0
  0
SPLINE
  5
315
100
AcDbEntity
  8
0
100
AcDbSpline
 62
7
  6
CONTINUOUS
 70
0
 71
3
 72
17
 73
13
 74
0
 42
0.0000001
 43
0.0000001
 44
0.0000000001
 40
0.0
 40
0.0
 40
0.0
 40
0.0
 40
0.1247801472
 40
0.1874749645
 40
0.2501228061
 40
0.3750622457
 40
0.4999743051
 40
0.6248945537
 40
0.749862663
 40
0.8125212759
 40
0.8752202175
 40
1.0
 40
1.0
 40
1.0
 40
1.0
 10
4.9692429871
 20
5.1258535241
 30
0.0
 10
4.9696392904
 20
5.1273991157
 30
0.0
 10
4.9705196527
 20
5.1296606296
 30
0.0
 10
4.9721885564
 20
5.1323955465
 30
0.0
 10
4.9741788171
 20
5.1349108074
 30
0.0
 10
4.9772123416
 20
5.1375766504
 30
0.0
 10
4.9815112532
 20
5.1397978361
 30
0.0
 10
4.9862167259
 20
5.1409276987
 30
0.0
 10
4.9902556384
 20
5.140893514
 30
0.0
 10
4.9934066028
 20
5.1402912867
 30
0.0
 10
4.996457579
 20
5.1393126109
 30
0.0
 10
4.9986021741
 20
5.1381766427
 30
0.0
 10
4.9999124398
 20
5.1372660942
 30
0.0
  0
SPLINE
  5
316
100
AcDbEntity
  8
0
100
AcDbSpline
 62
7
  6
CONTINUOUS
 70
0
 71
3
 72
17
 73
13
 74
0
 42
0.0000001
 43
0.0000001
 44
0.0000000001
 40
0.0
 40
0.0
 40
0.0
 40
0.0
 40
0.124791549
 40
0.1875032747
 40
0.2501705233
 40
0.3751406553
 40
0.5000600401
 40
0.6249654119
 40
0.7498778771
 40
0.8125190779
 40
0.8752156042
 40
1.0
 40
1.0
 40
1.0
 40
1.0
 10
4.6859077052
 20
5.1362633256
 30
0.0
 10
4.6872186528
 20
5.1371823168
 30
0.0
 10
4.6893666432
 20
5.1383299557
 30
0.0
 10
4.6924249336
 20
5.1393216788
 30
0.0
 10
4.6955848786
 20
5.1399348852
 30
0.0
 10
4.6996374384
 20
5.1399774604
 30
0.0
 10
4.7043599625
 20
5.1388496711
 30
0.0
 10
4.7086740139
 20
5.1366235133
 30
0.0
 10
4.7117165784
 20
5.133948184
 30
0.0
 10
4.7137106413
 20
5.1314229598
 30
0.0
 10
4.7153814257
 20
5.1286768541
 30
0.0
 10
4.7162607683
 20
5.1264061105
 30
0.0
 10
4.7166549402
 20
5.1248545103
 30
0.0
  0
SPLINE
  5
317
100
AcDbEntity
  8
0
100
AcDbSpline
 62
7
  6
CONTINUOUS
 70
0
 71
3
 72
17
 73
13
 74
0
 42
0.0000001
 43
0.0000001
 44
0.0000000001
 40
0.0
 40
0.0
 40
0.0
 40
0.0
 40
0.1247899739
 40
0.1875121776
 40
0.2501842274
 40
0.3751441733
 40
0.5000658527
 40
0.6249760506
 40
0.7498779403
 40
0.8125205734
 40
0.8752226346
 40
1.0
 40
1.0
 40
1.0
 40
1.0
 10
4.5568014718
 20
6.9444854456
 30
0.0
 10
4.5570640119
 20
6.9460950619
 30
0.0
 10
4.5577609781
 20
6.9484772756
 30
0.0
 10
4.5592291218
 20
6.95140538
 30
0.0
 10
4.5610506423
 20
6.9541323891
 30
0.0
 10
4.5639362892
 20
6.9570873835
 30
0.0
 10
4.5681609508
 20
6.9596630243
 30
0.0
 10
4.5728855706
 20
6.9611300505
 30
0.0
 10
4.5770090354
 20
6.9613418562
 30
0.0
 10
4.5802579832
 20
6.9609065047
 30
0.0
 10
4.5834249459
 20
6.9600732751
 30
0.0
 10
4.5856728944
 20
6.9590219647
 30
0.0
 10
4.5870542539
 20
6.9581553042
 30
0.0
  0
SPLINE
  5
318
100
AcDbEntity
  8
0
100
AcDbSpline
 62
7
  6
CONTINUOUS
 70
0
 71
3
 72
19
 73
15
 74
0
 42
0.0000001
 43
0.0000001
 44
0.0000000001
 40
0.0
 40
0.0
 40
0.0
 40
0.0
 40
0.1247691558
 40
0.1874362611
 40
0.2500323869
 40
0.3125844443
 40
0.3751427697
 40
0.4999924008
 40
0.6248488063
 40
0.6874100803
 40
0.7499638217
 40
0.8125611833
 40
0.8752296016
 40
1.0
 40
1.0
 40
1.0
 40
1.0
 10
3.4032958038
 20
6.9877500297
 30
0.0
 10
3.4021093898
 20
6.9891989867
 30
0.0
 10
3.4006190455
 20
6.991640047
 30
0.0
 10
3.3993589909
 20
6.9951840718
 30
0.0
 10
3.3987969662
 20
6.9979566943
 30
0.0
 10
3.3986289501
 20
7.0007787672
 30
0.0
 10
3.398943947
 20
7.0045279582
 30
0.0
 10
3.4003356709
 20
7.00907604
 30
0.0
 10
3.4029730553
 20
7.0130341276
 30
0.0
 10
3.4056744355
 20
7.0156531912
 30
0.0
 10
3.407964493
 20
7.0173110457
 30
0.0
 10
3.4104658897
 20
7.0186326693
 30
0.0
 10
3.4140063601
 20
7.0199028394
 30
0.0
 10
3.4168392728
 20
7.0202961709
 30
0.0
 10
3.4187120046
 20
7.0202961176
 30
0.0
  0
SPLINE
  5
319
100
AcDbEntity
  8
0
100
AcDbSpline
 62
7
  6
CONTINUOUS
 70
0
 71
3
 72
15
 73
11
 74
0
 42
0.0000001
 43
0.0000001
 44
0.0000000001
 40
0.0
 40
0.0
 40
0.0
 40
0.0
 40
0.1248731654
 40
0.250053552
 40
0.3750701632
 40
0.5000622298
 40
0.6250435742
 40
0.750007719
 40
0.8751398577
 40
1.0
 40
1.0
 40
1.0
 40
1.0
 10
4.2828970884
 20
7.020264466
 30
0.0
 10
4.2843761924
 20
7.0202644019
 30
0.0
 10
4.2873480374
 20
7.0199324239
 30
0.0
 10
4.2915814721
 20
7.0184736085
 30
0.0
 10
4.2953878508
 20
7.016106594
 30
0.0
 10
4.2985673388
 20
7.0129519927
 30
0.0
 10
4.300968718
 20
7.0091719765
 30
0.0
 10
4.3024666164
 20
7.0049487975
 30
0.0
 10
4.3029869597
 20
7.0005027838
 30
0.0
 10
4.3026761698
 20
6.9975293836
 30
0.0
 10
4.3023602437
 20
6.9960845711
 30
0.0
  0
SPLINE
  5
31A
100
AcDbEntity
  8
0
100
AcDbSpline
 62
7
  6
CONTINUOUS
 70
0
 71
3
 72
19
 73
15
 74
0
 42
0.0000001
 43
0.0000001
 44
0.0000000001
 40
0.0
 40
0.0
 40
0.0
 40
0.0
 40
0.1247332658
 40
0.1874257068
 40
0.2500442426
 40
0.3126066771
 40
0.3751791538
 40
0.5000060754
 40
0.6248305772
 40
0.6874021914
 40
0.749962772
 40
0.8125789416
 40
0.8752690043
 40
1.0
 40
1.0
 40
1.0
 40
1.0
 10
3.6861833727
 20
5.8291843789
 30
0.0
 10
3.6864790042
 20
5.8271694831
 30
0.0
 10
3.6864756399
 20
5.8240516438
 30
0.0
 10
3.6855739034
 20
5.820058977
 30
0.0
 10
3.6844458028
 20
5.8171929806
 30
0.0
 10
3.6828971242
 20
5.8145330537
 30
0.0
 10
3.6803099489
 20
5.8113590971
 30
0.0
 10
3.6761904524
 20
5.8082038905
 30
0.0
 10
3.6712857273
 20
5.806510112
 30
0.0
 10
3.667211162
 20
5.8061043211
 30
0.0
 10
3.6641383858
 20
5.8062807971
 30
0.0
 10
3.6611258921
 20
5.8069216813
 30
0.0
 10
3.6572987085
 20
5.8083729685
 30
0.0
 10
3.6546968443
 20
5.8100907576
 30
0.0
 10
3.6531797239
 20
5.8114492119
 30
0.0
  0
SPLINE
  5
31B
100
AcDbEntity
  8
0
100
AcDbSpline
 62
7
  6
CONTINUOUS
 70
0
 71
3
 72
17
 73
13
 74
0
 42
0.0000001
 43
0.0000001
 44
0.0000000001
 40
0.0
 40
0.0
 40
0.0
 40
0.0
 40
0.124790807
 40
0.1874780883
 40
0.2501200845
 40
0.3750631324
 40
0.4999812186
 40
0.6249054821
 40
0.7498696712
 40
0.8125195396
 40
0.8752097036
 40
1.0
 40
1.0
 40
1.0
 40
1.0
 10
2.8447121162
 20
6.9943846439
 30
0.0
 10
2.8442370575
 20
6.9958678108
 30
0.0
 10
2.8437840959
 20
6.998191337
 30
0.0
 10
2.8437219787
 20
7.0013173614
 30
0.0
 10
2.8440303507
 20
7.0044320707
 30
0.0
 10
2.8450993802
 20
7.008223718
 30
0.0
 10
2.8474153906
 20
7.0123370333
 30
0.0
 10
2.8506267693
 20
7.0157972282
 30
0.0
 10
2.8539123034
 20
7.0179716655
 30
0.0
 10
2.8567850067
 20
7.0192152796
 30
0.0
 10
2.8597812614
 20
7.0201092516
 30
0.0
 10
2.8621322989
 20
7.0203862105
 30
0.0
 10
2.863689683
 20
7.0203859602
 30
0.0
  0
SPLINE
  5
31C
100
AcDbEntity
  8
0
100
AcDbSpline
 62
7
  6
CONTINUOUS
 70
0
 71
3
 72
11
 73
7
 74
0
 42
0.0000001
 43
0.0000001
 44
0.0000000001
 40
0.0
 40
0.0
 40
0.0
 40
0.0
 40
0.2499505684
 40
0.4999999375
 40
0.7500472472
 40
1.0
 40
1.0
 40
1.0
 40
1.0
 10
2.2869705531
 20
4.9806948805
 30
0.0
 10
2.2840961835
 20
4.9800663641
 30
0.0
 10
2.2779799465
 20
4.9800911445
 30
0.0
 10
2.2697818276
 20
4.984091988
 30
0.0
 10
2.2641217807
 20
4.991246014
 30
0.0
 10
2.2627907857
 20
4.9972157263
 30
0.0
 10
2.2627906583
 20
5.0001580358
 30
0.0
  0
SPLINE
  5
31D
100
AcDbEntity
  8
0
100
AcDbSpline
 62
7
  6
CONTINUOUS
 70
0
 71
3
 72
20
 73
16
 74
0
 42
0.0000001
 43
0.0000001
 44
0.0000000001
 40
0.0
 40
0.0
 40
0.0
 40
0.0
 40
0.124735674
 40
0.1873977682
 40
0.2499960101
 40
0.312545662
 40
0.375082884
 40
0.4376377241
 40
0.5001891909
 40
0.6249946448
 40
0.687533943
 40
0.7500630609
 40
0.8126343404
 40
0.8752760411
 40
1.0
 40
1.0
 40
1.0
 40
1.0
 10
2.2627590066
 20
5.8643431196
 30
0.0
 10
2.2627589534
 20
5.8662159307
 30
0.0
 10
2.2631523039
 20
5.8690491477
 30
0.0
 10
2.2644228149
 20
5.8725901216
 30
0.0
 10
2.2657453776
 20
5.8750920228
 30
0.0
 10
2.2674033587
 20
5.8773820185
 30
0.0
 10
2.2693709276
 20
5.8794118759
 30
0.0
 10
2.2716087233
 20
5.8811400159
 30
0.0
 10
2.2748822582
 20
5.8829944419
 30
0.0
 10
2.2785288336
 20
5.8841115666
 30
0.0
 10
2.2822769895
 20
5.8844261735
 30
0.0
 10
2.2850991553
 20
5.884258156
 30
0.0
 10
2.2878714945
 20
5.8836959727
 30
0.0
 10
2.2914153262
 20
5.8824360309
 30
0.0
 10
2.2938561979
 20
5.8809456851
 30
0.0
 10
2.2953050946
 20
5.8797593204
 30
0.0
  0
SPLINE
  5
31E
100
AcDbEntity
  8
0
100
AcDbSpline
 62
7
  6
CONTINUOUS
 70
0
 71
3
 72
17
 73
13
 74
0
 42
0.0000001
 43
0.0000001
 44
0.0000000001
 40
0.0
 40
0.0
 40
0.0
 40
0.0
 40
0.1248061284
 40
0.1875108883
 40
0.2501717539
 40
0.3751445118
 40
0.50007796
 40
0.6249947632
 40
0.7498944353
 40
0.812520733
 40
0.8752044803
 40
1.0
 40
1.0
 40
1.0
 40
1.0
 10
2.2626691603
 20
6.4193886292
 30
0.0
 10
2.26266891
 20
6.4209455314
 30
0.0
 10
2.2629460239
 20
6.4232958811
 30
0.0
 10
2.26383937
 20
6.4262914114
 30
0.0
 10
2.2650818931
 20
6.4291635684
 30
0.0
 10
2.2672552771
 20
6.4324482191
 30
0.0
 10
2.2707135292
 20
6.4356588389
 30
0.0
 10
2.2748235274
 20
6.4379754612
 30
0.0
 10
2.2786122038
 20
6.4390459131
 30
0.0
 10
2.2817246189
 20
6.4393555997
 30
0.0
 10
2.2848491142
 20
6.4392956009
 30
0.0
 10
2.2871720061
 20
6.4388448139
 30
0.0
 10
2.2886549696
 20
6.4383711561
 30
0.0
  0
SPLINE
  5
31F
100
AcDbEntity
  8
0
100
AcDbSpline
 62
7
  6
CONTINUOUS
 70
0
 71
3
 72
20
 73
16
 74
0
 42
0.0000001
 43
0.0000001
 44
0.0000000001
 40
0.0
 40
0.0
 40
0.0
 40
0.0
 40
0.1246715838
 40
0.1873324856
 40
0.2499262852
 40
0.3124723258
 40
0.3750423557
 40
0.4376629765
 40
0.5002642349
 40
0.625034533
 40
0.6875750886
 40
0.7500989457
 40
0.8126763215
 40
0.8753288868
 40
1.0
 40
1.0
 40
1.0
 40
1.0
 10
3.4728008733
 20
5.6296792677
 30
0.0
 10
3.4741600555
 20
5.6281613288
 30
0.0
 10
3.4758788367
 20
5.6255580121
 30
0.0
 10
3.4773302751
 20
5.6217284256
 30
0.0
 10
3.4779711235
 20
5.6187136883
 30
0.0
 10
3.4781470297
 20
5.6156389271
 30
0.0
 10
3.477839502
 20
5.6125734242
 30
0.0
 10
3.4770562723
 20
5.6095924133
 30
0.0
 10
3.4754126244
 20
5.605837216
 30
0.0
 10
3.4728773243
 20
5.6025314004
 30
0.0
 10
3.4696992981
 20
5.5999479446
 30
0.0
 10
3.4670362133
 20
5.5984016306
 30
0.0
 10
3.4641676687
 20
5.5972770029
 30
0.0
 10
3.4601721003
 20
5.5963798075
 30
0.0
 10
3.4570527319
 20
5.5963811232
 30
0.0
 10
3.4550372261
 20
5.5966798204
 30
0.0
  0
SPLINE
  5
320
100
AcDbEntity
  8
0
100
AcDbSpline
 62
7
  6
CONTINUOUS
 70
0
 71
3
 72
17
 73
13
 74
0
 42
0.0000001
 43
0.0000001
 44
0.0000000001
 40
0.0
 40
0.0
 40
0.0
 40
0.0
 40
0.124777929
 40
0.187492487
 40
0.2501651521
 40
0.3751404495
 40
0.5000495171
 40
0.6249463157
 40
0.7498739074
 40
0.8125255195
 40
0.8752278417
 40
1.0
 40
1.0
 40
1.0
 40
1.0
 10
2.32489982
 20
4.691121595
 30
0.0
 10
2.3240331549
 20
4.6925029619
 30
0.0
 10
2.3229816195
 20
4.6947509961
 30
0.0
 10
2.3221483758
 20
4.6979185673
 30
0.0
 10
2.3217135748
 20
4.7011691358
 30
0.0
 10
2.321926015
 20
4.7052938577
 30
0.0
 10
2.3233933129
 20
4.7100191199
 30
0.0
 10
2.3259701437
 20
4.7142422411
 30
0.0
 10
2.3289248602
 20
4.7171265284
 30
0.0
 10
2.3316509951
 20
4.7189476362
 30
0.0
 10
2.3345784488
 20
4.7204154342
 30
0.0
 10
2.3369602908
 20
4.7211118742
 30
0.0
 10
2.3385696786
 20
4.7213743771
 30
0.0
  0
SPLINE
  5
321
100
AcDbEntity
  8
0
100
AcDbSpline
 62
7
  6
CONTINUOUS
 70
0
 71
3
 72
17
 73
13
 74
0
 42
0.0000001
 43
0.0000001
 44
0.0000000001
 40
0.0
 40
0.0
 40
0.0
 40
0.0
 40
0.1247551137
 40
0.1874698128
 40
0.2501421234
 40
0.3751063225
 40
0.5000156626
 40
0.6249200324
 40
0.7498663302
 40
0.812532091
 40
0.8752444456
 40
1.0
 40
1.0
 40
1.0
 40
1.0
 10
4.2099467063
 20
5.0492683905
 30
0.0
 10
4.2095733597
 20
5.0509038899
 30
0.0
 10
4.2093224549
 20
5.0534465527
 30
0.0
 10
4.2096148258
 20
5.0568039364
 30
0.0
 10
4.2103339397
 20
5.0601010417
 30
0.0
 10
4.2120066572
 20
5.0640104589
 30
0.0
 10
4.2151362891
 20
5.0680297198
 30
0.0
 10
4.2191755434
 20
5.0711330833
 30
0.0
 10
4.223095295
 20
5.0727804044
 30
0.0
 10
4.2263966375
 20
5.0734780658
 30
0.0
 10
4.2297557131
 20
5.0737488083
 30
0.0
 10
4.2322966907
 20
5.0734816194
 30
0.0
 10
4.2339297631
 20
5.0730977701
 30
0.0
  0
SPLINE
  5
322
100
AcDbEntity
  8
0
100
AcDbSpline
 62
7
  6
CONTINUOUS
 70
0
 71
3
 72
17
 73
13
 74
0
 42
0.0000001
 43
0.0000001
 44
0.0000000001
 40
0.0
 40
0.0
 40
0.0
 40
0.0
 40
0.1247801493
 40
0.1874749646
 40
0.250122804
 40
0.3750622455
 40
0.4999743082
 40
0.6248945533
 40
0.7498626611
 40
0.812521276
 40
0.8752202192
 40
1.0
 40
1.0
 40
1.0
 40
1.0
 10
4.1572016006
 20
4.5666614652
 30
0.0
 10
4.155656009
 20
4.5670577686
 30
0.0
 10
4.1533944948
 20
4.5679381303
 30
0.0
 10
4.1506595774
 20
4.5696070333
 30
0.0
 10
4.1481443163
 20
4.5715972939
 30
0.0
 10
4.1454784738
 20
4.574630819
 30
0.0
 10
4.1432572883
 20
4.5789297309
 30
0.0
 10
4.142127426
 20
4.5836352039
 30
0.0
 10
4.1421616114
 20
4.5876741164
 30
0.0
 10
4.1427638387
 20
4.5908250809
 30
0.0
 10
4.1437425139
 20
4.5938760574
 30
0.0
 10
4.1448784816
 20
4.5960206529
 30
0.0
 10
4.1457890303
 20
4.5973309185
 30
0.0
  0
SPLINE
  5
323
100
AcDbEntity
  8
0
100
AcDbSpline
 62
7
  6
CONTINUOUS
 70
0
 71
3
 72
73
 73
69
 74
0
 42
0.0000001
 43
0.0000001
 44
0.0000000001
 40
0.0
 40
0.0
 40
0.0
 40
0.0
 40
0.0156142909
 40
0.0312010342
 40
0.0389841803
 40
0.0467608952
 40
0.0623111716
 40
0.0778908171
 40
0.0935221769
 40
0.1092133757
 40
0.1249599049
 40
0.1407462017
 40
0.1486472466
 40
0.1565481191
 40
0.1723352353
 40
0.18808909
 40
0.219439048
 40
0.2350365411
 40
0.2505846148
 40
0.266097352
 40
0.2816008489
 40
0.2971389088
 40
0.3127533105
 40
0.3284787759
 40
0.3443205584
 40
0.3602048946
 40
0.3760518509
 40
0.3917968587
 40
0.4073948222
 40
0.4151328259
 40
0.4228286881
 40
0.4304845715
 40
0.4381075517
 40
0.4457139744
 40
0.4533194389
 40
0.4685731795
 40
0.4839423988
 40
0.4994600821
 40
0.5151292051
 40
0.5309299998
 40
0.5468268042
 40
0.562774389
 40
0.5787238692
 40
0.5946284204
 40
0.6025513976
 40
0.6104495471
 40
0.6183203207
 40
0.6261646066
 40
0.6417877954
 40
0.6573497343
 40
0.6728793143
 40
0.6884042245
 40
0.7039460074
 40
0.7195099041
 40
0.735094709
 40
0.7506953867
 40
0.7663034407
 40
0.7819081437
 40
0.797505299
 40
0.8130953419
 40
0.8442539803
 40
0.8598264843
 40
0.8753947744
 40
0.8909600396
 40
0.9065257148
 40
0.9376696298
 40
0.9688349161
 40
1.0
 40
1.0
 40
1.0
 40
1.0
 10
3.9980850862
 20
5.0463165379
 30
0.0
 10
3.9939549009
 20
5.0558144844
 30
0.0
 10
3.9850735577
 20
5.0745277309
 30
0.0
 10
3.9723849328
 20
5.0970853901
 30
0.0
 10
3.9612843194
 20
5.1145147766
 30
0.0
 10
3.9495485919
 20
5.1314935685
 30
0.0
 10
3.9337044322
 20
5.1518949996
 30
0.0
 10
3.9130234815
 20
5.1750408401
 30
0.0
 10
3.8908423103
 20
5.1968833171
 30
0.0
 10
3.8673316411
 20
5.2174517491
 30
0.0
 10
3.8426606252
 20
5.2367756442
 30
0.0
 10
3.8212803285
 20
5.251862838
 30
0.0
 10
3.8037530601
 20
5.2633464706
 30
0.0
 10
3.7859774909
 20
5.2744425093
 30
0.0
 10
3.7633367221
 20
5.2875722824
 30
0.0
 10
3.726320424
 20
5.3068293136
 30
0.0
 10
3.6880542561
 20
5.3233433623
 30
0.0
 10
3.6487706637
 20
5.3366353435
 30
0.0
 10
3.6189177321
 20
5.3448680411
 30
0.0
 10
3.5886817092
 20
5.3512709326
 30
0.0
 10
3.5581047472
 20
5.3557312219
 30
0.0
 10
3.5272463702
 20
5.3583085818
 30
0.0
 10
3.4961441844
 20
5.3590747184
 30
0.0
 10
3.4648483804
 20
5.358101568
 30
0.0
 10
3.4334686318
 20
5.3554652925
 30
0.0
 10
3.4022052159
 20
5.3510489521
 30
0.0
 10
3.3713304335
 20
5.3447377278
 30
0.0
 10
3.3411294045
 20
5.3364163222
 30
0.0
 10
3.3166904579
 20
5.3276837632
 30
0.0
 10
3.297769107
 20
5.3195663907
 30
0.0
 10
3.2839654232
 20
5.3129190652
 30
0.0
 10
3.2705480374
 20
5.3056812897
 30
0.0
 10
3.2575456066
 20
5.2978364929
 30
0.0
 10
3.2449411341
 20
5.2894283844
 30
0.0
 10
3.2286183371
 20
5.277506145
 30
0.0
 10
3.2090457503
 20
5.2613450903
 30
0.0
 10
3.1867789231
 20
5.2403226245
 30
0.0
 10
3.1654848488
 20
5.2179413939
 30
0.0
 10
3.1449463241
 20
5.1944902052
 30
0.0
 10
3.1249467812
 20
5.1702552332
 30
0.0
 10
3.1052719037
 20
5.1455222255
 30
0.0
 10
3.0857083505
 20
5.1205765543
 30
0.0
 10
3.0660433369
 20
5.0957038945
 30
0.0
 10
3.0493733367
 20
5.0752499443
 30
0.0
 10
3.0357623296
 20
5.0591994964
 30
0.0
 10
3.0254098443
 20
5.047375231
 30
0.0
 10
3.01486976
 20
5.0357879031
 30
0.0
 10
3.0005689496
 20
5.0207003935
 30
0.0
 10
2.9821933435
 20
5.0024534614
 30
0.0
 10
2.9593395292
 20
4.9815166021
 30
0.0
 10
2.9357224985
 20
4.9615454472
 30
0.0
 10
2.9113533808
 20
4.9425214465
 30
0.0
 10
2.8862587031
 20
4.9244276258
 30
0.0
 10
2.8605072941
 20
4.9072116736
 30
0.0
 10
2.8341717244
 20
4.8908308272
 30
0.0
 10
2.807326867
 20
4.8752417631
 30
0.0
 10
2.7800456877
 20
4.8604034419
 30
0.0
 10
2.7523993163
 20
4.8462634785
 30
0.0
 10
2.7244206416
 20
4.8328197884
 30
0.0
 10
2.6867058182
 20
4.8158476026
 30
0.0
 10
2.6483775046
 20
4.8003064908
 30
0.0
 10
2.6095166528
 20
4.7862437199
 30
0.0
 10
2.5801232396
 20
4.7764435203
 30
0.0
 10
2.5504917182
 20
4.767404997
 30
0.0
 10
2.5106930495
 20
4.7563299165
 30
0.0
 10
2.4604751922
 20
4.7441605912
 30
0.0
 10
2.3997102093
 20
4.7317847507
 30
0.0
 10
2.358972138
 20
4.7247021671
 30
0.0
 10
2.3385696786
 20
4.7213743771
 30
0.0
  0
SPLINE
  5
324
100
AcDbEntity
  8
0
100
AcDbSpline
 62
7
  6
CONTINUOUS
 70
0
 71
3
 72
18
 73
14
 74
0
 42
0.0000001
 43
0.0000001
 44
0.0000000001
 40
0.0
 40
0.0
 40
0.0
 40
0.0
 40
0.1252891588
 40
0.2495666662
 40
0.3114454673
 40
0.3732331226
 40
0.4350309635
 40
0.4969492104
 40
0.5590651089
 40
0.6214242537
 40
0.7468850099
 40
0.8732313463
 40
1.0
 40
1.0
 40
1.0
 40
1.0
 10
3.8428418325
 20
4.9532657526
 30
0.0
 10
3.8448458636
 20
4.9463816425
 30
0.0
 10
3.8482438468
 20
4.9324867756
 30
0.0
 10
3.8507953963
 20
4.9148143671
 30
0.0
 10
3.8516979168
 20
4.9006479233
 30
0.0
 10
3.8517844707
 20
4.8900289045
 30
0.0
 10
3.8512526117
 20
4.879420275
 30
0.0
 10
3.850093528
 20
4.8688432178
 30
0.0
 10
3.8483456382
 20
4.8583153876
 30
0.0
 10
3.8452655977
 20
4.8443424521
 30
0.0
 10
3.8400957415
 20
4.8270926531
 30
0.0
 10
3.8320732337
 20
4.8069436551
 30
0.0
 10
3.8256723229
 20
4.793932227
 30
0.0
 10
3.8222422524
 20
4.7875398101
 30
0.0
  0
SPLINE
  5
325
100
AcDbEntity
  8
0
100
AcDbSpline
 62
7
  6
CONTINUOUS
 70
0
 71
3
 72
18
 73
14
 74
0
 42
0.0000001
 43
0.0000001
 44
0.0000000001
 40
0.0
 40
0.0
 40
0.0
 40
0.0
 40
0.1253654626
 40
0.2496963935
 40
0.3115881154
 40
0.3733774135
 40
0.4351649266
 40
0.4970642784
 40
0.5591578071
 40
0.6214944614
 40
0.7469172484
 40
0.8732414801
 40
1.0
 40
1.0
 40
1.0
 40
1.0
 10
4.3241005915
 20
5.440435704
 30
0.0
 10
4.3310208133
 20
5.4383834408
 30
0.0
 10
4.3449909443
 20
5.4348937924
 30
0.0
 10
4.3627675915
 20
5.4322422106
 30
0.0
 10
4.3770205629
 20
5.4312718032
 30
0.0
 10
4.3877043697
 20
5.4311413031
 30
0.0
 10
4.3983783747
 20
5.4316355091
 30
0.0
 10
4.4090207987
 20
5.432769545
 30
0.0
 10
4.4196132891
 20
5.4345048709
 30
0.0
 10
4.4336714474
 20
5.437583336
 30
0.0
 10
4.4510246949
 20
5.4427778562
 30
0.0
 10
4.4712873171
 20
5.4508641051
 30
0.0
 10
4.4843660861
 20
5.4573255667
 30
0.0
 10
4.4907899936
 20
5.4607895232
 30
0.0
  0
SPLINE
  5
326
100
AcDbEntity
  8
0
100
AcDbSpline
 62
7
  6
CONTINUOUS
 70
0
 71
3
 72
73
 73
69
 74
0
 42
0.0000001
 43
0.0000001
 44
0.0000000001
 40
0.0
 40
0.0
 40
0.0
 40
0.0
 40
0.0156143931
 40
0.0312012739
 40
0.0389844849
 40
0.046761242
 40
0.062311462
 40
0.0778909239
 40
0.0935220402
 40
0.1092129931
 40
0.1249593223
 40
0.1407455045
 40
0.1486465348
 40
0.1565474241
 40
0.1723346355
 40
0.1880886438
 40
0.2194389973
 40
0.2350366812
 40
0.2505849073
 40
0.2660977312
 40
0.2816011908
 40
0.2971390661
 40
0.3127531652
 40
0.3284782375
 40
0.3443197544
 40
0.3602040887
 40
0.3760512549
 40
0.3917966251
 40
0.4073950352
 40
0.4151332693
 40
0.4228293529
 40
0.4304854376
 40
0.4381085499
 40
0.4457150154
 40
0.4533204505
 40
0.4685739757
 40
0.4839428644
 40
0.4994601878
 40
0.5151289836
 40
0.5309295244
 40
0.5468261709
 40
0.5627737014
 40
0.5787232255
 40
0.5946279025
 40
0.6025509652
 40
0.6104492102
 40
0.6183200827
 40
0.6261644546
 40
0.6417877719
 40
0.6573497863
 40
0.6728793948
 40
0.6884042926
 40
0.7039460457
 40
0.719509913
 40
0.7350946942
 40
0.7506953576
 40
0.7663034093
 40
0.78190812
 40
0.7975052826
 40
0.8130953317
 40
0.8442539793
 40
0.8598264867
 40
0.8753947792
 40
0.8909600455
 40
0.9065257197
 40
0.9376696306
 40
0.9688349154
 40
1.0
 40
1.0
 40
1.0
 40
1.0
 10
4.2319902698
 20
5.2849131142
 30
0.0
 10
4.2224903286
 20
5.2890407442
 30
0.0
 10
4.2037728694
 20
5.2979170334
 30
0.0
 10
4.1812093829
 20
5.3105994797
 30
0.0
 10
4.1637749671
 20
5.3216952526
 30
0.0
 10
4.1467910269
 20
5.3334261953
 30
0.0
 10
4.1263833227
 20
5.3492651154
 30
0.0
 10
4.1032301845
 20
5.3699407813
 30
0.0
 10
4.0813807308
 20
5.3921176113
 30
0.0
 10
4.0608056292
 20
5.415624832
 30
0.0
 10
4.0414753638
 20
5.4402932551
 30
0.0
 10
4.0263831345
 20
5.4616720383
 30
0.0
 10
4.0148956109
 20
5.4791984665
 30
0.0
 10
4.0037957695
 20
5.4969735106
 30
0.0
 10
3.9906610878
 20
5.5196138029
 30
0.0
 10
3.9713959236
 20
5.5566297227
 30
0.0
 10
3.954873361
 20
5.5948959819
 30
0.0
 10
3.9415725078
 20
5.6341802255
 30
0.0
 10
3.9333330496
 20
5.6640338867
 30
0.0
 10
3.9269232219
 20
5.6942708392
 30
0.0
 10
3.9224561503
 20
5.724848968
 30
0.0
 10
3.9198726004
 20
5.7557087164
 30
0.0
 10
3.9191007157
 20
5.7868124168
 30
0.0
 10
3.9200686964
 20
5.8181099969
 30
0.0
 10
3.9226999663
 20
5.8494919887
 30
0.0
 10
3.9271111337
 20
5.8807583765
 30
0.0
 10
3.9334171368
 20
5.9116369111
 30
0.0
 10
3.9417332695
 20
5.941842414
 30
0.0
 10
3.9504613989
 20
5.9662856389
 30
0.0
 10
3.9585752368
 20
5.9852107594
 30
0.0
 10
3.9652199393
 20
5.9990174034
 30
0.0
 10
3.9724550347
 20
6.0124378935
 30
0.0
 10
3.980297329
 20
6.0254434019
 30
0.0
 10
3.9887032572
 20
6.0380507565
 30
0.0
 10
4.0006228817
 20
6.0543770974
 30
0.0
 10
4.0167813431
 20
6.0739537236
 30
0.0
 10
4.0378017121
 20
6.0962247525
 30
0.0
 10
4.0601817236
 20
6.1175223663
 30
0.0
 10
4.083632503
 20
6.1380638208
 30
0.0
 10
4.1078678122
 20
6.1580657365
 30
0.0
 10
4.132601842
 20
6.1777424793
 30
0.0
 10
4.1575491591
 20
6.1973074386
 30
0.0
 10
4.1824240284
 20
6.2169734452
 30
0.0
 10
4.2028802214
 20
6.2336439513
 30
0.0
 10
4.2189327015
 20
6.2472552095
 30
0.0
 10
4.2307586004
 20
6.2576078207
 30
0.0
 10
4.2423476635
 20
6.2681479431
 30
0.0
 10
4.2574374137
 20
6.2824488602
 30
0.0
 10
4.2756870437
 20
6.300824678
 30
0.0
 10
4.2966269857
 20
6.3236788949
 30
0.0
 10
4.3166010474
 20
6.3472964546
 30
0.0
 10
4.3356278036
 20
6.3716662253
 30
0.0
 10
4.3537241885
 20
6.3967617347
 30
0.0
 10
4.3709425104
 20
6.4225141686
 30
0.0
 10
4.3873255527
 20
6.448850942
 30
0.0
 10
4.4029166469
 20
6.4756971663
 30
0.0
 10
4.4177568385
 20
6.502979859
 30
0.0
 10
4.4318985276
 20
6.53062786
 30
0.0
 10
4.4453438684
 20
6.5586082279
 30
0.0
 10
4.4623181254
 20
6.5963253898
 30
0.0
 10
4.477861121
 20
6.6346561577
 30
0.0
 10
4.4919255766
 20
6.6735195637
 30
0.0
 10
4.501726938
 20
6.7029149378
 30
0.0
 10
4.5107665201
 20
6.732548462
 30
0.0
 10
4.5218428278
 20
6.7723498635
 30
0.0
 10
4.5340133873
 20
6.8225712347
 30
0.0
 10
4.5463903207
 20
6.8833405335
 30
0.0
 10
4.553473443
 20
6.9240815222
 30
0.0
 10
4.5568014718
 20
6.9444854456
 30
0.0
  0
SPLINE
  5
327
100
AcDbEntity
  8
0
100
AcDbSpline
 62
7
  6
CONTINUOUS
 70
0
 71
3
 72
73
 73
69
 74
0
 42
0.0000001
 43
0.0000001
 44
0.0000000001
 40
0.0
 40
0.0
 40
0.0
 40
0.0
 40
0.0156142908
 40
0.031201034
 40
0.03898418
 40
0.0467608948
 40
0.0623111713
 40
0.077890817
 40
0.0935221771
 40
0.1092133761
 40
0.1249599055
 40
0.1407462023
 40
0.1486472473
 40
0.1565481197
 40
0.1723352359
 40
0.1880890904
 40
0.219439048
 40
0.235036541
 40
0.2505846145
 40
0.2660973516
 40
0.2816008486
 40
0.2971389087
 40
0.3127533107
 40
0.3284787764
 40
0.3443205591
 40
0.3602048954
 40
0.3760518515
 40
0.3917968589
 40
0.407394822
 40
0.4151328255
 40
0.4228286874
 40
0.4304845707
 40
0.4381075507
 40
0.4457139734
 40
0.453319438
 40
0.4685731788
 40
0.4839423984
 40
0.499460082
 40
0.5151292054
 40
0.5309300002
 40
0.5468268048
 40
0.5627743896
 40
0.5787238699
 40
0.5946284209
 40
0.6025513981
 40
0.6104495474
 40
0.618320321
 40
0.6261646067
 40
0.6417877954
 40
0.6573497343
 40
0.6728793143
 40
0.6884042245
 40
0.7039460073
 40
0.719509904
 40
0.735094709
 40
0.7506953868
 40
0.7663034407
 40
0.7819081438
 40
0.797505299
 40
0.8130953419
 40
0.8442539803
 40
0.8598264843
 40
0.8753947744
 40
0.8909600396
 40
0.9065257148
 40
0.9376696298
 40
0.9688349161
 40
1.0
 40
1.0
 40
1.0
 40
1.0
 10
5.4488981845
 20
5.2849700924
 30
0.0
 10
5.4583961291
 20
5.2891002801
 30
0.0
 10
5.4771093716
 20
5.297981628
 30
0.0
 10
5.4996670252
 20
5.3106702588
 30
0.0
 10
5.5170964069
 20
5.3217708768
 30
0.0
 10
5.5340751939
 20
5.3335066089
 30
0.0
 10
5.554476619
 20
5.3493507736
 30
0.0
 10
5.5776224525
 20
5.3700317293
 30
0.0
 10
5.5994649229
 20
5.3922129046
 30
0.0
 10
5.6200333485
 20
5.4157235772
 30
0.0
 10
5.6393572376
 20
5.4403945955
 30
0.0
 10
5.6544444266
 20
5.4617748936
 30
0.0
 10
5.6659280555
 20
5.4793021629
 30
0.0
 10
5.6770240905
 20
5.4970777326
 30
0.0
 10
5.6901538589
 20
5.5197185018
 30
0.0
 10
5.7094108824
 20
5.5567348003
 30
0.0
 10
5.725924923
 20
5.5950009682
 30
0.0
 10
5.7392168958
 20
5.6342845599
 30
0.0
 10
5.7474495869
 20
5.6641374908
 30
0.0
 10
5.7538524718
 20
5.6943735128
 30
0.0
 10
5.7583127547
 20
5.7249504737
 30
0.0
 10
5.7608901087
 20
5.7558088494
 30
0.0
 10
5.7616562398
 20
5.7869110337
 30
0.0
 10
5.7606830844
 20
5.818206836
 30
0.0
 10
5.7580468041
 20
5.8495865825
 30
0.0
 10
5.7536304588
 20
5.8808499956
 30
0.0
 10
5.7473192296
 20
5.9117247743
 30
0.0
 10
5.7389978189
 20
5.9419257992
 30
0.0
 10
5.7302652556
 20
5.9663647417
 30
0.0
 10
5.7221478798
 20
5.985286089
 30
0.0
 10
5.7155005518
 20
5.99908977
 30
0.0
 10
5.7082627738
 20
6.0125071528
 30
0.0
 10
5.7004179746
 20
6.0255095807
 30
0.0
 10
5.692009864
 20
6.0381140504
 30
0.0
 10
5.6800876221
 20
6.054436844
 30
0.0
 10
5.6639265649
 20
6.074009427
 30
0.0
 10
5.6429040971
 20
6.0962762502
 30
0.0
 10
5.6205228654
 20
6.1175703211
 30
0.0
 10
5.5970716763
 20
6.138108843
 30
0.0
 10
5.5728367046
 20
6.1581083837
 30
0.0
 10
5.5481036979
 20
6.1777832593
 30
0.0
 10
5.5231580282
 20
6.1973468112
 30
0.0
 10
5.4982853706
 20
6.2170118239
 30
0.0
 10
5.4778314224
 20
6.2336818236
 30
0.0
 10
5.4617809765
 20
6.2472928304
 30
0.0
 10
5.4499567127
 20
6.2576453156
 30
0.0
 10
5.4383693864
 20
6.2681853999
 30
0.0
 10
5.423281879
 20
6.2824862101
 30
0.0
 10
5.4050349494
 20
6.3008618161
 30
0.0
 10
5.3840980931
 20
6.32371563
 30
0.0
 10
5.3641269409
 20
6.3473326603
 30
0.0
 10
5.3451029429
 20
6.3717017773
 30
0.0
 10
5.3270091246
 20
6.3967964542
 30
0.0
 10
5.3097931747
 20
6.4225478622
 30
0.0
 10
5.2934123303
 20
6.4488834308
 30
0.0
 10
5.2778232682
 20
6.4757282869
 30
0.0
 10
5.2629849488
 20
6.5030094647
 30
0.0
 10
5.248844987
 20
6.5306558346
 30
0.0
 10
5.2354012985
 20
6.5586345076
 30
0.0
 10
5.2184291147
 20
6.5963493288
 30
0.0
 10
5.2028880047
 20
6.6346776401
 30
0.0
 10
5.1888252354
 20
6.6735384895
 30
0.0
 10
5.1790250369
 20
6.7029319007
 30
0.0
 10
5.1699865147
 20
6.7325634202
 30
0.0
 10
5.1589114353
 20
6.7723620863
 30
0.0
 10
5.1467421111
 20
6.8225799403
 30
0.0
 10
5.1343662717
 20
6.8833449191
 30
0.0
 10
5.1272836886
 20
6.9240829877
 30
0.0
 10
5.1239558989
 20
6.9444854456
 30
0.0
  0
SPLINE
  5
328
100
AcDbEntity
  8
0
100
AcDbSpline
 62
7
  6
CONTINUOUS
 70
0
 71
3
 72
18
 73
14
 74
0
 42
0.0000001
 43
0.0000001
 44
0.0000000001
 40
0.0
 40
0.0
 40
0.0
 40
0.0
 40
0.1252891635
 40
0.2495666743
 40
0.3114454761
 40
0.3732331315
 40
0.4350309717
 40
0.4969492174
 40
0.5590651145
 40
0.6214242579
 40
0.7468850118
 40
0.8732313469
 40
1.0
 40
1.0
 40
1.0
 40
1.0
 10
5.3558473827
 20
5.4402133233
 30
0.0
 10
5.3489632688
 20
5.4382092876
 30
0.0
 10
5.3350683942
 20
5.4348112959
 30
0.0
 10
5.3173959749
 20
5.432259737
 30
0.0
 10
5.3032295222
 20
5.4313572101
 30
0.0
 10
5.2926104967
 20
5.431270652
 30
0.0
 10
5.2820018602
 20
5.4318025072
 30
0.0
 10
5.2714247961
 20
5.4329615882
 30
0.0
 10
5.2608969589
 20
5.4347094763
 30
0.0
 10
5.2469240141
 20
5.4377895156
 30
0.0
 10
5.2296742035
 20
5.4429593723
 30
0.0
 10
5.2095251921
 20
5.4509818833
 30
0.0
 10
5.1965137555
 20
5.4573827977
 30
0.0
 10
5.1901213345
 20
5.4608128704
 30
0.0
  0
SPLINE
  5
329
100
AcDbEntity
  8
0
100
AcDbSpline
 62
7
  6
CONTINUOUS
 70
0
 71
3
 72
18
 73
14
 74
0
 42
0.0000001
 43
0.0000001
 44
0.0000000001
 40
0.0
 40
0.0
 40
0.0
 40
0.0
 40
0.125365467
 40
0.2496964009
 40
0.3115881235
 40
0.3733774217
 40
0.4351649342
 40
0.4970642849
 40
0.5591578124
 40
0.6214944654
 40
0.7469172502
 40
0.8732414807
 40
1.0
 40
1.0
 40
1.0
 40
1.0
 10
5.8430172555
 20
4.958954633
 30
0.0
 10
5.840964988
 20
4.9520344076
 30
0.0
 10
5.8374753316
 20
4.9380642692
 30
0.0
 10
5.8348237411
 20
4.9202876118
 30
0.0
 10
5.8338533277
 20
4.9060346319
 30
0.0
 10
5.8337228236
 20
4.8953508187
 30
0.0
 10
5.8342170263
 20
4.8846768071
 30
0.0
 10
5.8353510597
 20
4.8740343765
 30
0.0
 10
5.837086384
 20
4.8634418795
 30
0.0
 10
5.8401648481
 20
4.8493837123
 30
0.0
 10
5.845359369
 20
4.8320304538
 30
0.0
 10
5.8534456212
 20
4.8117678189
 30
0.0
 10
5.8599070864
 20
4.798689042
 30
0.0
 10
5.8633710449
 20
4.7922651306
 30
0.0
  0
SPLINE
  5
32A
100
AcDbEntity
  8
0
100
AcDbSpline
 62
7
  6
CONTINUOUS
 70
0
 71
3
 72
73
 73
69
 74
0
 42
0.0000001
 43
0.0000001
 44
0.0000000001
 40
0.0
 40
0.0
 40
0.0
 40
0.0
 40
0.015614393
 40
0.0312012737
 40
0.0389844846
 40
0.0467612417
 40
0.0623114618
 40
0.0778909238
 40
0.0935220403
 40
0.1092129934
 40
0.1249593228
 40
0.1407455051
 40
0.1486465354
 40
0.1565474247
 40
0.172334636
 40
0.1880886442
 40
0.2194389973
 40
0.2350366811
 40
0.250584907
 40
0.2660977309
 40
0.2816011905
 40
0.297139066
 40
0.3127531654
 40
0.328478238
 40
0.3443197551
 40
0.3602040894
 40
0.3760512554
 40
0.3917966253
 40
0.4073950351
 40
0.4151332689
 40
0.4228293523
 40
0.4304854369
 40
0.4381085491
 40
0.4457150145
 40
0.4533204496
 40
0.468573975
 40
0.483942864
 40
0.4994601877
 40
0.5151289838
 40
0.5309295248
 40
0.5468261715
 40
0.562773702
 40
0.5787232261
 40
0.5946279029
 40
0.6025509656
 40
0.6104492105
 40
0.6183200829
 40
0.6261644547
 40
0.6417877719
 40
0.6573497863
 40
0.6728793948
 40
0.6884042926
 40
0.7039460456
 40
0.719509913
 40
0.7350946942
 40
0.7506953576
 40
0.7663034093
 40
0.78190812
 40
0.7975052826
 40
0.8130953317
 40
0.8442539793
 40
0.8598264867
 40
0.8753947792
 40
0.8909600455
 40
0.9065257197
 40
0.9376696306
 40
0.9688349154
 40
1.0
 40
1.0
 40
1.0
 40
1.0
 10
5.6874946859
 20
5.0510649695
 30
0.0
 10
5.6916223182
 20
5.0605649089
 30
0.0
 10
5.7004986119
 20
5.0792823644
 30
0.0
 10
5.7131810636
 20
5.1018458458
 30
0.0
 10
5.7242768407
 20
5.1192802572
 30
0.0
 10
5.7360077876
 20
5.1362641929
 30
0.0
 10
5.7518467123
 20
5.1566718916
 30
0.0
 10
5.7725223829
 20
5.1798250234
 30
0.0
 10
5.7946992166
 20
5.201674471
 30
0.0
 10
5.8182064404
 20
5.2222495666
 30
0.0
 10
5.8428748658
 20
5.2415798265
 30
0.0
 10
5.8642536503
 20
5.2566720513
 30
0.0
 10
5.8817800792
 20
5.2681595716
 30
0.0
 10
5.8995551238
 20
5.2792594096
 30
0.0
 10
5.9221954166
 20
5.292394087
 30
0.0
 10
5.9592113367
 20
5.311659244
 30
0.0
 10
5.9974775957
 20
5.3281817991
 30
0.0
 10
6.0367618388
 20
5.3414826446
 30
0.0
 10
6.0666154994
 20
5.3497220968
 30
0.0
 10
6.0968524511
 20
5.3561319184
 30
0.0
 10
6.1274305788
 20
5.360598984
 30
0.0
 10
6.158290326
 20
5.3631825285
 30
0.0
 10
6.1893940251
 20
5.3639544082
 30
0.0
 10
6.2206916036
 20
5.3629864229
 30
0.0
 10
6.2520735935
 20
5.3603551487
 30
0.0
 10
6.2833399787
 20
5.3559439767
 30
0.0
 10
6.31421851
 20
5.349637969
 30
0.0
 10
6.3444240089
 20
5.3413218317
 30
0.0
 10
6.3688672301
 20
5.3325936984
 30
0.0
 10
6.3877923472
 20
5.3244798574
 30
0.0
 10
6.4015989886
 20
5.3178351525
 30
0.0
 10
6.4150194761
 20
5.3106000548
 30
0.0
 10
6.4280249817
 20
5.3027577583
 30
0.0
 10
6.4406323338
 20
5.2943518282
 30
0.0
 10
6.4569586716
 20
5.2824322014
 30
0.0
 10
6.4765352942
 20
5.2662737377
 30
0.0
 10
6.4988063195
 20
5.2452533669
 30
0.0
 10
6.5201039301
 20
5.2228733543
 30
0.0
 10
6.5406453821
 20
5.1994225745
 30
0.0
 10
6.5606472956
 20
5.1751872656
 30
0.0
 10
6.5803240368
 20
5.1504532368
 30
0.0
 10
6.5998889949
 20
5.1255059211
 30
0.0
 10
6.6195550007
 20
5.1006310537
 30
0.0
 10
6.6362255063
 20
5.0801748627
 30
0.0
 10
6.6498367642
 20
5.0641223844
 30
0.0
 10
6.6601893753
 20
5.0522964869
 30
0.0
 10
6.6707294978
 20
5.0407074253
 30
0.0
 10
6.6850304147
 20
5.0256176771
 30
0.0
 10
6.7034062324
 20
5.0073680495
 30
0.0
 10
6.7262604489
 20
4.9864281102
 30
0.0
 10
6.7498780081
 20
4.966454051
 30
0.0
 10
6.7742477782
 20
4.9474272972
 30
0.0
 10
6.7993432869
 20
4.9293309147
 30
0.0
 10
6.8250957199
 20
4.9121125948
 30
0.0
 10
6.8514324922
 20
4.8957295544
 30
0.0
 10
6.8782787154
 20
4.880138462
 30
0.0
 10
6.9055614067
 20
4.865298272
 30
0.0
 10
6.9332094063
 20
4.8511565845
 30
0.0
 10
6.9611897728
 20
4.8377112451
 30
0.0
 10
6.9989069326
 20
4.82073699
 30
0.0
 10
7.0372376983
 20
4.8051939959
 30
0.0
 10
7.0761011021
 20
4.7911295418
 30
0.0
 10
7.1054964744
 20
4.7813281815
 30
0.0
 10
7.1351299969
 20
4.7722886003
 30
0.0
 10
7.1749313959
 20
4.7612122937
 30
0.0
 10
7.2251527641
 20
4.7490417352
 30
0.0
 10
7.2859220591
 20
4.7366648029
 30
0.0
 10
7.3266630453
 20
4.729581681
 30
0.0
 10
7.3470669674
 20
4.7262536525
 30
0.0
  0
SPLINE
  5
32B
100
AcDbEntity
  8
0
100
AcDbSpline
 62
7
  6
CONTINUOUS
 70
0
 71
3
 72
73
 73
69
 74
0
 42
0.0000001
 43
0.0000001
 44
0.0000000001
 40
0.0
 40
0.0
 40
0.0
 40
0.0
 40
0.0156142908
 40
0.031201034
 40
0.03898418
 40
0.0467608949
 40
0.0623111714
 40
0.077890817
 40
0.0935221771
 40
0.1092133761
 40
0.1249599054
 40
0.1407462023
 40
0.1486472472
 40
0.1565481197
 40
0.1723352358
 40
0.1880890904
 40
0.219439048
 40
0.235036541
 40
0.2505846145
 40
0.2660973517
 40
0.2816008486
 40
0.2971389087
 40
0.3127533107
 40
0.3284787764
 40
0.3443205591
 40
0.3602048953
 40
0.3760518514
 40
0.3917968589
 40
0.407394822
 40
0.4151328255
 40
0.4228286875
 40
0.4304845708
 40
0.4381075508
 40
0.4457139735
 40
0.453319438
 40
0.4685731788
 40
0.4839423984
 40
0.499460082
 40
0.5151292053
 40
0.5309300002
 40
0.5468268047
 40
0.5627743896
 40
0.5787238698
 40
0.5946284209
 40
0.602551398
 40
0.6104495474
 40
0.618320321
 40
0.6261646067
 40
0.6417877954
 40
0.6573497343
 40
0.6728793143
 40
0.6884042245
 40
0.7039460073
 40
0.719509904
 40
0.735094709
 40
0.7506953868
 40
0.7663034407
 40
0.7819081438
 40
0.797505299
 40
0.8130953419
 40
0.8442539803
 40
0.8598264843
 40
0.8753947744
 40
0.8909600396
 40
0.9065257148
 40
0.9376696298
 40
0.9688349161
 40
1.0
 40
1.0
 40
1.0
 40
1.0
 10
5.6875516097
 20
3.8341569498
 30
0.0
 10
5.6916817972
 20
3.8246590051
 30
0.0
 10
5.7005631448
 20
3.8059457622
 30
0.0
 10
5.7132517751
 20
3.7833881081
 30
0.0
 10
5.7243523928
 20
3.7659587261
 30
0.0
 10
5.7360881245
 20
3.7489799387
 30
0.0
 10
5.7519322887
 20
3.7285785131
 30
0.0
 10
5.7726132441
 20
3.705432679
 30
0.0
 10
5.7947944191
 20
3.6835902081
 30
0.0
 10
5.8183050914
 20
3.6630217819
 30
0.0
 10
5.8429761095
 20
3.6436978924
 30
0.0
 10
5.8643564075
 20
3.628610703
 30
0.0
 10
5.8818836766
 20
3.6171270738
 30
0.0
 10
5.8996592464
 20
3.6060310385
 30
0.0
 10
5.9223000155
 20
3.5929012697
 30
0.0
 10
5.959316314
 20
3.5736442456
 30
0.0
 10
5.9975824818
 20
3.5571302044
 30
0.0
 10
6.0368660737
 20
3.5438382309
 30
0.0
 10
6.0667190046
 20
3.5356055393
 30
0.0
 10
6.0969550266
 20
3.5292026538
 30
0.0
 10
6.1275319876
 20
3.5247423705
 30
0.0
 10
6.1583903635
 20
3.522165016
 30
0.0
 10
6.1894925479
 20
3.5213988844
 30
0.0
 10
6.2207883503
 20
3.5223720394
 30
0.0
 10
6.252168097
 20
3.5250083193
 30
0.0
 10
6.2834315103
 20
3.5294246642
 30
0.0
 10
6.3143062893
 20
3.5357358931
 30
0.0
 10
6.3445073145
 20
3.5440573033
 30
0.0
 10
6.3689462574
 20
3.5527898662
 30
0.0
 10
6.3878676049
 20
3.5609072418
 30
0.0
 10
6.4016712862
 20
3.5675545696
 30
0.0
 10
6.4150886692
 20
3.5747923474
 30
0.0
 10
6.4280910974
 20
3.5826371464
 30
0.0
 10
6.4406955673
 20
3.5910452569
 30
0.0
 10
6.4570183612
 20
3.6029674985
 30
0.0
 10
6.4765909445
 20
3.6191285555
 30
0.0
 10
6.498857768
 20
3.6401510231
 30
0.0
 10
6.5201518392
 20
3.6625322548
 30
0.0
 10
6.5406903613
 20
3.6859834438
 30
0.0
 10
6.5606899021
 20
3.7102184155
 30
0.0
 10
6.5803647779
 20
3.7349514224
 30
0.0
 10
6.5999283299
 20
3.7598970922
 30
0.0
 10
6.6195933427
 20
3.7847697499
 30
0.0
 10
6.6362633424
 20
3.8052236983
 30
0.0
 10
6.6498743493
 20
3.8212741443
 30
0.0
 10
6.6602268345
 20
3.8330984083
 30
0.0
 10
6.6707669188
 20
3.8446857347
 30
0.0
 10
6.685067729
 20
3.8597732423
 30
0.0
 10
6.703443335
 20
3.8780201721
 30
0.0
 10
6.7262971489
 20
3.8989570287
 30
0.0
 10
6.7499141792
 20
3.918928181
 30
0.0
 10
6.7742832963
 20
3.9379521793
 30
0.0
 10
6.7993779733
 20
3.9560459978
 30
0.0
 10
6.8251293813
 20
3.9732619478
 30
0.0
 10
6.8514649501
 20
3.9896427924
 30
0.0
 10
6.8783098062
 20
4.0052318547
 30
0.0
 10
6.9055909842
 20
4.0200701742
 30
0.0
 10
6.9332373542
 20
4.0342101361
 30
0.0
 10
6.9612160274
 20
4.0476538248
 30
0.0
 10
6.9989308487
 20
4.0646260087
 30
0.0
 10
7.0372591602
 20
4.0801671189
 30
0.0
 10
7.0761200097
 20
4.0942298883
 30
0.0
 10
7.1055134212
 20
4.1040300869
 30
0.0
 10
7.1351449408
 20
4.1130686092
 30
0.0
 10
7.1749436071
 20
4.1241436887
 30
0.0
 10
7.2251614614
 20
4.136313013
 30
0.0
 10
7.2859264405
 20
4.1486888524
 30
0.0
 10
7.3266645093
 20
4.1557714356
 30
0.0
 10
7.3470669674
 20
4.1590992253
 30
0.0
  0
SPLINE
  5
32C
100
AcDbEntity
  8
0
100
AcDbSpline
 62
7
  6
CONTINUOUS
 70
0
 71
3
 72
18
 73
14
 74
0
 42
0.0000001
 43
0.0000001
 44
0.0000000001
 40
0.0
 40
0.0
 40
0.0
 40
0.0
 40
0.1252891631
 40
0.2495666735
 40
0.3114454753
 40
0.3732331306
 40
0.4350309709
 40
0.4969492167
 40
0.5590651139
 40
0.6214242574
 40
0.7468850116
 40
0.8732313469
 40
1.0
 40
1.0
 40
1.0
 40
1.0
 10
5.8427948422
 20
3.927207751
 30
0.0
 10
5.840790807
 20
3.9340918646
 30
0.0
 10
5.8373928159
 20
3.9479867389
 30
0.0
 10
5.8348412579
 20
3.9656591574
 30
0.0
 10
5.8339387316
 20
3.9798256096
 30
0.0
 10
5.8338521739
 20
3.9904446347
 30
0.0
 10
5.8343840295
 20
4.0010532707
 30
0.0
 10
5.8355431109
 20
4.0116303344
 30
0.0
 10
5.8372909992
 20
4.0221581711
 30
0.0
 10
5.8403710388
 20
4.0361311154
 30
0.0
 10
5.8455408956
 20
4.0533809252
 30
0.0
 10
5.8535634066
 20
4.0735299357
 30
0.0
 10
5.859964321
 20
4.0865413717
 30
0.0
 10
5.8633943936
 20
4.0929337924
 30
0.0
  0
SPLINE
  5
32D
100
AcDbEntity
  8
0
100
AcDbSpline
 62
7
  6
CONTINUOUS
 70
0
 71
3
 72
18
 73
14
 74
0
 42
0.0000001
 43
0.0000001
 44
0.0000000001
 40
0.0
 40
0.0
 40
0.0
 40
0.0
 40
0.125365467
 40
0.2496964009
 40
0.3115881235
 40
0.3733774217
 40
0.4351649342
 40
0.4970642849
 40
0.5591578124
 40
0.6214944654
 40
0.7469172502
 40
0.8732414807
 40
1.0
 40
1.0
 40
1.0
 40
1.0
 10
5.3615361547
 20
3.4400378688
 30
0.0
 10
5.3546159294
 20
3.4420901362
 30
0.0
 10
5.340645791
 20
3.4455797926
 30
0.0
 10
5.3228691336
 20
3.4482313832
 30
0.0
 10
5.3086161537
 20
3.4492017966
 30
0.0
 10
5.2979323404
 20
3.4493323006
 30
0.0
 10
5.2872583289
 20
3.4488380979
 30
0.0
 10
5.2766158983
 20
3.4477040646
 30
0.0
 10
5.2660234013
 20
3.4459687402
 30
0.0
 10
5.2519652341
 20
3.4428902761
 30
0.0
 10
5.2346119756
 20
3.4376957553
 30
0.0
 10
5.2143493407
 20
3.429609503
 30
0.0
 10
5.2012705638
 20
3.4231480378
 30
0.0
 10
5.1948466524
 20
3.4196840793
 30
0.0
  0
SPLINE
  5
32E
100
AcDbEntity
  8
0
100
AcDbSpline
 62
7
  6
CONTINUOUS
 70
0
 71
3
 72
73
 73
69
 74
0
 42
0.0000001
 43
0.0000001
 44
0.0000000001
 40
0.0
 40
0.0
 40
0.0
 40
0.0
 40
0.015614393
 40
0.0312012737
 40
0.0389844846
 40
0.0467612417
 40
0.0623114618
 40
0.0778909238
 40
0.0935220403
 40
0.1092129934
 40
0.1249593228
 40
0.1407455051
 40
0.1486465354
 40
0.1565474247
 40
0.172334636
 40
0.1880886442
 40
0.2194389973
 40
0.2350366811
 40
0.250584907
 40
0.2660977309
 40
0.2816011905
 40
0.297139066
 40
0.3127531654
 40
0.328478238
 40
0.3443197551
 40
0.3602040894
 40
0.3760512554
 40
0.3917966253
 40
0.4073950351
 40
0.4151332689
 40
0.4228293523
 40
0.4304854369
 40
0.4381085491
 40
0.4457150145
 40
0.4533204496
 40
0.468573975
 40
0.483942864
 40
0.4994601877
 40
0.5151289838
 40
0.5309295248
 40
0.5468261715
 40
0.562773702
 40
0.5787232261
 40
0.5946279029
 40
0.6025509656
 40
0.6104492105
 40
0.6183200829
 40
0.6261644547
 40
0.6417877719
 40
0.6573497863
 40
0.6728793948
 40
0.6884042926
 40
0.7039460456
 40
0.719509913
 40
0.7350946942
 40
0.7506953576
 40
0.7663034093
 40
0.78190812
 40
0.7975052826
 40
0.8130953317
 40
0.8442539793
 40
0.8598264867
 40
0.8753947792
 40
0.8909600455
 40
0.9065257197
 40
0.9376696306
 40
0.9688349154
 40
1.0
 40
1.0
 40
1.0
 40
1.0
 10
5.4536464912
 20
3.5955604383
 30
0.0
 10
5.4631464307
 20
3.591432806
 30
0.0
 10
5.4818638861
 20
3.5825565124
 30
0.0
 10
5.5044273676
 20
3.5698740607
 30
0.0
 10
5.5218617789
 20
3.5587782835
 30
0.0
 10
5.5388457146
 20
3.5470473366
 30
0.0
 10
5.5592534133
 20
3.5312084119
 30
0.0
 10
5.5824065451
 20
3.5105327414
 30
0.0
 10
5.6042559927
 20
3.4883559076
 30
0.0
 10
5.6248310884
 20
3.4648486839
 30
0.0
 10
5.6441613482
 20
3.4401802584
 30
0.0
 10
5.659253573
 20
3.4188014739
 30
0.0
 10
5.6707410933
 20
3.401275045
 30
0.0
 10
5.6818409313
 20
3.3835000004
 30
0.0
 10
5.6949756087
 20
3.3608597077
 30
0.0
 10
5.7142407657
 20
3.3238437875
 30
0.0
 10
5.7307633208
 20
3.2855775285
 30
0.0
 10
5.7440641663
 20
3.2462932854
 30
0.0
 10
5.7523036185
 20
3.2164396248
 30
0.0
 10
5.7587134402
 20
3.1862026732
 30
0.0
 10
5.7631805058
 20
3.1556245454
 30
0.0
 10
5.7657640503
 20
3.1247647982
 30
0.0
 10
5.7665359299
 20
3.0936610992
 30
0.0
 10
5.7655679446
 20
3.0623635206
 30
0.0
 10
5.7629366704
 20
3.0309815307
 30
0.0
 10
5.7585254984
 20
2.9997151456
 30
0.0
 10
5.7522194908
 20
2.9688366143
 30
0.0
 10
5.7439033534
 20
2.9386311153
 30
0.0
 10
5.7351752201
 20
2.9141878941
 30
0.0
 10
5.7270613791
 20
2.895262777
 30
0.0
 10
5.7204166743
 20
2.8814561356
 30
0.0
 10
5.7131815765
 20
2.8680356481
 30
0.0
 10
5.70533928
 20
2.8550301425
 30
0.0
 10
5.69693335
 20
2.8424227904
 30
0.0
 10
5.6850137231
 20
2.8260964526
 30
0.0
 10
5.6688552595
 20
2.80651983
 30
0.0
 10
5.6478348886
 20
2.7842488047
 30
0.0
 10
5.625454876
 20
2.7629511941
 30
0.0
 10
5.6020040963
 20
2.7424097421
 30
0.0
 10
5.5777687874
 20
2.7224078286
 30
0.0
 10
5.5530347585
 20
2.7027310874
 30
0.0
 10
5.5280874428
 20
2.6831661294
 30
0.0
 10
5.5032125754
 20
2.6635001236
 30
0.0
 10
5.4827563844
 20
2.646829618
 30
0.0
 10
5.4667039061
 20
2.63321836
 30
0.0
 10
5.4548780087
 20
2.6228657489
 30
0.0
 10
5.4432889471
 20
2.6123256265
 30
0.0
 10
5.4281991989
 20
2.5980247095
 30
0.0
 10
5.4099495713
 20
2.5796488918
 30
0.0
 10
5.3890096319
 20
2.5567946754
 30
0.0
 10
5.3690355728
 20
2.5331771161
 30
0.0
 10
5.350008819
 20
2.508807346
 30
0.0
 10
5.3319124364
 20
2.4837118373
 30
0.0
 10
5.3146941165
 20
2.4579594043
 30
0.0
 10
5.2983110762
 20
2.431622632
 30
0.0
 10
5.2827199837
 20
2.4047764088
 30
0.0
 10
5.2678797937
 20
2.3774937175
 30
0.0
 10
5.2537381062
 20
2.3498457179
 30
0.0
 10
5.2402927668
 20
2.3218653515
 30
0.0
 10
5.2233185117
 20
2.2841481916
 30
0.0
 10
5.2077755177
 20
2.2458174259
 30
0.0
 10
5.1937110636
 20
2.2069540221
 30
0.0
 10
5.1839097032
 20
2.1775586498
 30
0.0
 10
5.174870122
 20
2.1479251273
 30
0.0
 10
5.1637938154
 20
2.1081237283
 30
0.0
 10
5.151623257
 20
2.0579023601
 30
0.0
 10
5.1392463246
 20
1.9971330651
 30
0.0
 10
5.1321632028
 20
1.956392079
 30
0.0
 10
5.1288351742
 20
1.9359881569
 30
0.0
  0
SPLINE
  5
32F
100
AcDbEntity
  8
0
100
AcDbSpline
 62
7
  6
CONTINUOUS
 70
0
 71
3
 72
73
 73
69
 74
0
 42
0.0000001
 43
0.0000001
 44
0.0000000001
 40
0.0
 40
0.0
 40
0.0
 40
0.0
 40
0.0156142908
 40
0.031201034
 40
0.03898418
 40
0.0467608948
 40
0.0623111713
 40
0.077890817
 40
0.0935221771
 40
0.1092133761
 40
0.1249599055
 40
0.1407462023
 40
0.1486472473
 40
0.1565481197
 40
0.1723352359
 40
0.1880890904
 40
0.219439048
 40
0.235036541
 40
0.2505846145
 40
0.2660973516
 40
0.2816008486
 40
0.2971389087
 40
0.3127533107
 40
0.3284787764
 40
0.3443205591
 40
0.3602048954
 40
0.3760518515
 40
0.3917968589
 40
0.407394822
 40
0.4151328255
 40
0.4228286874
 40
0.4304845707
 40
0.4381075507
 40
0.4457139734
 40
0.453319438
 40
0.4685731788
 40
0.4839423984
 40
0.499460082
 40
0.5151292054
 40
0.5309300002
 40
0.5468268048
 40
0.5627743896
 40
0.5787238699
 40
0.5946284209
 40
0.6025513981
 40
0.6104495474
 40
0.618320321
 40
0.6261646067
 40
0.6417877954
 40
0.6573497343
 40
0.6728793143
 40
0.6884042245
 40
0.7039460073
 40
0.719509904
 40
0.735094709
 40
0.7506953868
 40
0.7663034407
 40
0.7819081438
 40
0.797505299
 40
0.8130953419
 40
0.8442539803
 40
0.8598264843
 40
0.8753947744
 40
0.8909600396
 40
0.9065257148
 40
0.9376696298
 40
0.9688349161
 40
1.0
 40
1.0
 40
1.0
 40
1.0
 10
4.2367384615
 20
3.5955035101
 30
0.0
 10
4.2272405169
 20
3.5913733224
 30
0.0
 10
4.2085272744
 20
3.5824919744
 30
0.0
 10
4.1859696207
 20
3.5698033437
 30
0.0
 10
4.1685402391
 20
3.5587027256
 30
0.0
 10
4.1515614521
 20
3.5469669935
 30
0.0
 10
4.131160027
 20
3.5311228289
 30
0.0
 10
4.1080141934
 20
3.5104418732
 30
0.0
 10
4.086171723
 20
3.4882606978
 30
0.0
 10
4.0656032974
 20
3.4647500253
 30
0.0
 10
4.0462794084
 20
3.440079007
 30
0.0
 10
4.0311922194
 20
3.4186987088
 30
0.0
 10
4.0197085905
 20
3.4011714396
 30
0.0
 10
4.0086125555
 20
3.3833958699
 30
0.0
 10
3.995482787
 20
3.3607551006
 30
0.0
 10
3.9762257636
 20
3.3237388022
 30
0.0
 10
3.959711723
 20
3.2854726343
 30
0.0
 10
3.9464197502
 20
3.2461890425
 30
0.0
 10
3.9381870591
 20
3.2163361117
 30
0.0
 10
3.9317841742
 20
3.1861000897
 30
0.0
 10
3.9273238913
 20
3.1555231288
 30
0.0
 10
3.9247465373
 20
3.1246647531
 30
0.0
 10
3.9239804062
 20
3.0935625688
 30
0.0
 10
3.9249535616
 20
3.0622667665
 30
0.0
 10
3.9275898419
 20
3.03088702
 30
0.0
 10
3.9320061871
 20
2.9996236069
 30
0.0
 10
3.9383174164
 20
2.9687488281
 30
0.0
 10
3.9466388271
 20
2.9385478033
 30
0.0
 10
3.9553713903
 20
2.9141088608
 30
0.0
 10
3.9634887661
 20
2.8951875135
 30
0.0
 10
3.9701360942
 20
2.8813838325
 30
0.0
 10
3.9773738722
 20
2.8679664497
 30
0.0
 10
3.9852186714
 20
2.8549640218
 30
0.0
 10
3.993626782
 20
2.8423595521
 30
0.0
 10
4.0055490238
 20
2.8260367585
 30
0.0
 10
4.0217100811
 20
2.8064641755
 30
0.0
 10
4.0427325488
 20
2.7841973523
 30
0.0
 10
4.0651137806
 20
2.7629032814
 30
0.0
 10
4.0885649696
 20
2.7423647595
 30
0.0
 10
4.1127999413
 20
2.7223652188
 30
0.0
 10
4.1375329481
 20
2.7026903432
 30
0.0
 10
4.1624786177
 20
2.6831267913
 30
0.0
 10
4.1873512754
 20
2.6634617786
 30
0.0
 10
4.2078052235
 20
2.6467917789
 30
0.0
 10
4.2238556694
 20
2.6331807721
 30
0.0
 10
4.2356799333
 20
2.6228282869
 30
0.0
 10
4.2472672595
 20
2.6122882026
 30
0.0
 10
4.262354767
 20
2.5979873923
 30
0.0
 10
4.2806016965
 20
2.5796117864
 30
0.0
 10
4.3015385529
 20
2.5567579725
 30
0.0
 10
4.321509705
 20
2.5331409422
 30
0.0
 10
4.3405337031
 20
2.5087718252
 30
0.0
 10
4.3586275214
 20
2.4836771483
 30
0.0
 10
4.3758434712
 20
2.4579257403
 30
0.0
 10
4.3922243156
 20
2.4315901717
 30
0.0
 10
4.4078133778
 20
2.4047453156
 30
0.0
 10
4.4226516971
 20
2.3774641378
 30
0.0
 10
4.4367916589
 20
2.3498177679
 30
0.0
 10
4.4502353474
 20
2.3218390948
 30
0.0
 10
4.4672075312
 20
2.2841242737
 30
0.0
 10
4.4827486413
 20
2.2457959624
 30
0.0
 10
4.4968114105
 20
2.206935113
 30
0.0
 10
4.5066116091
 20
2.1775417018
 30
0.0
 10
4.5156501313
 20
2.1479101822
 30
0.0
 10
4.5267252107
 20
2.1081115161
 30
0.0
 10
4.5388945348
 20
2.0578936622
 30
0.0
 10
4.5512703742
 20
1.9971286834
 30
0.0
 10
4.5583529573
 20
1.9563906148
 30
0.0
 10
4.5616807471
 20
1.9359881569
 30
0.0
  0
SPLINE
  5
330
100
AcDbEntity
  8
0
100
AcDbSpline
 62
7
  6
CONTINUOUS
 70
0
 71
3
 72
18
 73
14
 74
0
 42
0.0000001
 43
0.0000001
 44
0.0000000001
 40
0.0
 40
0.0
 40
0.0
 40
0.0
 40
0.1252891635
 40
0.2495666743
 40
0.3114454761
 40
0.3732331315
 40
0.4350309717
 40
0.4969492174
 40
0.5590651145
 40
0.6214242579
 40
0.7468850118
 40
0.8732313469
 40
1.0
 40
1.0
 40
1.0
 40
1.0
 10
4.3297892633
 20
3.4402602792
 30
0.0
 10
4.3366733771
 20
3.4422643148
 30
0.0
 10
4.3505682518
 20
3.4456623066
 30
0.0
 10
4.368240671
 20
3.4482138655
 30
0.0
 10
4.3824071237
 20
3.4491163924
 30
0.0
 10
4.3930261492
 20
3.4492029505
 30
0.0
 10
4.4036347857
 20
3.4486710952
 30
0.0
 10
4.4142118498
 20
3.4475120142
 30
0.0
 10
4.424739687
 20
3.4457641262
 30
0.0
 10
4.4387126319
 20
3.4426840869
 30
0.0
 10
4.4559624425
 20
3.4375142302
 30
0.0
 10
4.4761114539
 20
3.4294917192
 30
0.0
 10
4.4891228905
 20
3.4230908047
 30
0.0
 10
4.4955153114
 20
3.4196607321
 30
0.0
  0
SPLINE
  5
331
100
AcDbEntity
  8
0
100
AcDbSpline
 62
7
  6
CONTINUOUS
 70
0
 71
3
 72
18
 73
14
 74
0
 42
0.0000001
 43
0.0000001
 44
0.0000000001
 40
0.0
 40
0.0
 40
0.0
 40
0.0
 40
0.125365467
 40
0.2496964009
 40
0.3115881235
 40
0.3733774217
 40
0.4351649342
 40
0.4970642849
 40
0.5591578124
 40
0.6214944654
 40
0.7469172502
 40
0.8732414807
 40
1.0
 40
1.0
 40
1.0
 40
1.0
 10
3.8426193905
 20
3.9215189695
 30
0.0
 10
3.8446716579
 20
3.9284391949
 30
0.0
 10
3.8481613143
 20
3.9424093333
 30
0.0
 10
3.8508129049
 20
3.9601859907
 30
0.0
 10
3.8517833183
 20
3.9744389706
 30
0.0
 10
3.8519138223
 20
3.9851227838
 30
0.0
 10
3.8514196197
 20
3.9957967954
 30
0.0
 10
3.8502855863
 20
4.0064392259
 30
0.0
 10
3.848550262
 20
4.017031723
 30
0.0
 10
3.8454717978
 20
4.0310898902
 30
0.0
 10
3.840277277
 20
4.0484431487
 30
0.0
 10
3.8321910248
 20
4.0687057836
 30
0.0
 10
3.8257295596
 20
4.0817845605
 30
0.0
 10
3.8222656011
 20
4.0882084719
 30
0.0
  0
SPLINE
  5
332
100
AcDbEntity
  8
0
100
AcDbSpline
 62
7
  6
CONTINUOUS
 70
0
 71
3
 72
73
 73
69
 74
0
 42
0.0000001
 43
0.0000001
 44
0.0000000001
 40
0.0
 40
0.0
 40
0.0
 40
0.0
 40
0.015614393
 40
0.0312012737
 40
0.0389844846
 40
0.0467612417
 40
0.0623114618
 40
0.0778909238
 40
0.0935220403
 40
0.1092129934
 40
0.1249593228
 40
0.1407455051
 40
0.1486465354
 40
0.1565474247
 40
0.172334636
 40
0.1880886442
 40
0.2194389973
 40
0.2350366811
 40
0.250584907
 40
0.2660977309
 40
0.2816011905
 40
0.297139066
 40
0.3127531654
 40
0.328478238
 40
0.3443197551
 40
0.3602040894
 40
0.3760512554
 40
0.3917966253
 40
0.4073950351
 40
0.4151332689
 40
0.4228293523
 40
0.4304854369
 40
0.4381085491
 40
0.4457150145
 40
0.4533204496
 40
0.468573975
 40
0.483942864
 40
0.4994601877
 40
0.5151289838
 40
0.5309295248
 40
0.5468261715
 40
0.562773702
 40
0.5787232261
 40
0.5946279029
 40
0.6025509656
 40
0.6104492105
 40
0.6183200829
 40
0.6261644547
 40
0.6417877719
 40
0.6573497863
 40
0.6728793948
 40
0.6884042926
 40
0.7039460456
 40
0.719509913
 40
0.7350946942
 40
0.7506953576
 40
0.7663034093
 40
0.78190812
 40
0.7975052826
 40
0.8130953317
 40
0.8442539793
 40
0.8598264867
 40
0.8753947792
 40
0.8909600455
 40
0.9065257197
 40
0.9376696306
 40
0.9688349154
 40
1.0
 40
1.0
 40
1.0
 40
1.0
 10
3.9981419601
 20
3.829408633
 30
0.0
 10
3.9940143278
 20
3.8199086936
 30
0.0
 10
3.9851380341
 20
3.8011912381
 30
0.0
 10
3.9724555824
 20
3.7786277567
 30
0.0
 10
3.9613598053
 20
3.7611933453
 30
0.0
 10
3.9496288584
 20
3.7442094096
 30
0.0
 10
3.9337899336
 20
3.7238017109
 30
0.0
 10
3.9131142631
 20
3.7006485791
 30
0.0
 10
3.8909374293
 20
3.6787991315
 30
0.0
 10
3.8674302056
 20
3.6582240359
 30
0.0
 10
3.8427617802
 20
3.638893776
 30
0.0
 10
3.8213829957
 20
3.6238015512
 30
0.0
 10
3.8038565667
 20
3.6123140309
 30
0.0
 10
3.7860815221
 20
3.6012141929
 30
0.0
 10
3.7634412294
 20
3.5880795155
 30
0.0
 10
3.7264253093
 20
3.5688143585
 30
0.0
 10
3.6881590502
 20
3.5522918034
 30
0.0
 10
3.6488748072
 20
3.5389909579
 30
0.0
 10
3.6190211466
 20
3.5307515057
 30
0.0
 10
3.5887841949
 20
3.5243416841
 30
0.0
 10
3.5582060672
 20
3.5198746185
 30
0.0
 10
3.52734632
 20
3.517291074
 30
0.0
 10
3.4962426209
 20
3.5165191943
 30
0.0
 10
3.4649450423
 20
3.5174871796
 30
0.0
 10
3.4335630525
 20
3.5201184538
 30
0.0
 10
3.4022966673
 20
3.5245296258
 30
0.0
 10
3.371418136
 20
3.5308356334
 30
0.0
 10
3.341212637
 20
3.5391517708
 30
0.0
 10
3.3167694159
 20
3.5478799041
 30
0.0
 10
3.2978442987
 20
3.5559937451
 30
0.0
 10
3.2840376573
 20
3.56263845
 30
0.0
 10
3.2706171699
 20
3.5698735477
 30
0.0
 10
3.2576116642
 20
3.5777158442
 30
0.0
 10
3.2450043122
 20
3.5861217742
 30
0.0
 10
3.2286779744
 20
3.5980414011
 30
0.0
 10
3.2091013517
 20
3.6141998647
 30
0.0
 10
3.1868303265
 20
3.6352202356
 30
0.0
 10
3.1655327159
 20
3.6576002482
 30
0.0
 10
3.1449912639
 20
3.6810510279
 30
0.0
 10
3.1249893503
 20
3.7052863369
 30
0.0
 10
3.1053126091
 20
3.7300203657
 30
0.0
 10
3.0857476511
 20
3.7549676814
 30
0.0
 10
3.0660816453
 20
3.7798425488
 30
0.0
 10
3.0494111397
 20
3.8002987398
 30
0.0
 10
3.0357998817
 20
3.8163512181
 30
0.0
 10
3.0254472706
 20
3.8281771156
 30
0.0
 10
3.0149071482
 20
3.8397661772
 30
0.0
 10
3.0006062313
 20
3.8548559253
 30
0.0
 10
2.9822304136
 20
3.873105553
 30
0.0
 10
2.9593761971
 20
3.8940454923
 30
0.0
 10
2.9357586378
 20
3.9140195514
 30
0.0
 10
2.9113888678
 20
3.9330463052
 30
0.0
 10
2.8862933591
 20
3.9511426878
 30
0.0
 10
2.8605409261
 20
3.9683610077
 30
0.0
 10
2.8342041537
 20
3.9847440481
 30
0.0
 10
2.8073579306
 20
4.0003351405
 30
0.0
 10
2.7800752393
 20
4.0151753305
 30
0.0
 10
2.7524272397
 20
4.029317018
 30
0.0
 10
2.7244468732
 20
4.0427623574
 30
0.0
 10
2.6867297134
 20
4.0597366125
 30
0.0
 10
2.6483989477
 20
4.0752796065
 30
0.0
 10
2.6095355439
 20
4.0893440606
 30
0.0
 10
2.5801401716
 20
4.099145421
 30
0.0
 10
2.550506649
 20
4.1081850022
 30
0.0
 10
2.51070525
 20
4.1192613088
 30
0.0
 10
2.4604838819
 20
4.1314318672
 30
0.0
 10
2.3997145868
 20
4.1438087996
 30
0.0
 10
2.3589736007
 20
4.1508919215
 30
0.0
 10
2.3385696786
 20
4.15421995
 30
0.0
  0
ELLIPSE
  5
333
100
AcDbEntity
  8
0
100
AcDbEllipse
 62
7
  6
CONTINUOUS
 10
2.2828947197
 20
1.880313198
 30
0.0
 11
0.0142499722
 21
0.0142499722
 31
0.0
 40
0.9924325091
 41
-3.9231927187
 42
-2.3599925885
  0
ELLIPSE
  5
334
100
AcDbEntity
  8
0
100
AcDbEllipse
 62
7
  6
CONTINUOUS
 10
7.4027419262
 20
1.880313198
 30
0.0
 11
0.0142499722
 21
-0.0142499722
 31
0.0
 40
0.9924325091
 41
-0.7816000651
 42
0.7816000651
  0
ELLIPSE
  5
335
100
AcDbEntity
  8
0
100
AcDbEllipse
 62
7
  6
CONTINUOUS
 10
7.4027419262
 20
7.0001604045
 30
0.0
 11
0.0142499722
 21
0.0142499722
 31
0.0
 40
0.9924325091
 41
-0.7816000651
 42
0.7816000651
  0
ELLIPSE
  5
336
100
AcDbEntity
  8
0
100
AcDbEllipse
 62
7
  6
CONTINUOUS
 10
2.2828947197
 20
7.0001604045
 30
0.0
 11
-0.0142499722
 21
0.0142499722
 31
0.0
 40
0.9924325091
 41
-0.7816000651
 42
0.7816000651
  0
ENDSEC
  0
SECTION
  2
OBJECTS
  0
DICTIONARY
  5
C
100
AcDbDictionary
280
0
281
1
  3
ACAD_GROUP
350
D
  3
ACAD_MLINESTYLE
350
17
  3
ACAD_LAYOUT
350
1A
  3
ACAD_PLOTSETTINGS
350
19
  3
ACAD_PLOTSTYLENAME
350
E
  0
DICTIONARY
  5
D
102
{ACAD_REACTORS
330
C
102
}
100
AcDbDictionary
280
0
281
1
  0
ACDBDICTIONARYWDFLT
  5
E
102
{ACAD_REACTORS
330
C
102
}
100
AcDbDictionary
281
1
  3
Normal
350
F
100
AcDbDictionaryWithDefault
340
F
  0
DICTIONARY
  5
17
102
{ACAD_REACTORS
330
C
102
}
100
AcDbDictionary
280
0
281
1
  3
Standard
350
18
  0
DICTIONARY
  5
19
102
{ACAD_REACTORS
330
C
102
}
100
AcDbDictionary
281
1
  0
DICTIONARY
  5
1A
102
{ACAD_REACTORS
330
C
102
}
100
AcDbDictionary
281
1
  3
Model
350
337
  3
Layout1
350
338
  0
ACDBPLACEHOLDER
  5
F
102
{ACAD_REACTORS
330
E
102
}
  0
MLINESTYLE
  5
18
102
{ACAD_REACTORS
330
17
102
}
100
AcDbMlineStyle
  2
STANDARD
 70
0
  3

 62
256
 51
90.0
 52
90.0
 71
2
 49
0.5
 62
256
  6
BYLAYER
 49
-0.5
 62
256
  6
BYLAYER
  0
LAYOUT
  5
337
102
{ACAD_REACTORS
330
1A
102
}
100
AcDbPlotSettings
  1

  2
none_device
  4
ANSI_A_(11.00_x_8.50_Inches)
  6

 40
0.0
 41
0.0
 42
0.0
 43
0.0
 44
279.4
 45
215.9
 46
0.0
 47
0.0
 48
0.0
 49
0.0
140
0.0
141
0.0
142
1.0
143
1.0
 70
1024
 72
0
 73
0
 74
0
  7

 75
0
147
1.0
148
0.0
149
0.0
100
AcDbLayout
  1
Model
 70
0
 71
0
 10
0.0
 20
0.0
 11
11.0
 21
8.5
 12
0.0
 22
0.0
 32
0.0
 14
0.0
 24
0.0
 34
0.0
 15
0.0
 25
0.0
 35
0.0
146
0.0
 13
0.0
 23
0.0
 33
0.0
 16
1.0
 26
0.0
 36
0.0
 17
0.0
 27
1.0
 37
0.0
 76
0
330
207
345
0
346
0
  0
LAYOUT
  5
338
102
{ACAD_REACTORS
330
1A
102
}
100
AcDbPlotSettings
  1

  2
none_device
  4
ANSI_A_(11.00_x_8.50_Inches)
  6

 40
0.0
 41
0.0
 42
0.0
 43
0.0
 44
279.4
 45
215.9
 46
0.0
 47
0.0
 48
0.0
 49
0.0
140
0.0
141
0.0
142
1.0
143
1.0
 70
0
 72
0
 73
0
 74
0
  7

 75
0
147
1.0
148
0.0
149
0.0
100
AcDbLayout
  1
Layout1
 70
0
 71
1
 10
0.0
 20
0.0
 11
11.0
 21
8.5
 12
0.0
 22
0.0
 32
0.0
 14
0.0
 24
0.0
 34
0.0
 15
0.0
 25
0.0
 35
0.0
146
0.0
 13
0.0
 23
0.0
 33
0.0
 16
1.0
 26
0.0
 36
0.0
 17
0.0
 27
1.0
 37
0.0
 76
0
330
208
345
0
346
0
  0
ENDSEC
  0
EOF
