999
DXF file: 233-605_front.dxf
999
Pro/ENGINEER 2018400 by Parametric Technology Corporation
  0
SECTION
  2
HEADER
  9
$ACADVER
  1
AC1027
  9
$DWGCODEPAGE
  3
ANSI_1252
  9
$EXTMAX
 10
11.0
 20
8.5
 30
0.0
  9
$EXTMIN
 10
0.0
 20
0.0
 30
0.0
  9
$LIMMIN
 10
0.0
 20
0.0
  9
$LIMMAX
 10
11.0
 20
8.5
  9
$VIEWCTR
 10
5.5
 20
4.25
  9
$VIEWSIZE
 40
8.5
  9
$CLAYER
  8
0
  9
$LTSCALE
 40
0.605
  9
$CELTYPE
  6
BYLAYER
  9
$DIMSCALE
 40
1.0
  9
$DIMASZ
 40
0.1
  9
$DIMEXO
 40
0.0625
  9
$DIMDLI
 40
0.418
  9
$DIMEXE
 40
0.125
  9
$DIMCEN
 40
0.099
  9
$DIMLFAC
 40
1.0
  9
$DIMBLK
  1
_FILLED
  9
$DIMALT
 70
1
  9
$DIMALTD
 70
1
  9
$DIMALTTD
 70
2
  9
$DIMALTF
 40
25.4
  9
$DIMTXT
 40
0.08
  9
$DIMTOL
 70
1
  9
$DIMLIM
 70
0
  9
$DIMTFAC
 40
1.0
  9
$DIMTP
 40
0.01
  9
$DIMTM
 40
0.01
  9
$DIMGAP
 40
0.09
  9
$DIMDSEP
 70
46
  9
$AUNITS
 70
0
  9
$PDMODE
 70
3
  9
$PDSIZE
 40
0.3125
  9
$HANDSEED
  5
305
  9
$TILEMODE
 70
1
  9
$MEASUREMENT
 70
0
  9
$INSUNITS
 70
1
  0
ENDSEC
  0
SECTION
  2
CLASSES
  0
CLASS
  1
ACDBDICTIONARYWDFLT
  2
AcDbDictionaryWithDefault
  3
AutoCAD 2000
 90
0
 91
1
280
0
281
0
  0
CLASS
  1
ACDBPLACEHOLDER
  2
AcDbPlaceHolder
  3
AutoCAD 2000
 90
0
 91
1
280
0
281
0
  0
CLASS
  1
LAYOUT
  2
AcDbLayout
  3
AutoCAD 2000
 90
0
 91
0
280
0
281
0
  0
ENDSEC
  0
SECTION
  2
TABLES
  0
TABLE
  2
VPORT
  5
8
100
AcDbSymbolTable
 70
2
  0
VPORT
  5
1F4
100
AcDbSymbolTableRecord
100
AcDbViewportTableRecord
  2
*ACTIVE
 70
0
 10
0.0
 20
0.0
 11
1.0
 21
1.0
 12
5.5
 22
4.25
 13
0.0
 23
0.0
 14
1.0
 24
1.0
 15
0.0
 25
0.0
 16
0.0
 26
0.0
 36
1.0
 17
0.0
 27
0.0
 37
0.0
 40
8.5
 41
1.2941176471
 42
50.0
 43
0.0
 44
0.0
 50
0.0
 51
0.0
 71
0
 72
100
 73
1
 74
1
 75
0
 76
0
 77
0
 78
0
  0
ENDTAB
  0
TABLE
  2
LTYPE
  5
5
100
AcDbSymbolTable
 70
6
  0
LTYPE
  5
14
100
AcDbSymbolTableRecord
100
AcDbLinetypeTableRecord
  2
BYBLOCK
 70
0
  3

 72
65
 73
0
 40
0.0
  0
LTYPE
  5
15
100
AcDbSymbolTableRecord
100
AcDbLinetypeTableRecord
  2
BYLAYER
 70
0
  3

 72
65
 73
0
 40
0.0
  0
LTYPE
  5
16
100
AcDbSymbolTableRecord
100
AcDbLinetypeTableRecord
  2
CONTINUOUS
 70
64
  3
Solid line
 72
65
 73
0
 40
0.0
  0
LTYPE
  5
1F5
100
AcDbSymbolTableRecord
100
AcDbLinetypeTableRecord
  2
CENTER
 70
64
  3
____ _ ____ _ ____ _ ____ _ ____ _ ____ _ ____
 72
65
 73
4
 40
0.6
 49
0.375
 74
0
 49
-0.075
 74
0
 49
0.075
 74
0
 49
-0.075
 74
0
  0
LTYPE
  5
1F6
100
AcDbSymbolTableRecord
100
AcDbLinetypeTableRecord
  2
HIDDEN
 70
64
  3
- - - - - - - - - - - - - - - - - - - -
 72
65
 73
2
 40
0.2
 49
0.1
 74
0
 49
-0.1
 74
0
  0
LTYPE
  5
1F7
100
AcDbSymbolTableRecord
100
AcDbLinetypeTableRecord
  2
PHANTOM
 70
64
  3
_____ _ _ _____ _ _ _____ _ _ _____
 72
65
 73
6
 40
0.8
 49
0.45
 74
0
 49
-0.05
 74
0
 49
0.1
 74
0
 49
-0.05
 74
0
 49
0.1
 74
0
 49
-0.05
 74
0
  0
LTYPE
  5
1F8
100
AcDbSymbolTableRecord
100
AcDbLinetypeTableRecord
  2
DOT
 70
64
  3
. . . . . . . . . . . . . . . . . . . .
 72
65
 73
2
 40
0.2
 49
0.1
 74
0
 49
-0.1
 74
0
  0
LTYPE
  5
1F9
100
AcDbSymbolTableRecord
100
AcDbLinetypeTableRecord
  2
DASHED
 70
64
  3
- - - - - - - - - - - - - - - - - - - -
 72
65
 73
2
 40
0.2
 49
0.1
 74
0
 49
-0.1
 74
0
  0
ENDTAB
  0
TABLE
  2
LAYER
  5
2
100
AcDbSymbolTable
 70
36
  0
LAYER
  5
10
100
AcDbSymbolTableRecord
100
AcDbLayerTableRecord
  2
0
 70
0
 62
7
  6
CONTINUOUS
370
-3
390
F
  0
LAYER
  5
1FA
100
AcDbSymbolTableRecord
100
AcDbLayerTableRecord
  2
DEFAULT_1
 70
0
 62
7
  6
CENTER
370
-3
390
F
  0
LAYER
  5
1FB
100
AcDbSymbolTableRecord
100
AcDbLayerTableRecord
  2
DEFAULT_2
 70
0
 62
8
  6
HIDDEN
370
-3
390
F
  0
LAYER
  5
1FC
100
AcDbSymbolTableRecord
100
AcDbLayerTableRecord
  2
DEFAULT_3
 70
0
 62
7
  6
PHANTOM
370
-3
390
F
  0
LAYER
  5
1FD
100
AcDbSymbolTableRecord
100
AcDbLayerTableRecord
  2
DEFAULT_COORDINATE_SYSTEM
 70
0
 62
7
  6
CONTINUOUS
370
-3
390
F
  0
LAYER
  5
1FE
100
AcDbSymbolTableRecord
100
AcDbLayerTableRecord
  2
DEFAULT_DATUM_AXES
 70
0
 62
7
  6
CONTINUOUS
370
-3
390
F
  0
LAYER
  5
1FF
100
AcDbSymbolTableRecord
100
AcDbLayerTableRecord
  2
DEFAULT_DATUM_CURVES
 70
0
 62
7
  6
CONTINUOUS
370
-3
390
F
  0
LAYER
  5
200
100
AcDbSymbolTableRecord
100
AcDbLayerTableRecord
  2
DEFAULT_DATUM_PLANES
 70
0
 62
7
  6
CONTINUOUS
370
-3
390
F
  0
LAYER
  5
201
100
AcDbSymbolTableRecord
100
AcDbLayerTableRecord
  2
DEFAULT_SURFACES
 70
0
 62
7
  6
CONTINUOUS
370
-3
390
F
  0
LAYER
  5
202
100
AcDbSymbolTableRecord
100
AcDbLayerTableRecord
  2
INTF_1
 70
0
 62
7
  6
CONTINUOUS
370
-3
390
F
  0
LAYER
  5
203
100
AcDbSymbolTableRecord
100
AcDbLayerTableRecord
  2
PLATTED_SURFACE_AREA
 70
0
 62
7
  6
CONTINUOUS
370
-3
390
F
  0
LAYER
  5
204
100
AcDbSymbolTableRecord
100
AcDbLayerTableRecord
  2
RGB____0____0____0__
 70
0
 62
7
  6
CONTINUOUS
370
-3
390
F
  0
ENDTAB
  0
TABLE
  2
STYLE
  5
3
100
AcDbSymbolTable
 70
1
  0
STYLE
  5
11
100
AcDbSymbolTableRecord
100
AcDbTextStyleTableRecord
  2
STANDARD
 70
0
 40
0.0
 41
0.8
 50
0.0
 71
0
 42
0.2
  3
txt
  4

  0
STYLE
  5
205
100
AcDbSymbolTableRecord
100
AcDbTextStyleTableRecord
  2
TEXTSTYLE_1
 70
0
 40
0.0
 41
0.8
 50
0.0
 71
0
 42
0.2
  3
gdt
  4

  0
ENDTAB
  0
TABLE
  2
VIEW
  5
6
100
AcDbSymbolTable
 70
0
  0
ENDTAB
  0
TABLE
  2
UCS
  5
7
100
AcDbSymbolTable
 70
0
  0
ENDTAB
  0
TABLE
  2
APPID
  5
9
100
AcDbSymbolTable
 70
1
  0
APPID
  5
206
100
AcDbSymbolTableRecord
100
AcDbRegAppTableRecord
  2
ACAD
 70
0
  0
ENDTAB
  0
TABLE
  2
BLOCK_RECORD
  5
1
100
AcDbSymbolTable
 70
0
  0
BLOCK_RECORD
  5
207
100
AcDbSymbolTableRecord
100
AcDbBlockTableRecord
  2
*Model_Space
  0
BLOCK_RECORD
  5
208
100
AcDbSymbolTableRecord
100
AcDbBlockTableRecord
  2
*Paper_Space
  0
BLOCK_RECORD
  5
209
100
AcDbSymbolTableRecord
100
AcDbBlockTableRecord
  2
_FILLED
  0
ENDTAB
  0
TABLE
  2
DIMSTYLE
  5
A
100
AcDbSymbolTable
 70
1
100
AcDbDimStyleTable
 71
0
  0
DIMSTYLE
105
20A
100
AcDbSymbolTableRecord
100
AcDbDimStyleTableRecord
  2
STANDARD
 70
0
  3

  4

 40
1.0
 41
0.1
 42
0.0625
 43
0.38
 44
0.125
 45
0.0
 46
0.0
 47
0.01
 48
0.01
140
0.08
141
0.09
142
0.0
143
25.4
144
1.0
145
0.0
146
1.0
147
0.09
 71
1.0
 72
0.0
 73
1
 74
1
 75
0
 76
0
 77
0
 78
4
 79
1
170
1
171
1
172
0
173
0
174
0
175
0
176
0
177
0
178
0
270
2
179
2
271
2
272
2
273
2
274
2
275
0
280
0
281
0
282
0
283
1
284
4
285
0
286
0
287
3
288
0
340
11
278
46
341
209
342
209
343
209
344
209
  0
ENDTAB
  0
ENDSEC
  0
SECTION
  2
BLOCKS
  0
BLOCK
  5
20
100
AcDbEntity
  8
0
100
AcDbBlockBegin
  2
*Model_Space
 70
0
 10
0.0
 20
0.0
 30
0.0
  3
*Model_Space
  1

  0
ENDBLK
  5
21
100
AcDbEntity
  8
0
100
AcDbBlockEnd
  0
BLOCK
  5
1C
100
AcDbEntity
  8
0
100
AcDbBlockBegin
  2
*Paper_Space
 70
0
 10
0.0
 20
0.0
 30
0.0
  3
*Paper_Space
  1

  0
ENDBLK
  5
1D
100
AcDbEntity
  8
0
100
AcDbBlockEnd
  0
BLOCK
  5
20B
100
AcDbEntity
  8
0
100
AcDbBlockBegin
  2
_FILLED
 70
64
 10
0.0
 20
0.0
  3
_FILLED
  1

  0
SOLID
  5
20C
100
AcDbEntity
  8
0
  6
BYBLOCK
 62
0
100
AcDbTrace
 10
0.0
 20
0.0
 11
-1.0
 21
0.2
 12
-1.0
 22
-0.2
 13
-1.0
 23
-0.2
  0
ENDBLK
  5
20D
100
AcDbEntity
  8
0
  6
BYBLOCK
 62
0
100
AcDbBlockEnd
  0
ENDSEC
  0
SECTION
  2
ENTITIES
  0
MTEXT
  5
20E
100
AcDbEntity
  8
0
100
AcDbMText
 62
2
  6
CONTINUOUS
  7
STANDARD
 71
3
 72
1
 10
5.3501164596
 20
1.1786762422
 30
0.0
 11
1.0
 21
0.0
 31
0.0
 73
2
 44
0.9
  1
SCALE  1.000
 40
0.08
 41
0.768
  0
LINE
  5
20F
100
AcDbEntity
  8
0
100
AcDbLine
 62
7
  6
CONTINUOUS
 10
0.0
 20
0.0
 11
0.0
 21
8.5
  0
LINE
  5
210
100
AcDbEntity
  8
0
100
AcDbLine
 62
7
  6
CONTINUOUS
 10
0.0
 20
0.0
 11
11.0
 21
0.0
  0
LINE
  5
211
100
AcDbEntity
  8
0
100
AcDbLine
 62
7
  6
CONTINUOUS
 10
0.0
 20
8.5
 11
11.0
 21
8.5
  0
LINE
  5
212
100
AcDbEntity
  8
0
100
AcDbLine
 62
7
  6
CONTINUOUS
 10
11.0
 20
0.0
 11
11.0
 21
8.5
  0
LINE
  5
213
100
AcDbEntity
  8
0
100
AcDbLine
 62
7
  6
CONTINUOUS
 10
2.0567313665
 20
7.3423253106
 11
2.0567313665
 21
1.6073253106
  0
LINE
  5
214
100
AcDbEntity
  8
0
100
AcDbLine
 62
7
  6
CONTINUOUS
 10
2.1367313665
 20
1.5273253106
 11
7.8717313665
 21
1.5273253106
  0
LINE
  5
215
100
AcDbEntity
  8
0
100
AcDbLine
 62
7
  6
CONTINUOUS
 10
2.4237313665
 20
7.0343253106
 11
2.4237313665
 21
6.6059126429
  0
LINE
  5
216
100
AcDbEntity
  8
0
100
AcDbLine
 62
7
  6
CONTINUOUS
 10
2.4237313665
 20
6.3223793301
 11
2.4237313665
 21
5.9914536417
  0
LINE
  5
217
100
AcDbEntity
  8
0
100
AcDbLine
 62
7
  6
CONTINUOUS
 10
2.4237313665
 20
4.7421090736
 11
2.4237313665
 21
4.2065415475
  0
LINE
  5
218
100
AcDbEntity
  8
0
100
AcDbLine
 62
7
  6
CONTINUOUS
 10
2.4237313665
 20
3.2120289036
 11
2.4237313665
 21
2.8544038116
  0
LINE
  5
219
100
AcDbEntity
  8
0
100
AcDbLine
 62
7
  6
CONTINUOUS
 10
2.4237313665
 20
1.9604486499
 11
2.4237313665
 21
1.9143253106
  0
LINE
  5
21A
100
AcDbEntity
  8
0
100
AcDbLine
 62
7
  6
CONTINUOUS
 10
2.4437313665
 20
1.8943253106
 11
2.8721440341
 21
1.8943253106
  0
LINE
  5
21B
100
AcDbEntity
  8
0
100
AcDbLine
 62
7
  6
CONTINUOUS
 10
3.155677347
 20
1.8943253106
 11
3.4866030353
 21
1.8943253106
  0
LINE
  5
21C
100
AcDbEntity
  8
0
100
AcDbLine
 62
7
  6
CONTINUOUS
 10
4.7359476034
 20
1.8943253106
 11
5.2715151295
 21
1.8943253106
  0
LINE
  5
21D
100
AcDbEntity
  8
0
100
AcDbLine
 62
7
  6
CONTINUOUS
 10
6.2660277734
 20
1.8943253106
 11
6.6236528655
 21
1.8943253106
  0
LINE
  5
21E
100
AcDbEntity
  8
0
100
AcDbLine
 62
7
  6
CONTINUOUS
 10
7.5176080271
 20
1.8943253106
 11
7.5637313665
 21
1.8943253106
  0
LINE
  5
21F
100
AcDbEntity
  8
0
100
AcDbLine
 62
7
  6
CONTINUOUS
 10
7.5837313665
 20
1.9143253106
 11
7.5837313665
 21
2.3427379782
  0
LINE
  5
220
100
AcDbEntity
  8
0
100
AcDbLine
 62
7
  6
CONTINUOUS
 10
7.5837313665
 20
2.6262712911
 11
7.5837313665
 21
2.9571969794
  0
LINE
  5
221
100
AcDbEntity
  8
0
100
AcDbLine
 62
7
  6
CONTINUOUS
 10
7.5837313665
 20
4.2065415475
 11
7.5837313665
 21
4.7421090736
  0
LINE
  5
222
100
AcDbEntity
  8
0
100
AcDbLine
 62
7
  6
CONTINUOUS
 10
7.5837313665
 20
5.7366217175
 11
7.5837313665
 21
6.0942468096
  0
LINE
  5
223
100
AcDbEntity
  8
0
100
AcDbLine
 62
7
  6
CONTINUOUS
 10
7.5837313665
 20
6.9882019712
 11
7.5837313665
 21
7.0343253106
  0
LINE
  5
224
100
AcDbEntity
  8
0
100
AcDbLine
 62
7
  6
CONTINUOUS
 10
7.5637313665
 20
7.0543253106
 11
7.1353186988
 21
7.0543253106
  0
LINE
  5
225
100
AcDbEntity
  8
0
100
AcDbLine
 62
7
  6
CONTINUOUS
 10
6.851785386
 20
7.0543253106
 11
6.5208596976
 21
7.0543253106
  0
LINE
  5
226
100
AcDbEntity
  8
0
100
AcDbLine
 62
7
  6
CONTINUOUS
 10
5.2715151295
 20
7.0543253106
 11
4.7359476034
 21
7.0543253106
  0
LINE
  5
227
100
AcDbEntity
  8
0
100
AcDbLine
 62
7
  6
CONTINUOUS
 10
3.7414349595
 20
7.0543253106
 11
3.3838098675
 21
7.0543253106
  0
LINE
  5
228
100
AcDbEntity
  8
0
100
AcDbLine
 62
7
  6
CONTINUOUS
 10
2.4898547058
 20
7.0543253106
 11
2.4437313665
 21
7.0543253106
  0
LINE
  5
229
100
AcDbEntity
  8
0
100
AcDbLine
 62
7
  6
CONTINUOUS
 10
7.9517313665
 20
1.6073253106
 11
7.9517313665
 21
7.3423253106
  0
LINE
  5
22A
100
AcDbEntity
  8
0
100
AcDbLine
 62
7
  6
CONTINUOUS
 10
7.8717313665
 20
7.4223253106
 11
2.1367313665
 21
7.4223253106
  0
ARC
  5
22B
100
AcDbEntity
  8
0
100
AcDbCircle
 62
7
  6
CONTINUOUS
 10
3.0497978049
 20
3.2546018625
 40
2.1340599478
100
AcDbArc
 50
321.5181412983
 51
335.1110843029
  0
ARC
  5
22C
100
AcDbEntity
  8
0
100
AcDbCircle
 62
7
  6
CONTINUOUS
 10
3.7840079184
 20
2.520391749
 40
2.1340599478
100
AcDbArc
 50
114.8889156971
 51
128.4818587019
  0
ARC
  5
22D
100
AcDbEntity
  8
0
100
AcDbCircle
 62
7
  6
CONTINUOUS
 10
2.1367313665
 20
1.6073253106
 40
0.08
100
AcDbArc
 50
180.0
 51
270.0
  0
ARC
  5
22E
100
AcDbEntity
  8
0
100
AcDbCircle
 62
7
  6
CONTINUOUS
 10
2.4437313665
 20
1.9604486499
 40
0.02
100
AcDbArc
 50
90.807243507
 51
180.0
  0
ARC
  5
22F
100
AcDbEntity
  8
0
100
AcDbCircle
 62
7
  6
CONTINUOUS
 10
2.4437313665
 20
1.9143253106
 40
0.02
100
AcDbArc
 50
180.0
 51
270.0
  0
ARC
  5
230
100
AcDbEntity
  8
0
100
AcDbCircle
 62
7
  6
CONTINUOUS
 10
2.8721440341
 20
1.9143253106
 40
0.02
100
AcDbArc
 50
270.0
 51
337.0930234144
  0
ARC
  5
231
100
AcDbEntity
  8
0
100
AcDbCircle
 62
7
  6
CONTINUOUS
 10
2.6314135264
 20
2.5261743677
 40
0.02
100
AcDbArc
 50
71.7118113028
 51
209.1602901205
  0
ARC
  5
232
100
AcDbEntity
  8
0
100
AcDbCircle
 62
7
  6
CONTINUOUS
 10
2.4437313665
 20
2.8544038116
 40
0.02
100
AcDbArc
 50
180.0
 51
261.6499701976
  0
ARC
  5
233
100
AcDbEntity
  8
0
100
AcDbCircle
 62
7
  6
CONTINUOUS
 10
2.4437313665
 20
3.2120289036
 40
0.02
100
AcDbArc
 50
37.4524504592
 51
180.0
  0
ARC
  5
234
100
AcDbEntity
  8
0
100
AcDbCircle
 62
7
  6
CONTINUOUS
 10
3.0471732523
 20
2.4004852249
 40
0.02
100
AcDbArc
 50
205.9060125808
 51
347.6313419504
  0
ARC
  5
235
100
AcDbEntity
  8
0
100
AcDbCircle
 62
7
  6
CONTINUOUS
 10
3.155677347
 20
1.9143253106
 40
0.02
100
AcDbArc
 50
159.5992489948
 51
270.0
  0
ARC
  5
236
100
AcDbEntity
  8
0
100
AcDbCircle
 62
7
  6
CONTINUOUS
 10
3.4866030353
 20
1.9143253106
 40
0.02
100
AcDbArc
 50
270.0
 51
21.9577037206
  0
ARC
  5
237
100
AcDbEntity
  8
0
100
AcDbCircle
 62
7
  6
CONTINUOUS
 10
3.0828385311
 20
2.972737659
 40
0.02
100
AcDbArc
 50
94.3800194489
 51
229.2362498206
  0
ARC
  5
238
100
AcDbEntity
  8
0
100
AcDbCircle
 62
7
  6
CONTINUOUS
 10
3.1335279385
 20
3.1863075735
 40
0.02
100
AcDbArc
 50
284.5765365237
 51
71.99235965
  0
ARC
  5
239
100
AcDbEntity
  8
0
100
AcDbCircle
 62
7
  6
CONTINUOUS
 10
3.3323427696
 20
4.3365572613
 40
0.02
100
AcDbArc
 50
311.8961445307
 51
93.1601287287
  0
ARC
  5
23A
100
AcDbEntity
  8
0
100
AcDbCircle
 62
7
  6
CONTINUOUS
 10
3.4209800154
 20
3.6415791073
 40
0.02
100
AcDbArc
 50
82.8801842437
 51
182.2061214977
  0
ARC
  5
23B
100
AcDbEntity
  8
0
100
AcDbCircle
 62
7
  6
CONTINUOUS
 10
3.7157136294
 20
2.6041218826
 40
0.02
100
AcDbArc
 50
18.00764035
 51
165.4234634763
  0
ARC
  5
23C
100
AcDbEntity
  8
0
100
AcDbCircle
 62
7
  6
CONTINUOUS
 10
4.410466394
 20
2.6369251879
 40
0.02
100
AcDbArc
 50
74.4231142194
 51
181.2277191158
  0
ARC
  5
23D
100
AcDbEntity
  8
0
100
AcDbCircle
 62
7
  6
CONTINUOUS
 10
4.8659633172
 20
2.8029367137
 40
0.02
100
AcDbArc
 50
356.8398712713
 51
138.1038554693
  0
ARC
  5
23E
100
AcDbEntity
  8
0
100
AcDbCircle
 62
7
  6
CONTINUOUS
 10
4.1709851632
 20
2.8915739595
 40
0.02
100
AcDbArc
 50
267.7938785023
 51
7.1198157563
  0
ARC
  5
23F
100
AcDbEntity
  8
0
100
AcDbCircle
 62
7
  6
CONTINUOUS
 10
3.1663312438
 20
3.8810603381
 40
0.02
100
AcDbArc
 50
268.7722808842
 51
15.5768857806
  0
ARC
  5
240
100
AcDbEntity
  8
0
100
AcDbCircle
 62
7
  6
CONTINUOUS
 10
3.0497978049
 20
5.6940487586
 40
2.1340599478
100
AcDbArc
 50
24.8889156971
 51
38.4818587019
  0
ARC
  5
241
100
AcDbEntity
  8
0
100
AcDbCircle
 62
7
  6
CONTINUOUS
 10
3.7840079184
 20
6.4282588721
 40
2.1340599478
100
AcDbArc
 50
231.5181412983
 51
245.1110843029
  0
ARC
  5
242
100
AcDbEntity
  8
0
100
AcDbCircle
 62
7
  6
CONTINUOUS
 10
2.1367313665
 20
7.3423253106
 40
0.08
100
AcDbArc
 50
90.0
 51
180.0
  0
ARC
  5
243
100
AcDbEntity
  8
0
100
AcDbCircle
 62
7
  6
CONTINUOUS
 10
2.4898547058
 20
7.0343253106
 40
0.02
100
AcDbArc
 50
0.807243507
 51
90.0
  0
ARC
  5
244
100
AcDbEntity
  8
0
100
AcDbCircle
 62
7
  6
CONTINUOUS
 10
2.4437313665
 20
7.0343253106
 40
0.02
100
AcDbArc
 50
90.0
 51
180.0
  0
ARC
  5
245
100
AcDbEntity
  8
0
100
AcDbCircle
 62
7
  6
CONTINUOUS
 10
2.4437313665
 20
6.6059126429
 40
0.02
100
AcDbArc
 50
180.0
 51
247.0930234144
  0
ARC
  5
246
100
AcDbEntity
  8
0
100
AcDbCircle
 62
7
  6
CONTINUOUS
 10
3.0555804236
 20
6.8466431506
 40
0.02
100
AcDbArc
 50
341.7118113028
 51
119.1602901205
  0
ARC
  5
247
100
AcDbEntity
  8
0
100
AcDbCircle
 62
7
  6
CONTINUOUS
 10
3.3838098675
 20
7.0343253106
 40
0.02
100
AcDbArc
 50
90.0
 51
171.6499701976
  0
ARC
  5
248
100
AcDbEntity
  8
0
100
AcDbCircle
 62
7
  6
CONTINUOUS
 10
3.7414349595
 20
7.0343253106
 40
0.02
100
AcDbArc
 50
307.4524504592
 51
90.0
  0
ARC
  5
249
100
AcDbEntity
  8
0
100
AcDbCircle
 62
7
  6
CONTINUOUS
 10
2.9298912808
 20
6.4308834247
 40
0.02
100
AcDbArc
 50
115.9060125808
 51
257.6313419504
  0
ARC
  5
24A
100
AcDbEntity
  8
0
100
AcDbCircle
 62
7
  6
CONTINUOUS
 10
2.4437313665
 20
6.3223793301
 40
0.02
100
AcDbArc
 50
69.5992489948
 51
180.0
  0
ARC
  5
24B
100
AcDbEntity
  8
0
100
AcDbCircle
 62
7
  6
CONTINUOUS
 10
2.4437313665
 20
5.9914536417
 40
0.02
100
AcDbArc
 50
180.0
 51
291.9577037206
  0
ARC
  5
24C
100
AcDbEntity
  8
0
100
AcDbCircle
 62
7
  6
CONTINUOUS
 10
3.5021437149
 20
6.3952181459
 40
0.02
100
AcDbArc
 50
4.3800194489
 51
139.2362498206
  0
ARC
  5
24D
100
AcDbEntity
  8
0
100
AcDbCircle
 62
7
  6
CONTINUOUS
 10
3.7157136294
 20
6.3445287385
 40
0.02
100
AcDbArc
 50
194.5765365237
 51
341.99235965
  0
ARC
  5
24E
100
AcDbEntity
  8
0
100
AcDbCircle
 62
7
  6
CONTINUOUS
 10
4.8659633172
 20
6.1457139074
 40
0.02
100
AcDbArc
 50
221.8961445307
 51
3.1601287287
  0
ARC
  5
24F
100
AcDbEntity
  8
0
100
AcDbCircle
 62
7
  6
CONTINUOUS
 10
4.1709851632
 20
6.0570766616
 40
0.02
100
AcDbArc
 50
352.8801842437
 51
92.2061214977
  0
ARC
  5
250
100
AcDbEntity
  8
0
100
AcDbCircle
 62
7
  6
CONTINUOUS
 10
3.1335279385
 20
5.7623430476
 40
0.02
100
AcDbArc
 50
288.00764035
 51
75.4234634763
  0
ARC
  5
251
100
AcDbEntity
  8
0
100
AcDbCircle
 62
7
  6
CONTINUOUS
 10
3.1663312438
 20
5.067590283
 40
0.02
100
AcDbArc
 50
344.4231142194
 51
91.2277191158
  0
ARC
  5
252
100
AcDbEntity
  8
0
100
AcDbCircle
 62
7
  6
CONTINUOUS
 10
3.3323427696
 20
4.6120933598
 40
0.02
100
AcDbArc
 50
266.8398712713
 51
48.1038554693
  0
ARC
  5
253
100
AcDbEntity
  8
0
100
AcDbCircle
 62
7
  6
CONTINUOUS
 10
3.4209800154
 20
5.3070715138
 40
0.02
100
AcDbArc
 50
177.7938785023
 51
277.1198157563
  0
ARC
  5
254
100
AcDbEntity
  8
0
100
AcDbCircle
 62
7
  6
CONTINUOUS
 10
4.410466394
 20
6.3117254332
 40
0.02
100
AcDbArc
 50
178.7722808842
 51
285.5768857806
  0
ARC
  5
255
100
AcDbEntity
  8
0
100
AcDbCircle
 62
7
  6
CONTINUOUS
 10
6.957664928
 20
3.2546018625
 40
2.1340599478
100
AcDbArc
 50
204.8889156971
 51
218.4818587019
  0
ARC
  5
256
100
AcDbEntity
  8
0
100
AcDbCircle
 62
7
  6
CONTINUOUS
 10
6.2234548145
 20
2.520391749
 40
2.1340599478
100
AcDbArc
 50
51.5181412983
 51
65.1110843029
  0
ARC
  5
257
100
AcDbEntity
  8
0
100
AcDbCircle
 62
7
  6
CONTINUOUS
 10
7.8717313665
 20
1.6073253106
 40
0.08
100
AcDbArc
 50
270.0
 51
360.0
  0
ARC
  5
258
100
AcDbEntity
  8
0
100
AcDbCircle
 62
7
  6
CONTINUOUS
 10
7.5176080271
 20
1.9143253106
 40
0.02
100
AcDbArc
 50
180.807243507
 51
270.0
  0
ARC
  5
259
100
AcDbEntity
  8
0
100
AcDbCircle
 62
7
  6
CONTINUOUS
 10
7.5637313665
 20
1.9143253106
 40
0.02
100
AcDbArc
 50
270.0
 51
360.0
  0
ARC
  5
25A
100
AcDbEntity
  8
0
100
AcDbCircle
 62
7
  6
CONTINUOUS
 10
7.5637313665
 20
2.3427379782
 40
0.02
100
AcDbArc
 50
0.0
 51
67.0930234144
  0
ARC
  5
25B
100
AcDbEntity
  8
0
100
AcDbCircle
 62
7
  6
CONTINUOUS
 10
6.9518823093
 20
2.1020074705
 40
0.02
100
AcDbArc
 50
161.7118113028
 51
299.1602901205
  0
ARC
  5
25C
100
AcDbEntity
  8
0
100
AcDbCircle
 62
7
  6
CONTINUOUS
 10
6.6236528655
 20
1.9143253106
 40
0.02
100
AcDbArc
 50
270.0
 51
351.6499701976
  0
ARC
  5
25D
100
AcDbEntity
  8
0
100
AcDbCircle
 62
7
  6
CONTINUOUS
 10
6.2660277734
 20
1.9143253106
 40
0.02
100
AcDbArc
 50
127.4524504592
 51
270.0
  0
ARC
  5
25E
100
AcDbEntity
  8
0
100
AcDbCircle
 62
7
  6
CONTINUOUS
 10
7.0775714521
 20
2.5177671964
 40
0.02
100
AcDbArc
 50
295.9060125808
 51
77.6313419504
  0
ARC
  5
25F
100
AcDbEntity
  8
0
100
AcDbCircle
 62
7
  6
CONTINUOUS
 10
7.5637313665
 20
2.6262712911
 40
0.02
100
AcDbArc
 50
249.5992489948
 51
360.0
  0
ARC
  5
260
100
AcDbEntity
  8
0
100
AcDbCircle
 62
7
  6
CONTINUOUS
 10
7.5637313665
 20
2.9571969794
 40
0.02
100
AcDbArc
 50
0.0
 51
111.9577037206
  0
ARC
  5
261
100
AcDbEntity
  8
0
100
AcDbCircle
 62
7
  6
CONTINUOUS
 10
6.5053190181
 20
2.5534324752
 40
0.02
100
AcDbArc
 50
184.3800194489
 51
319.2362498206
  0
ARC
  5
262
100
AcDbEntity
  8
0
100
AcDbCircle
 62
7
  6
CONTINUOUS
 10
6.2917491035
 20
2.6041218826
 40
0.02
100
AcDbArc
 50
14.5765365237
 51
161.99235965
  0
ARC
  5
263
100
AcDbEntity
  8
0
100
AcDbCircle
 62
7
  6
CONTINUOUS
 10
5.1414994157
 20
2.8029367137
 40
0.02
100
AcDbArc
 50
41.8961445307
 51
183.1601287287
  0
ARC
  5
264
100
AcDbEntity
  8
0
100
AcDbCircle
 62
7
  6
CONTINUOUS
 10
5.8364775697
 20
2.8915739595
 40
0.02
100
AcDbArc
 50
172.8801842437
 51
272.2061214977
  0
ARC
  5
265
100
AcDbEntity
  8
0
100
AcDbCircle
 62
7
  6
CONTINUOUS
 10
6.8739347944
 20
3.1863075735
 40
0.02
100
AcDbArc
 50
108.00764035
 51
255.4234634763
  0
ARC
  5
266
100
AcDbEntity
  8
0
100
AcDbCircle
 62
7
  6
CONTINUOUS
 10
6.8411314891
 20
3.8810603381
 40
0.02
100
AcDbArc
 50
164.4231142194
 51
271.2277191158
  0
ARC
  5
267
100
AcDbEntity
  8
0
100
AcDbCircle
 62
7
  6
CONTINUOUS
 10
6.6751199633
 20
4.3365572613
 40
0.02
100
AcDbArc
 50
86.8398712713
 51
228.1038554693
  0
ARC
  5
268
100
AcDbEntity
  8
0
100
AcDbCircle
 62
7
  6
CONTINUOUS
 10
6.5864827175
 20
3.6415791073
 40
0.02
100
AcDbArc
 50
357.7938785023
 51
97.1198157563
  0
ARC
  5
269
100
AcDbEntity
  8
0
100
AcDbCircle
 62
7
  6
CONTINUOUS
 10
5.5969963389
 20
2.6369251879
 40
0.02
100
AcDbArc
 50
358.7722808842
 51
105.5768857806
  0
ARC
  5
26A
100
AcDbEntity
  8
0
100
AcDbCircle
 62
7
  6
CONTINUOUS
 10
6.957664928
 20
5.6940487586
 40
2.1340599478
100
AcDbArc
 50
141.5181412983
 51
155.1110843029
  0
ARC
  5
26B
100
AcDbEntity
  8
0
100
AcDbCircle
 62
7
  6
CONTINUOUS
 10
6.2234548145
 20
6.4282588721
 40
2.1340599478
100
AcDbArc
 50
294.8889156971
 51
308.4818587019
  0
ARC
  5
26C
100
AcDbEntity
  8
0
100
AcDbCircle
 62
7
  6
CONTINUOUS
 10
7.8717313665
 20
7.3423253106
 40
0.08
100
AcDbArc
 50
0.0
 51
90.0
  0
ARC
  5
26D
100
AcDbEntity
  8
0
100
AcDbCircle
 62
7
  6
CONTINUOUS
 10
7.5637313665
 20
6.9882019712
 40
0.02
100
AcDbArc
 50
270.807243507
 51
360.0
  0
ARC
  5
26E
100
AcDbEntity
  8
0
100
AcDbCircle
 62
7
  6
CONTINUOUS
 10
7.5637313665
 20
7.0343253106
 40
0.02
100
AcDbArc
 50
0.0
 51
90.0
  0
ARC
  5
26F
100
AcDbEntity
  8
0
100
AcDbCircle
 62
7
  6
CONTINUOUS
 10
7.1353186988
 20
7.0343253106
 40
0.02
100
AcDbArc
 50
90.0
 51
157.0930234144
  0
ARC
  5
270
100
AcDbEntity
  8
0
100
AcDbCircle
 62
7
  6
CONTINUOUS
 10
7.3760492065
 20
6.4224762534
 40
0.02
100
AcDbArc
 50
251.7118113028
 51
29.1602901205
  0
ARC
  5
271
100
AcDbEntity
  8
0
100
AcDbCircle
 62
7
  6
CONTINUOUS
 10
7.5637313665
 20
6.0942468096
 40
0.02
100
AcDbArc
 50
0.0
 51
81.6499701976
  0
ARC
  5
272
100
AcDbEntity
  8
0
100
AcDbCircle
 62
7
  6
CONTINUOUS
 10
7.5637313665
 20
5.7366217175
 40
0.02
100
AcDbArc
 50
217.4524504592
 51
360.0
  0
ARC
  5
273
100
AcDbEntity
  8
0
100
AcDbCircle
 62
7
  6
CONTINUOUS
 10
6.9602894806
 20
6.5481653962
 40
0.02
100
AcDbArc
 50
25.9060125808
 51
167.6313419504
  0
ARC
  5
274
100
AcDbEntity
  8
0
100
AcDbCircle
 62
7
  6
CONTINUOUS
 10
6.851785386
 20
7.0343253106
 40
0.02
100
AcDbArc
 50
339.5992489948
 51
90.0
  0
ARC
  5
275
100
AcDbEntity
  8
0
100
AcDbCircle
 62
7
  6
CONTINUOUS
 10
6.5208596976
 20
7.0343253106
 40
0.02
100
AcDbArc
 50
90.0
 51
201.9577037206
  0
ARC
  5
276
100
AcDbEntity
  8
0
100
AcDbCircle
 62
7
  6
CONTINUOUS
 10
6.9246242018
 20
5.9759129622
 40
0.02
100
AcDbArc
 50
274.3800194489
 51
49.2362498206
  0
ARC
  5
277
100
AcDbEntity
  8
0
100
AcDbCircle
 62
7
  6
CONTINUOUS
 10
6.8739347944
 20
5.7623430476
 40
0.02
100
AcDbArc
 50
104.5765365237
 51
251.99235965
  0
ARC
  5
278
100
AcDbEntity
  8
0
100
AcDbCircle
 62
7
  6
CONTINUOUS
 10
6.6751199633
 20
4.6120933598
 40
0.02
100
AcDbArc
 50
131.8961445307
 51
273.1601287287
  0
ARC
  5
279
100
AcDbEntity
  8
0
100
AcDbCircle
 62
7
  6
CONTINUOUS
 10
6.5864827175
 20
5.3070715138
 40
0.02
100
AcDbArc
 50
262.8801842437
 51
2.2061214977
  0
ARC
  5
27A
100
AcDbEntity
  8
0
100
AcDbCircle
 62
7
  6
CONTINUOUS
 10
6.2917491035
 20
6.3445287385
 40
0.02
100
AcDbArc
 50
198.00764035
 51
345.4234634763
  0
ARC
  5
27B
100
AcDbEntity
  8
0
100
AcDbCircle
 62
7
  6
CONTINUOUS
 10
5.5969963389
 20
6.3117254332
 40
0.02
100
AcDbArc
 50
254.4231142194
 51
1.2277191158
  0
ARC
  5
27C
100
AcDbEntity
  8
0
100
AcDbCircle
 62
7
  6
CONTINUOUS
 10
5.1414994157
 20
6.1457139074
 40
0.02
100
AcDbArc
 50
176.8398712713
 51
318.1038554693
  0
ARC
  5
27D
100
AcDbEntity
  8
0
100
AcDbCircle
 62
7
  6
CONTINUOUS
 10
5.8364775697
 20
6.0570766616
 40
0.02
100
AcDbArc
 50
87.7938785023
 51
187.1198157563
  0
ARC
  5
27E
100
AcDbEntity
  8
0
100
AcDbCircle
 62
7
  6
CONTINUOUS
 10
6.8411314891
 20
5.067590283
 40
0.02
100
AcDbArc
 50
88.7722808842
 51
195.5768857806
  0
SPLINE
  5
27F
100
AcDbEntity
  8
0
100
AcDbSpline
 62
7
  6
CONTINUOUS
 70
0
 71
3
 72
44
 73
40
 74
0
 42
0.0000001
 43
0.0000001
 44
0.0000000001
 40
0.0
 40
0.0
 40
0.0
 40
0.0
 40
0.061920102
 40
0.0928819303
 40
0.1238543224
 40
0.154906584
 40
0.1861468979
 40
0.2175026254
 40
0.248827708
 40
0.2800467175
 40
0.2956228518
 40
0.3111869096
 40
0.3267581796
 40
0.3423592923
 40
0.3579956811
 40
0.3736641552
 40
0.4050586447
 40
0.4364884638
 40
0.4678757413
 40
0.4835386122
 40
0.4991719665
 40
0.530390968
 40
0.5616378343
 40
0.5929531952
 40
0.6243342983
 40
0.6557473377
 40
0.6871424402
 40
0.7184796972
 40
0.7497465536
 40
0.7809700093
 40
0.7965942475
 40
0.812241974
 40
0.843614768
 40
0.8750545313
 40
0.9064758786
 40
0.9377951992
 40
0.9534036628
 40
0.9689683528
 40
1.0
 40
1.0
 40
1.0
 40
1.0
 10
4.2501149111
 20
4.9301787673
 30
0.0
 10
4.2571039142
 20
4.9171945007
 30
0.0
 10
4.2677121658
 20
4.8977759042
 30
0.0
 10
4.2830635216
 20
4.8725825664
 30
0.0
 10
4.2954177356
 20
4.8541940391
 30
0.0
 10
4.3088413603
 20
4.8364805224
 30
0.0
 10
4.3235263729
 20
4.8196695534
 30
0.0
 10
4.3395110609
 20
4.8039899344
 30
0.0
 10
4.3567678035
 20
4.7897236097
 30
0.0
 10
4.372193647
 20
4.7792625364
 30
0.0
 10
4.3851132899
 20
4.7719273512
 30
0.0
 10
4.3950842364
 20
4.7669814837
 30
0.0
 10
4.4053346969
 20
4.7626278304
 30
0.0
 10
4.415850648
 20
4.7589091852
 30
0.0
 10
4.4265939091
 20
4.7558251523
 30
0.0
 10
4.4411706533
 20
4.7525580423
 30
0.0
 10
4.4597419209
 20
4.7500665948
 30
0.0
 10
4.4822190384
 20
4.7496269897
 30
0.0
 10
4.5008702643
 20
4.7513925565
 30
0.0
 10
4.5155592713
 20
4.7540924997
 30
0.0
 10
4.5300234008
 20
4.7576497704
 30
0.0
 10
4.5476705816
 20
4.7636586627
 30
0.0
 10
4.5679287236
 20
4.7731587303
 30
0.0
 10
4.5871099894
 20
4.7847501266
 30
0.0
 10
4.6050535525
 20
4.7982389462
 30
0.0
 10
4.6216042325
 20
4.8134304824
 30
0.0
 10
4.6365944087
 20
4.8301507155
 30
0.0
 10
4.6498214664
 20
4.8482582551
 30
0.0
 10
4.6610842235
 20
4.867603397
 30
0.0
 10
4.6686629606
 20
4.8846379804
 30
0.0
 10
4.6735308217
 20
4.8987099444
 30
0.0
 10
4.6775742602
 20
4.9130777948
 30
0.0
 10
4.6810308952
 20
4.9314866128
 30
0.0
 10
4.6826322837
 20
4.9539177375
 30
0.0
 10
4.6816862019
 20
4.9763736637
 30
0.0
 10
4.6787614627
 20
4.9948478054
 30
0.0
 10
4.6751334674
 20
5.0092892914
 30
0.0
 10
4.6706514591
 20
5.0234162408
 30
0.0
 10
4.6663294794
 20
5.0336721344
 30
0.0
 10
4.6630922036
 20
5.0403152578
 30
0.0
  0
SPLINE
  5
280
100
AcDbEntity
  8
0
100
AcDbSpline
 62
7
  6
CONTINUOUS
 70
0
 71
3
 72
28
 73
24
 74
0
 42
0.0000001
 43
0.0000001
 44
0.0000000001
 40
0.0
 40
0.0
 40
0.0
 40
0.0
 40
0.0627540483
 40
0.0942633484
 40
0.1257836484
 40
0.1572587934
 40
0.1729634003
 40
0.1886364387
 40
0.21991019
 40
0.2511485767
 40
0.3136547535
 40
0.3762871239
 40
0.4076069922
 40
0.438869288
 40
0.4700663102
 40
0.5012248185
 40
0.5635050005
 40
0.6258433334
 40
0.6882913896
 40
0.7508370237
 40
0.8134132879
 40
0.8759069711
 40
1.0
 40
1.0
 40
1.0
 40
1.0
 10
3.4869955487
 20
6.4082769767
 30
0.0
 10
3.4719085346
 20
6.3907761299
 30
0.0
 10
3.4472703111
 20
6.3661123518
 30
0.0
 10
3.4113217047
 20
6.3368765276
 30
0.0
 10
3.3828801753
 20
6.3167796064
 30
0.0
 10
3.3581267395
 20
6.3016700328
 30
0.0
 10
3.3377876017
 20
6.2906211215
 30
0.0
 10
3.3171526445
 20
6.2802999933
 30
0.0
 10
3.2907786397
 20
6.2687052033
 30
0.0
 10
3.247549028
 20
6.2528195734
 30
0.0
 10
3.1918669435
 20
6.2376886331
 30
0.0
 10
3.134971853
 20
6.2281483532
 30
0.0
 10
3.0891029893
 20
6.2234021303
 30
0.0
 10
3.0546368232
 20
6.2211719957
 30
0.0
 10
3.0201729848
 20
6.2201945438
 30
0.0
 10
2.9742749816
 20
6.2204942298
 30
0.0
 10
2.9169662642
 20
6.2237314222
 30
0.0
 10
2.8485193216
 20
6.2317413185
 30
0.0
 10
2.7805084956
 20
6.2434160082
 30
0.0
 10
2.7130448211
 20
6.2582991323
 30
0.0
 10
2.6462361211
 20
6.2759362364
 30
0.0
 10
2.55839516
 20
6.3024549816
 30
0.0
 10
2.4935285873
 20
6.3251975661
 30
0.0
 10
2.4507030531
 20
6.3411248785
 30
0.0
  0
SPLINE
  5
281
100
AcDbEntity
  8
0
100
AcDbSpline
 62
7
  6
CONTINUOUS
 70
0
 71
3
 72
49
 73
45
 74
0
 42
0.0000001
 43
0.0000001
 44
0.0000000001
 40
0.0
 40
0.0
 40
0.0
 40
0.0
 40
0.0312371898
 40
0.0624905299
 40
0.0781207132
 40
0.0937492005
 40
0.1093752332
 40
0.1249988427
 40
0.1562376674
 40
0.1874744955
 40
0.2030914961
 40
0.2187099407
 40
0.2499515657
 40
0.2655707613
 40
0.2811835146
 40
0.3124048884
 40
0.3280215827
 40
0.343643741
 40
0.3514570178
 40
0.3592714959
 40
0.3749015591
 40
0.3905299112
 40
0.40615387
 40
0.4217724735
 40
0.437386634
 40
0.4529992918
 40
0.46861513
 40
0.4842371044
 40
0.499866172
 40
0.5311418357
 40
0.5624334
 40
0.5937157363
 40
0.6249722592
 40
0.6562230797
 40
0.6874829223
 40
0.7187550248
 40
0.7500322506
 40
0.7656683621
 40
0.7813000878
 40
0.8125538178
 40
0.8438020698
 40
0.8750494469
 40
0.9375397427
 40
1.0
 40
1.0
 40
1.0
 40
1.0
 10
2.4512098072
 20
5.9729044389
 30
0.0
 10
2.4731854076
 20
5.9817642928
 30
0.0
 10
2.5178511803
 20
5.9977951872
 30
0.0
 10
2.575067857
 20
6.0134493806
 30
0.0
 10
2.621470571
 20
6.0232569114
 30
0.0
 10
2.6565382952
 20
6.0292319358
 30
0.0
 10
2.6918117643
 20
6.0338026687
 30
0.0
 10
2.7390372372
 20
6.037989406
 30
0.0
 10
2.7983225373
 20
6.039618574
 30
0.0
 10
2.8575438857
 20
6.0366761803
 30
0.0
 10
2.9046797189
 20
6.0317211123
 30
0.0
 10
2.9516230258
 20
6.0251682569
 30
0.0
 10
2.9982306068
 20
6.0164077123
 30
0.0
 10
3.0444259141
 20
6.0058283959
 30
0.0
 10
3.0903389394
 20
5.9941423727
 30
0.0
 10
3.1358336654
 20
5.9808795932
 30
0.0
 10
3.1808945127
 20
5.9662378059
 30
0.0
 10
3.2088891552
 20
5.9565477814
 30
0.0
 10
3.2311841787
 20
5.9484964514
 30
0.0
 10
3.2534148683
 20
5.9402518033
 30
0.0
 10
3.2810629964
 20
5.9295698257
 30
0.0
 10
3.3139779539
 20
5.9161006232
 30
0.0
 10
3.346588979
 20
5.9019319626
 30
0.0
 10
3.3788536884
 20
5.8870159655
 30
0.0
 10
3.4107293852
 20
5.8713041087
 30
0.0
 10
3.4421743635
 20
5.8547500776
 30
0.0
 10
3.4731389714
 20
5.8373015023
 30
0.0
 10
3.5036116063
 20
5.8189833555
 30
0.0
 10
3.5435853386
 20
5.7934487458
 30
0.0
 10
3.5922904484
 20
5.7595458041
 30
0.0
 10
3.6486416843
 20
5.7160019261
 30
0.0
 10
3.7028728709
 20
5.6698696955
 30
0.0
 10
3.7549805577
 20
5.6214021069
 30
0.0
 10
3.8050407154
 20
5.5708510232
 30
0.0
 10
3.8531608747
 20
5.5184376755
 30
0.0
 10
3.8994527811
 20
5.4643802213
 30
0.0
 10
3.9366020231
 20
5.418138898
 30
0.0
 10
3.9655258858
 20
5.3805316875
 30
0.0
 10
3.9939326858
 20
5.3425545525
 30
0.0
 10
4.0285029539
 20
5.2944061367
 30
0.0
 10
4.0685615241
 20
5.2356428031
 30
0.0
 10
4.1201730759
 20
5.1561086231
 30
0.0
 10
4.181513316
 20
5.0547041818
 30
0.0
 10
4.2276592691
 20
4.9718971696
 30
0.0
 10
4.2501149111
 20
4.9301787673
 30
0.0
  0
SPLINE
  5
282
100
AcDbEntity
  8
0
100
AcDbSpline
 62
7
  6
CONTINUOUS
 70
0
 71
3
 72
65
 73
61
 74
0
 42
0.0000001
 43
0.0000001
 44
0.0000000001
 40
0.0
 40
0.0
 40
0.0
 40
0.0
 40
0.0200893647
 40
0.0383920371
 40
0.070386457
 40
0.0844747525
 40
0.0974998772
 40
0.1096031765
 40
0.1209177958
 40
0.1315705909
 40
0.1416774122
 40
0.1513395441
 40
0.1606407712
 40
0.1783777409
 40
0.1869235724
 40
0.195316603
 40
0.211800448
 40
0.2280819118
 40
0.2442420465
 40
0.2603420918
 40
0.2764782168
 40
0.292673631
 40
0.3250718641
 40
0.3572189505
 40
0.3885203419
 40
0.4036766326
 40
0.4184155546
 40
0.4326815377
 40
0.4464485853
 40
0.4724687405
 40
0.4847879871
 40
0.4967137735
 40
0.5083277566
 40
0.5197373844
 40
0.531044544
 40
0.542327623
 40
0.5536647285
 40
0.5651309759
 40
0.5767623673
 40
0.5885673049
 40
0.6005513186
 40
0.6127205556
 40
0.6250773528
 40
0.6376183948
 40
0.6632066582
 40
0.6762831476
 40
0.6895503206
 40
0.7030311358
 40
0.7167682894
 40
0.7308074768
 40
0.7451753832
 40
0.7749023401
 40
0.7902600628
 40
0.805911203
 40
0.8379557317
 40
0.8707398372
 40
0.903820076
 40
0.9366532924
 40
0.9687560827
 40
1.0
 40
1.0
 40
1.0
 40
1.0
 10
3.4009948392
 20
5.3078414052
 30
0.0
 10
3.4011712557
 20
5.3124209019
 30
0.0
 10
3.4012169966
 20
5.3211895979
 30
0.0
 10
3.400081796
 20
5.3372145235
 30
0.0
 10
3.397313793
 20
5.3517308105
 30
0.0
 10
3.3929155814
 20
5.3644957367
 30
0.0
 10
3.3892112275
 20
5.3726541132
 30
0.0
 10
3.3850640176
 20
5.3798744428
 30
0.0
 10
3.3805289212
 20
5.38620341
 30
0.0
 10
3.3756611914
 20
5.3916845843
 30
0.0
 10
3.3705173831
 20
5.3963628083
 30
0.0
 10
3.3651530232
 20
5.4002840787
 30
0.0
 10
3.3579038481
 20
5.4044962022
 30
0.0
 10
3.3502974872
 20
5.4075012852
 30
0.0
 10
3.3425956284
 20
5.409342267
 30
0.0
 10
3.3350401244
 20
5.4104349036
 30
0.0
 10
3.325603541
 20
5.4105530934
 30
0.0
 10
3.3145217382
 20
5.4089256932
 30
0.0
 10
3.3038627891
 20
5.4058093993
 30
0.0
 10
3.2937030042
 20
5.4014272208
 30
0.0
 10
3.2840675249
 20
5.3959842369
 30
0.0
 10
3.2719095379
 20
5.387574961
 30
0.0
 10
3.2580113876
 20
5.3754016378
 30
0.0
 10
3.2430693534
 20
5.3594166895
 30
0.0
 10
3.2315119294
 20
5.3457033471
 30
0.0
 10
3.222577595
 20
5.3349764103
 30
0.0
 10
3.2160658317
 20
5.3272893075
 30
0.0
 10
3.2096010085
 20
5.3199783928
 30
0.0
 10
3.2011370294
 20
5.3110119295
 30
0.0
 10
3.1923992452
 20
5.3029014963
 30
0.0
 10
3.1831597783
 20
5.2960904983
 30
0.0
 10
3.1761799434
 20
5.2918033869
 30
0.0
 10
3.1690079413
 20
5.2882898182
 30
0.0
 10
3.1616342036
 20
5.2856044078
 30
0.0
 10
3.1540800606
 20
5.2837750508
 30
0.0
 10
3.1463853536
 20
5.2828030745
 30
0.0
 10
3.1385937817
 20
5.2826979798
 30
0.0
 10
3.1307602265
 20
5.2834676118
 30
0.0
 10
3.1229516648
 20
5.2850991716
 30
0.0
 10
3.1152453288
 20
5.2875767847
 30
0.0
 10
3.1077234628
 20
5.2908860324
 30
0.0
 10
3.1004722292
 20
5.2950121353
 30
0.0
 10
3.0935632159
 20
5.2999122786
 30
0.0
 10
3.0848478423
 20
5.3074621379
 30
0.0
 10
3.077156034
 20
5.3163670603
 30
0.0
 10
3.0707624034
 20
5.3263568645
 30
0.0
 10
3.0666237894
 20
5.3344620428
 30
0.0
 10
3.0632596735
 20
5.3430797293
 30
0.0
 10
3.060715391
 20
5.3521557869
 30
0.0
 10
3.0589620019
 20
5.3616212205
 30
0.0
 10
3.0576383511
 20
5.3748289962
 30
0.0
 10
3.0578595762
 20
5.3884453363
 30
0.0
 10
3.0594466817
 20
5.4022154397
 30
0.0
 10
3.0619870237
 20
5.4163827768
 30
0.0
 10
3.0668589459
 20
5.4341267294
 30
0.0
 10
3.0749006514
 20
5.4549960385
 30
0.0
 10
3.0847600059
 20
5.4752646647
 30
0.0
 10
3.096029228
 20
5.4945993436
 30
0.0
 10
3.1083883462
 20
5.5127496626
 30
0.0
 10
3.1173992722
 20
5.5240690397
 30
0.0
 10
3.1220588938
 20
5.529462518
 30
0.0
  0
SPLINE
  5
283
100
AcDbEntity
  8
0
100
AcDbSpline
 62
7
  6
CONTINUOUS
 70
0
 71
3
 72
55
 73
51
 74
0
 42
0.0000001
 43
0.0000001
 44
0.0000000001
 40
0.0
 40
0.0
 40
0.0
 40
0.0
 40
0.0163776732
 40
0.0326803514
 40
0.0489475339
 40
0.0652094862
 40
0.081484501
 40
0.0977781256
 40
0.1140932187
 40
0.130430958
 40
0.1467853929
 40
0.1631451658
 40
0.1958396842
 40
0.2284517232
 40
0.2609474634
 40
0.2933076399
 40
0.3255308646
 40
0.3576597544
 40
0.3737188645
 40
0.3897857082
 40
0.4219493463
 40
0.4541890472
 40
0.4865489246
 40
0.519058174
 40
0.5516391342
 40
0.5841832045
 40
0.6165837655
 40
0.6486773393
 40
0.6802049752
 40
0.6956904966
 40
0.7109584194
 40
0.7259944322
 40
0.7407893616
 40
0.755335326
 40
0.7696331064
 40
0.7975263402
 40
0.8112153236
 40
0.8248002315
 40
0.8383602897
 40
0.8519754373
 40
0.8657169467
 40
0.8796558402
 40
0.8938580535
 40
0.9083516963
 40
0.9231397127
 40
0.9382153261
 40
0.9535460578
 40
0.9690331755
 40
0.9845584033
 40
1.0
 40
1.0
 40
1.0
 40
1.0
 10
3.910008779
 20
4.6285923506
 30
0.0
 10
3.9044905059
 20
4.6278288279
 30
0.0
 10
3.8934465471
 20
4.6265344009
 30
0.0
 10
3.8768486345
 20
4.6251909729
 30
0.0
 10
3.8602581587
 20
4.6243443842
 30
0.0
 10
3.8436628634
 20
4.6238821961
 30
0.0
 10
3.8270533178
 20
4.623712591
 30
0.0
 10
3.8104252228
 20
4.6238081118
 30
0.0
 10
3.793778918
 20
4.6241346266
 30
0.0
 10
3.7771168738
 20
4.6246518892
 30
0.0
 10
3.7604464453
 20
4.6253594259
 30
0.0
 10
3.7382322257
 20
4.6266070221
 30
0.0
 10
3.7105351368
 20
4.6288103828
 30
0.0
 10
3.6774905081
 20
4.6327406567
 30
0.0
 10
3.6447771167
 20
4.6382141075
 30
0.0
 10
3.6125401367
 20
4.645457101
 30
0.0
 10
3.5809357665
 20
4.6546701662
 30
0.0
 10
3.5552546454
 20
4.6641637815
 30
0.0
 10
3.5352302587
 20
4.6729358505
 30
0.0
 10
3.5155640807
 20
4.6825102998
 30
0.0
 10
3.4916943031
 20
4.6959727997
 30
0.0
 10
3.4644141376
 20
4.7144531647
 30
0.0
 10
3.4386747524
 20
4.7352179696
 30
0.0
 10
3.4147054411
 20
4.7581706662
 30
0.0
 10
3.3926816538
 20
4.7830780974
 30
0.0
 10
3.3728151409
 20
4.8096923662
 30
0.0
 10
3.3553358442
 20
4.8377389171
 30
0.0
 10
3.3404990849
 20
4.8668826088
 30
0.0
 10
3.3305332517
 20
4.8919272737
 30
0.0
 10
3.3242276891
 20
4.9121607651
 30
0.0
 10
3.3203993994
 20
4.9272666589
 30
0.0
 10
3.3174878338
 20
4.9423373234
 30
0.0
 10
3.315536443
 20
4.9573152215
 30
0.0
 10
3.3145874176
 20
4.9721413486
 30
0.0
 10
3.3147130215
 20
4.9914502379
 30
0.0
 10
3.3169924029
 20
5.010423404
 30
0.0
 10
3.3216817134
 20
5.0286156817
 30
0.0
 10
3.3263995713
 20
5.0417034588
 30
0.0
 10
3.33238712
 20
5.0542344831
 30
0.0
 10
3.3396413034
 20
5.0661400985
 30
0.0
 10
3.3481302863
 20
5.0773606003
 30
0.0
 10
3.3578257603
 20
5.0878305074
 30
0.0
 10
3.3686878954
 20
5.0974724505
 30
0.0
 10
3.3806253078
 20
5.1062394281
 30
0.0
 10
3.3935366469
 20
5.1140818452
 30
0.0
 10
3.4073141908
 20
5.1209404187
 30
0.0
 10
3.4218192713
 20
5.126753447
 30
0.0
 10
3.4368684986
 20
5.1314942957
 30
0.0
 10
3.4522618914
 20
5.1351206573
 30
0.0
 10
3.4626762691
 20
5.1367749076
 30
0.0
 10
3.4678912537
 20
5.1374010465
 30
0.0
  0
SPLINE
  5
284
100
AcDbEntity
  8
0
100
AcDbSpline
 62
7
  6
CONTINUOUS
 70
0
 71
3
 72
44
 73
40
 74
0
 42
0.0000001
 43
0.0000001
 44
0.0000000001
 40
0.0
 40
0.0
 40
0.0
 40
0.0
 40
0.0311849402
 40
0.0625462587
 40
0.0782645391
 40
0.0939781808
 40
0.1096678224
 40
0.1253245797
 40
0.1409637179
 40
0.1565984898
 40
0.1878660802
 40
0.219132576
 40
0.2503604362
 40
0.2815802304
 40
0.3128082869
 40
0.3440343633
 40
0.3752518206
 40
0.4064681277
 40
0.4376896259
 40
0.468923262
 40
0.5001638813
 40
0.5314016819
 40
0.5626352929
 40
0.5782577662
 40
0.593884215
 40
0.6251432474
 40
0.6564120518
 40
0.6720471894
 40
0.687675899
 40
0.7032944349
 40
0.7189036712
 40
0.7501165445
 40
0.7813581592
 40
0.8126314978
 40
0.8439095548
 40
0.8751520324
 40
0.9063731479
 40
0.9375942702
 40
1.0
 40
1.0
 40
1.0
 40
1.0
 10
2.9081134099
 20
5.7857881125
 30
0.0
 10
2.8904680541
 20
5.7801516904
 30
0.0
 10
2.8558265302
 20
5.7663692988
 30
0.0
 10
2.8151209046
 20
5.7436464562
 30
0.0
 10
2.7843924811
 20
5.7224684039
 30
0.0
 10
2.7623697247
 20
5.7051622724
 30
0.0
 10
2.7415024286
 20
5.6865348591
 30
0.0
 10
2.7218800184
 20
5.6666633638
 30
0.0
 10
2.7035166901
 20
5.6456673231
 30
0.0
 10
2.6807171467
 20
5.6163153246
 30
0.0
 10
2.6553545729
 20
5.5773038482
 30
0.0
 10
2.629958086
 20
5.5276356594
 30
0.0
 10
2.6095330409
 20
5.4757609222
 30
0.0
 10
2.5940539674
 20
5.4222333274
 30
0.0
 10
2.5834437368
 20
5.3675388816
 30
0.0
 10
2.5776192523
 20
5.3121353648
 30
0.0
 10
2.5765358696
 20
5.2564453919
 30
0.0
 10
2.5801769172
 20
5.2008671256
 30
0.0
 10
2.5885159349
 20
5.1457870576
 30
0.0
 10
2.6015334396
 20
5.0916060617
 30
0.0
 10
2.6191463037
 20
5.0387286621
 30
0.0
 10
2.6412553669
 20
4.9875687134
 30
0.0
 10
2.6633513359
 20
4.9467060871
 30
0.0
 10
2.6831727164
 20
4.915315098
 30
0.0
 10
2.7043858097
 20
4.8848289768
 30
0.0
 10
2.7333929847
 20
4.8485042273
 30
0.0
 10
2.7654099968
 20
4.8147990291
 30
0.0
 10
2.792653245
 20
4.7895370138
 30
0.0
 10
2.8138583324
 20
4.771472538
 30
0.0
 10
2.8357929603
 20
4.7543263456
 30
0.0
 10
2.8659498121
 20
4.7327195308
 30
0.0
 10
2.9052521957
 20
4.7080155823
 30
0.0
 10
2.9545355727
 20
4.6820137508
 30
0.0
 10
3.0055670487
 20
4.659550771
 30
0.0
 10
3.0579730953
 20
4.6405277036
 30
0.0
 10
3.111434895
 20
4.6248397553
 30
0.0
 10
3.165688479
 20
4.6123205095
 30
0.0
 10
3.2387728481
 20
4.5995868643
 30
0.0
 10
3.294227889
 20
4.5941672481
 30
0.0
 10
3.3312402358
 20
4.5921237724
 30
0.0
  0
SPLINE
  5
285
100
AcDbEntity
  8
0
100
AcDbSpline
 62
7
  6
CONTINUOUS
 70
0
 71
3
 72
21
 73
17
 74
0
 42
0.0000001
 43
0.0000001
 44
0.0000000001
 40
0.0
 40
0.0
 40
0.0
 40
0.0
 40
0.1263345727
 40
0.189644506
 40
0.2528466442
 40
0.378507877
 40
0.4409526094
 40
0.5031620622
 40
0.5652435916
 40
0.6273314525
 40
0.6894365445
 40
0.7515431252
 40
0.8136568633
 40
0.8758020884
 40
0.9379427772
 40
1.0
 40
1.0
 40
1.0
 40
1.0
 10
3.345698419
 20
4.6269804895
 30
0.0
 10
3.3303453881
 20
4.6407541115
 30
0.0
 10
3.3081594689
 20
4.6624306657
 30
0.0
 10
3.2807728503
 20
4.6933385715
 30
0.0
 10
3.2550851321
 20
4.7255293221
 30
0.0
 10
3.232173755
 20
4.7597078154
 30
0.0
 10
3.2127985375
 20
4.7957199986
 30
0.0
 10
3.2002444851
 20
4.8235324693
 30
0.0
 10
3.1898231465
 20
4.8521537025
 30
0.0
 10
3.1817217533
 20
4.8815008723
 30
0.0
 10
3.1759990519
 20
4.9114072805
 30
0.0
 10
3.1727274958
 20
4.9416855048
 30
0.0
 10
3.1719786955
 20
4.972139272
 30
0.0
 10
3.1738352285
 20
5.0025526124
 30
0.0
 10
3.1782545987
 20
5.0326875576
 30
0.0
 10
3.1828759794
 20
5.0524600644
 30
0.0
 10
3.1855966633
 20
5.0622196582
 30
0.0
  0
SPLINE
  5
286
100
AcDbEntity
  8
0
100
AcDbSpline
 62
7
  6
CONTINUOUS
 70
0
 71
3
 72
45
 73
41
 74
0
 42
0.0000001
 43
0.0000001
 44
0.0000000001
 40
0.0
 40
0.0
 40
0.0
 40
0.0
 40
0.031340085
 40
0.062714443
 40
0.093966913
 40
0.1250388496
 40
0.1559948645
 40
0.1869756023
 40
0.202471793
 40
0.2179570364
 40
0.2334354563
 40
0.2489175455
 40
0.2644069827
 40
0.2798995422
 40
0.2953848804
 40
0.3108565172
 40
0.3418292947
 40
0.3729390196
 40
0.3885416869
 40
0.4041526374
 40
0.4197481706
 40
0.4352994244
 40
0.46625031
 40
0.4971204329
 40
0.5280324309
 40
0.5590847782
 40
0.590335538
 40
0.6217323257
 40
0.6531974779
 40
0.6846695866
 40
0.747453599
 40
0.7787958309
 40
0.8101370137
 40
0.8415545326
 40
0.8573305208
 40
0.8731608959
 40
0.9049215368
 40
0.9367222927
 40
0.9684470165
 40
1.0
 40
1.0
 40
1.0
 40
1.0
 10
3.1659027217
 20
5.0875856917
 30
0.0
 10
3.1561959905
 20
5.0873776665
 30
0.0
 10
3.1367531421
 20
5.0875269691
 30
0.0
 10
3.1077015276
 20
5.0897482667
 30
0.0
 10
3.0789955315
 20
5.0942983882
 30
0.0
 10
3.0509613414
 20
5.1015152011
 30
0.0
 10
3.0239532239
 20
5.1117381082
 30
0.0
 10
3.0026840837
 20
5.1229905099
 30
0.0
 10
2.9866846927
 20
5.1336188575
 30
0.0
 10
2.9752660232
 20
5.1424014122
 30
0.0
 10
2.9645192159
 20
5.1519887315
 30
0.0
 10
2.9545151316
 20
5.1623501531
 30
0.0
 10
2.945273052
 20
5.1734009212
 30
0.0
 10
2.9368191731
 20
5.1850661554
 30
0.0
 10
2.929176047
 20
5.1972714573
 30
0.0
 10
2.9200908468
 20
5.2141829813
 30
0.0
 10
2.9107321504
 20
5.2363766706
 30
0.0
 10
2.9038368946
 20
5.2594777598
 30
0.0
 10
2.8996278653
 20
5.278325933
 30
0.0
 10
2.8970869002
 20
5.2926073831
 30
0.0
 10
2.8951292684
 20
5.3069634902
 30
0.0
 10
2.8932462123
 20
5.3261121635
 30
0.0
 10
2.8921796949
 20
5.3500794254
 30
0.0
 10
2.892871571
 20
5.3788197807
 30
0.0
 10
2.895415656
 20
5.407485538
 30
0.0
 10
2.8996974892
 20
5.4360596041
 30
0.0
 10
2.9055790946
 20
5.4645002011
 30
0.0
 10
2.9130876778
 20
5.4926885247
 30
0.0
 10
2.9222704927
 20
5.5204531947
 30
0.0
 10
2.936776874
 20
5.5566167627
 30
0.0
 10
2.954814136
 20
5.5912650336
 30
0.0
 10
2.9765084512
 20
5.6235549821
 30
0.0
 10
2.9946492098
 20
5.6464166316
 30
0.0
 10
3.0113416958
 20
5.66416174
 30
0.0
 10
3.0256385384
 20
5.6774670352
 30
0.0
 10
3.0406006698
 20
5.6901840298
 30
0.0
 10
3.0603906413
 20
5.7048468607
 30
0.0
 10
3.0856094026
 20
5.7202644224
 30
0.0
 10
3.112062401
 20
5.7333085457
 30
0.0
 10
3.1304147213
 20
5.7403008872
 30
0.0
 10
3.1397108148
 20
5.7433227416
 30
0.0
  0
SPLINE
  5
287
100
AcDbEntity
  8
0
100
AcDbSpline
 62
7
  6
CONTINUOUS
 70
0
 71
3
 72
15
 73
11
 74
0
 42
0.0000001
 43
0.0000001
 44
0.0000000001
 40
0.0
 40
0.0
 40
0.0
 40
0.0
 40
0.1253832763
 40
0.2506201982
 40
0.3756695648
 40
0.4381479362
 40
0.500613126
 40
0.6255432033
 40
0.7504967101
 40
1.0
 40
1.0
 40
1.0
 40
1.0
 10
3.1385613994
 20
5.7816992939
 30
0.0
 10
3.1291449721
 20
5.7841479721
 30
0.0
 10
3.1101970072
 20
5.7885746791
 30
0.0
 10
3.0814777463
 20
5.793659854
 30
0.0
 10
3.05735439
 20
5.7964757888
 30
0.0
 10
3.0379972465
 20
5.7977986982
 30
0.0
 10
3.0186159753
 20
5.7984738644
 30
0.0
 10
2.9943608567
 20
5.7980894609
 30
0.0
 10
2.9557136348
 20
5.7950148795
 30
0.0
 10
2.9269894081
 20
5.7900952842
 30
0.0
 10
2.9081134099
 20
5.7857881125
 30
0.0
  0
SPLINE
  5
288
100
AcDbEntity
  8
0
100
AcDbSpline
 62
7
  6
CONTINUOUS
 70
0
 71
3
 72
21
 73
17
 74
0
 42
0.0000001
 43
0.0000001
 44
0.0000000001
 40
0.0
 40
0.0
 40
0.0
 40
0.0
 40
0.1263345727
 40
0.189644506
 40
0.2528466442
 40
0.378507877
 40
0.4409526094
 40
0.5031620622
 40
0.5652435916
 40
0.6273314525
 40
0.6894365445
 40
0.7515431252
 40
0.8136568633
 40
0.8758020884
 40
0.9379427772
 40
1.0
 40
1.0
 40
1.0
 40
1.0
 10
4.8510761875
 20
6.132358258
 30
0.0
 10
4.8373025655
 20
6.1477112889
 30
0.0
 10
4.8156260113
 20
6.1698972081
 30
0.0
 10
4.7847181056
 20
6.1972838268
 30
0.0
 10
4.7525273549
 20
6.2229715449
 30
0.0
 10
4.7183488616
 20
6.245882922
 30
0.0
 10
4.6823366785
 20
6.2652581395
 30
0.0
 10
4.6545242077
 20
6.2778121919
 30
0.0
 10
4.6259029746
 20
6.2882335305
 30
0.0
 10
4.5965558047
 20
6.2963349237
 30
0.0
 10
4.5666493965
 20
6.3020576252
 30
0.0
 10
4.5363711722
 20
6.3053291812
 30
0.0
 10
4.505917405
 20
6.3060779816
 30
0.0
 10
4.4755040646
 20
6.3042214486
 30
0.0
 10
4.4453691194
 20
6.2998020783
 30
0.0
 10
4.4255966126
 20
6.2951806976
 30
0.0
 10
4.4158370188
 20
6.2924600137
 30
0.0
  0
SPLINE
  5
289
100
AcDbEntity
  8
0
100
AcDbSpline
 62
7
  6
CONTINUOUS
 70
0
 71
3
 72
44
 73
40
 74
0
 42
0.0000001
 43
0.0000001
 44
0.0000000001
 40
0.0
 40
0.0
 40
0.0
 40
0.0
 40
0.0311849402
 40
0.0625462587
 40
0.0782645391
 40
0.0939781808
 40
0.1096678224
 40
0.1253245797
 40
0.1409637179
 40
0.1565984898
 40
0.1878660802
 40
0.219132576
 40
0.2503604362
 40
0.2815802304
 40
0.3128082869
 40
0.3440343633
 40
0.3752518206
 40
0.4064681277
 40
0.4376896259
 40
0.468923262
 40
0.5001638813
 40
0.5314016819
 40
0.5626352929
 40
0.5782577662
 40
0.593884215
 40
0.6251432474
 40
0.6564120518
 40
0.6720471894
 40
0.687675899
 40
0.7032944349
 40
0.7189036712
 40
0.7501165445
 40
0.7813581592
 40
0.8126314978
 40
0.8439095548
 40
0.8751520324
 40
0.9063731479
 40
0.9375942702
 40
1.0
 40
1.0
 40
1.0
 40
1.0
 10
3.6922685646
 20
6.5699432671
 30
0.0
 10
3.6979049867
 20
6.587588623
 30
0.0
 10
3.7116873782
 20
6.6222301469
 30
0.0
 10
3.7344102208
 20
6.6629357724
 30
0.0
 10
3.7555882731
 20
6.6936641959
 30
0.0
 10
3.7728944047
 20
6.7156869523
 30
0.0
 10
3.791521818
 20
6.7365542484
 30
0.0
 10
3.8113933132
 20
6.7561766586
 30
0.0
 10
3.832389354
 20
6.774539987
 30
0.0
 10
3.8617413524
 20
6.7973395303
 30
0.0
 10
3.9007528288
 20
6.8227021041
 30
0.0
 10
3.9504210176
 20
6.848098591
 30
0.0
 10
4.0022957548
 20
6.8685236361
 30
0.0
 10
4.0558233496
 20
6.8840027096
 30
0.0
 10
4.1105177954
 20
6.8946129402
 30
0.0
 10
4.1659213122
 20
6.9004374247
 30
0.0
 10
4.2216112851
 20
6.9015208074
 30
0.0
 10
4.2771895514
 20
6.8978797598
 30
0.0
 10
4.3322696194
 20
6.8895407421
 30
0.0
 10
4.3864506153
 20
6.8765232374
 30
0.0
 10
4.4393280149
 20
6.8589103733
 30
0.0
 10
4.4904879636
 20
6.8368013101
 30
0.0
 10
4.5313505899
 20
6.8147053412
 30
0.0
 10
4.5627415791
 20
6.7948839606
 30
0.0
 10
4.5932277002
 20
6.7736708673
 30
0.0
 10
4.6295524497
 20
6.7446636923
 30
0.0
 10
4.6632576479
 20
6.7126466803
 30
0.0
 10
4.6885196632
 20
6.685403432
 30
0.0
 10
4.706584139
 20
6.6641983446
 30
0.0
 10
4.7237303314
 20
6.6422637167
 30
0.0
 10
4.7453371462
 20
6.6121068649
 30
0.0
 10
4.7700410947
 20
6.5728044813
 30
0.0
 10
4.7960429262
 20
6.5235211044
 30
0.0
 10
4.818505906
 20
6.4724896283
 30
0.0
 10
4.8375289734
 20
6.4200835818
 30
0.0
 10
4.8532169217
 20
6.366621782
 30
0.0
 10
4.8657361675
 20
6.312368198
 30
0.0
 10
4.8784698127
 20
6.239283829
 30
0.0
 10
4.883889429
 20
6.183828788
 30
0.0
 10
4.8859329046
 20
6.1468164412
 30
0.0
  0
SPLINE
  5
28A
100
AcDbEntity
  8
0
100
AcDbSpline
 62
7
  6
CONTINUOUS
 70
0
 71
3
 72
15
 73
11
 74
0
 42
0.0000001
 43
0.0000001
 44
0.0000000001
 40
0.0
 40
0.0
 40
0.0
 40
0.0
 40
0.1253832763
 40
0.2506201982
 40
0.3756695648
 40
0.4381479362
 40
0.500613126
 40
0.6255432033
 40
0.7504967101
 40
1.0
 40
1.0
 40
1.0
 40
1.0
 10
3.6963573831
 20
6.3394952776
 30
0.0
 10
3.6939087049
 20
6.3489117049
 30
0.0
 10
3.6894819979
 20
6.3678596698
 30
0.0
 10
3.684396823
 20
6.3965789307
 30
0.0
 10
3.6815808882
 20
6.420702287
 30
0.0
 10
3.6802579788
 20
6.4400594305
 30
0.0
 10
3.6795828127
 20
6.4594407017
 30
0.0
 10
3.6799672161
 20
6.4836958203
 30
0.0
 10
3.6830417975
 20
6.5223430422
 30
0.0
 10
3.6879613928
 20
6.5510672689
 30
0.0
 10
3.6922685646
 20
6.5699432671
 30
0.0
  0
SPLINE
  5
28B
100
AcDbEntity
  8
0
100
AcDbSpline
 62
7
  6
CONTINUOUS
 70
0
 71
3
 72
45
 73
41
 74
0
 42
0.0000001
 43
0.0000001
 44
0.0000000001
 40
0.0
 40
0.0
 40
0.0
 40
0.0
 40
0.031340085
 40
0.062714443
 40
0.093966913
 40
0.1250388496
 40
0.1559948645
 40
0.1869756023
 40
0.202471793
 40
0.2179570364
 40
0.2334354563
 40
0.2489175455
 40
0.2644069827
 40
0.2798995422
 40
0.2953848804
 40
0.3108565172
 40
0.3418292947
 40
0.3729390196
 40
0.3885416869
 40
0.4041526374
 40
0.4197481706
 40
0.4352994244
 40
0.46625031
 40
0.4971204329
 40
0.5280324309
 40
0.5590847782
 40
0.590335538
 40
0.6217323257
 40
0.6531974779
 40
0.6846695866
 40
0.747453599
 40
0.7787958309
 40
0.8101370137
 40
0.8415545326
 40
0.8573305208
 40
0.8731608959
 40
0.9049215368
 40
0.9367222927
 40
0.9684470165
 40
1.0
 40
1.0
 40
1.0
 40
1.0
 10
4.3904709853
 20
6.3121539553
 30
0.0
 10
4.3906790105
 20
6.3218606865
 30
0.0
 10
4.3905297079
 20
6.3413035349
 30
0.0
 10
4.3883084103
 20
6.3703551494
 30
0.0
 10
4.3837582888
 20
6.3990611455
 30
0.0
 10
4.3765414759
 20
6.4270953356
 30
0.0
 10
4.3663185688
 20
6.4541034531
 30
0.0
 10
4.3550661671
 20
6.4753725934
 30
0.0
 10
4.3444378195
 20
6.4913719843
 30
0.0
 10
4.3356552648
 20
6.5027906538
 30
0.0
 10
4.3260679455
 20
6.5135374611
 30
0.0
 10
4.315706524
 20
6.5235415454
 30
0.0
 10
4.3046557558
 20
6.532783625
 30
0.0
 10
4.2929905216
 20
6.541237504
 30
0.0
 10
4.2807852197
 20
6.54888063
 30
0.0
 10
4.2638736957
 20
6.5579658302
 30
0.0
 10
4.2416800064
 20
6.5673245266
 30
0.0
 10
4.2185789172
 20
6.5742197825
 30
0.0
 10
4.199730744
 20
6.5784288117
 30
0.0
 10
4.185449294
 20
6.5809697768
 30
0.0
 10
4.1710931868
 20
6.5829274086
 30
0.0
 10
4.1519445136
 20
6.5848104647
 30
0.0
 10
4.1279772516
 20
6.5858769822
 30
0.0
 10
4.0992368963
 20
6.585185106
 30
0.0
 10
4.070571139
 20
6.582641021
 30
0.0
 10
4.0419970729
 20
6.5783591878
 30
0.0
 10
4.0135564759
 20
6.5724775824
 30
0.0
 10
3.9853681524
 20
6.5649689992
 30
0.0
 10
3.9576034824
 20
6.5557861843
 30
0.0
 10
3.9214399143
 20
6.541279803
 30
0.0
 10
3.8867916434
 20
6.5232425411
 30
0.0
 10
3.8545016949
 20
6.5015482259
 30
0.0
 10
3.8316400454
 20
6.4834074673
 30
0.0
 10
3.8138949371
 20
6.4667149813
 30
0.0
 10
3.8005896418
 20
6.4524181386
 30
0.0
 10
3.7878726472
 20
6.4374560073
 30
0.0
 10
3.7732098163
 20
6.4176660358
 30
0.0
 10
3.7577922546
 20
6.3924472744
 30
0.0
 10
3.7447481313
 20
6.365994276
 30
0.0
 10
3.7377557898
 20
6.3476419557
 30
0.0
 10
3.7347339354
 20
6.3383458622
 30
0.0
  0
SPLINE
  5
28C
100
AcDbEntity
  8
0
100
AcDbSpline
 62
7
  6
CONTINUOUS
 70
0
 71
3
 72
55
 73
51
 74
0
 42
0.0000001
 43
0.0000001
 44
0.0000000001
 40
0.0
 40
0.0
 40
0.0
 40
0.0
 40
0.0163776732
 40
0.0326803514
 40
0.0489475339
 40
0.0652094862
 40
0.081484501
 40
0.0977781256
 40
0.1140932187
 40
0.130430958
 40
0.1467853929
 40
0.1631451658
 40
0.1958396842
 40
0.2284517232
 40
0.2609474634
 40
0.2933076399
 40
0.3255308646
 40
0.3576597544
 40
0.3737188645
 40
0.3897857082
 40
0.4219493463
 40
0.4541890472
 40
0.4865489246
 40
0.519058174
 40
0.5516391342
 40
0.5841832045
 40
0.6165837655
 40
0.6486773393
 40
0.6802049752
 40
0.6956904966
 40
0.7109584194
 40
0.7259944322
 40
0.7407893616
 40
0.755335326
 40
0.7696331064
 40
0.7975263402
 40
0.8112153236
 40
0.8248002315
 40
0.8383602897
 40
0.8519754373
 40
0.8657169467
 40
0.8796558402
 40
0.8938580535
 40
0.9083516963
 40
0.9231397127
 40
0.9382153261
 40
0.9535460578
 40
0.9690331755
 40
0.9845584033
 40
1.0
 40
1.0
 40
1.0
 40
1.0
 10
4.8494643265
 20
5.568047898
 30
0.0
 10
4.8502278492
 20
5.5735661711
 30
0.0
 10
4.8515222761
 20
5.5846101299
 30
0.0
 10
4.8528657041
 20
5.6012080425
 30
0.0
 10
4.8537122928
 20
5.6177985183
 30
0.0
 10
4.8541744809
 20
5.6343938136
 30
0.0
 10
4.8543440861
 20
5.6510033592
 30
0.0
 10
4.8542485652
 20
5.6676314542
 30
0.0
 10
4.8539220505
 20
5.6842777591
 30
0.0
 10
4.8534047878
 20
5.7009398033
 30
0.0
 10
4.8526972511
 20
5.7176102317
 30
0.0
 10
4.8514496549
 20
5.7398244513
 30
0.0
 10
4.8492462942
 20
5.7675215402
 30
0.0
 10
4.8453160203
 20
5.8005661689
 30
0.0
 10
4.8398425695
 20
5.8332795603
 30
0.0
 10
4.832599576
 20
5.8655165403
 30
0.0
 10
4.8233865108
 20
5.8971209105
 30
0.0
 10
4.8138928955
 20
5.9228020316
 30
0.0
 10
4.8051208265
 20
5.9428264183
 30
0.0
 10
4.7955463773
 20
5.9624925963
 30
0.0
 10
4.7820838773
 20
5.9863623739
 30
0.0
 10
4.7636035123
 20
6.0136425395
 30
0.0
 10
4.7428387074
 20
6.0393819247
 30
0.0
 10
4.7198860108
 20
6.063351236
 30
0.0
 10
4.6949785796
 20
6.0853750233
 30
0.0
 10
4.6683643109
 20
6.1052415361
 30
0.0
 10
4.6403177599
 20
6.1227208328
 30
0.0
 10
4.6111740682
 20
6.1375575921
 30
0.0
 10
4.5861294033
 20
6.1475234253
 30
0.0
 10
4.565895912
 20
6.1538289879
 30
0.0
 10
4.5507900181
 20
6.1576572776
 30
0.0
 10
4.5357193536
 20
6.1605688432
 30
0.0
 10
4.5207414555
 20
6.162520234
 30
0.0
 10
4.5059153284
 20
6.1634692595
 30
0.0
 10
4.4866064392
 20
6.1633436555
 30
0.0
 10
4.467633273
 20
6.1610642742
 30
0.0
 10
4.4494409953
 20
6.1563749636
 30
0.0
 10
4.4363532183
 20
6.1516571058
 30
0.0
 10
4.4238221939
 20
6.1456695571
 30
0.0
 10
4.4119165785
 20
6.1384153737
 30
0.0
 10
4.4006960767
 20
6.1299263908
 30
0.0
 10
4.3902261696
 20
6.1202309167
 30
0.0
 10
4.3805842265
 20
6.1093687816
 30
0.0
 10
4.3718172489
 20
6.0974313692
 30
0.0
 10
4.3639748319
 20
6.0845200301
 30
0.0
 10
4.3571162583
 20
6.0707424862
 30
0.0
 10
4.3513032301
 20
6.0562374058
 30
0.0
 10
4.3465623813
 20
6.0411881784
 30
0.0
 10
4.3429360197
 20
6.0257947856
 30
0.0
 10
4.3412817694
 20
6.015380408
 30
0.0
 10
4.3406556305
 20
6.0101654233
 30
0.0
  0
SPLINE
  5
28D
100
AcDbEntity
  8
0
100
AcDbSpline
 62
7
  6
CONTINUOUS
 70
0
 71
3
 72
65
 73
61
 74
0
 42
0.0000001
 43
0.0000001
 44
0.0000000001
 40
0.0
 40
0.0
 40
0.0
 40
0.0
 40
0.0200893647
 40
0.0383920371
 40
0.070386457
 40
0.0844747525
 40
0.0974998772
 40
0.1096031765
 40
0.1209177958
 40
0.1315705909
 40
0.1416774122
 40
0.1513395441
 40
0.1606407712
 40
0.1783777409
 40
0.1869235724
 40
0.195316603
 40
0.211800448
 40
0.2280819118
 40
0.2442420465
 40
0.2603420918
 40
0.2764782168
 40
0.292673631
 40
0.3250718641
 40
0.3572189505
 40
0.3885203419
 40
0.4036766326
 40
0.4184155546
 40
0.4326815377
 40
0.4464485853
 40
0.4724687405
 40
0.4847879871
 40
0.4967137735
 40
0.5083277566
 40
0.5197373844
 40
0.531044544
 40
0.542327623
 40
0.5536647285
 40
0.5651309759
 40
0.5767623673
 40
0.5885673049
 40
0.6005513186
 40
0.6127205556
 40
0.6250773528
 40
0.6376183948
 40
0.6632066582
 40
0.6762831476
 40
0.6895503206
 40
0.7030311358
 40
0.7167682894
 40
0.7308074768
 40
0.7451753832
 40
0.7749023401
 40
0.7902600628
 40
0.805911203
 40
0.8379557317
 40
0.8707398372
 40
0.903820076
 40
0.9366532924
 40
0.9687560827
 40
1.0
 40
1.0
 40
1.0
 40
1.0
 10
4.1702152718
 20
6.0770618378
 30
0.0
 10
4.1656357751
 20
6.0768854213
 30
0.0
 10
4.1568670791
 20
6.0768396805
 30
0.0
 10
4.1408421535
 20
6.077974881
 30
0.0
 10
4.1263258665
 20
6.080742884
 30
0.0
 10
4.1135609403
 20
6.0851410956
 30
0.0
 10
4.1054025638
 20
6.0888454495
 30
0.0
 10
4.0981822342
 20
6.0929926594
 30
0.0
 10
4.091853267
 20
6.0975277558
 30
0.0
 10
4.0863720927
 20
6.1023954857
 30
0.0
 10
4.0816938687
 20
6.1075392939
 30
0.0
 10
4.0777725983
 20
6.1129036538
 30
0.0
 10
4.0735604749
 20
6.1201528289
 30
0.0
 10
4.0705553918
 20
6.1277591898
 30
0.0
 10
4.06871441
 20
6.1354610487
 30
0.0
 10
4.0676217734
 20
6.1430165527
 30
0.0
 10
4.0675035836
 20
6.152453136
 30
0.0
 10
4.0691309839
 20
6.1635349388
 30
0.0
 10
4.0722472777
 20
6.1741938879
 30
0.0
 10
4.0766294562
 20
6.1843536728
 30
0.0
 10
4.0820724401
 20
6.1939891521
 30
0.0
 10
4.090481716
 20
6.2061471392
 30
0.0
 10
4.1026550392
 20
6.2200452895
 30
0.0
 10
4.1186399875
 20
6.2349873236
 30
0.0
 10
4.1323533299
 20
6.2465447477
 30
0.0
 10
4.1430802667
 20
6.255479082
 30
0.0
 10
4.1507673695
 20
6.2619908453
 30
0.0
 10
4.1580782842
 20
6.2684556685
 30
0.0
 10
4.1670447475
 20
6.2769196476
 30
0.0
 10
4.1751551807
 20
6.2856574318
 30
0.0
 10
4.1819661787
 20
6.2948968988
 30
0.0
 10
4.1862532901
 20
6.3018767336
 30
0.0
 10
4.1897668589
 20
6.3090487357
 30
0.0
 10
4.1924522692
 20
6.3164224734
 30
0.0
 10
4.1942816262
 20
6.3239766164
 30
0.0
 10
4.1952536025
 20
6.3316713234
 30
0.0
 10
4.1953586972
 20
6.3394628954
 30
0.0
 10
4.1945890652
 20
6.3472964505
 30
0.0
 10
4.1929575054
 20
6.3551050122
 30
0.0
 10
4.1904798923
 20
6.3628113482
 30
0.0
 10
4.1871706446
 20
6.3703332142
 30
0.0
 10
4.1830445417
 20
6.3775844478
 30
0.0
 10
4.1781443985
 20
6.3844934612
 30
0.0
 10
4.1705945391
 20
6.3932088347
 30
0.0
 10
4.1616896167
 20
6.400900643
 30
0.0
 10
4.1516998125
 20
6.4072942736
 30
0.0
 10
4.1435946342
 20
6.4114328876
 30
0.0
 10
4.1349769477
 20
6.4147970035
 30
0.0
 10
4.1259008901
 20
6.417341286
 30
0.0
 10
4.1164354565
 20
6.4190946752
 30
0.0
 10
4.1032276808
 20
6.420418326
 30
0.0
 10
4.0896113407
 20
6.4201971008
 30
0.0
 10
4.0758412373
 20
6.4186099953
 30
0.0
 10
4.0616739002
 20
6.4160696533
 30
0.0
 10
4.0439299476
 20
6.4111977311
 30
0.0
 10
4.0230606385
 20
6.4031560256
 30
0.0
 10
4.0027920123
 20
6.3932966712
 30
0.0
 10
3.9834573334
 20
6.382027449
 30
0.0
 10
3.9653070144
 20
6.3696683309
 30
0.0
 10
3.9539876373
 20
6.3606574048
 30
0.0
 10
3.948594159
 20
6.3559977832
 30
0.0
  0
SPLINE
  5
28E
100
AcDbEntity
  8
0
100
AcDbSpline
 62
7
  6
CONTINUOUS
 70
0
 71
3
 72
22
 73
18
 74
0
 42
0.0000001
 43
0.0000001
 44
0.0000000001
 40
0.0
 40
0.0
 40
0.0
 40
0.0
 40
0.0651908168
 40
0.1288982301
 40
0.1913384262
 40
0.2527409777
 40
0.3133472497
 40
0.3734082083
 40
0.4331816885
 40
0.4929292473
 40
0.5529127808
 40
0.6133911195
 40
0.6746168188
 40
0.7368333336
 40
0.8002727129
 40
0.8651538859
 40
1.0
 40
1.0
 40
1.0
 40
1.0
 10
3.3640218802
 20
7.0372297143
 30
0.0
 10
3.3615944324
 20
7.0206912741
 30
0.0
 10
3.3559168049
 20
6.9881113278
 30
0.0
 10
3.3447471643
 20
6.9403111266
 30
0.0
 10
3.3310285897
 20
6.8941883444
 30
0.0
 10
3.3147601151
 20
6.8497466613
 30
0.0
 10
3.2959408456
 20
6.806987833
 30
0.0
 10
3.2745705569
 20
6.7659144796
 30
0.0
 10
3.2506496637
 20
6.7265291307
 30
0.0
 10
3.2241792652
 20
6.688834206
 30
0.0
 10
3.1951610421
 20
6.6528317386
 30
0.0
 10
3.1635971687
 20
6.6185232548
 30
0.0
 10
3.1294898619
 20
6.5859095476
 30
0.0
 10
3.0928421078
 20
6.5549911609
 30
0.0
 10
3.0536538771
 20
6.5257665709
 30
0.0
 10
2.9973084777
 20
6.4885879216
 30
0.0
 10
2.952254895
 20
6.4639797923
 30
0.0
 10
2.9211533571
 20
6.4488736634
 30
0.0
  0
SPLINE
  5
28F
100
AcDbEntity
  8
0
100
AcDbSpline
 62
7
  6
CONTINUOUS
 70
0
 71
3
 72
38
 73
34
 74
0
 42
0.0000001
 43
0.0000001
 44
0.0000000001
 40
0.0
 40
0.0
 40
0.0
 40
0.0
 40
0.0625876209
 40
0.0941746519
 40
0.1258872127
 40
0.1894355729
 40
0.2211962719
 40
0.2528629054
 40
0.2843901038
 40
0.3157445559
 40
0.3469094772
 40
0.3624246196
 40
0.3778961349
 40
0.3933288511
 40
0.4087375418
 40
0.4241471434
 40
0.4395776465
 40
0.4705497915
 40
0.5017129227
 40
0.5330561636
 40
0.5645224358
 40
0.5802756487
 40
0.5960262818
 40
0.6274900257
 40
0.6588897627
 40
0.6902128667
 40
0.7214496991
 40
0.7525947069
 40
0.8146100135
 40
0.8763404269
 40
0.938003472
 40
0.9689299169
 40
1.0
 40
1.0
 40
1.0
 40
1.0
 10
2.9256072601
 20
6.4113476328
 30
0.0
 10
2.9479254897
 20
6.4064534489
 30
0.0
 10
2.9821550982
 20
6.4017425201
 30
0.0
 10
3.0281206434
 20
6.4004705683
 30
0.0
 10
3.0744174791
 20
6.4024831508
 30
0.0
 10
3.1204562639
 20
6.4093645349
 30
0.0
 10
3.1653626979
 20
6.4209755821
 30
0.0
 10
3.1982543245
 20
6.4320190566
 30
0.0
 10
3.2301203892
 20
6.4453634522
 30
0.0
 10
3.2607344493
 20
6.4609770025
 30
0.0
 10
3.2850528812
 20
6.4758788263
 30
0.0
 10
3.3036387
 20
6.4889027363
 30
0.0
 10
3.317101735
 20
6.4992030691
 30
0.0
 10
3.3300772841
 20
6.5100506496
 30
0.0
 10
3.3425566454
 20
6.521431296
 30
0.0
 10
3.3545790277
 20
6.5332913343
 30
0.0
 10
3.3700683228
 20
6.5497066952
 30
0.0
 10
3.3884945758
 20
6.5712310215
 30
0.0
 10
3.4093671222
 20
6.5982413544
 30
0.0
 10
3.4293551503
 20
6.6261290685
 30
0.0
 10
3.4455364341
 20
6.6498101915
 30
0.0
 10
3.4583738983
 20
6.668879916
 30
0.0
 10
3.4711878967
 20
6.6879643692
 30
0.0
 10
3.4872391468
 20
6.7117553277
 30
0.0
 10
3.5066406446
 20
6.7401433725
 30
0.0
 10
3.5262622593
 20
6.768279145
 30
0.0
 10
3.5461894606
 20
6.7960859473
 30
0.0
 10
3.5732407096
 20
6.8325646735
 30
0.0
 10
3.6082642161
 20
6.8769847713
 30
0.0
 10
3.6529873373
 20
6.9278426305
 30
0.0
 10
3.6930151759
 20
6.9675702735
 30
0.0
 10
3.7269427842
 20
6.9973678141
 30
0.0
 10
3.7445925975
 20
7.0115506769
 30
0.0
 10
3.7535970159
 20
7.018448145
 30
0.0
  0
SPLINE
  5
290
100
AcDbEntity
  8
0
100
AcDbSpline
 62
7
  6
CONTINUOUS
 70
0
 71
3
 72
30
 73
26
 74
0
 42
0.0000001
 43
0.0000001
 44
0.0000000001
 40
0.0
 40
0.0
 40
0.0
 40
0.0
 40
0.0623809648
 40
0.1247025283
 40
0.1402937358
 40
0.1558928625
 40
0.1871034159
 40
0.2183207909
 40
0.2495297074
 40
0.2807189976
 40
0.3118834378
 40
0.3741963893
 40
0.4367857679
 40
0.4997564319
 40
0.5630045694
 40
0.5946622735
 40
0.6262786271
 40
0.6578018104
 40
0.6891901583
 40
0.7204493535
 40
0.7515973651
 40
0.8136326381
 40
0.8755214585
 40
0.9375337285
 40
1.0
 40
1.0
 40
1.0
 40
1.0
 10
3.0745702273
 20
6.840367216
 30
0.0
 10
3.0695345919
 20
6.8251303255
 30
0.0
 10
3.0581232894
 20
6.7950927266
 30
0.0
 10
3.0418412561
 20
6.7627873994
 30
0.0
 10
3.0294218269
 20
6.7421821949
 30
0.0
 10
3.0207116154
 20
6.7286954898
 30
0.0
 10
3.0090442373
 20
6.712345277
 30
0.0
 10
2.9938541364
 20
6.6936309019
 30
0.0
 10
2.9775268003
 20
6.6759066441
 30
0.0
 10
2.9601174833
 20
6.6592619254
 30
0.0
 10
2.9355371713
 20
6.6386318395
 30
0.0
 10
2.9022922917
 20
6.6159147167
 30
0.0
 10
2.8593384727
 20
6.5935447846
 30
0.0
 10
2.8140229284
 20
6.5758309468
 30
0.0
 10
2.7748782798
 20
6.5647737041
 30
0.0
 10
2.7430270268
 20
6.5580375769
 30
0.0
 10
2.7189656194
 20
6.5540215995
 30
0.0
 10
2.6948277563
 20
6.5510190661
 30
0.0
 10
2.670679312
 20
6.5490079568
 30
0.0
 10
2.6465635739
 20
6.5480096845
 30
0.0
 10
2.6145430022
 20
6.5480501298
 30
0.0
 10
2.574682443
 20
6.5507094742
 30
0.0
 10
2.527376888
 20
6.55823531
 30
0.0
 10
2.480885188
 20
6.5702276733
 30
0.0
 10
2.4507487694
 20
6.581235096
 30
0.0
 10
2.4359466442
 20
6.5874898826
 30
0.0
  0
SPLINE
  5
291
100
AcDbEntity
  8
0
100
AcDbSpline
 62
7
  6
CONTINUOUS
 70
0
 71
3
 72
29
 73
25
 74
0
 42
0.0000001
 43
0.0000001
 44
0.0000000001
 40
0.0
 40
0.0
 40
0.0
 40
0.0
 40
0.0336878862
 40
0.0663804519
 40
0.0983313142
 40
0.1297621001
 40
0.1608590876
 40
0.1917718771
 40
0.2226139801
 40
0.2534649683
 40
0.3153139804
 40
0.3774681064
 40
0.408623429
 40
0.4397623133
 40
0.4708396713
 40
0.5018740077
 40
0.5639807263
 40
0.626328631
 40
0.6888688083
 40
0.7513515605
 40
0.8136247926
 40
0.8758024358
 40
0.9379369972
 40
1.0
 40
1.0
 40
1.0
 40
1.0
 10
2.5098527208
 20
7.0346070824
 30
0.0
 10
2.5099597863
 20
7.0270083899
 30
0.0
 10
2.510913601
 20
7.012033973
 30
0.0
 10
2.5145776373
 20
6.990119481
 30
0.0
 10
2.5203133712
 20
6.9691807028
 30
0.0
 10
2.5279832672
 20
6.949258651
 30
0.0
 10
2.5374496765
 20
6.9303890009
 30
0.0
 10
2.5485749388
 20
6.9126071632
 30
0.0
 10
2.5612235756
 20
6.8959461403
 30
0.0
 10
2.5799446071
 20
6.8752623044
 30
0.0
 10
2.6065229142
 20
6.8523509923
 30
0.0
 10
2.6362921647
 20
6.8336944644
 30
0.0
 10
2.6615513557
 20
6.8213996407
 30
0.0
 10
2.6811057346
 20
6.8135232073
 30
0.0
 10
2.7011353562
 20
6.8070393544
 30
0.0
 10
2.7283359889
 20
6.8002319451
 30
0.0
 10
2.7631202829
 20
6.7950207454
 30
0.0
 10
2.8053611206
 20
6.7936229948
 30
0.0
 10
2.8475924937
 20
6.7966068214
 30
0.0
 10
2.8893305871
 20
6.8035262736
 30
0.0
 10
2.9302248784
 20
6.8140176736
 30
0.0
 10
2.9700555848
 20
6.8277568712
 30
0.0
 10
3.0086936761
 20
6.8444206071
 30
0.0
 10
3.0336093279
 20
6.8572865831
 30
0.0
 10
3.0458353327
 20
6.8641083504
 30
0.0
  0
SPLINE
  5
292
100
AcDbEntity
  8
0
100
AcDbSpline
 62
7
  6
CONTINUOUS
 70
0
 71
3
 72
21
 73
17
 74
0
 42
0.0000001
 43
0.0000001
 44
0.0000000001
 40
0.0
 40
0.0
 40
0.0
 40
0.0
 40
0.1263345727
 40
0.189644506
 40
0.2528466442
 40
0.378507877
 40
0.4409526094
 40
0.5031620622
 40
0.5652435916
 40
0.6273314525
 40
0.6894365445
 40
0.7515431252
 40
0.8136568633
 40
0.8758020884
 40
0.9379427772
 40
1.0
 40
1.0
 40
1.0
 40
1.0
 10
6.6617643139
 20
4.6269804895
 30
0.0
 10
6.6771173448
 20
4.6407541115
 30
0.0
 10
6.699303264
 20
4.6624306657
 30
0.0
 10
6.7266898827
 20
4.6933385715
 30
0.0
 10
6.7523776008
 20
4.7255293221
 30
0.0
 10
6.7752889779
 20
4.7597078154
 30
0.0
 10
6.7946641954
 20
4.7957199986
 30
0.0
 10
6.8072182478
 20
4.8235324693
 30
0.0
 10
6.8176395864
 20
4.8521537025
 30
0.0
 10
6.8257409796
 20
4.8815008723
 30
0.0
 10
6.8314636811
 20
4.9114072805
 30
0.0
 10
6.8347352371
 20
4.9416855048
 30
0.0
 10
6.8354840375
 20
4.972139272
 30
0.0
 10
6.8336275045
 20
5.0025526124
 30
0.0
 10
6.8292081342
 20
5.0326875576
 30
0.0
 10
6.8245867535
 20
5.0524600644
 30
0.0
 10
6.8218660696
 20
5.0622196582
 30
0.0
  0
SPLINE
  5
293
100
AcDbEntity
  8
0
100
AcDbSpline
 62
7
  6
CONTINUOUS
 70
0
 71
3
 72
44
 73
40
 74
0
 42
0.0000001
 43
0.0000001
 44
0.0000000001
 40
0.0
 40
0.0
 40
0.0
 40
0.0
 40
0.0311849402
 40
0.0625462587
 40
0.0782645391
 40
0.0939781808
 40
0.1096678224
 40
0.1253245797
 40
0.1409637179
 40
0.1565984898
 40
0.1878660802
 40
0.219132576
 40
0.2503604362
 40
0.2815802304
 40
0.3128082869
 40
0.3440343633
 40
0.3752518206
 40
0.4064681277
 40
0.4376896259
 40
0.468923262
 40
0.5001638813
 40
0.5314016819
 40
0.5626352929
 40
0.5782577662
 40
0.593884215
 40
0.6251432474
 40
0.6564120518
 40
0.6720471894
 40
0.687675899
 40
0.7032944349
 40
0.7189036712
 40
0.7501165445
 40
0.7813581592
 40
0.8126314978
 40
0.8439095548
 40
0.8751520324
 40
0.9063731479
 40
0.9375942702
 40
1.0
 40
1.0
 40
1.0
 40
1.0
 10
7.099349323
 20
5.7857881125
 30
0.0
 10
7.1169946789
 20
5.7801516904
 30
0.0
 10
7.1516362028
 20
5.7663692988
 30
0.0
 10
7.1923418283
 20
5.7436464562
 30
0.0
 10
7.2230702518
 20
5.7224684039
 30
0.0
 10
7.2450930082
 20
5.7051622724
 30
0.0
 10
7.2659603043
 20
5.6865348591
 30
0.0
 10
7.2855827145
 20
5.6666633638
 30
0.0
 10
7.3039460429
 20
5.6456673231
 30
0.0
 10
7.3267455862
 20
5.6163153246
 30
0.0
 10
7.35210816
 20
5.5773038482
 30
0.0
 10
7.3775046469
 20
5.5276356594
 30
0.0
 10
7.397929692
 20
5.4757609222
 30
0.0
 10
7.4134087655
 20
5.4222333274
 30
0.0
 10
7.4240189961
 20
5.3675388816
 30
0.0
 10
7.4298434806
 20
5.3121353648
 30
0.0
 10
7.4309268633
 20
5.2564453919
 30
0.0
 10
7.4272858157
 20
5.2008671256
 30
0.0
 10
7.418946798
 20
5.1457870576
 30
0.0
 10
7.4059292933
 20
5.0916060617
 30
0.0
 10
7.3883164292
 20
5.0387286621
 30
0.0
 10
7.366207366
 20
4.9875687134
 30
0.0
 10
7.3441113971
 20
4.9467060871
 30
0.0
 10
7.3242900165
 20
4.915315098
 30
0.0
 10
7.3030769232
 20
4.8848289768
 30
0.0
 10
7.2740697482
 20
4.8485042273
 30
0.0
 10
7.2420527362
 20
4.8147990291
 30
0.0
 10
7.2148094879
 20
4.7895370138
 30
0.0
 10
7.1936044005
 20
4.771472538
 30
0.0
 10
7.1716697726
 20
4.7543263456
 30
0.0
 10
7.1415129208
 20
4.7327195308
 30
0.0
 10
7.1022105372
 20
4.7080155823
 30
0.0
 10
7.0529271603
 20
4.6820137508
 30
0.0
 10
7.0018956842
 20
4.659550771
 30
0.0
 10
6.9494896377
 20
4.6405277036
 30
0.0
 10
6.8960278379
 20
4.6248397553
 30
0.0
 10
6.8417742539
 20
4.6123205095
 30
0.0
 10
6.7686898849
 20
4.5995868643
 30
0.0
 10
6.7132348439
 20
4.5941672481
 30
0.0
 10
6.6762224971
 20
4.5921237724
 30
0.0
  0
SPLINE
  5
294
100
AcDbEntity
  8
0
100
AcDbSpline
 62
7
  6
CONTINUOUS
 70
0
 71
3
 72
15
 73
11
 74
0
 42
0.0000001
 43
0.0000001
 44
0.0000000001
 40
0.0
 40
0.0
 40
0.0
 40
0.0
 40
0.1253832763
 40
0.2506201982
 40
0.3756695648
 40
0.4381479362
 40
0.500613126
 40
0.6255432033
 40
0.7504967101
 40
1.0
 40
1.0
 40
1.0
 40
1.0
 10
6.8689013335
 20
5.7816992939
 30
0.0
 10
6.8783177608
 20
5.7841479721
 30
0.0
 10
6.8972657257
 20
5.7885746791
 30
0.0
 10
6.9259849866
 20
5.793659854
 30
0.0
 10
6.9501083429
 20
5.7964757888
 30
0.0
 10
6.9694654864
 20
5.7977986982
 30
0.0
 10
6.9888467576
 20
5.7984738644
 30
0.0
 10
7.0131018762
 20
5.7980894609
 30
0.0
 10
7.0517490981
 20
5.7950148795
 30
0.0
 10
7.0804733248
 20
5.7900952842
 30
0.0
 10
7.099349323
 20
5.7857881125
 30
0.0
  0
SPLINE
  5
295
100
AcDbEntity
  8
0
100
AcDbSpline
 62
7
  6
CONTINUOUS
 70
0
 71
3
 72
45
 73
41
 74
0
 42
0.0000001
 43
0.0000001
 44
0.0000000001
 40
0.0
 40
0.0
 40
0.0
 40
0.0
 40
0.031340085
 40
0.062714443
 40
0.093966913
 40
0.1250388496
 40
0.1559948645
 40
0.1869756023
 40
0.202471793
 40
0.2179570364
 40
0.2334354563
 40
0.2489175455
 40
0.2644069827
 40
0.2798995422
 40
0.2953848804
 40
0.3108565172
 40
0.3418292947
 40
0.3729390196
 40
0.3885416869
 40
0.4041526374
 40
0.4197481706
 40
0.4352994244
 40
0.46625031
 40
0.4971204329
 40
0.5280324309
 40
0.5590847782
 40
0.590335538
 40
0.6217323257
 40
0.6531974779
 40
0.6846695866
 40
0.747453599
 40
0.7787958309
 40
0.8101370137
 40
0.8415545326
 40
0.8573305208
 40
0.8731608959
 40
0.9049215368
 40
0.9367222927
 40
0.9684470165
 40
1.0
 40
1.0
 40
1.0
 40
1.0
 10
6.8415600112
 20
5.0875856917
 30
0.0
 10
6.8512667424
 20
5.0873776665
 30
0.0
 10
6.8707095908
 20
5.0875269691
 30
0.0
 10
6.8997612053
 20
5.0897482667
 30
0.0
 10
6.9284672014
 20
5.0942983882
 30
0.0
 10
6.9565013915
 20
5.1015152011
 30
0.0
 10
6.983509509
 20
5.1117381082
 30
0.0
 10
7.0047786493
 20
5.1229905099
 30
0.0
 10
7.0207780402
 20
5.1336188575
 30
0.0
 10
7.0321967097
 20
5.1424014122
 30
0.0
 10
7.042943517
 20
5.1519887315
 30
0.0
 10
7.0529476013
 20
5.1623501531
 30
0.0
 10
7.0621896809
 20
5.1734009212
 30
0.0
 10
7.0706435599
 20
5.1850661554
 30
0.0
 10
7.0782866859
 20
5.1972714573
 30
0.0
 10
7.0873718861
 20
5.2141829813
 30
0.0
 10
7.0967305825
 20
5.2363766706
 30
0.0
 10
7.1036258384
 20
5.2594777598
 30
0.0
 10
7.1078348676
 20
5.278325933
 30
0.0
 10
7.1103758327
 20
5.2926073831
 30
0.0
 10
7.1123334645
 20
5.3069634902
 30
0.0
 10
7.1142165206
 20
5.3261121635
 30
0.0
 10
7.1152830381
 20
5.3500794254
 30
0.0
 10
7.1145911619
 20
5.3788197807
 30
0.0
 10
7.1120470769
 20
5.407485538
 30
0.0
 10
7.1077652437
 20
5.4360596041
 30
0.0
 10
7.1018836383
 20
5.4645002011
 30
0.0
 10
7.0943750551
 20
5.4926885247
 30
0.0
 10
7.0851922402
 20
5.5204531947
 30
0.0
 10
7.0706858589
 20
5.5566167627
 30
0.0
 10
7.052648597
 20
5.5912650336
 30
0.0
 10
7.0309542818
 20
5.6235549821
 30
0.0
 10
7.0128135232
 20
5.6464166316
 30
0.0
 10
6.9961210372
 20
5.66416174
 30
0.0
 10
6.9818241945
 20
5.6774670352
 30
0.0
 10
6.9668620632
 20
5.6901840298
 30
0.0
 10
6.9470720917
 20
5.7048468607
 30
0.0
 10
6.9218533303
 20
5.7202644224
 30
0.0
 10
6.8954003319
 20
5.7333085457
 30
0.0
 10
6.8770480116
 20
5.7403008872
 30
0.0
 10
6.8677519182
 20
5.7433227416
 30
0.0
  0
SPLINE
  5
296
100
AcDbEntity
  8
0
100
AcDbSpline
 62
7
  6
CONTINUOUS
 70
0
 71
3
 72
65
 73
61
 74
0
 42
0.0000001
 43
0.0000001
 44
0.0000000001
 40
0.0
 40
0.0
 40
0.0
 40
0.0
 40
0.0200893615
 40
0.0383920223
 40
0.0703864019
 40
0.0844746721
 40
0.09749977
 40
0.1096030418
 40
0.1209176342
 40
0.1315704039
 40
0.141677202
 40
0.1513393132
 40
0.1606405218
 40
0.1783774594
 40
0.1869232783
 40
0.1953162993
 40
0.2118001327
 40
0.228081591
 40
0.2442417209
 40
0.2603417673
 40
0.2764778973
 40
0.2926733159
 40
0.3250715489
 40
0.357218615
 40
0.3885199528
 40
0.4036762042
 40
0.4184150779
 40
0.4326810057
 40
0.4464479936
 40
0.4724680251
 40
0.4847872149
 40
0.496712952
 40
0.5083268977
 40
0.5197365042
 40
0.5310436548
 40
0.542326737
 40
0.5536638589
 40
0.565130134
 40
0.5767615562
 40
0.5885665267
 40
0.6005505753
 40
0.6127198491
 40
0.6250766839
 40
0.6376177636
 40
0.6632061028
 40
0.6762826329
 40
0.6895498514
 40
0.7030307202
 40
0.7167679404
 40
0.7308072047
 40
0.7451751938
 40
0.77490232
 40
0.7902601231
 40
0.805911338
 40
0.837955993
 40
0.8707401763
 40
0.9038204229
 40
0.9366535599
 40
0.9687562228
 40
1.0
 40
1.0
 40
1.0
 40
1.0
 10
5.8372474611
 20
6.0770618378
 30
0.0
 10
5.8418269802
 20
6.0768854205
 30
0.0
 10
5.8505957171
 20
6.0768396808
 30
0.0
 10
5.8666207103
 20
6.0779748955
 30
0.0
 10
5.8811370507
 20
6.0807429274
 30
0.0
 10
5.8939020121
 20
6.0851411816
 30
0.0
 10
5.9020604036
 20
6.0888455682
 30
0.0
 10
5.9092807403
 20
6.092992813
 30
0.0
 10
5.9156097069
 20
6.0975279466
 30
0.0
 10
5.9210908737
 20
6.1023957147
 30
0.0
 10
5.925769084
 20
6.1075395616
 30
0.0
 10
5.9296903354
 20
6.1129039594
 30
0.0
 10
5.9339024277
 20
6.1201531827
 30
0.0
 10
5.9369074719
 20
6.1277595879
 30
0.0
 10
5.9387484073
 20
6.1354614862
 30
0.0
 10
5.9398409946
 20
6.1430170285
 30
0.0
 10
5.9399591159
 20
6.1524536542
 30
0.0
 10
5.9383316282
 20
6.163535496
 30
0.0
 10
5.9352152445
 20
6.1741944749
 30
0.0
 10
5.9308329748
 20
6.1843542814
 30
0.0
 10
5.9253899014
 20
6.1939897766
 30
0.0
 10
5.9169805118
 20
6.206147778
 30
0.0
 10
5.9048070627
 20
6.2200459354
 30
0.0
 10
5.8888219975
 20
6.2349879799
 30
0.0
 10
5.8751085888
 20
6.246545425
 30
0.0
 10
5.8643816244
 20
6.2554797858
 30
0.0
 10
5.8566945183
 20
6.2619915734
 30
0.0
 10
5.8493836145
 20
6.2684564272
 30
0.0
 10
5.8404171843
 20
6.2769204526
 30
0.0
 10
5.8323068124
 20
6.285658304
 30
0.0
 10
5.8254959103
 20
6.2948978489
 30
0.0
 10
5.8212088823
 20
6.3018777456
 30
0.0
 10
5.8176954115
 20
6.3090498137
 30
0.0
 10
5.8150101161
 20
6.3164236193
 30
0.0
 10
5.8131808829
 20
6.3239778264
 30
0.0
 10
5.8122090405
 20
6.3316725923
 30
0.0
 10
5.8121040903
 20
6.3394642164
 30
0.0
 10
5.8128738758
 20
6.3472978136
 30
0.0
 10
5.8145055946
 20
6.3551064044
 30
0.0
 10
5.8169833727
 20
6.362812754
 30
0.0
 10
5.8202927918
 20
6.3703346161
 30
0.0
 10
5.8244190692
 20
6.3775858274
 30
0.0
 10
5.8293193853
 20
6.3844948019
 30
0.0
 10
5.8368694749
 20
6.3932100986
 30
0.0
 10
5.8457746232
 20
6.4009017917
 30
0.0
 10
5.8557646437
 20
6.4072952643
 30
0.0
 10
5.8638699819
 20
6.4114337372
 30
0.0
 10
5.872487825
 20
6.4147976844
 30
0.0
 10
5.8815640271
 20
6.4173417925
 30
0.0
 10
5.891029595
 20
6.4190950046
 30
0.0
 10
5.9042375373
 20
6.4204184129
 30
0.0
 10
5.9178540169
 20
6.4201969433
 30
0.0
 10
5.9316242367
 20
6.4186095919
 30
0.0
 10
5.9457916672
 20
6.4160689966
 30
0.0
 10
5.9635356962
 20
6.4111967672
 30
0.0
 10
5.9844050515
 20
6.4031547366
 30
0.0
 10
6.0046736659
 20
6.3932950965
 30
0.0
 10
6.0240082826
 20
6.3820256342
 30
0.0
 10
6.0421584897
 20
6.3696662949
 30
0.0
 10
6.053477765
 20
6.3606552211
 30
0.0
 10
6.0588711857
 20
6.3559955268
 30
0.0
  0
SPLINE
  5
297
100
AcDbEntity
  8
0
100
AcDbSpline
 62
7
  6
CONTINUOUS
 70
0
 71
3
 72
55
 73
51
 74
0
 42
0.0000001
 43
0.0000001
 44
0.0000000001
 40
0.0
 40
0.0
 40
0.0
 40
0.0
 40
0.0163776731
 40
0.0326803511
 40
0.0489475335
 40
0.0652094857
 40
0.0814845003
 40
0.0977781247
 40
0.1140932176
 40
0.1304309567
 40
0.1467853914
 40
0.1631451642
 40
0.1958396825
 40
0.2284517215
 40
0.2609474619
 40
0.2933076386
 40
0.3255308636
 40
0.3576597535
 40
0.3737188634
 40
0.3897857068
 40
0.4219493443
 40
0.4541890443
 40
0.4865489204
 40
0.5190581686
 40
0.5516391284
 40
0.5841831992
 40
0.6165837617
 40
0.6486773394
 40
0.6802049819
 40
0.6956905074
 40
0.7109584349
 40
0.7259944527
 40
0.7407893873
 40
0.7553353573
 40
0.7696331431
 40
0.7975263866
 40
0.8112153733
 40
0.8248002827
 40
0.8383603404
 40
0.8519754855
 40
0.8657169905
 40
0.8796558777
 40
0.893858083
 40
0.9083517174
 40
0.9231397254
 40
0.9382153307
 40
0.9535460559
 40
0.9690331706
 40
0.9845583989
 40
1.0
 40
1.0
 40
1.0
 40
1.0
 10
5.1579984065
 20
5.568047898
 30
0.0
 10
5.1572348841
 20
5.5735661684
 30
0.0
 10
5.1559404577
 20
5.5846101219
 30
0.0
 10
5.1545970299
 20
5.6012080265
 30
0.0
 10
5.1537504411
 20
5.6177984942
 30
0.0
 10
5.1532882527
 20
5.6343937814
 30
0.0
 10
5.153118647
 20
5.651003319
 30
0.0
 10
5.1532141671
 20
5.6676314058
 30
0.0
 10
5.153540681
 20
5.6842777026
 30
0.0
 10
5.1540579428
 20
5.7009397387
 30
0.0
 10
5.1547654783
 20
5.7176101591
 30
0.0
 10
5.1560130724
 20
5.739824368
 30
0.0
 10
5.1582164295
 20
5.7675214438
 30
0.0
 10
5.1621466971
 20
5.8005660573
 30
0.0
 10
5.1676201392
 20
5.8332794343
 30
0.0
 10
5.1748631215
 20
5.865516401
 30
0.0
 10
5.1840761727
 20
5.8971207591
 30
0.0
 10
5.1935697739
 20
5.9228018715
 30
0.0
 10
5.2023418299
 20
5.9428262524
 30
0.0
 10
5.2119162654
 20
5.9624924251
 30
0.0
 10
5.2253787469
 20
5.9863621974
 30
0.0
 10
5.2438590878
 20
6.0136423591
 30
0.0
 10
5.2646238667
 20
6.0393817435
 30
0.0
 10
5.2875765366
 20
6.0633510571
 30
0.0
 10
5.3124839411
 20
6.0853748501
 30
0.0
 10
5.3390981836
 20
6.1052413726
 30
0.0
 10
5.3671447096
 20
6.1227206833
 30
0.0
 10
5.3962883786
 20
6.1375574617
 30
0.0
 10
5.4213330266
 20
6.1475233159
 30
0.0
 10
5.4415665064
 20
6.1538288988
 30
0.0
 10
5.4566723931
 20
6.1576572055
 30
0.0
 10
5.4717430517
 20
6.1605687899
 30
0.0
 10
5.4867209452
 20
6.1625202014
 30
0.0
 10
5.5015470693
 20
6.1634692494
 30
0.0
 10
5.5208559566
 20
6.163343678
 30
0.0
 10
5.5398291239
 20
6.1610643338
 30
0.0
 10
5.5580214081
 20
6.1563750647
 30
0.0
 10
5.5711091915
 20
6.1516572402
 30
0.0
 10
5.5836402249
 20
6.145669727
 30
0.0
 10
5.5955458515
 20
6.1384155795
 30
0.0
 10
5.6067663668
 20
6.129926633
 30
0.0
 10
5.6172362899
 20
6.1202311957
 30
0.0
 10
5.6268782518
 20
6.1093690968
 30
0.0
 10
5.6356452502
 20
6.0974317187
 30
0.0
 10
5.6434876904
 20
6.0845204121
 30
0.0
 10
5.6503462901
 20
6.070742898
 30
0.0
 10
5.6561593465
 20
6.0562378434
 30
0.0
 10
5.6609002256
 20
6.0411886366
 30
0.0
 10
5.6645266198
 20
6.0257952585
 30
0.0
 10
5.6661808934
 20
6.015380888
 30
0.0
 10
5.6668070445
 20
6.0101659059
 30
0.0
  0
SPLINE
  5
298
100
AcDbEntity
  8
0
100
AcDbSpline
 62
7
  6
CONTINUOUS
 70
0
 71
3
 72
44
 73
40
 74
0
 42
0.0000001
 43
0.0000001
 44
0.0000000001
 40
0.0
 40
0.0
 40
0.0
 40
0.0
 40
0.0311849402
 40
0.0625462587
 40
0.0782645391
 40
0.0939781808
 40
0.1096678224
 40
0.1253245797
 40
0.1409637179
 40
0.1565984898
 40
0.1878660802
 40
0.219132576
 40
0.2503604362
 40
0.2815802304
 40
0.3128082869
 40
0.3440343633
 40
0.3752518206
 40
0.4064681277
 40
0.4376896259
 40
0.468923262
 40
0.5001638813
 40
0.5314016819
 40
0.5626352929
 40
0.5782577662
 40
0.593884215
 40
0.6251432474
 40
0.6564120518
 40
0.6720471894
 40
0.687675899
 40
0.7032944349
 40
0.7189036712
 40
0.7501165445
 40
0.7813581592
 40
0.8126314978
 40
0.8439095548
 40
0.8751520324
 40
0.9063731479
 40
0.9375942702
 40
1.0
 40
1.0
 40
1.0
 40
1.0
 10
6.3151941684
 20
6.5699432671
 30
0.0
 10
6.3095577463
 20
6.587588623
 30
0.0
 10
6.2957753547
 20
6.6222301469
 30
0.0
 10
6.2730525121
 20
6.6629357724
 30
0.0
 10
6.2518744598
 20
6.6936641959
 30
0.0
 10
6.2345683283
 20
6.7156869523
 30
0.0
 10
6.215940915
 20
6.7365542484
 30
0.0
 10
6.1960694197
 20
6.7561766586
 30
0.0
 10
6.175073379
 20
6.774539987
 30
0.0
 10
6.1457213805
 20
6.7973395303
 30
0.0
 10
6.1067099041
 20
6.8227021041
 30
0.0
 10
6.0570417153
 20
6.848098591
 30
0.0
 10
6.0051669781
 20
6.8685236361
 30
0.0
 10
5.9516393833
 20
6.8840027096
 30
0.0
 10
5.8969449375
 20
6.8946129402
 30
0.0
 10
5.8415414207
 20
6.9004374247
 30
0.0
 10
5.7858514478
 20
6.9015208074
 30
0.0
 10
5.7302731815
 20
6.8978797598
 30
0.0
 10
5.6751931135
 20
6.8895407421
 30
0.0
 10
5.6210121176
 20
6.8765232374
 30
0.0
 10
5.568134718
 20
6.8589103733
 30
0.0
 10
5.5169747693
 20
6.8368013101
 30
0.0
 10
5.476112143
 20
6.8147053412
 30
0.0
 10
5.4447211539
 20
6.7948839606
 30
0.0
 10
5.4142350327
 20
6.7736708673
 30
0.0
 10
5.3779102832
 20
6.7446636923
 30
0.0
 10
5.344205085
 20
6.7126466803
 30
0.0
 10
5.3189430697
 20
6.685403432
 30
0.0
 10
5.3008785939
 20
6.6641983446
 30
0.0
 10
5.2837324015
 20
6.6422637167
 30
0.0
 10
5.2621255867
 20
6.6121068649
 30
0.0
 10
5.2374216382
 20
6.5728044813
 30
0.0
 10
5.2114198067
 20
6.5235211044
 30
0.0
 10
5.1889568269
 20
6.4724896283
 30
0.0
 10
5.1699337595
 20
6.4200835818
 30
0.0
 10
5.1542458112
 20
6.366621782
 30
0.0
 10
5.1417265654
 20
6.312368198
 30
0.0
 10
5.1289929202
 20
6.239283829
 30
0.0
 10
5.123573304
 20
6.183828788
 30
0.0
 10
5.1215298283
 20
6.1468164412
 30
0.0
  0
SPLINE
  5
299
100
AcDbEntity
  8
0
100
AcDbSpline
 62
7
  6
CONTINUOUS
 70
0
 71
3
 72
21
 73
17
 74
0
 42
0.0000001
 43
0.0000001
 44
0.0000000001
 40
0.0
 40
0.0
 40
0.0
 40
0.0
 40
0.1263345727
 40
0.189644506
 40
0.2528466442
 40
0.378507877
 40
0.4409526094
 40
0.5031620622
 40
0.5652435916
 40
0.6273314525
 40
0.6894365445
 40
0.7515431252
 40
0.8136568633
 40
0.8758020884
 40
0.9379427772
 40
1.0
 40
1.0
 40
1.0
 40
1.0
 10
5.1563865454
 20
6.132358258
 30
0.0
 10
5.1701601674
 20
6.1477112889
 30
0.0
 10
5.1918367216
 20
6.1698972081
 30
0.0
 10
5.2227446274
 20
6.1972838268
 30
0.0
 10
5.254935378
 20
6.2229715449
 30
0.0
 10
5.2891138713
 20
6.245882922
 30
0.0
 10
5.3251260545
 20
6.2652581395
 30
0.0
 10
5.3529385252
 20
6.2778121919
 30
0.0
 10
5.3815597584
 20
6.2882335305
 30
0.0
 10
5.4109069282
 20
6.2963349237
 30
0.0
 10
5.4408133364
 20
6.3020576252
 30
0.0
 10
5.4710915607
 20
6.3053291812
 30
0.0
 10
5.5015453279
 20
6.3060779816
 30
0.0
 10
5.5319586683
 20
6.3042214486
 30
0.0
 10
5.5620936135
 20
6.2998020783
 30
0.0
 10
5.5818661203
 20
6.2951806976
 30
0.0
 10
5.5916257141
 20
6.2924600137
 30
0.0
  0
SPLINE
  5
29A
100
AcDbEntity
  8
0
100
AcDbSpline
 62
7
  6
CONTINUOUS
 70
0
 71
3
 72
45
 73
41
 74
0
 42
0.0000001
 43
0.0000001
 44
0.0000000001
 40
0.0
 40
0.0
 40
0.0
 40
0.0
 40
0.031340085
 40
0.062714443
 40
0.093966913
 40
0.1250388496
 40
0.1559948645
 40
0.1869756023
 40
0.202471793
 40
0.2179570364
 40
0.2334354563
 40
0.2489175455
 40
0.2644069827
 40
0.2798995422
 40
0.2953848804
 40
0.3108565172
 40
0.3418292947
 40
0.3729390196
 40
0.3885416869
 40
0.4041526374
 40
0.4197481706
 40
0.4352994244
 40
0.46625031
 40
0.4971204329
 40
0.5280324309
 40
0.5590847782
 40
0.590335538
 40
0.6217323257
 40
0.6531974779
 40
0.6846695866
 40
0.747453599
 40
0.7787958309
 40
0.8101370137
 40
0.8415545326
 40
0.8573305208
 40
0.8731608959
 40
0.9049215368
 40
0.9367222927
 40
0.9684470165
 40
1.0
 40
1.0
 40
1.0
 40
1.0
 10
5.6169917476
 20
6.3121539553
 30
0.0
 10
5.6167837224
 20
6.3218606865
 30
0.0
 10
5.616933025
 20
6.3413035349
 30
0.0
 10
5.6191543226
 20
6.3703551494
 30
0.0
 10
5.6237044441
 20
6.3990611455
 30
0.0
 10
5.630921257
 20
6.4270953356
 30
0.0
 10
5.6411441641
 20
6.4541034531
 30
0.0
 10
5.6523965658
 20
6.4753725934
 30
0.0
 10
5.6630249134
 20
6.4913719843
 30
0.0
 10
5.6718074681
 20
6.5027906538
 30
0.0
 10
5.6813947874
 20
6.5135374611
 30
0.0
 10
5.691756209
 20
6.5235415454
 30
0.0
 10
5.7028069771
 20
6.532783625
 30
0.0
 10
5.7144722113
 20
6.541237504
 30
0.0
 10
5.7266775132
 20
6.54888063
 30
0.0
 10
5.7435890372
 20
6.5579658302
 30
0.0
 10
5.7657827265
 20
6.5673245266
 30
0.0
 10
5.7888838157
 20
6.5742197825
 30
0.0
 10
5.8077319889
 20
6.5784288117
 30
0.0
 10
5.822013439
 20
6.5809697768
 30
0.0
 10
5.8363695461
 20
6.5829274086
 30
0.0
 10
5.8555182194
 20
6.5848104647
 30
0.0
 10
5.8794854813
 20
6.5858769822
 30
0.0
 10
5.9082258366
 20
6.585185106
 30
0.0
 10
5.9368915939
 20
6.582641021
 30
0.0
 10
5.96546566
 20
6.5783591878
 30
0.0
 10
5.993906257
 20
6.5724775824
 30
0.0
 10
6.0220945806
 20
6.5649689992
 30
0.0
 10
6.0498592506
 20
6.5557861843
 30
0.0
 10
6.0860228186
 20
6.541279803
 30
0.0
 10
6.1206710895
 20
6.5232425411
 30
0.0
 10
6.152961038
 20
6.5015482259
 30
0.0
 10
6.1758226875
 20
6.4834074673
 30
0.0
 10
6.1935677959
 20
6.4667149813
 30
0.0
 10
6.2068730911
 20
6.4524181386
 30
0.0
 10
6.2195900857
 20
6.4374560073
 30
0.0
 10
6.2342529166
 20
6.4176660358
 30
0.0
 10
6.2496704783
 20
6.3924472744
 30
0.0
 10
6.2627146016
 20
6.365994276
 30
0.0
 10
6.2697069431
 20
6.3476419557
 30
0.0
 10
6.2727287975
 20
6.3383458622
 30
0.0
  0
SPLINE
  5
29B
100
AcDbEntity
  8
0
100
AcDbSpline
 62
7
  6
CONTINUOUS
 70
0
 71
3
 72
15
 73
11
 74
0
 42
0.0000001
 43
0.0000001
 44
0.0000000001
 40
0.0
 40
0.0
 40
0.0
 40
0.0
 40
0.1253832763
 40
0.2506201982
 40
0.3756695648
 40
0.4381479362
 40
0.500613126
 40
0.6255432033
 40
0.7504967101
 40
1.0
 40
1.0
 40
1.0
 40
1.0
 10
6.3111053498
 20
6.3394952776
 30
0.0
 10
6.313554028
 20
6.3489117049
 30
0.0
 10
6.317980735
 20
6.3678596698
 30
0.0
 10
6.3230659099
 20
6.3965789307
 30
0.0
 10
6.3258818447
 20
6.420702287
 30
0.0
 10
6.3272047541
 20
6.4400594305
 30
0.0
 10
6.3278799203
 20
6.4594407017
 30
0.0
 10
6.3274955168
 20
6.4836958203
 30
0.0
 10
6.3244209354
 20
6.5223430422
 30
0.0
 10
6.3195013401
 20
6.5510672689
 30
0.0
 10
6.3151941684
 20
6.5699432671
 30
0.0
  0
SPLINE
  5
29C
100
AcDbEntity
  8
0
100
AcDbSpline
 62
7
  6
CONTINUOUS
 70
0
 71
3
 72
55
 73
51
 74
0
 42
0.0000001
 43
0.0000001
 44
0.0000000001
 40
0.0
 40
0.0
 40
0.0
 40
0.0
 40
0.0163776731
 40
0.0326803511
 40
0.0489475335
 40
0.0652094857
 40
0.0814845003
 40
0.0977781247
 40
0.1140932176
 40
0.1304309567
 40
0.1467853914
 40
0.1631451642
 40
0.1958396825
 40
0.2284517215
 40
0.2609474619
 40
0.2933076386
 40
0.3255308636
 40
0.3576597535
 40
0.3737188634
 40
0.3897857068
 40
0.4219493443
 40
0.4541890443
 40
0.4865489204
 40
0.5190581686
 40
0.5516391284
 40
0.5841831992
 40
0.6165837617
 40
0.6486773394
 40
0.6802049819
 40
0.6956905074
 40
0.7109584349
 40
0.7259944527
 40
0.7407893873
 40
0.7553353573
 40
0.7696331431
 40
0.7975263866
 40
0.8112153733
 40
0.8248002827
 40
0.8383603404
 40
0.8519754855
 40
0.8657169905
 40
0.8796558777
 40
0.893858083
 40
0.9083517174
 40
0.9231397254
 40
0.9382153307
 40
0.9535460559
 40
0.9690331706
 40
0.9845583989
 40
1.0
 40
1.0
 40
1.0
 40
1.0
 10
6.0974539539
 20
4.6285923506
 30
0.0
 10
6.1029722243
 20
4.6278288282
 30
0.0
 10
6.1140161778
 20
4.6265344018
 30
0.0
 10
6.1306140824
 20
4.625190974
 30
0.0
 10
6.1472045501
 20
4.6243443852
 30
0.0
 10
6.1637998373
 20
4.6238821968
 30
0.0
 10
6.1804093749
 20
4.6237125911
 30
0.0
 10
6.1970374617
 20
4.6238081112
 30
0.0
 10
6.2136837585
 20
4.6241346251
 30
0.0
 10
6.2303457946
 20
4.6246518869
 30
0.0
 10
6.247016215
 20
4.6253594224
 30
0.0
 10
6.2692304239
 20
4.6266070165
 30
0.0
 10
6.2969274997
 20
4.6288103736
 30
0.0
 10
6.3299721132
 20
4.6327406412
 30
0.0
 10
6.3626854902
 20
4.6382140833
 30
0.0
 10
6.3949224569
 20
4.6454570656
 30
0.0
 10
6.426526815
 20
4.6546701168
 30
0.0
 10
6.4522079274
 20
4.664163718
 30
0.0
 10
6.4722323083
 20
4.672935774
 30
0.0
 10
6.491898481
 20
4.6825102095
 30
0.0
 10
6.5157682533
 20
4.695972691
 30
0.0
 10
6.543048415
 20
4.7144530319
 30
0.0
 10
6.5687877994
 20
4.7352178108
 30
0.0
 10
6.592757113
 20
4.7581704807
 30
0.0
 10
6.614780906
 20
4.7830778852
 30
0.0
 10
6.6346474285
 20
4.8096921277
 30
0.0
 10
6.6521267392
 20
4.8377386537
 30
0.0
 10
6.6669635176
 20
4.8668823227
 30
0.0
 10
6.6769293718
 20
4.8919269707
 30
0.0
 10
6.6832349547
 20
4.9121604505
 30
0.0
 10
6.6870632614
 20
4.9272663372
 30
0.0
 10
6.6899748458
 20
4.9423369958
 30
0.0
 10
6.6919262573
 20
4.9573148893
 30
0.0
 10
6.6928753053
 20
4.9721410134
 30
0.0
 10
6.6927497339
 20
4.9914499007
 30
0.0
 10
6.6904703897
 20
5.010423068
 30
0.0
 10
6.6857811206
 20
5.0286153522
 30
0.0
 10
6.6810632961
 20
5.0417031356
 30
0.0
 10
6.6750757829
 20
5.054234169
 30
0.0
 10
6.6678216354
 20
5.0661397956
 30
0.0
 10
6.6593326889
 20
5.0773603109
 30
0.0
 10
6.6496372516
 20
5.087830234
 30
0.0
 10
6.6387751527
 20
5.0974721959
 30
0.0
 10
6.6268377746
 20
5.1062391943
 30
0.0
 10
6.613926468
 20
5.1140816345
 30
0.0
 10
6.6001489539
 20
5.1209402342
 30
0.0
 10
6.5856438993
 20
5.1267532906
 30
0.0
 10
6.5705946925
 20
5.1314941697
 30
0.0
 10
6.5552013144
 20
5.1351205639
 30
0.0
 10
6.5447869439
 20
5.1367748375
 30
0.0
 10
6.5395719618
 20
5.1374009886
 30
0.0
  0
SPLINE
  5
29D
100
AcDbEntity
  8
0
100
AcDbSpline
 62
7
  6
CONTINUOUS
 70
0
 71
3
 72
65
 73
61
 74
0
 42
0.0000001
 43
0.0000001
 44
0.0000000001
 40
0.0
 40
0.0
 40
0.0
 40
0.0
 40
0.0200893615
 40
0.0383920223
 40
0.0703864019
 40
0.0844746721
 40
0.09749977
 40
0.1096030418
 40
0.1209176342
 40
0.1315704039
 40
0.141677202
 40
0.1513393132
 40
0.1606405218
 40
0.1783774594
 40
0.1869232783
 40
0.1953162993
 40
0.2118001327
 40
0.228081591
 40
0.2442417209
 40
0.2603417673
 40
0.2764778973
 40
0.2926733159
 40
0.3250715489
 40
0.357218615
 40
0.3885199528
 40
0.4036762042
 40
0.4184150779
 40
0.4326810057
 40
0.4464479936
 40
0.4724680251
 40
0.4847872149
 40
0.496712952
 40
0.5083268977
 40
0.5197365042
 40
0.5310436548
 40
0.542326737
 40
0.5536638589
 40
0.565130134
 40
0.5767615562
 40
0.5885665267
 40
0.6005505753
 40
0.6127198491
 40
0.6250766839
 40
0.6376177636
 40
0.6632061028
 40
0.6762826329
 40
0.6895498514
 40
0.7030307202
 40
0.7167679404
 40
0.7308072047
 40
0.7451751938
 40
0.77490232
 40
0.7902601231
 40
0.805911338
 40
0.837955993
 40
0.8707401763
 40
0.9038204229
 40
0.9366535599
 40
0.9687562228
 40
1.0
 40
1.0
 40
1.0
 40
1.0
 10
6.6064678937
 20
5.3078414052
 30
0.0
 10
6.6062914764
 20
5.3124209243
 30
0.0
 10
6.6062457367
 20
5.3211896612
 30
0.0
 10
6.6073809514
 20
5.3372146544
 30
0.0
 10
6.6101489833
 20
5.3517309948
 30
0.0
 10
6.6145472375
 20
5.3644959562
 30
0.0
 10
6.6182516241
 20
5.3726543477
 30
0.0
 10
6.6223988689
 20
5.3798746844
 30
0.0
 10
6.6269340025
 20
5.386203651
 30
0.0
 10
6.6318017707
 20
5.3916848178
 30
0.0
 10
6.6369456175
 20
5.3963630281
 30
0.0
 10
6.6423100153
 20
5.4002842795
 30
0.0
 10
6.6495592386
 20
5.4044963718
 30
0.0
 10
6.6571656438
 20
5.407501416
 30
0.0
 10
6.6648675421
 20
5.4093423514
 30
0.0
 10
6.6724230844
 20
5.4104349387
 30
0.0
 10
6.6818597101
 20
5.41055306
 30
0.0
 10
6.6929415519
 20
5.4089255723
 30
0.0
 10
6.7036005308
 20
5.4058091886
 30
0.0
 10
6.7137603373
 20
5.4014269189
 30
0.0
 10
6.7233958325
 20
5.3959838455
 30
0.0
 10
6.7355538339
 20
5.3875744559
 30
0.0
 10
6.7494519913
 20
5.3754010068
 30
0.0
 10
6.7643940358
 20
5.3594159416
 30
0.0
 10
6.7759514809
 20
5.3457025329
 30
0.0
 10
6.7848858417
 20
5.3349755685
 30
0.0
 10
6.7913976293
 20
5.3272884624
 30
0.0
 10
6.7978624831
 20
5.3199775586
 30
0.0
 10
6.8063265085
 20
5.3110111284
 30
0.0
 10
6.8150643599
 20
5.3029007565
 30
0.0
 10
6.8243039048
 20
5.2960898544
 30
0.0
 10
6.8312838015
 20
5.2918028264
 30
0.0
 10
6.8384558696
 20
5.2882893556
 30
0.0
 10
6.8458296752
 20
5.2856040602
 30
0.0
 10
6.8533838823
 20
5.283774827
 30
0.0
 10
6.8610786482
 20
5.2828029846
 30
0.0
 10
6.8688702723
 20
5.2826980344
 30
0.0
 10
6.8767038695
 20
5.2834678199
 30
0.0
 10
6.8845124603
 20
5.2850995386
 30
0.0
 10
6.8922188099
 20
5.2875773168
 30
0.0
 10
6.899740672
 20
5.2908867359
 30
0.0
 10
6.9069918833
 20
5.2950130133
 30
0.0
 10
6.9139008578
 20
5.2999133294
 30
0.0
 10
6.9226161545
 20
5.307463419
 30
0.0
 10
6.9303078476
 20
5.3163685673
 30
0.0
 10
6.9367013202
 20
5.3263585878
 30
0.0
 10
6.9408397931
 20
5.334463926
 30
0.0
 10
6.9442037403
 20
5.3430817691
 30
0.0
 10
6.9467478484
 20
5.3521579712
 30
0.0
 10
6.9485010605
 20
5.3616235391
 30
0.0
 10
6.9498244688
 20
5.3748314814
 30
0.0
 10
6.9496029992
 20
5.388447961
 30
0.0
 10
6.9480156478
 20
5.4022181808
 30
0.0
 10
6.9454750525
 20
5.4163856113
 30
0.0
 10
6.9406028231
 20
5.4341296403
 30
0.0
 10
6.9325607925
 20
5.4549989956
 30
0.0
 10
6.9227011524
 20
5.47526761
 30
0.0
 10
6.9114316901
 20
5.4946022267
 30
0.0
 10
6.8990723508
 20
5.5127524338
 30
0.0
 10
6.890061277
 20
5.5240717091
 30
0.0
 10
6.8854015827
 20
5.5294651298
 30
0.0
  0
SPLINE
  5
29E
100
AcDbEntity
  8
0
100
AcDbSpline
 62
7
  6
CONTINUOUS
 70
0
 71
3
 72
44
 73
40
 74
0
 42
0.0000001
 43
0.0000001
 44
0.0000000001
 40
0.0
 40
0.0
 40
0.0
 40
0.0
 40
0.0619201034
 40
0.0928819324
 40
0.1238543255
 40
0.1549065895
 40
0.1861469072
 40
0.2175026359
 40
0.2488277174
 40
0.2800467248
 40
0.2956228585
 40
0.3111869164
 40
0.3267581879
 40
0.3423593031
 40
0.3579956944
 40
0.3736641708
 40
0.4050586635
 40
0.436488483
 40
0.4678757579
 40
0.4835386266
 40
0.499171979
 40
0.5303909807
 40
0.5616378504
 40
0.5929532158
 40
0.6243343224
 40
0.655747363
 40
0.6871424635
 40
0.7184797168
 40
0.7497465697
 40
0.780970025
 40
0.7965942657
 40
0.8122419971
 40
0.8436147995
 40
0.8750545654
 40
0.9064759083
 40
0.9377952181
 40
0.9534036748
 40
0.9689683578
 40
1.0
 40
1.0
 40
1.0
 40
1.0
 10
5.4595848232
 20
5.227941766
 30
0.0
 10
5.4466005201
 20
5.2209527433
 30
0.0
 10
5.4271818694
 20
5.2103444616
 30
0.0
 10
5.4019884648
 20
5.1949930561
 30
0.0
 10
5.3835998914
 20
5.1826387982
 30
0.0
 10
5.3658863346
 20
5.1692151209
 30
0.0
 10
5.3490753341
 20
5.1545300471
 30
0.0
 10
5.333395694
 20
5.1385452909
 30
0.0
 10
5.3191293622
 20
5.1212884737
 30
0.0
 10
5.3086682968
 20
5.1058625628
 30
0.0
 10
5.301333128
 20
5.0929428638
 30
0.0
 10
5.2963872778
 20
5.0829718738
 30
0.0
 10
5.2920336478
 20
5.0727213686
 30
0.0
 10
5.2883150308
 20
5.062205373
 30
0.0
 10
5.2852310291
 20
5.0514620687
 30
0.0
 10
5.2819639659
 20
5.0368852695
 30
0.0
 10
5.2794725858
 20
5.0183139386
 30
0.0
 10
5.2790330761
 20
4.9958367562
 30
0.0
 10
5.2807987346
 20
4.9771854874
 30
0.0
 10
5.2834987591
 20
4.9624964546
 30
0.0
 10
5.287056115
 20
4.9480323044
 30
0.0
 10
5.2930651164
 20
4.9303851055
 30
0.0
 10
5.3025653183
 20
4.9101269555
 30
0.0
 10
5.3141568506
 20
4.8909456959
 30
0.0
 10
5.3276458067
 20
4.8730021545
 30
0.0
 10
5.3428374779
 20
4.8564515124
 30
0.0
 10
5.3595578459
 20
4.8414613943
 30
0.0
 10
5.3776655191
 20
4.8282344169
 30
0.0
 10
5.3970107922
 20
4.8169717642
 30
0.0
 10
5.4140454811
 20
4.8093931361
 30
0.0
 10
5.4281175258
 20
4.804525376
 30
0.0
 10
5.4424854547
 20
4.8004820489
 30
0.0
 10
5.4608943573
 20
4.7970255619
 30
0.0
 10
5.4833255602
 20
4.7954243652
 30
0.0
 10
5.5057815377
 20
4.7963706535
 30
0.0
 10
5.5242556978
 20
4.799295578
 30
0.0
 10
5.5386971815
 20
4.8029237289
 30
0.0
 10
5.5528241179
 20
4.8074059
 30
0.0
 10
5.5630799927
 20
4.8117279953
 30
0.0
 10
5.5697231017
 20
4.8149653448
 30
0.0
  0
SPLINE
  5
29F
100
AcDbEntity
  8
0
100
AcDbSpline
 62
7
  6
CONTINUOUS
 70
0
 71
3
 72
28
 73
24
 74
0
 42
0.0000001
 43
0.0000001
 44
0.0000000001
 40
0.0
 40
0.0
 40
0.0
 40
0.0
 40
0.0627540483
 40
0.0942633484
 40
0.1257836484
 40
0.1572587934
 40
0.1729634003
 40
0.1886364387
 40
0.21991019
 40
0.2511485767
 40
0.3136547535
 40
0.3762871239
 40
0.4076069922
 40
0.438869288
 40
0.4700663102
 40
0.5012248185
 40
0.5635050005
 40
0.6258433334
 40
0.6882913896
 40
0.7508370237
 40
0.8134132879
 40
0.8759069711
 40
1.0
 40
1.0
 40
1.0
 40
1.0
 10
6.9376830326
 20
5.9910611283
 30
0.0
 10
6.9201821858
 20
6.0061481424
 30
0.0
 10
6.8955184077
 20
6.0307863659
 30
0.0
 10
6.8662825835
 20
6.0667349724
 30
0.0
 10
6.8461856623
 20
6.0951765017
 30
0.0
 10
6.8310760887
 20
6.1199299375
 30
0.0
 10
6.8200271774
 20
6.1402690754
 30
0.0
 10
6.8097060492
 20
6.1609040325
 30
0.0
 10
6.7981112592
 20
6.1872780373
 30
0.0
 10
6.7822256293
 20
6.230507649
 30
0.0
 10
6.767094689
 20
6.2861897335
 30
0.0
 10
6.7575544091
 20
6.343084824
 30
0.0
 10
6.7528081863
 20
6.3889536878
 30
0.0
 10
6.7505780516
 20
6.4234198538
 30
0.0
 10
6.7496005997
 20
6.4578836923
 30
0.0
 10
6.7499002857
 20
6.5037816955
 30
0.0
 10
6.7531374781
 20
6.5610904128
 30
0.0
 10
6.7611473744
 20
6.6295373554
 30
0.0
 10
6.7728220641
 20
6.6975481814
 30
0.0
 10
6.7877051882
 20
6.765011856
 30
0.0
 10
6.8053422923
 20
6.8318205559
 30
0.0
 10
6.8318610375
 20
6.919661517
 30
0.0
 10
6.854603622
 20
6.9845280897
 30
0.0
 10
6.8705309344
 20
7.0273536239
 30
0.0
  0
SPLINE
  5
2A0
100
AcDbEntity
  8
0
100
AcDbSpline
 62
7
  6
CONTINUOUS
 70
0
 71
3
 72
49
 73
45
 74
0
 42
0.0000001
 43
0.0000001
 44
0.0000000001
 40
0.0
 40
0.0
 40
0.0
 40
0.0
 40
0.0312371898
 40
0.0624905299
 40
0.0781207132
 40
0.0937492005
 40
0.1093752332
 40
0.1249988427
 40
0.1562376674
 40
0.1874744955
 40
0.2030914961
 40
0.2187099407
 40
0.2499515657
 40
0.2655707613
 40
0.2811835146
 40
0.3124048884
 40
0.3280215827
 40
0.343643741
 40
0.3514570178
 40
0.3592714959
 40
0.3749015591
 40
0.3905299112
 40
0.40615387
 40
0.4217724735
 40
0.437386634
 40
0.4529992918
 40
0.46861513
 40
0.4842371044
 40
0.499866172
 40
0.5311418357
 40
0.5624334
 40
0.5937157363
 40
0.6249722592
 40
0.6562230797
 40
0.6874829223
 40
0.7187550248
 40
0.7500322506
 40
0.7656683621
 40
0.7813000878
 40
0.8125538178
 40
0.8438020698
 40
0.8750494469
 40
0.9375397427
 40
1.0
 40
1.0
 40
1.0
 40
1.0
 10
6.5023104948
 20
7.0268468698
 30
0.0
 10
6.5111703487
 20
7.0048712694
 30
0.0
 10
6.5272012431
 20
6.9602054967
 30
0.0
 10
6.5428554365
 20
6.90298882
 30
0.0
 10
6.5526629673
 20
6.856586106
 30
0.0
 10
6.5586379917
 20
6.8215183818
 30
0.0
 10
6.5632087246
 20
6.7862449127
 30
0.0
 10
6.5673954619
 20
6.7390194398
 30
0.0
 10
6.5690246299
 20
6.6797341398
 30
0.0
 10
6.5660822362
 20
6.6205127913
 30
0.0
 10
6.5611271682
 20
6.5733769581
 30
0.0
 10
6.5545743128
 20
6.5264336513
 30
0.0
 10
6.5458137682
 20
6.4798260702
 30
0.0
 10
6.5352344518
 20
6.4336307629
 30
0.0
 10
6.5235484286
 20
6.3877177376
 30
0.0
 10
6.5102856491
 20
6.3422230116
 30
0.0
 10
6.4956438618
 20
6.2971621643
 30
0.0
 10
6.4859538374
 20
6.2691675218
 30
0.0
 10
6.4779025073
 20
6.2468724984
 30
0.0
 10
6.4696578592
 20
6.2246418087
 30
0.0
 10
6.4589758816
 20
6.1969936806
 30
0.0
 10
6.4455066791
 20
6.1640787231
 30
0.0
 10
6.4313380185
 20
6.131467698
 30
0.0
 10
6.4164220214
 20
6.0992029887
 30
0.0
 10
6.4007101646
 20
6.0673272919
 30
0.0
 10
6.3841561335
 20
6.0358823135
 30
0.0
 10
6.3667075582
 20
6.0049177056
 30
0.0
 10
6.3483894114
 20
5.9744450707
 30
0.0
 10
6.3228548017
 20
5.9344713384
 30
0.0
 10
6.28895186
 20
5.8857662286
 30
0.0
 10
6.245407982
 20
5.8294149927
 30
0.0
 10
6.1992757514
 20
5.7751838061
 30
0.0
 10
6.1508081628
 20
5.7230761193
 30
0.0
 10
6.1002570791
 20
5.6730159617
 30
0.0
 10
6.0478437314
 20
5.6248958024
 30
0.0
 10
5.9937862772
 20
5.5786038959
 30
0.0
 10
5.9475449539
 20
5.5414546539
 30
0.0
 10
5.9099377434
 20
5.5125307912
 30
0.0
 10
5.8719606084
 20
5.4841239913
 30
0.0
 10
5.8238121926
 20
5.4495537231
 30
0.0
 10
5.765048859
 20
5.4094951529
 30
0.0
 10
5.685514679
 20
5.3578836012
 30
0.0
 10
5.5841102377
 20
5.296543361
 30
0.0
 10
5.5013032255
 20
5.2503974079
 30
0.0
 10
5.4595848232
 20
5.227941766
 30
0.0
  0
SPLINE
  5
2A1
100
AcDbEntity
  8
0
100
AcDbSpline
 62
7
  6
CONTINUOUS
 70
0
 71
3
 72
22
 73
18
 74
0
 42
0.0000001
 43
0.0000001
 44
0.0000000001
 40
0.0
 40
0.0
 40
0.0
 40
0.0
 40
0.0651908168
 40
0.1288982301
 40
0.1913384262
 40
0.2527409777
 40
0.3133472497
 40
0.3734082083
 40
0.4331816885
 40
0.4929292473
 40
0.5529127808
 40
0.6133911195
 40
0.6746168188
 40
0.7368333336
 40
0.8002727129
 40
0.8651538859
 40
1.0
 40
1.0
 40
1.0
 40
1.0
 10
7.5666357702
 20
6.1140347968
 30
0.0
 10
7.55009733
 20
6.1164622446
 30
0.0
 10
7.5175173837
 20
6.1221398721
 30
0.0
 10
7.4697171825
 20
6.1333095127
 30
0.0
 10
7.4235944003
 20
6.1470280873
 30
0.0
 10
7.3791527172
 20
6.1632965619
 30
0.0
 10
7.3363938889
 20
6.1821158315
 30
0.0
 10
7.2953205355
 20
6.2034861201
 30
0.0
 10
7.2559351866
 20
6.2274070133
 30
0.0
 10
7.2182402619
 20
6.2538774118
 30
0.0
 10
7.1822377945
 20
6.2828956349
 30
0.0
 10
7.1479293107
 20
6.3144595083
 30
0.0
 10
7.1153156035
 20
6.3485668152
 30
0.0
 10
7.0843972168
 20
6.3852145693
 30
0.0
 10
7.0551726268
 20
6.4244027999
 30
0.0
 10
7.0179939775
 20
6.4807481993
 30
0.0
 10
6.9933858482
 20
6.5258017821
 30
0.0
 10
6.9782797193
 20
6.5569033199
 30
0.0
  0
SPLINE
  5
2A2
100
AcDbEntity
  8
0
100
AcDbSpline
 62
7
  6
CONTINUOUS
 70
0
 71
3
 72
38
 73
34
 74
0
 42
0.0000001
 43
0.0000001
 44
0.0000000001
 40
0.0
 40
0.0
 40
0.0
 40
0.0
 40
0.0625876209
 40
0.0941746519
 40
0.1258872127
 40
0.1894355729
 40
0.2211962719
 40
0.2528629054
 40
0.2843901038
 40
0.3157445559
 40
0.3469094772
 40
0.3624246196
 40
0.3778961349
 40
0.3933288511
 40
0.4087375418
 40
0.4241471434
 40
0.4395776465
 40
0.4705497915
 40
0.5017129227
 40
0.5330561636
 40
0.5645224358
 40
0.5802756487
 40
0.5960262818
 40
0.6274900257
 40
0.6588897627
 40
0.6902128667
 40
0.7214496991
 40
0.7525947069
 40
0.8146100135
 40
0.8763404269
 40
0.938003472
 40
0.9689299169
 40
1.0
 40
1.0
 40
1.0
 40
1.0
 10
6.9407536887
 20
6.5524494169
 30
0.0
 10
6.9358595048
 20
6.5301311873
 30
0.0
 10
6.931148576
 20
6.4959015789
 30
0.0
 10
6.9298766242
 20
6.4499360336
 30
0.0
 10
6.9318892067
 20
6.4036391979
 30
0.0
 10
6.9387705908
 20
6.3576004131
 30
0.0
 10
6.950381638
 20
6.3126939791
 30
0.0
 10
6.9614251125
 20
6.2798023526
 30
0.0
 10
6.9747695081
 20
6.2479362878
 30
0.0
 10
6.9903830584
 20
6.2173222277
 30
0.0
 10
7.0052848822
 20
6.1930037958
 30
0.0
 10
7.0183087922
 20
6.174417977
 30
0.0
 10
7.028609125
 20
6.160954942
 30
0.0
 10
7.0394567055
 20
6.147979393
 30
0.0
 10
7.0508373519
 20
6.1355000317
 30
0.0
 10
7.0626973902
 20
6.1234776493
 30
0.0
 10
7.0791127511
 20
6.1079883542
 30
0.0
 10
7.1006370774
 20
6.0895621012
 30
0.0
 10
7.1276474103
 20
6.0686895549
 30
0.0
 10
7.1555351244
 20
6.0487015267
 30
0.0
 10
7.1792162474
 20
6.0325202429
 30
0.0
 10
7.1982859719
 20
6.0196827787
 30
0.0
 10
7.2173704251
 20
6.0068687803
 30
0.0
 10
7.2411613836
 20
5.9908175302
 30
0.0
 10
7.2695494284
 20
5.9714160324
 30
0.0
 10
7.2976852009
 20
5.9517944177
 30
0.0
 10
7.3254920032
 20
5.9318672165
 30
0.0
 10
7.3619707294
 20
5.9048159674
 30
0.0
 10
7.4063908272
 20
5.8697924609
 30
0.0
 10
7.4572486864
 20
5.8250693397
 30
0.0
 10
7.4969763294
 20
5.7850415011
 30
0.0
 10
7.52677387
 20
5.7511138929
 30
0.0
 10
7.5409567328
 20
5.7334640795
 30
0.0
 10
7.5478542009
 20
5.7244596612
 30
0.0
  0
SPLINE
  5
2A3
100
AcDbEntity
  8
0
100
AcDbSpline
 62
7
  6
CONTINUOUS
 70
0
 71
3
 72
30
 73
26
 74
0
 42
0.0000001
 43
0.0000001
 44
0.0000000001
 40
0.0
 40
0.0
 40
0.0
 40
0.0
 40
0.0623809648
 40
0.1247025283
 40
0.1402937358
 40
0.1558928625
 40
0.1871034159
 40
0.2183207909
 40
0.2495297074
 40
0.2807189976
 40
0.3118834378
 40
0.3741963893
 40
0.4367857679
 40
0.4997564319
 40
0.5630045694
 40
0.5946622735
 40
0.6262786271
 40
0.6578018104
 40
0.6891901583
 40
0.7204493535
 40
0.7515973651
 40
0.8136326381
 40
0.8755214585
 40
0.9375337285
 40
1.0
 40
1.0
 40
1.0
 40
1.0
 10
7.3697732719
 20
6.4034864497
 30
0.0
 10
7.3545363814
 20
6.4085220851
 30
0.0
 10
7.3244987825
 20
6.4199333876
 30
0.0
 10
7.2921934553
 20
6.4362154209
 30
0.0
 10
7.2715882508
 20
6.4486348501
 30
0.0
 10
7.2581015457
 20
6.4573450616
 30
0.0
 10
7.2417513329
 20
6.4690124397
 30
0.0
 10
7.2230369578
 20
6.4842025406
 30
0.0
 10
7.2053127
 20
6.5005298767
 30
0.0
 10
7.1886679813
 20
6.5179391937
 30
0.0
 10
7.1680378954
 20
6.5425195057
 30
0.0
 10
7.1453207726
 20
6.5757643853
 30
0.0
 10
7.1229508405
 20
6.6187182043
 30
0.0
 10
7.1052370027
 20
6.6640337486
 30
0.0
 10
7.09417976
 20
6.7031783973
 30
0.0
 10
7.0874436328
 20
6.7350296502
 30
0.0
 10
7.0834276554
 20
6.7590910576
 30
0.0
 10
7.080425122
 20
6.7832289207
 30
0.0
 10
7.0784140127
 20
6.8073773651
 30
0.0
 10
7.0774157404
 20
6.8314931031
 30
0.0
 10
7.0774561857
 20
6.8635136748
 30
0.0
 10
7.0801155301
 20
6.903374234
 30
0.0
 10
7.0876413659
 20
6.950679789
 30
0.0
 10
7.0996337292
 20
6.997171489
 30
0.0
 10
7.1106411519
 20
7.0273079077
 30
0.0
 10
7.1168959385
 20
7.0421100329
 30
0.0
  0
SPLINE
  5
2A4
100
AcDbEntity
  8
0
100
AcDbSpline
 62
7
  6
CONTINUOUS
 70
0
 71
3
 72
29
 73
25
 74
0
 42
0.0000001
 43
0.0000001
 44
0.0000000001
 40
0.0
 40
0.0
 40
0.0
 40
0.0
 40
0.0336878862
 40
0.0663804519
 40
0.0983313142
 40
0.1297621001
 40
0.1608590876
 40
0.1917718771
 40
0.2226139801
 40
0.2534649683
 40
0.3153139804
 40
0.3774681064
 40
0.408623429
 40
0.4397623133
 40
0.4708396713
 40
0.5018740077
 40
0.5639807263
 40
0.626328631
 40
0.6888688083
 40
0.7513515605
 40
0.8136247926
 40
0.8758024358
 40
0.9379369972
 40
1.0
 40
1.0
 40
1.0
 40
1.0
 10
7.5640131383
 20
6.9682039562
 30
0.0
 10
7.5564144458
 20
6.9680968907
 30
0.0
 10
7.5414400289
 20
6.967143076
 30
0.0
 10
7.5195255369
 20
6.9634790397
 30
0.0
 10
7.4985867587
 20
6.9577433058
 30
0.0
 10
7.4786647069
 20
6.9500734098
 30
0.0
 10
7.4597950568
 20
6.9406070006
 30
0.0
 10
7.4420132191
 20
6.9294817382
 30
0.0
 10
7.4253521962
 20
6.9168331015
 30
0.0
 10
7.4046683603
 20
6.8981120699
 30
0.0
 10
7.3817570482
 20
6.8715337629
 30
0.0
 10
7.3631005203
 20
6.8417645123
 30
0.0
 10
7.3508056966
 20
6.8165053213
 30
0.0
 10
7.3429292632
 20
6.7969509424
 30
0.0
 10
7.3364454103
 20
6.7769213208
 30
0.0
 10
7.329638001
 20
6.7497206881
 30
0.0
 10
7.3244268013
 20
6.7149363941
 30
0.0
 10
7.3230290507
 20
6.6726955564
 30
0.0
 10
7.3260128773
 20
6.6304641833
 30
0.0
 10
7.3329323295
 20
6.5887260899
 30
0.0
 10
7.3434237295
 20
6.5478317986
 30
0.0
 10
7.3571629271
 20
6.5080010922
 30
0.0
 10
7.373826663
 20
6.4693630009
 30
0.0
 10
7.386692639
 20
6.4444473491
 30
0.0
 10
7.3935144063
 20
6.4322213443
 30
0.0
  0
SPLINE
  5
2A5
100
AcDbEntity
  8
0
100
AcDbSpline
 62
7
  6
CONTINUOUS
 70
0
 71
3
 72
21
 73
17
 74
0
 42
0.0000001
 43
0.0000001
 44
0.0000000001
 40
0.0
 40
0.0
 40
0.0
 40
0.0
 40
0.1263345727
 40
0.189644506
 40
0.2528466442
 40
0.378507877
 40
0.4409526094
 40
0.5031620622
 40
0.5652435916
 40
0.6273314525
 40
0.6894365445
 40
0.7515431252
 40
0.8136568633
 40
0.8758020884
 40
0.9379427772
 40
1.0
 40
1.0
 40
1.0
 40
1.0
 10
5.1563865454
 20
2.8162923631
 30
0.0
 10
5.1701601674
 20
2.8009393322
 30
0.0
 10
5.1918367216
 20
2.778753413
 30
0.0
 10
5.2227446274
 20
2.7513667944
 30
0.0
 10
5.254935378
 20
2.7256790762
 30
0.0
 10
5.2891138713
 20
2.7027676991
 30
0.0
 10
5.3251260545
 20
2.6833924816
 30
0.0
 10
5.3529385252
 20
2.6708384292
 30
0.0
 10
5.3815597584
 20
2.6604170906
 30
0.0
 10
5.4109069282
 20
2.6523156974
 30
0.0
 10
5.4408133364
 20
2.6465929959
 30
0.0
 10
5.4710915607
 20
2.6433214399
 30
0.0
 10
5.5015453279
 20
2.6425726396
 30
0.0
 10
5.5319586683
 20
2.6444291726
 30
0.0
 10
5.5620936135
 20
2.6488485428
 30
0.0
 10
5.5818661203
 20
2.6534699235
 30
0.0
 10
5.5916257141
 20
2.6561906074
 30
0.0
  0
SPLINE
  5
2A6
100
AcDbEntity
  8
0
100
AcDbSpline
 62
7
  6
CONTINUOUS
 70
0
 71
3
 72
44
 73
40
 74
0
 42
0.0000001
 43
0.0000001
 44
0.0000000001
 40
0.0
 40
0.0
 40
0.0
 40
0.0
 40
0.0311849402
 40
0.0625462587
 40
0.0782645391
 40
0.0939781808
 40
0.1096678224
 40
0.1253245797
 40
0.1409637179
 40
0.1565984898
 40
0.1878660802
 40
0.219132576
 40
0.2503604362
 40
0.2815802304
 40
0.3128082869
 40
0.3440343633
 40
0.3752518206
 40
0.4064681277
 40
0.4376896259
 40
0.468923262
 40
0.5001638813
 40
0.5314016819
 40
0.5626352929
 40
0.5782577662
 40
0.593884215
 40
0.6251432474
 40
0.6564120518
 40
0.6720471894
 40
0.687675899
 40
0.7032944349
 40
0.7189036712
 40
0.7501165445
 40
0.7813581592
 40
0.8126314978
 40
0.8439095548
 40
0.8751520324
 40
0.9063731479
 40
0.9375942702
 40
1.0
 40
1.0
 40
1.0
 40
1.0
 10
6.3151941684
 20
2.378707354
 30
0.0
 10
6.3095577463
 20
2.3610619982
 30
0.0
 10
6.2957753547
 20
2.3264204743
 30
0.0
 10
6.2730525121
 20
2.2857148487
 30
0.0
 10
6.2518744598
 20
2.2549864252
 30
0.0
 10
6.2345683283
 20
2.2329636688
 30
0.0
 10
6.215940915
 20
2.2120963727
 30
0.0
 10
6.1960694197
 20
2.1924739625
 30
0.0
 10
6.175073379
 20
2.1741106341
 30
0.0
 10
6.1457213805
 20
2.1513110908
 30
0.0
 10
6.1067099041
 20
2.125948517
 30
0.0
 10
6.0570417153
 20
2.1005520301
 30
0.0
 10
6.0051669781
 20
2.080126985
 30
0.0
 10
5.9516393833
 20
2.0646479115
 30
0.0
 10
5.8969449375
 20
2.0540376809
 30
0.0
 10
5.8415414207
 20
2.0482131964
 30
0.0
 10
5.7858514478
 20
2.0471298137
 30
0.0
 10
5.7302731815
 20
2.0507708613
 30
0.0
 10
5.6751931135
 20
2.059109879
 30
0.0
 10
5.6210121176
 20
2.0721273837
 30
0.0
 10
5.568134718
 20
2.0897402478
 30
0.0
 10
5.5169747693
 20
2.111849311
 30
0.0
 10
5.476112143
 20
2.1339452799
 30
0.0
 10
5.4447211539
 20
2.1537666605
 30
0.0
 10
5.4142350327
 20
2.1749797538
 30
0.0
 10
5.3779102832
 20
2.2039869288
 30
0.0
 10
5.344205085
 20
2.2360039409
 30
0.0
 10
5.3189430697
 20
2.2632471891
 30
0.0
 10
5.3008785939
 20
2.2844522765
 30
0.0
 10
5.2837324015
 20
2.3063869044
 30
0.0
 10
5.2621255867
 20
2.3365437562
 30
0.0
 10
5.2374216382
 20
2.3758461398
 30
0.0
 10
5.2114198067
 20
2.4251295168
 30
0.0
 10
5.1889568269
 20
2.4761609928
 30
0.0
 10
5.1699337595
 20
2.5285670394
 30
0.0
 10
5.1542458112
 20
2.5820288391
 30
0.0
 10
5.1417265654
 20
2.6362824231
 30
0.0
 10
5.1289929202
 20
2.7093667922
 30
0.0
 10
5.123573304
 20
2.7648218331
 30
0.0
 10
5.1215298283
 20
2.8018341799
 30
0.0
  0
SPLINE
  5
2A7
100
AcDbEntity
  8
0
100
AcDbSpline
 62
7
  6
CONTINUOUS
 70
0
 71
3
 72
15
 73
11
 74
0
 42
0.0000001
 43
0.0000001
 44
0.0000000001
 40
0.0
 40
0.0
 40
0.0
 40
0.0
 40
0.1253832763
 40
0.2506201982
 40
0.3756695648
 40
0.4381479362
 40
0.500613126
 40
0.6255432033
 40
0.7504967101
 40
1.0
 40
1.0
 40
1.0
 40
1.0
 10
6.3111053498
 20
2.6091553435
 30
0.0
 10
6.313554028
 20
2.5997389162
 30
0.0
 10
6.317980735
 20
2.5807909513
 30
0.0
 10
6.3230659099
 20
2.5520716904
 30
0.0
 10
6.3258818448
 20
2.5279483341
 30
0.0
 10
6.3272047541
 20
2.5085911906
 30
0.0
 10
6.3278799203
 20
2.4892099194
 30
0.0
 10
6.3274955168
 20
2.4649548008
 30
0.0
 10
6.3244209354
 20
2.4263075789
 30
0.0
 10
6.3195013401
 20
2.3975833522
 30
0.0
 10
6.3151941684
 20
2.378707354
 30
0.0
  0
SPLINE
  5
2A8
100
AcDbEntity
  8
0
100
AcDbSpline
 62
7
  6
CONTINUOUS
 70
0
 71
3
 72
45
 73
41
 74
0
 42
0.0000001
 43
0.0000001
 44
0.0000000001
 40
0.0
 40
0.0
 40
0.0
 40
0.0
 40
0.031340085
 40
0.062714443
 40
0.093966913
 40
0.1250388496
 40
0.1559948645
 40
0.1869756023
 40
0.202471793
 40
0.2179570364
 40
0.2334354563
 40
0.2489175455
 40
0.2644069827
 40
0.2798995422
 40
0.2953848804
 40
0.3108565172
 40
0.3418292947
 40
0.3729390196
 40
0.3885416869
 40
0.4041526374
 40
0.4197481706
 40
0.4352994244
 40
0.46625031
 40
0.4971204329
 40
0.5280324309
 40
0.5590847782
 40
0.590335538
 40
0.6217323257
 40
0.6531974779
 40
0.6846695866
 40
0.747453599
 40
0.7787958309
 40
0.8101370137
 40
0.8415545326
 40
0.8573305208
 40
0.8731608959
 40
0.9049215368
 40
0.9367222927
 40
0.9684470165
 40
1.0
 40
1.0
 40
1.0
 40
1.0
 10
5.6169917476
 20
2.6364966658
 30
0.0
 10
5.6167837224
 20
2.6267899346
 30
0.0
 10
5.616933025
 20
2.6073470862
 30
0.0
 10
5.6191543226
 20
2.5782954717
 30
0.0
 10
5.6237044441
 20
2.5495894756
 30
0.0
 10
5.630921257
 20
2.5215552855
 30
0.0
 10
5.6411441641
 20
2.494547168
 30
0.0
 10
5.6523965658
 20
2.4732780278
 30
0.0
 10
5.6630249134
 20
2.4572786368
 30
0.0
 10
5.6718074681
 20
2.4458599673
 30
0.0
 10
5.6813947874
 20
2.43511316
 30
0.0
 10
5.691756209
 20
2.4251090757
 30
0.0
 10
5.7028069771
 20
2.4158669961
 30
0.0
 10
5.7144722113
 20
2.4074131172
 30
0.0
 10
5.7266775132
 20
2.3997699911
 30
0.0
 10
5.7435890372
 20
2.3906847909
 30
0.0
 10
5.7657827265
 20
2.3813260945
 30
0.0
 10
5.7888838157
 20
2.3744308387
 30
0.0
 10
5.8077319889
 20
2.3702218094
 30
0.0
 10
5.822013439
 20
2.3676808443
 30
0.0
 10
5.8363695461
 20
2.3657232125
 30
0.0
 10
5.8555182194
 20
2.3638401564
 30
0.0
 10
5.8794854813
 20
2.362773639
 30
0.0
 10
5.9082258366
 20
2.3634655151
 30
0.0
 10
5.9368915939
 20
2.3660096001
 30
0.0
 10
5.96546566
 20
2.3702914333
 30
0.0
 10
5.993906257
 20
2.3761730387
 30
0.0
 10
6.0220945806
 20
2.3836816219
 30
0.0
 10
6.0498592506
 20
2.3928644368
 30
0.0
 10
6.0860228186
 20
2.4073708181
 30
0.0
 10
6.1206710895
 20
2.4254080801
 30
0.0
 10
6.152961038
 20
2.4471023953
 30
0.0
 10
6.1758226875
 20
2.4652431539
 30
0.0
 10
6.1935677959
 20
2.4819356399
 30
0.0
 10
6.2068730911
 20
2.4962324825
 30
0.0
 10
6.2195900857
 20
2.5111946139
 30
0.0
 10
6.2342529166
 20
2.5309845854
 30
0.0
 10
6.2496704783
 20
2.5562033467
 30
0.0
 10
6.2627146016
 20
2.5826563451
 30
0.0
 10
6.2697069431
 20
2.6010086654
 30
0.0
 10
6.2727287975
 20
2.6103047589
 30
0.0
  0
SPLINE
  5
2A9
100
AcDbEntity
  8
0
100
AcDbSpline
 62
7
  6
CONTINUOUS
 70
0
 71
3
 72
65
 73
61
 74
0
 42
0.0000001
 43
0.0000001
 44
0.0000000001
 40
0.0
 40
0.0
 40
0.0
 40
0.0
 40
0.0200893615
 40
0.0383920223
 40
0.0703864019
 40
0.0844746721
 40
0.09749977
 40
0.1096030418
 40
0.1209176342
 40
0.1315704039
 40
0.141677202
 40
0.1513393132
 40
0.1606405218
 40
0.1783774594
 40
0.1869232783
 40
0.1953162993
 40
0.2118001327
 40
0.228081591
 40
0.2442417209
 40
0.2603417673
 40
0.2764778973
 40
0.2926733159
 40
0.3250715489
 40
0.357218615
 40
0.3885199528
 40
0.4036762042
 40
0.4184150779
 40
0.4326810057
 40
0.4464479936
 40
0.4724680251
 40
0.4847872149
 40
0.496712952
 40
0.5083268977
 40
0.5197365042
 40
0.5310436548
 40
0.542326737
 40
0.5536638589
 40
0.565130134
 40
0.5767615562
 40
0.5885665267
 40
0.6005505753
 40
0.6127198491
 40
0.6250766839
 40
0.6376177636
 40
0.6632061028
 40
0.6762826329
 40
0.6895498514
 40
0.7030307202
 40
0.7167679404
 40
0.7308072047
 40
0.7451751938
 40
0.77490232
 40
0.7902601231
 40
0.805911338
 40
0.837955993
 40
0.8707401763
 40
0.9038204229
 40
0.9366535599
 40
0.9687562228
 40
1.0
 40
1.0
 40
1.0
 40
1.0
 10
6.6064678937
 20
3.6408092159
 30
0.0
 10
6.6062914764
 20
3.6362296968
 30
0.0
 10
6.6062457367
 20
3.6274609599
 30
0.0
 10
6.6073809514
 20
3.6114359667
 30
0.0
 10
6.6101489833
 20
3.5969196263
 30
0.0
 10
6.6145472375
 20
3.5841546649
 30
0.0
 10
6.6182516241
 20
3.5759962735
 30
0.0
 10
6.6223988689
 20
3.5687759367
 30
0.0
 10
6.6269340025
 20
3.5624469702
 30
0.0
 10
6.6318017707
 20
3.5569658033
 30
0.0
 10
6.6369456175
 20
3.552287593
 30
0.0
 10
6.6423100153
 20
3.5483663416
 30
0.0
 10
6.6495592386
 20
3.5441542493
 30
0.0
 10
6.6571656438
 20
3.5411492051
 30
0.0
 10
6.6648675421
 20
3.5393082698
 30
0.0
 10
6.6724230844
 20
3.5382156824
 30
0.0
 10
6.6818597101
 20
3.5380975611
 30
0.0
 10
6.6929415519
 20
3.5397250489
 30
0.0
 10
6.7036005308
 20
3.5428414325
 30
0.0
 10
6.7137603373
 20
3.5472237022
 30
0.0
 10
6.7233958325
 20
3.5526667756
 30
0.0
 10
6.7355538339
 20
3.5610761653
 30
0.0
 10
6.7494519913
 20
3.5732496143
 30
0.0
 10
6.7643940358
 20
3.5892346795
 30
0.0
 10
6.7759514809
 20
3.6029480882
 30
0.0
 10
6.7848858417
 20
3.6136750526
 30
0.0
 10
6.7913976293
 20
3.6213621587
 30
0.0
 10
6.7978624831
 20
3.6286730625
 30
0.0
 10
6.8063265085
 20
3.6376394928
 30
0.0
 10
6.8150643599
 20
3.6457498646
 30
0.0
 10
6.8243039048
 20
3.6525607667
 30
0.0
 10
6.8312838015
 20
3.6568477948
 30
0.0
 10
6.8384558696
 20
3.6603612655
 30
0.0
 10
6.8458296752
 20
3.6630465609
 30
0.0
 10
6.8533838823
 20
3.6648757942
 30
0.0
 10
6.8610786482
 20
3.6658476365
 30
0.0
 10
6.8688702723
 20
3.6659525868
 30
0.0
 10
6.8767038695
 20
3.6651828012
 30
0.0
 10
6.8845124603
 20
3.6635510825
 30
0.0
 10
6.8922188099
 20
3.6610733043
 30
0.0
 10
6.899740672
 20
3.6577638853
 30
0.0
 10
6.9069918833
 20
3.6536376078
 30
0.0
 10
6.9139008578
 20
3.6487372917
 30
0.0
 10
6.9226161545
 20
3.6411872021
 30
0.0
 10
6.9303078476
 20
3.6322820538
 30
0.0
 10
6.9367013202
 20
3.6222920333
 30
0.0
 10
6.9408397931
 20
3.6141866951
 30
0.0
 10
6.9442037403
 20
3.605568852
 30
0.0
 10
6.9467478484
 20
3.5964926499
 30
0.0
 10
6.9485010605
 20
3.587027082
 30
0.0
 10
6.9498244688
 20
3.5738191397
 30
0.0
 10
6.9496029992
 20
3.5602026602
 30
0.0
 10
6.9480156478
 20
3.5464324403
 30
0.0
 10
6.9454750525
 20
3.5322650098
 30
0.0
 10
6.9406028231
 20
3.5145209808
 30
0.0
 10
6.9325607925
 20
3.4936516256
 30
0.0
 10
6.9227011524
 20
3.4733830111
 30
0.0
 10
6.9114316901
 20
3.4540483944
 30
0.0
 10
6.8990723508
 20
3.4358981873
 30
0.0
 10
6.890061277
 20
3.424578912
 30
0.0
 10
6.8854015827
 20
3.4191854913
 30
0.0
  0
SPLINE
  5
2AA
100
AcDbEntity
  8
0
100
AcDbSpline
 62
7
  6
CONTINUOUS
 70
0
 71
3
 72
55
 73
51
 74
0
 42
0.0000001
 43
0.0000001
 44
0.0000000001
 40
0.0
 40
0.0
 40
0.0
 40
0.0
 40
0.0163776731
 40
0.0326803511
 40
0.0489475335
 40
0.0652094857
 40
0.0814845003
 40
0.0977781247
 40
0.1140932176
 40
0.1304309567
 40
0.1467853914
 40
0.1631451642
 40
0.1958396825
 40
0.2284517215
 40
0.2609474619
 40
0.2933076386
 40
0.3255308636
 40
0.3576597535
 40
0.3737188634
 40
0.3897857068
 40
0.4219493443
 40
0.4541890443
 40
0.4865489204
 40
0.5190581686
 40
0.5516391284
 40
0.5841831992
 40
0.6165837617
 40
0.6486773394
 40
0.6802049819
 40
0.6956905074
 40
0.7109584349
 40
0.7259944527
 40
0.7407893873
 40
0.7553353573
 40
0.7696331431
 40
0.7975263866
 40
0.8112153733
 40
0.8248002827
 40
0.8383603404
 40
0.8519754855
 40
0.8657169905
 40
0.8796558777
 40
0.893858083
 40
0.9083517174
 40
0.9231397254
 40
0.9382153307
 40
0.9535460559
 40
0.9690331706
 40
0.9845583989
 40
1.0
 40
1.0
 40
1.0
 40
1.0
 10
6.0974539539
 20
4.3200582706
 30
0.0
 10
6.1029722243
 20
4.3208217929
 30
0.0
 10
6.1140161778
 20
4.3221162193
 30
0.0
 10
6.1306140824
 20
4.3234596471
 30
0.0
 10
6.1472045501
 20
4.3243062359
 30
0.0
 10
6.1637998373
 20
4.3247684243
 30
0.0
 10
6.1804093749
 20
4.32493803
 30
0.0
 10
6.1970374617
 20
4.3248425099
 30
0.0
 10
6.2136837585
 20
4.324515996
 30
0.0
 10
6.2303457946
 20
4.3239987342
 30
0.0
 10
6.247016215
 20
4.3232911987
 30
0.0
 10
6.2692304239
 20
4.3220436046
 30
0.0
 10
6.2969274997
 20
4.3198402476
 30
0.0
 10
6.3299721132
 20
4.3159099799
 30
0.0
 10
6.3626854902
 20
4.3104365378
 30
0.0
 10
6.3949224569
 20
4.3031935555
 30
0.0
 10
6.426526815
 20
4.2939805043
 30
0.0
 10
6.4522079274
 20
4.2844869032
 30
0.0
 10
6.4722323083
 20
4.2757148471
 30
0.0
 10
6.491898481
 20
4.2661404116
 30
0.0
 10
6.5157682533
 20
4.2526779301
 30
0.0
 10
6.543048415
 20
4.2341975892
 30
0.0
 10
6.5687877994
 20
4.2134328103
 30
0.0
 10
6.592757113
 20
4.1904801404
 30
0.0
 10
6.614780906
 20
4.1655727359
 30
0.0
 10
6.6346474285
 20
4.1389584934
 30
0.0
 10
6.6521267392
 20
4.1109119674
 30
0.0
 10
6.6669635176
 20
4.0817682985
 30
0.0
 10
6.6769293718
 20
4.0567236505
 30
0.0
 10
6.6832349547
 20
4.0364901706
 30
0.0
 10
6.6870632614
 20
4.0213842839
 30
0.0
 10
6.6899748458
 20
4.0063136253
 30
0.0
 10
6.6919262573
 20
3.9913357318
 30
0.0
 10
6.6928753053
 20
3.9765096078
 30
0.0
 10
6.6927497339
 20
3.9572007205
 30
0.0
 10
6.6904703897
 20
3.9382275531
 30
0.0
 10
6.6857811206
 20
3.9200352689
 30
0.0
 10
6.6810632961
 20
3.9069474855
 30
0.0
 10
6.6750757829
 20
3.8944164521
 30
0.0
 10
6.6678216354
 20
3.8825108256
 30
0.0
 10
6.6593326889
 20
3.8712903103
 30
0.0
 10
6.6496372516
 20
3.8608203871
 30
0.0
 10
6.6387751527
 20
3.8511784252
 30
0.0
 10
6.6268377746
 20
3.8424114268
 30
0.0
 10
6.613926468
 20
3.8345689866
 30
0.0
 10
6.6001489539
 20
3.8277103869
 30
0.0
 10
6.5856438993
 20
3.8218973305
 30
0.0
 10
6.5705946925
 20
3.8171564514
 30
0.0
 10
6.5552013144
 20
3.8135300572
 30
0.0
 10
6.5447869439
 20
3.8118757836
 30
0.0
 10
6.5395719618
 20
3.8112496325
 30
0.0
  0
SPLINE
  5
2AB
100
AcDbEntity
  8
0
100
AcDbSpline
 62
7
  6
CONTINUOUS
 70
0
 71
3
 72
44
 73
40
 74
0
 42
0.0000001
 43
0.0000001
 44
0.0000000001
 40
0.0
 40
0.0
 40
0.0
 40
0.0
 40
0.0311849402
 40
0.0625462587
 40
0.0782645391
 40
0.0939781808
 40
0.1096678224
 40
0.1253245797
 40
0.1409637179
 40
0.1565984898
 40
0.1878660802
 40
0.219132576
 40
0.2503604362
 40
0.2815802304
 40
0.3128082869
 40
0.3440343633
 40
0.3752518206
 40
0.4064681277
 40
0.4376896259
 40
0.468923262
 40
0.5001638813
 40
0.5314016819
 40
0.5626352929
 40
0.5782577662
 40
0.593884215
 40
0.6251432474
 40
0.6564120518
 40
0.6720471894
 40
0.687675899
 40
0.7032944349
 40
0.7189036712
 40
0.7501165445
 40
0.7813581592
 40
0.8126314978
 40
0.8439095548
 40
0.8751520324
 40
0.9063731479
 40
0.9375942702
 40
1.0
 40
1.0
 40
1.0
 40
1.0
 10
7.099349323
 20
3.1628625087
 30
0.0
 10
7.1169946789
 20
3.1684989308
 30
0.0
 10
7.1516362028
 20
3.1822813223
 30
0.0
 10
7.1923418283
 20
3.2050041649
 30
0.0
 10
7.2230702518
 20
3.2261822172
 30
0.0
 10
7.2450930082
 20
3.2434883488
 30
0.0
 10
7.2659603043
 20
3.2621157621
 30
0.0
 10
7.2855827145
 20
3.2819872573
 30
0.0
 10
7.3039460429
 20
3.3029832981
 30
0.0
 10
7.3267455862
 20
3.3323352965
 30
0.0
 10
7.35210816
 20
3.3713467729
 30
0.0
 10
7.3775046469
 20
3.4210149617
 30
0.0
 10
7.397929692
 20
3.4728896989
 30
0.0
 10
7.4134087655
 20
3.5264172937
 30
0.0
 10
7.4240189961
 20
3.5811117395
 30
0.0
 10
7.4298434806
 20
3.6365152563
 30
0.0
 10
7.4309268633
 20
3.6922052292
 30
0.0
 10
7.4272858157
 20
3.7477834955
 30
0.0
 10
7.418946798
 20
3.8028635635
 30
0.0
 10
7.4059292933
 20
3.8570445594
 30
0.0
 10
7.3883164292
 20
3.909921959
 30
0.0
 10
7.366207366
 20
3.9610819077
 30
0.0
 10
7.3441113971
 20
4.001944534
 30
0.0
 10
7.3242900165
 20
4.0333355232
 30
0.0
 10
7.3030769232
 20
4.0638216443
 30
0.0
 10
7.2740697482
 20
4.1001463938
 30
0.0
 10
7.2420527362
 20
4.133851592
 30
0.0
 10
7.2148094879
 20
4.1591136073
 30
0.0
 10
7.1936044005
 20
4.1771780831
 30
0.0
 10
7.1716697726
 20
4.1943242755
 30
0.0
 10
7.1415129208
 20
4.2159310903
 30
0.0
 10
7.1022105372
 20
4.2406350388
 30
0.0
 10
7.0529271603
 20
4.2666368703
 30
0.0
 10
7.0018956842
 20
4.2890998501
 30
0.0
 10
6.9494896377
 20
4.3081229175
 30
0.0
 10
6.8960278379
 20
4.3238108658
 30
0.0
 10
6.8417742539
 20
4.3363301116
 30
0.0
 10
6.7686898849
 20
4.3490637568
 30
0.0
 10
6.7132348439
 20
4.3544833731
 30
0.0
 10
6.6762224971
 20
4.3565268487
 30
0.0
  0
SPLINE
  5
2AC
100
AcDbEntity
  8
0
100
AcDbSpline
 62
7
  6
CONTINUOUS
 70
0
 71
3
 72
21
 73
17
 74
0
 42
0.0000001
 43
0.0000001
 44
0.0000000001
 40
0.0
 40
0.0
 40
0.0
 40
0.0
 40
0.1263345727
 40
0.189644506
 40
0.2528466442
 40
0.378507877
 40
0.4409526094
 40
0.5031620622
 40
0.5652435916
 40
0.6273314525
 40
0.6894365445
 40
0.7515431252
 40
0.8136568633
 40
0.8758020884
 40
0.9379427772
 40
1.0
 40
1.0
 40
1.0
 40
1.0
 10
6.6617643139
 20
4.3216701316
 30
0.0
 10
6.6771173448
 20
4.3078965096
 30
0.0
 10
6.699303264
 20
4.2862199554
 30
0.0
 10
6.7266898827
 20
4.2553120497
 30
0.0
 10
6.7523776008
 20
4.223121299
 30
0.0
 10
6.7752889779
 20
4.1889428057
 30
0.0
 10
6.7946641954
 20
4.1529306226
 30
0.0
 10
6.8072182478
 20
4.1251181518
 30
0.0
 10
6.8176395864
 20
4.0964969187
 30
0.0
 10
6.8257409796
 20
4.0671497488
 30
0.0
 10
6.8314636811
 20
4.0372433406
 30
0.0
 10
6.8347352371
 20
4.0069651163
 30
0.0
 10
6.8354840375
 20
3.9765113491
 30
0.0
 10
6.8336275045
 20
3.9460980087
 30
0.0
 10
6.8292081342
 20
3.9159630635
 30
0.0
 10
6.8245867535
 20
3.8961905567
 30
0.0
 10
6.8218660696
 20
3.8864309629
 30
0.0
  0
SPLINE
  5
2AD
100
AcDbEntity
  8
0
100
AcDbSpline
 62
7
  6
CONTINUOUS
 70
0
 71
3
 72
45
 73
41
 74
0
 42
0.0000001
 43
0.0000001
 44
0.0000000001
 40
0.0
 40
0.0
 40
0.0
 40
0.0
 40
0.031340085
 40
0.062714443
 40
0.093966913
 40
0.1250388496
 40
0.1559948645
 40
0.1869756023
 40
0.202471793
 40
0.2179570364
 40
0.2334354563
 40
0.2489175455
 40
0.2644069827
 40
0.2798995422
 40
0.2953848804
 40
0.3108565172
 40
0.3418292947
 40
0.3729390196
 40
0.3885416869
 40
0.4041526374
 40
0.4197481706
 40
0.4352994244
 40
0.46625031
 40
0.4971204329
 40
0.5280324309
 40
0.5590847782
 40
0.590335538
 40
0.6217323257
 40
0.6531974779
 40
0.6846695866
 40
0.747453599
 40
0.7787958309
 40
0.8101370137
 40
0.8415545326
 40
0.8573305208
 40
0.8731608959
 40
0.9049215368
 40
0.9367222927
 40
0.9684470165
 40
1.0
 40
1.0
 40
1.0
 40
1.0
 10
6.8415600112
 20
3.8610649294
 30
0.0
 10
6.8512667424
 20
3.8612729546
 30
0.0
 10
6.8707095908
 20
3.861123652
 30
0.0
 10
6.8997612053
 20
3.8589023544
 30
0.0
 10
6.9284672014
 20
3.8543522329
 30
0.0
 10
6.9565013915
 20
3.84713542
 30
0.0
 10
6.983509509
 20
3.8369125129
 30
0.0
 10
7.0047786493
 20
3.8256601112
 30
0.0
 10
7.0207780402
 20
3.8150317636
 30
0.0
 10
7.0321967097
 20
3.8062492089
 30
0.0
 10
7.042943517
 20
3.7966618896
 30
0.0
 10
7.0529476013
 20
3.7863004681
 30
0.0
 10
7.0621896809
 20
3.7752496999
 30
0.0
 10
7.0706435599
 20
3.7635844657
 30
0.0
 10
7.0782866859
 20
3.7513791638
 30
0.0
 10
7.0873718861
 20
3.7344676398
 30
0.0
 10
7.0967305825
 20
3.7122739505
 30
0.0
 10
7.1036258384
 20
3.6891728613
 30
0.0
 10
7.1078348676
 20
3.6703246881
 30
0.0
 10
7.1103758327
 20
3.6560432381
 30
0.0
 10
7.1123334645
 20
3.6416871309
 30
0.0
 10
7.1142165206
 20
3.6225384577
 30
0.0
 10
7.1152830381
 20
3.5985711957
 30
0.0
 10
7.1145911619
 20
3.5698308404
 30
0.0
 10
7.1120470769
 20
3.5411650831
 30
0.0
 10
7.1077652437
 20
3.512591017
 30
0.0
 10
7.1018836383
 20
3.48415042
 30
0.0
 10
7.0943750551
 20
3.4559620965
 30
0.0
 10
7.0851922402
 20
3.4281974265
 30
0.0
 10
7.0706858589
 20
3.3920338584
 30
0.0
 10
7.052648597
 20
3.3573855875
 30
0.0
 10
7.0309542818
 20
3.325095639
 30
0.0
 10
7.0128135232
 20
3.3022339895
 30
0.0
 10
6.9961210372
 20
3.2844888812
 30
0.0
 10
6.9818241945
 20
3.2711835859
 30
0.0
 10
6.9668620632
 20
3.2584665913
 30
0.0
 10
6.9470720917
 20
3.2438037604
 30
0.0
 10
6.9218533303
 20
3.2283861987
 30
0.0
 10
6.8954003319
 20
3.2153420754
 30
0.0
 10
6.8770480116
 20
3.2083497339
 30
0.0
 10
6.8677519182
 20
3.2053278795
 30
0.0
  0
SPLINE
  5
2AE
100
AcDbEntity
  8
0
100
AcDbSpline
 62
7
  6
CONTINUOUS
 70
0
 71
3
 72
15
 73
11
 74
0
 42
0.0000001
 43
0.0000001
 44
0.0000000001
 40
0.0
 40
0.0
 40
0.0
 40
0.0
 40
0.1253832763
 40
0.2506201982
 40
0.3756695648
 40
0.4381479362
 40
0.500613126
 40
0.6255432033
 40
0.7504967101
 40
1.0
 40
1.0
 40
1.0
 40
1.0
 10
6.8689013335
 20
3.1669513272
 30
0.0
 10
6.8783177608
 20
3.164502649
 30
0.0
 10
6.8972657257
 20
3.160075942
 30
0.0
 10
6.9259849866
 20
3.1549907671
 30
0.0
 10
6.9501083429
 20
3.1521748323
 30
0.0
 10
6.9694654864
 20
3.1508519229
 30
0.0
 10
6.9888467576
 20
3.1501767568
 30
0.0
 10
7.0131018762
 20
3.1505611602
 30
0.0
 10
7.0517490981
 20
3.1536357416
 30
0.0
 10
7.0804733248
 20
3.1585553369
 30
0.0
 10
7.099349323
 20
3.1628625087
 30
0.0
  0
SPLINE
  5
2AF
100
AcDbEntity
  8
0
100
AcDbSpline
 62
7
  6
CONTINUOUS
 70
0
 71
3
 72
55
 73
51
 74
0
 42
0.0000001
 43
0.0000001
 44
0.0000000001
 40
0.0
 40
0.0
 40
0.0
 40
0.0
 40
0.0163776731
 40
0.0326803511
 40
0.0489475335
 40
0.0652094857
 40
0.0814845003
 40
0.0977781247
 40
0.1140932176
 40
0.1304309567
 40
0.1467853914
 40
0.1631451642
 40
0.1958396825
 40
0.2284517215
 40
0.2609474619
 40
0.2933076386
 40
0.3255308636
 40
0.3576597535
 40
0.3737188634
 40
0.3897857068
 40
0.4219493443
 40
0.4541890443
 40
0.4865489204
 40
0.5190581686
 40
0.5516391284
 40
0.5841831992
 40
0.6165837617
 40
0.6486773394
 40
0.6802049819
 40
0.6956905074
 40
0.7109584349
 40
0.7259944527
 40
0.7407893873
 40
0.7553353573
 40
0.7696331431
 40
0.7975263866
 40
0.8112153733
 40
0.8248002827
 40
0.8383603404
 40
0.8519754855
 40
0.8657169905
 40
0.8796558777
 40
0.893858083
 40
0.9083517174
 40
0.9231397254
 40
0.9382153307
 40
0.9535460559
 40
0.9690331706
 40
0.9845583989
 40
1.0
 40
1.0
 40
1.0
 40
1.0
 10
5.1579984065
 20
3.3806027231
 30
0.0
 10
5.1572348841
 20
3.3750844527
 30
0.0
 10
5.1559404577
 20
3.3640404992
 30
0.0
 10
5.1545970299
 20
3.3474425946
 30
0.0
 10
5.1537504411
 20
3.330852127
 30
0.0
 10
5.1532882527
 20
3.3142568397
 30
0.0
 10
5.153118647
 20
3.2976473021
 30
0.0
 10
5.1532141671
 20
3.2810192153
 30
0.0
 10
5.153540681
 20
3.2643729186
 30
0.0
 10
5.1540579428
 20
3.2477108825
 30
0.0
 10
5.1547654783
 20
3.2310404621
 30
0.0
 10
5.1560130724
 20
3.2088262531
 30
0.0
 10
5.1582164295
 20
3.1811291773
 30
0.0
 10
5.1621466971
 20
3.1480845638
 30
0.0
 10
5.1676201392
 20
3.1153711868
 30
0.0
 10
5.1748631215
 20
3.0831342201
 30
0.0
 10
5.1840761727
 20
3.051529862
 30
0.0
 10
5.1935697739
 20
3.0258487496
 30
0.0
 10
5.2023418299
 20
3.0058243687
 30
0.0
 10
5.2119162654
 20
2.986158196
 30
0.0
 10
5.2253787469
 20
2.9622884237
 30
0.0
 10
5.2438590878
 20
2.935008262
 30
0.0
 10
5.2646238667
 20
2.9092688776
 30
0.0
 10
5.2875765366
 20
2.885299564
 30
0.0
 10
5.3124839411
 20
2.863275771
 30
0.0
 10
5.3390981836
 20
2.8434092486
 30
0.0
 10
5.3671447096
 20
2.8259299378
 30
0.0
 10
5.3962883786
 20
2.8110931594
 30
0.0
 10
5.4213330266
 20
2.8011273052
 30
0.0
 10
5.4415665064
 20
2.7948217223
 30
0.0
 10
5.4566723931
 20
2.7909934156
 30
0.0
 10
5.4717430517
 20
2.7880818312
 30
0.0
 10
5.4867209452
 20
2.7861304197
 30
0.0
 10
5.5015470693
 20
2.7851813717
 30
0.0
 10
5.5208559566
 20
2.7853069432
 30
0.0
 10
5.5398291239
 20
2.7875862874
 30
0.0
 10
5.5580214081
 20
2.7922755564
 30
0.0
 10
5.5711091915
 20
2.7969933809
 30
0.0
 10
5.5836402249
 20
2.8029808941
 30
0.0
 10
5.5955458515
 20
2.8102350416
 30
0.0
 10
5.6067663668
 20
2.8187239881
 30
0.0
 10
5.6172362899
 20
2.8284194254
 30
0.0
 10
5.6268782518
 20
2.8392815243
 30
0.0
 10
5.6356452502
 20
2.8512189024
 30
0.0
 10
5.6434876904
 20
2.864130209
 30
0.0
 10
5.6503462901
 20
2.8779077231
 30
0.0
 10
5.6561593465
 20
2.8924127777
 30
0.0
 10
5.6609002256
 20
2.9074619845
 30
0.0
 10
5.6645266198
 20
2.9228553626
 30
0.0
 10
5.6661808934
 20
2.9332697331
 30
0.0
 10
5.6668070445
 20
2.9384847153
 30
0.0
  0
SPLINE
  5
2B0
100
AcDbEntity
  8
0
100
AcDbSpline
 62
7
  6
CONTINUOUS
 70
0
 71
3
 72
65
 73
61
 74
0
 42
0.0000001
 43
0.0000001
 44
0.0000000001
 40
0.0
 40
0.0
 40
0.0
 40
0.0
 40
0.0200893615
 40
0.0383920223
 40
0.0703864019
 40
0.0844746721
 40
0.09749977
 40
0.1096030418
 40
0.1209176342
 40
0.1315704039
 40
0.141677202
 40
0.1513393132
 40
0.1606405218
 40
0.1783774594
 40
0.1869232783
 40
0.1953162993
 40
0.2118001327
 40
0.228081591
 40
0.2442417209
 40
0.2603417673
 40
0.2764778973
 40
0.2926733159
 40
0.3250715489
 40
0.357218615
 40
0.3885199528
 40
0.4036762042
 40
0.4184150779
 40
0.4326810057
 40
0.4464479936
 40
0.4724680251
 40
0.4847872149
 40
0.496712952
 40
0.5083268977
 40
0.5197365042
 40
0.5310436548
 40
0.542326737
 40
0.5536638589
 40
0.565130134
 40
0.5767615562
 40
0.5885665267
 40
0.6005505753
 40
0.6127198491
 40
0.6250766839
 40
0.6376177636
 40
0.6632061028
 40
0.6762826329
 40
0.6895498514
 40
0.7030307202
 40
0.7167679404
 40
0.7308072047
 40
0.7451751938
 40
0.77490232
 40
0.7902601231
 40
0.805911338
 40
0.837955993
 40
0.8707401763
 40
0.9038204229
 40
0.9366535599
 40
0.9687562228
 40
1.0
 40
1.0
 40
1.0
 40
1.0
 10
5.8372474611
 20
2.8715887833
 30
0.0
 10
5.8418269802
 20
2.8717652007
 30
0.0
 10
5.8505957171
 20
2.8718109403
 30
0.0
 10
5.8666207103
 20
2.8706757256
 30
0.0
 10
5.8811370507
 20
2.8679076938
 30
0.0
 10
5.8939020121
 20
2.8635094395
 30
0.0
 10
5.9020604036
 20
2.8598050529
 30
0.0
 10
5.9092807403
 20
2.8556578081
 30
0.0
 10
5.9156097069
 20
2.8511226745
 30
0.0
 10
5.9210908737
 20
2.8462549064
 30
0.0
 10
5.925769084
 20
2.8411110596
 30
0.0
 10
5.9296903354
 20
2.8357466617
 30
0.0
 10
5.9339024277
 20
2.8284974384
 30
0.0
 10
5.9369074719
 20
2.8208910332
 30
0.0
 10
5.9387484073
 20
2.8131891349
 30
0.0
 10
5.9398409946
 20
2.8056335926
 30
0.0
 10
5.9399591159
 20
2.7961969669
 30
0.0
 10
5.9383316282
 20
2.7851151251
 30
0.0
 10
5.9352152445
 20
2.7744561463
 30
0.0
 10
5.9308329748
 20
2.7642963397
 30
0.0
 10
5.9253899014
 20
2.7546608445
 30
0.0
 10
5.9169805118
 20
2.7425028431
 30
0.0
 10
5.9048070627
 20
2.7286046857
 30
0.0
 10
5.8888219975
 20
2.7136626412
 30
0.0
 10
5.8751085888
 20
2.7021051961
 30
0.0
 10
5.8643816244
 20
2.6931708353
 30
0.0
 10
5.8566945183
 20
2.6866590477
 30
0.0
 10
5.8493836145
 20
2.6801941939
 30
0.0
 10
5.8404171843
 20
2.6717301685
 30
0.0
 10
5.8323068124
 20
2.6629923171
 30
0.0
 10
5.8254959103
 20
2.6537527722
 30
0.0
 10
5.8212088823
 20
2.6467728756
 30
0.0
 10
5.8176954115
 20
2.6396008074
 30
0.0
 10
5.8150101161
 20
2.6322270019
 30
0.0
 10
5.8131808829
 20
2.6246727947
 30
0.0
 10
5.8122090405
 20
2.6169780288
 30
0.0
 10
5.8121040903
 20
2.6091864047
 30
0.0
 10
5.8128738758
 20
2.6013528076
 30
0.0
 10
5.8145055946
 20
2.5935442167
 30
0.0
 10
5.8169833727
 20
2.5858378671
 30
0.0
 10
5.8202927918
 20
2.578316005
 30
0.0
 10
5.8244190692
 20
2.5710647937
 30
0.0
 10
5.8293193853
 20
2.5641558192
 30
0.0
 10
5.8368694749
 20
2.5554405225
 30
0.0
 10
5.8457746232
 20
2.5477488294
 30
0.0
 10
5.8557646437
 20
2.5413553568
 30
0.0
 10
5.8638699819
 20
2.5372168839
 30
0.0
 10
5.872487825
 20
2.5338529367
 30
0.0
 10
5.8815640271
 20
2.5313088287
 30
0.0
 10
5.891029595
 20
2.5295556166
 30
0.0
 10
5.9042375373
 20
2.5282322082
 30
0.0
 10
5.9178540169
 20
2.5284536779
 30
0.0
 10
5.9316242367
 20
2.5300410292
 30
0.0
 10
5.9457916672
 20
2.5325816245
 30
0.0
 10
5.9635356962
 20
2.5374538539
 30
0.0
 10
5.9844050515
 20
2.5454958845
 30
0.0
 10
6.0046736659
 20
2.5553555246
 30
0.0
 10
6.0240082826
 20
2.5666249869
 30
0.0
 10
6.0421584897
 20
2.5789843263
 30
0.0
 10
6.053477765
 20
2.5879954
 30
0.0
 10
6.0588711857
 20
2.5926550943
 30
0.0
  0
SPLINE
  5
2B1
100
AcDbEntity
  8
0
100
AcDbSpline
 62
7
  6
CONTINUOUS
 70
0
 71
3
 72
44
 73
40
 74
0
 42
0.0000001
 43
0.0000001
 44
0.0000000001
 40
0.0
 40
0.0
 40
0.0
 40
0.0
 40
0.0619201034
 40
0.0928819324
 40
0.1238543255
 40
0.1549065895
 40
0.1861469072
 40
0.2175026359
 40
0.2488277174
 40
0.2800467248
 40
0.2956228585
 40
0.3111869164
 40
0.3267581879
 40
0.3423593031
 40
0.3579956944
 40
0.3736641708
 40
0.4050586635
 40
0.436488483
 40
0.4678757579
 40
0.4835386266
 40
0.499171979
 40
0.5303909807
 40
0.5616378504
 40
0.5929532158
 40
0.6243343224
 40
0.655747363
 40
0.6871424635
 40
0.7184797168
 40
0.7497465697
 40
0.780970025
 40
0.7965942657
 40
0.8122419971
 40
0.8436147995
 40
0.8750545654
 40
0.9064759083
 40
0.9377952181
 40
0.9534036748
 40
0.9689683578
 40
1.0
 40
1.0
 40
1.0
 40
1.0
 10
5.7573478219
 20
4.0184718538
 30
0.0
 10
5.7503587992
 20
4.0314561569
 30
0.0
 10
5.7397505175
 20
4.0508748077
 30
0.0
 10
5.724399112
 20
4.0760682123
 30
0.0
 10
5.7120448541
 20
4.0944567856
 30
0.0
 10
5.6986211768
 20
4.1121703424
 30
0.0
 10
5.683936103
 20
4.1289813429
 30
0.0
 10
5.6679513468
 20
4.144660983
 30
0.0
 10
5.6506945296
 20
4.1589273148
 30
0.0
 10
5.6352686187
 20
4.1693883802
 30
0.0
 10
5.6223489197
 20
4.176723549
 30
0.0
 10
5.6123779297
 20
4.1816693992
 30
0.0
 10
5.6021274245
 20
4.1860230293
 30
0.0
 10
5.5916114289
 20
4.1897416463
 30
0.0
 10
5.5808681246
 20
4.1928256479
 30
0.0
 10
5.5662913254
 20
4.1960927111
 30
0.0
 10
5.5477199945
 20
4.1985840912
 30
0.0
 10
5.5252428121
 20
4.1990236009
 30
0.0
 10
5.5065915433
 20
4.1972579424
 30
0.0
 10
5.4919025105
 20
4.1945579179
 30
0.0
 10
5.4774383603
 20
4.1910005621
 30
0.0
 10
5.4597911614
 20
4.1849915606
 30
0.0
 10
5.4395330115
 20
4.1754913587
 30
0.0
 10
5.4203517518
 20
4.1638998264
 30
0.0
 10
5.4024082104
 20
4.1504108703
 30
0.0
 10
5.3858575683
 20
4.1352191992
 30
0.0
 10
5.3708674502
 20
4.1184988311
 30
0.0
 10
5.3576404728
 20
4.1003911579
 30
0.0
 10
5.3463778201
 20
4.0810458848
 30
0.0
 10
5.338799192
 20
4.0640111959
 30
0.0
 10
5.3339314319
 20
4.0499391512
 30
0.0
 10
5.3298881048
 20
4.0355712223
 30
0.0
 10
5.3264316178
 20
4.0171623197
 30
0.0
 10
5.3248304211
 20
3.9947311169
 30
0.0
 10
5.3257767094
 20
3.9722751393
 30
0.0
 10
5.3287016339
 20
3.9538009793
 30
0.0
 10
5.3323297848
 20
3.9393594955
 30
0.0
 10
5.3368119559
 20
3.9252325591
 30
0.0
 10
5.3411340512
 20
3.9149766843
 30
0.0
 10
5.3443714007
 20
3.9083335753
 30
0.0
  0
SPLINE
  5
2B2
100
AcDbEntity
  8
0
100
AcDbSpline
 62
7
  6
CONTINUOUS
 70
0
 71
3
 72
28
 73
24
 74
0
 42
0.0000001
 43
0.0000001
 44
0.0000000001
 40
0.0
 40
0.0
 40
0.0
 40
0.0
 40
0.0627540483
 40
0.0942633484
 40
0.1257836484
 40
0.1572587934
 40
0.1729634003
 40
0.1886364387
 40
0.21991019
 40
0.2511485767
 40
0.3136547535
 40
0.3762871239
 40
0.4076069922
 40
0.438869288
 40
0.4700663102
 40
0.5012248185
 40
0.5635050005
 40
0.6258433334
 40
0.6882913896
 40
0.7508370237
 40
0.8134132879
 40
0.8759069711
 40
1.0
 40
1.0
 40
1.0
 40
1.0
 10
6.5204671842
 20
2.5403736445
 30
0.0
 10
6.5355541983
 20
2.5578744912
 30
0.0
 10
6.5601924218
 20
2.5825382694
 30
0.0
 10
6.5961410283
 20
2.6117740935
 30
0.0
 10
6.6245825576
 20
2.6318710148
 30
0.0
 10
6.6493359934
 20
2.6469805883
 30
0.0
 10
6.6696751313
 20
2.6580294996
 30
0.0
 10
6.6903100884
 20
2.6683506278
 30
0.0
 10
6.7166840932
 20
2.6799454178
 30
0.0
 10
6.7599137049
 20
2.6958310477
 30
0.0
 10
6.8155957894
 20
2.710961988
 30
0.0
 10
6.8724908799
 20
2.7205022679
 30
0.0
 10
6.9183597437
 20
2.7252484908
 30
0.0
 10
6.9528259097
 20
2.7274786255
 30
0.0
 10
6.9872897482
 20
2.7284560774
 30
0.0
 10
7.0331877514
 20
2.7281563913
 30
0.0
 10
7.0904964687
 20
2.7249191989
 30
0.0
 10
7.1589434113
 20
2.7169093026
 30
0.0
 10
7.2269542373
 20
2.7052346129
 30
0.0
 10
7.2944179119
 20
2.6903514888
 30
0.0
 10
7.3612266118
 20
2.6727143847
 30
0.0
 10
7.4490675729
 20
2.6461956395
 30
0.0
 10
7.5139341456
 20
2.623453055
 30
0.0
 10
7.5567596798
 20
2.6075257426
 30
0.0
  0
SPLINE
  5
2B3
100
AcDbEntity
  8
0
100
AcDbSpline
 62
7
  6
CONTINUOUS
 70
0
 71
3
 72
49
 73
45
 74
0
 42
0.0000001
 43
0.0000001
 44
0.0000000001
 40
0.0
 40
0.0
 40
0.0
 40
0.0
 40
0.0312371898
 40
0.0624905299
 40
0.0781207132
 40
0.0937492005
 40
0.1093752332
 40
0.1249988427
 40
0.1562376674
 40
0.1874744955
 40
0.2030914961
 40
0.2187099407
 40
0.2499515657
 40
0.2655707613
 40
0.2811835146
 40
0.3124048884
 40
0.3280215827
 40
0.343643741
 40
0.3514570178
 40
0.3592714959
 40
0.3749015591
 40
0.3905299112
 40
0.40615387
 40
0.4217724735
 40
0.437386634
 40
0.4529992918
 40
0.46861513
 40
0.4842371044
 40
0.499866172
 40
0.5311418357
 40
0.5624334
 40
0.5937157363
 40
0.6249722592
 40
0.6562230797
 40
0.6874829223
 40
0.7187550248
 40
0.7500322506
 40
0.7656683621
 40
0.7813000878
 40
0.8125538178
 40
0.8438020698
 40
0.8750494469
 40
0.9375397427
 40
1.0
 40
1.0
 40
1.0
 40
1.0
 10
7.5562529257
 20
2.9757461822
 30
0.0
 10
7.5342773253
 20
2.9668863284
 30
0.0
 10
7.4896115526
 20
2.9508554339
 30
0.0
 10
7.4323948759
 20
2.9352012405
 30
0.0
 10
7.3859921619
 20
2.9253937097
 30
0.0
 10
7.3509244377
 20
2.9194186853
 30
0.0
 10
7.3156509686
 20
2.9148479525
 30
0.0
 10
7.2684254957
 20
2.9106612151
 30
0.0
 10
7.2091401957
 20
2.9090320472
 30
0.0
 10
7.1499188472
 20
2.9119744408
 30
0.0
 10
7.102783014
 20
2.9169295088
 30
0.0
 10
7.0558397072
 20
2.9234823642
 30
0.0
 10
7.0092321261
 20
2.9322429089
 30
0.0
 10
6.9630368188
 20
2.9428222252
 30
0.0
 10
6.9171237935
 20
2.9545082484
 30
0.0
 10
6.8716290675
 20
2.9677710279
 30
0.0
 10
6.8265682202
 20
2.9824128152
 30
0.0
 10
6.7985735777
 20
2.9921028397
 30
0.0
 10
6.7762785543
 20
3.0001541697
 30
0.0
 10
6.7540478646
 20
3.0083988178
 30
0.0
 10
6.7263997365
 20
3.0190807954
 30
0.0
 10
6.693484779
 20
3.0325499979
 30
0.0
 10
6.6608737539
 20
3.0467186585
 30
0.0
 10
6.6286090446
 20
3.0616346556
 30
0.0
 10
6.5967333478
 20
3.0773465124
 30
0.0
 10
6.5652883694
 20
3.0939005436
 30
0.0
 10
6.5343237615
 20
3.1113491188
 30
0.0
 10
6.5038511266
 20
3.1296672656
 30
0.0
 10
6.4638773943
 20
3.1552018754
 30
0.0
 10
6.4151722845
 20
3.189104817
 30
0.0
 10
6.3588210486
 20
3.232648695
 30
0.0
 10
6.304589862
 20
3.2787809256
 30
0.0
 10
6.2524821752
 20
3.3272485142
 30
0.0
 10
6.2024220176
 20
3.3777995979
 30
0.0
 10
6.1543018583
 20
3.4302129456
 30
0.0
 10
6.1080099518
 20
3.4842703998
 30
0.0
 10
6.0708607098
 20
3.5305117231
 30
0.0
 10
6.0419368471
 20
3.5681189336
 30
0.0
 10
6.0135300472
 20
3.6060960686
 30
0.0
 10
5.978959779
 20
3.6542444844
 30
0.0
 10
5.9389012088
 20
3.7130078181
 30
0.0
 10
5.8872896571
 20
3.792541998
 30
0.0
 10
5.8259494169
 20
3.8939464393
 30
0.0
 10
5.7798034638
 20
3.9767534515
 30
0.0
 10
5.7573478219
 20
4.0184718538
 30
0.0
  0
SPLINE
  5
2B4
100
AcDbEntity
  8
0
100
AcDbSpline
 62
7
  6
CONTINUOUS
 70
0
 71
3
 72
22
 73
18
 74
0
 42
0.0000001
 43
0.0000001
 44
0.0000000001
 40
0.0
 40
0.0
 40
0.0
 40
0.0
 40
0.0651908168
 40
0.1288982301
 40
0.1913384262
 40
0.2527409777
 40
0.3133472497
 40
0.3734082083
 40
0.4331816885
 40
0.4929292473
 40
0.5529127808
 40
0.6133911195
 40
0.6746168188
 40
0.7368333336
 40
0.8002727129
 40
0.8651538859
 40
1.0
 40
1.0
 40
1.0
 40
1.0
 10
6.6434408527
 20
1.9114209069
 30
0.0
 10
6.6458683005
 20
1.927959347
 30
0.0
 10
6.651545928
 20
1.9605392934
 30
0.0
 10
6.6627155686
 20
2.0083394945
 30
0.0
 10
6.6764341432
 20
2.0544622767
 30
0.0
 10
6.6927026178
 20
2.0989039598
 30
0.0
 10
6.7115218874
 20
2.1416627881
 30
0.0
 10
6.732892176
 20
2.1827361415
 30
0.0
 10
6.7568130692
 20
2.2221214904
 30
0.0
 10
6.7832834677
 20
2.2598164151
 30
0.0
 10
6.8123016908
 20
2.2958188825
 30
0.0
 10
6.8438655642
 20
2.3301273663
 30
0.0
 10
6.8779728711
 20
2.3627410735
 30
0.0
 10
6.9146206252
 20
2.3936594602
 30
0.0
 10
6.9538088558
 20
2.4228840502
 30
0.0
 10
7.0101542552
 20
2.4600626995
 30
0.0
 10
7.055207838
 20
2.4846708288
 30
0.0
 10
7.0863093758
 20
2.4997769577
 30
0.0
  0
SPLINE
  5
2B5
100
AcDbEntity
  8
0
100
AcDbSpline
 62
7
  6
CONTINUOUS
 70
0
 71
3
 72
38
 73
34
 74
0
 42
0.0000001
 43
0.0000001
 44
0.0000000001
 40
0.0
 40
0.0
 40
0.0
 40
0.0
 40
0.0625876209
 40
0.0941746519
 40
0.1258872127
 40
0.1894355729
 40
0.2211962719
 40
0.2528629054
 40
0.2843901038
 40
0.3157445559
 40
0.3469094772
 40
0.3624246196
 40
0.3778961349
 40
0.3933288511
 40
0.4087375418
 40
0.4241471434
 40
0.4395776465
 40
0.4705497915
 40
0.5017129227
 40
0.5330561636
 40
0.5645224358
 40
0.5802756487
 40
0.5960262818
 40
0.6274900257
 40
0.6588897627
 40
0.6902128667
 40
0.7214496991
 40
0.7525947069
 40
0.8146100135
 40
0.8763404269
 40
0.938003472
 40
0.9689299169
 40
1.0
 40
1.0
 40
1.0
 40
1.0
 10
7.0818554728
 20
2.5373029884
 30
0.0
 10
7.0595372432
 20
2.5421971722
 30
0.0
 10
7.0253076348
 20
2.546908101
 30
0.0
 10
6.9793420895
 20
2.5481800528
 30
0.0
 10
6.9330452538
 20
2.5461674703
 30
0.0
 10
6.887006469
 20
2.5392860862
 30
0.0
 10
6.842100035
 20
2.527675039
 30
0.0
 10
6.8092084085
 20
2.5166315646
 30
0.0
 10
6.7773423437
 20
2.5032871689
 30
0.0
 10
6.7467282836
 20
2.4876736186
 30
0.0
 10
6.7224098517
 20
2.4727717948
 30
0.0
 10
6.7038240329
 20
2.4597478848
 30
0.0
 10
6.6903609979
 20
2.4494475521
 30
0.0
 10
6.6773854489
 20
2.4385999715
 30
0.0
 10
6.6649060876
 20
2.4272193251
 30
0.0
 10
6.6528837052
 20
2.4153592868
 30
0.0
 10
6.6373944101
 20
2.3989439259
 30
0.0
 10
6.6189681571
 20
2.3774195996
 30
0.0
 10
6.5980956108
 20
2.3504092668
 30
0.0
 10
6.5781075826
 20
2.3225215526
 30
0.0
 10
6.5619262988
 20
2.2988404296
 30
0.0
 10
6.5490888346
 20
2.2797707051
 30
0.0
 10
6.5362748362
 20
2.2606862519
 30
0.0
 10
6.5202235861
 20
2.2368952934
 30
0.0
 10
6.5008220883
 20
2.2085072487
 30
0.0
 10
6.4812004736
 20
2.1803714761
 30
0.0
 10
6.4612732724
 20
2.1525646739
 30
0.0
 10
6.4342220233
 20
2.1160859476
 30
0.0
 10
6.3991985168
 20
2.0716658498
 30
0.0
 10
6.3544753956
 20
2.0208079907
 30
0.0
 10
6.314447557
 20
1.9810803476
 30
0.0
 10
6.2805199488
 20
1.951282807
 30
0.0
 10
6.2628701354
 20
1.9370999442
 30
0.0
 10
6.2538657171
 20
1.9302024761
 30
0.0
  0
SPLINE
  5
2B6
100
AcDbEntity
  8
0
100
AcDbSpline
 62
7
  6
CONTINUOUS
 70
0
 71
3
 72
30
 73
26
 74
0
 42
0.0000001
 43
0.0000001
 44
0.0000000001
 40
0.0
 40
0.0
 40
0.0
 40
0.0
 40
0.0623809648
 40
0.1247025283
 40
0.1402937358
 40
0.1558928625
 40
0.1871034159
 40
0.2183207909
 40
0.2495297074
 40
0.2807189976
 40
0.3118834378
 40
0.3741963893
 40
0.4367857679
 40
0.4997564319
 40
0.5630045694
 40
0.5946622735
 40
0.6262786271
 40
0.6578018104
 40
0.6891901583
 40
0.7204493535
 40
0.7515973651
 40
0.8136326381
 40
0.8755214585
 40
0.9375337285
 40
1.0
 40
1.0
 40
1.0
 40
1.0
 10
6.9328925056
 20
2.1082834051
 30
0.0
 10
6.937928141
 20
2.1235202957
 30
0.0
 10
6.9493394435
 20
2.1535578946
 30
0.0
 10
6.9656214768
 20
2.1858632218
 30
0.0
 10
6.978040906
 20
2.2064684262
 30
0.0
 10
6.9867511175
 20
2.2199551313
 30
0.0
 10
6.9984184956
 20
2.2363053442
 30
0.0
 10
7.0136085965
 20
2.2550197192
 30
0.0
 10
7.0299359326
 20
2.272743977
 30
0.0
 10
7.0473452496
 20
2.2893886957
 30
0.0
 10
7.0719255616
 20
2.3100187816
 30
0.0
 10
7.1051704412
 20
2.3327359044
 30
0.0
 10
7.1481242602
 20
2.3551058366
 30
0.0
 10
7.1934398045
 20
2.3728196743
 30
0.0
 10
7.2325844532
 20
2.3838769171
 30
0.0
 10
7.2644357061
 20
2.3906130442
 30
0.0
 10
7.2884971135
 20
2.3946290216
 30
0.0
 10
7.3126349766
 20
2.3976315551
 30
0.0
 10
7.336783421
 20
2.3996426643
 30
0.0
 10
7.360899159
 20
2.4006409366
 30
0.0
 10
7.3929197307
 20
2.4006004913
 30
0.0
 10
7.4327802899
 20
2.3979411469
 30
0.0
 10
7.4800858449
 20
2.3904153112
 30
0.0
 10
7.5265775449
 20
2.3784229478
 30
0.0
 10
7.5567139636
 20
2.3674155251
 30
0.0
 10
7.5715160888
 20
2.3611607385
 30
0.0
  0
SPLINE
  5
2B7
100
AcDbEntity
  8
0
100
AcDbSpline
 62
7
  6
CONTINUOUS
 70
0
 71
3
 72
29
 73
25
 74
0
 42
0.0000001
 43
0.0000001
 44
0.0000000001
 40
0.0
 40
0.0
 40
0.0
 40
0.0
 40
0.0336878862
 40
0.0663804519
 40
0.0983313142
 40
0.1297621001
 40
0.1608590876
 40
0.1917718771
 40
0.2226139801
 40
0.2534649683
 40
0.3153139804
 40
0.3774681064
 40
0.408623429
 40
0.4397623133
 40
0.4708396713
 40
0.5018740077
 40
0.5639807263
 40
0.626328631
 40
0.6888688083
 40
0.7513515605
 40
0.8136247926
 40
0.8758024358
 40
0.9379369972
 40
1.0
 40
1.0
 40
1.0
 40
1.0
 10
7.4976100121
 20
1.9140435387
 30
0.0
 10
7.4975029466
 20
1.9216422313
 30
0.0
 10
7.4965491319
 20
1.9366166481
 30
0.0
 10
7.4928850956
 20
1.9585311401
 30
0.0
 10
7.4871493617
 20
1.9794699183
 30
0.0
 10
7.4794794657
 20
1.9993919701
 30
0.0
 10
7.4700130565
 20
2.0182616203
 30
0.0
 10
7.4588877941
 20
2.0360434579
 30
0.0
 10
7.4462391574
 20
2.0527044808
 30
0.0
 10
7.4275181258
 20
2.0733883167
 30
0.0
 10
7.4009398188
 20
2.0962996288
 30
0.0
 10
7.3711705682
 20
2.1149561568
 30
0.0
 10
7.3459113772
 20
2.1272509804
 30
0.0
 10
7.3263569983
 20
2.1351274138
 30
0.0
 10
7.3063273767
 20
2.1416112668
 30
0.0
 10
7.279126744
 20
2.1484186761
 30
0.0
 10
7.24434245
 20
2.1536298757
 30
0.0
 10
7.2021016123
 20
2.1550276263
 30
0.0
 10
7.1598702392
 20
2.1520437997
 30
0.0
 10
7.1181321458
 20
2.1451243475
 30
0.0
 10
7.0772378545
 20
2.1346329475
 30
0.0
 10
7.0374071481
 20
2.1208937499
 30
0.0
 10
6.9987690568
 20
2.104230014
 30
0.0
 10
6.973853405
 20
2.091364038
 30
0.0
 10
6.9616274002
 20
2.0845422707
 30
0.0
  0
SPLINE
  5
2B8
100
AcDbEntity
  8
0
100
AcDbSpline
 62
7
  6
CONTINUOUS
 70
0
 71
3
 72
21
 73
17
 74
0
 42
0.0000001
 43
0.0000001
 44
0.0000000001
 40
0.0
 40
0.0
 40
0.0
 40
0.0
 40
0.1263345727
 40
0.189644506
 40
0.2528466442
 40
0.378507877
 40
0.4409526094
 40
0.5031620622
 40
0.5652435916
 40
0.6273314525
 40
0.6894365445
 40
0.7515431252
 40
0.8136568633
 40
0.8758020884
 40
0.9379427772
 40
1.0
 40
1.0
 40
1.0
 40
1.0
 10
3.345698419
 20
4.3216701316
 30
0.0
 10
3.3303453881
 20
4.3078965096
 30
0.0
 10
3.3081594689
 20
4.2862199554
 30
0.0
 10
3.2807728503
 20
4.2553120497
 30
0.0
 10
3.2550851321
 20
4.223121299
 30
0.0
 10
3.232173755
 20
4.1889428057
 30
0.0
 10
3.2127985375
 20
4.1529306226
 30
0.0
 10
3.2002444851
 20
4.1251181518
 30
0.0
 10
3.1898231465
 20
4.0964969187
 30
0.0
 10
3.1817217533
 20
4.0671497488
 30
0.0
 10
3.1759990519
 20
4.0372433406
 30
0.0
 10
3.1727274958
 20
4.0069651163
 30
0.0
 10
3.1719786955
 20
3.9765113491
 30
0.0
 10
3.1738352285
 20
3.9460980087
 30
0.0
 10
3.1782545987
 20
3.9159630635
 30
0.0
 10
3.1828759794
 20
3.8961905567
 30
0.0
 10
3.1855966633
 20
3.8864309629
 30
0.0
  0
SPLINE
  5
2B9
100
AcDbEntity
  8
0
100
AcDbSpline
 62
7
  6
CONTINUOUS
 70
0
 71
3
 72
44
 73
40
 74
0
 42
0.0000001
 43
0.0000001
 44
0.0000000001
 40
0.0
 40
0.0
 40
0.0
 40
0.0
 40
0.0311849402
 40
0.0625462587
 40
0.0782645391
 40
0.0939781808
 40
0.1096678224
 40
0.1253245797
 40
0.1409637179
 40
0.1565984898
 40
0.1878660802
 40
0.219132576
 40
0.2503604362
 40
0.2815802304
 40
0.3128082869
 40
0.3440343633
 40
0.3752518206
 40
0.4064681277
 40
0.4376896259
 40
0.468923262
 40
0.5001638813
 40
0.5314016819
 40
0.5626352929
 40
0.5782577662
 40
0.593884215
 40
0.6251432474
 40
0.6564120518
 40
0.6720471894
 40
0.687675899
 40
0.7032944349
 40
0.7189036712
 40
0.7501165445
 40
0.7813581592
 40
0.8126314978
 40
0.8439095548
 40
0.8751520324
 40
0.9063731479
 40
0.9375942702
 40
1.0
 40
1.0
 40
1.0
 40
1.0
 10
2.9081134099
 20
3.1628625087
 30
0.0
 10
2.8904680541
 20
3.1684989308
 30
0.0
 10
2.8558265302
 20
3.1822813223
 30
0.0
 10
2.8151209046
 20
3.2050041649
 30
0.0
 10
2.7843924811
 20
3.2261822172
 30
0.0
 10
2.7623697247
 20
3.2434883488
 30
0.0
 10
2.7415024286
 20
3.2621157621
 30
0.0
 10
2.7218800184
 20
3.2819872573
 30
0.0
 10
2.7035166901
 20
3.3029832981
 30
0.0
 10
2.6807171467
 20
3.3323352965
 30
0.0
 10
2.6553545729
 20
3.3713467729
 30
0.0
 10
2.629958086
 20
3.4210149617
 30
0.0
 10
2.6095330409
 20
3.4728896989
 30
0.0
 10
2.5940539674
 20
3.5264172937
 30
0.0
 10
2.5834437368
 20
3.5811117395
 30
0.0
 10
2.5776192523
 20
3.6365152563
 30
0.0
 10
2.5765358696
 20
3.6922052292
 30
0.0
 10
2.5801769172
 20
3.7477834955
 30
0.0
 10
2.5885159349
 20
3.8028635635
 30
0.0
 10
2.6015334396
 20
3.8570445594
 30
0.0
 10
2.6191463037
 20
3.909921959
 30
0.0
 10
2.6412553669
 20
3.9610819077
 30
0.0
 10
2.6633513359
 20
4.001944534
 30
0.0
 10
2.6831727164
 20
4.0333355232
 30
0.0
 10
2.7043858097
 20
4.0638216443
 30
0.0
 10
2.7333929847
 20
4.1001463938
 30
0.0
 10
2.7654099968
 20
4.133851592
 30
0.0
 10
2.792653245
 20
4.1591136073
 30
0.0
 10
2.8138583324
 20
4.1771780831
 30
0.0
 10
2.8357929603
 20
4.1943242755
 30
0.0
 10
2.8659498121
 20
4.2159310903
 30
0.0
 10
2.9052521957
 20
4.2406350388
 30
0.0
 10
2.9545355727
 20
4.2666368703
 30
0.0
 10
3.0055670487
 20
4.2890998501
 30
0.0
 10
3.0579730953
 20
4.3081229175
 30
0.0
 10
3.111434895
 20
4.3238108658
 30
0.0
 10
3.165688479
 20
4.3363301116
 30
0.0
 10
3.2387728481
 20
4.3490637568
 30
0.0
 10
3.294227889
 20
4.3544833731
 30
0.0
 10
3.3312402358
 20
4.3565268487
 30
0.0
  0
SPLINE
  5
2BA
100
AcDbEntity
  8
0
100
AcDbSpline
 62
7
  6
CONTINUOUS
 70
0
 71
3
 72
15
 73
11
 74
0
 42
0.0000001
 43
0.0000001
 44
0.0000000001
 40
0.0
 40
0.0
 40
0.0
 40
0.0
 40
0.1253832763
 40
0.2506201982
 40
0.3756695648
 40
0.4381479362
 40
0.500613126
 40
0.6255432033
 40
0.7504967101
 40
1.0
 40
1.0
 40
1.0
 40
1.0
 10
3.1385613994
 20
3.1669513272
 30
0.0
 10
3.1291449721
 20
3.164502649
 30
0.0
 10
3.1101970072
 20
3.160075942
 30
0.0
 10
3.0814777463
 20
3.1549907671
 30
0.0
 10
3.05735439
 20
3.1521748323
 30
0.0
 10
3.0379972465
 20
3.1508519229
 30
0.0
 10
3.0186159753
 20
3.1501767568
 30
0.0
 10
2.9943608567
 20
3.1505611602
 30
0.0
 10
2.9557136348
 20
3.1536357416
 30
0.0
 10
2.9269894081
 20
3.1585553369
 30
0.0
 10
2.9081134099
 20
3.1628625087
 30
0.0
  0
SPLINE
  5
2BB
100
AcDbEntity
  8
0
100
AcDbSpline
 62
7
  6
CONTINUOUS
 70
0
 71
3
 72
45
 73
41
 74
0
 42
0.0000001
 43
0.0000001
 44
0.0000000001
 40
0.0
 40
0.0
 40
0.0
 40
0.0
 40
0.031340085
 40
0.062714443
 40
0.093966913
 40
0.1250388496
 40
0.1559948645
 40
0.1869756023
 40
0.202471793
 40
0.2179570364
 40
0.2334354563
 40
0.2489175455
 40
0.2644069827
 40
0.2798995422
 40
0.2953848804
 40
0.3108565172
 40
0.3418292947
 40
0.3729390196
 40
0.3885416869
 40
0.4041526374
 40
0.4197481706
 40
0.4352994244
 40
0.46625031
 40
0.4971204329
 40
0.5280324309
 40
0.5590847782
 40
0.590335538
 40
0.6217323257
 40
0.6531974779
 40
0.6846695866
 40
0.747453599
 40
0.7787958309
 40
0.8101370137
 40
0.8415545326
 40
0.8573305208
 40
0.8731608959
 40
0.9049215368
 40
0.9367222927
 40
0.9684470165
 40
1.0
 40
1.0
 40
1.0
 40
1.0
 10
3.1659027217
 20
3.8610649294
 30
0.0
 10
3.1561959905
 20
3.8612729546
 30
0.0
 10
3.1367531421
 20
3.861123652
 30
0.0
 10
3.1077015276
 20
3.8589023544
 30
0.0
 10
3.0789955315
 20
3.8543522329
 30
0.0
 10
3.0509613414
 20
3.84713542
 30
0.0
 10
3.0239532239
 20
3.8369125129
 30
0.0
 10
3.0026840837
 20
3.8256601112
 30
0.0
 10
2.9866846927
 20
3.8150317636
 30
0.0
 10
2.9752660232
 20
3.8062492089
 30
0.0
 10
2.9645192159
 20
3.7966618896
 30
0.0
 10
2.9545151316
 20
3.7863004681
 30
0.0
 10
2.945273052
 20
3.7752496999
 30
0.0
 10
2.9368191731
 20
3.7635844657
 30
0.0
 10
2.929176047
 20
3.7513791638
 30
0.0
 10
2.9200908468
 20
3.7344676398
 30
0.0
 10
2.9107321504
 20
3.7122739505
 30
0.0
 10
2.9038368946
 20
3.6891728613
 30
0.0
 10
2.8996278653
 20
3.6703246881
 30
0.0
 10
2.8970869002
 20
3.6560432381
 30
0.0
 10
2.8951292684
 20
3.6416871309
 30
0.0
 10
2.8932462123
 20
3.6225384577
 30
0.0
 10
2.8921796949
 20
3.5985711957
 30
0.0
 10
2.892871571
 20
3.5698308404
 30
0.0
 10
2.895415656
 20
3.5411650831
 30
0.0
 10
2.8996974892
 20
3.512591017
 30
0.0
 10
2.9055790946
 20
3.48415042
 30
0.0
 10
2.9130876778
 20
3.4559620965
 30
0.0
 10
2.9222704927
 20
3.4281974265
 30
0.0
 10
2.936776874
 20
3.3920338584
 30
0.0
 10
2.954814136
 20
3.3573855875
 30
0.0
 10
2.9765084512
 20
3.325095639
 30
0.0
 10
2.9946492098
 20
3.3022339895
 30
0.0
 10
3.0113416958
 20
3.2844888812
 30
0.0
 10
3.0256385384
 20
3.2711835859
 30
0.0
 10
3.0406006698
 20
3.2584665913
 30
0.0
 10
3.0603906413
 20
3.2438037604
 30
0.0
 10
3.0856094026
 20
3.2283861987
 30
0.0
 10
3.112062401
 20
3.2153420754
 30
0.0
 10
3.1304147213
 20
3.2083497339
 30
0.0
 10
3.1397108148
 20
3.2053278795
 30
0.0
  0
SPLINE
  5
2BC
100
AcDbEntity
  8
0
100
AcDbSpline
 62
7
  6
CONTINUOUS
 70
0
 71
3
 72
65
 73
61
 74
0
 42
0.0000001
 43
0.0000001
 44
0.0000000001
 40
0.0
 40
0.0
 40
0.0
 40
0.0
 40
0.0200893615
 40
0.0383920223
 40
0.0703864019
 40
0.0844746721
 40
0.09749977
 40
0.1096030418
 40
0.1209176342
 40
0.1315704039
 40
0.141677202
 40
0.1513393132
 40
0.1606405218
 40
0.1783774594
 40
0.1869232783
 40
0.1953162993
 40
0.2118001327
 40
0.228081591
 40
0.2442417209
 40
0.2603417673
 40
0.2764778973
 40
0.2926733159
 40
0.3250715489
 40
0.357218615
 40
0.3885199528
 40
0.4036762042
 40
0.4184150779
 40
0.4326810057
 40
0.4464479936
 40
0.4724680251
 40
0.4847872149
 40
0.496712952
 40
0.5083268977
 40
0.5197365042
 40
0.5310436548
 40
0.542326737
 40
0.5536638589
 40
0.565130134
 40
0.5767615562
 40
0.5885665267
 40
0.6005505753
 40
0.6127198491
 40
0.6250766839
 40
0.6376177636
 40
0.6632061028
 40
0.6762826329
 40
0.6895498514
 40
0.7030307202
 40
0.7167679404
 40
0.7308072047
 40
0.7451751938
 40
0.77490232
 40
0.7902601231
 40
0.805911338
 40
0.837955993
 40
0.8707401763
 40
0.9038204229
 40
0.9366535599
 40
0.9687562228
 40
1.0
 40
1.0
 40
1.0
 40
1.0
 10
4.1702152718
 20
2.8715887833
 30
0.0
 10
4.1656357527
 20
2.8717652007
 30
0.0
 10
4.1568670158
 20
2.8718109403
 30
0.0
 10
4.1408420226
 20
2.8706757256
 30
0.0
 10
4.1263256822
 20
2.8679076938
 30
0.0
 10
4.1135607208
 20
2.8635094395
 30
0.0
 10
4.1054023294
 20
2.8598050529
 30
0.0
 10
4.0981819926
 20
2.8556578081
 30
0.0
 10
4.0918530261
 20
2.8511226745
 30
0.0
 10
4.0863718592
 20
2.8462549064
 30
0.0
 10
4.0816936489
 20
2.8411110596
 30
0.0
 10
4.0777723975
 20
2.8357466617
 30
0.0
 10
4.0735603052
 20
2.8284974384
 30
0.0
 10
4.070555261
 20
2.8208910332
 30
0.0
 10
4.0687143257
 20
2.8131891349
 30
0.0
 10
4.0676217383
 20
2.8056335926
 30
0.0
 10
4.067503617
 20
2.7961969669
 30
0.0
 10
4.0691311048
 20
2.7851151251
 30
0.0
 10
4.0722474884
 20
2.7744561463
 30
0.0
 10
4.0766297581
 20
2.7642963397
 30
0.0
 10
4.0820728315
 20
2.7546608445
 30
0.0
 10
4.0904822212
 20
2.7425028431
 30
0.0
 10
4.1026556702
 20
2.7286046857
 30
0.0
 10
4.1186407354
 20
2.7136626412
 30
0.0
 10
4.1323541441
 20
2.7021051961
 30
0.0
 10
4.1430811085
 20
2.6931708353
 30
0.0
 10
4.1507682146
 20
2.6866590477
 30
0.0
 10
4.1580791184
 20
2.6801941939
 30
0.0
 10
4.1670455487
 20
2.6717301685
 30
0.0
 10
4.1751559205
 20
2.6629923171
 30
0.0
 10
4.1819668226
 20
2.6537527722
 30
0.0
 10
4.1862538507
 20
2.6467728756
 30
0.0
 10
4.1897673214
 20
2.6396008074
 30
0.0
 10
4.1924526168
 20
2.6322270019
 30
0.0
 10
4.1942818501
 20
2.6246727947
 30
0.0
 10
4.1952536924
 20
2.6169780288
 30
0.0
 10
4.1953586427
 20
2.6091864047
 30
0.0
 10
4.1945888571
 20
2.6013528076
 30
0.0
 10
4.1929571384
 20
2.5935442167
 30
0.0
 10
4.1904793602
 20
2.5858378671
 30
0.0
 10
4.1871699412
 20
2.578316005
 30
0.0
 10
4.1830436637
 20
2.5710647937
 30
0.0
 10
4.1781433476
 20
2.5641558192
 30
0.0
 10
4.170593258
 20
2.5554405225
 30
0.0
 10
4.1616881097
 20
2.5477488294
 30
0.0
 10
4.1516980892
 20
2.5413553568
 30
0.0
 10
4.143592751
 20
2.5372168839
 30
0.0
 10
4.1349749079
 20
2.5338529367
 30
0.0
 10
4.1258987058
 20
2.5313088287
 30
0.0
 10
4.1164331379
 20
2.5295556166
 30
0.0
 10
4.1032251956
 20
2.5282322082
 30
0.0
 10
4.0896087161
 20
2.5284536779
 30
0.0
 10
4.0758384962
 20
2.5300410292
 30
0.0
 10
4.0616710657
 20
2.5325816245
 30
0.0
 10
4.0439270367
 20
2.5374538539
 30
0.0
 10
4.0230576815
 20
2.5454958845
 30
0.0
 10
4.002789067
 20
2.5553555246
 30
0.0
 10
3.9834544503
 20
2.5666249869
 30
0.0
 10
3.9653042432
 20
2.5789843263
 30
0.0
 10
3.9539849679
 20
2.5879954
 30
0.0
 10
3.9485915472
 20
2.5926550943
 30
0.0
  0
SPLINE
  5
2BD
100
AcDbEntity
  8
0
100
AcDbSpline
 62
7
  6
CONTINUOUS
 70
0
 71
3
 72
55
 73
51
 74
0
 42
0.0000001
 43
0.0000001
 44
0.0000000001
 40
0.0
 40
0.0
 40
0.0
 40
0.0
 40
0.0163776731
 40
0.0326803511
 40
0.0489475335
 40
0.0652094857
 40
0.0814845003
 40
0.0977781247
 40
0.1140932176
 40
0.1304309567
 40
0.1467853914
 40
0.1631451642
 40
0.1958396825
 40
0.2284517215
 40
0.2609474619
 40
0.2933076386
 40
0.3255308636
 40
0.3576597535
 40
0.3737188634
 40
0.3897857068
 40
0.4219493443
 40
0.4541890443
 40
0.4865489204
 40
0.5190581686
 40
0.5516391284
 40
0.5841831992
 40
0.6165837617
 40
0.6486773394
 40
0.6802049819
 40
0.6956905074
 40
0.7109584349
 40
0.7259944527
 40
0.7407893873
 40
0.7553353573
 40
0.7696331431
 40
0.7975263866
 40
0.8112153733
 40
0.8248002827
 40
0.8383603404
 40
0.8519754855
 40
0.8657169905
 40
0.8796558777
 40
0.893858083
 40
0.9083517174
 40
0.9231397254
 40
0.9382153307
 40
0.9535460559
 40
0.9690331706
 40
0.9845583989
 40
1.0
 40
1.0
 40
1.0
 40
1.0
 10
4.8494643265
 20
3.3806027231
 30
0.0
 10
4.8502278488
 20
3.3750844527
 30
0.0
 10
4.8515222752
 20
3.3640404992
 30
0.0
 10
4.852865703
 20
3.3474425946
 30
0.0
 10
4.8537122918
 20
3.330852127
 30
0.0
 10
4.8541744802
 20
3.3142568397
 30
0.0
 10
4.8543440859
 20
3.2976473021
 30
0.0
 10
4.8542485658
 20
3.2810192153
 30
0.0
 10
4.8539220519
 20
3.2643729186
 30
0.0
 10
4.8534047901
 20
3.2477108825
 30
0.0
 10
4.8526972546
 20
3.2310404621
 30
0.0
 10
4.8514496605
 20
3.2088262531
 30
0.0
 10
4.8492463035
 20
3.1811291773
 30
0.0
 10
4.8453160358
 20
3.1480845638
 30
0.0
 10
4.8398425937
 20
3.1153711868
 30
0.0
 10
4.8325996114
 20
3.0831342201
 30
0.0
 10
4.8233865602
 20
3.051529862
 30
0.0
 10
4.8138929591
 20
3.0258487496
 30
0.0
 10
4.805120903
 20
3.0058243687
 30
0.0
 10
4.7955464675
 20
2.986158196
 30
0.0
 10
4.782083986
 20
2.9622884237
 30
0.0
 10
4.7636036451
 20
2.935008262
 30
0.0
 10
4.7428388662
 20
2.9092688776
 30
0.0
 10
4.7198861963
 20
2.885299564
 30
0.0
 10
4.6949787918
 20
2.863275771
 30
0.0
 10
4.6683645493
 20
2.8434092486
 30
0.0
 10
4.6403180233
 20
2.8259299378
 30
0.0
 10
4.6111743544
 20
2.8110931594
 30
0.0
 10
4.5861297064
 20
2.8011273052
 30
0.0
 10
4.5658962265
 20
2.7948217223
 30
0.0
 10
4.5507903398
 20
2.7909934156
 30
0.0
 10
4.5357196812
 20
2.7880818312
 30
0.0
 10
4.5207417877
 20
2.7861304197
 30
0.0
 10
4.5059156637
 20
2.7851813717
 30
0.0
 10
4.4866067764
 20
2.7853069432
 30
0.0
 10
4.467633609
 20
2.7875862874
 30
0.0
 10
4.4494413248
 20
2.7922755564
 30
0.0
 10
4.4363535414
 20
2.7969933809
 30
0.0
 10
4.423822508
 20
2.8029808941
 30
0.0
 10
4.4119168815
 20
2.8102350416
 30
0.0
 10
4.4006963662
 20
2.8187239881
 30
0.0
 10
4.390226443
 20
2.8284194254
 30
0.0
 10
4.3805844811
 20
2.8392815243
 30
0.0
 10
4.3718174827
 20
2.8512189024
 30
0.0
 10
4.3639750425
 20
2.864130209
 30
0.0
 10
4.3571164428
 20
2.8779077231
 30
0.0
 10
4.3513033864
 20
2.8924127777
 30
0.0
 10
4.3465625073
 20
2.9074619845
 30
0.0
 10
4.3429361131
 20
2.9228553626
 30
0.0
 10
4.3412818395
 20
2.9332697331
 30
0.0
 10
4.3406556884
 20
2.9384847153
 30
0.0
  0
SPLINE
  5
2BE
100
AcDbEntity
  8
0
100
AcDbSpline
 62
7
  6
CONTINUOUS
 70
0
 71
3
 72
44
 73
40
 74
0
 42
0.0000001
 43
0.0000001
 44
0.0000000001
 40
0.0
 40
0.0
 40
0.0
 40
0.0
 40
0.0311849402
 40
0.0625462587
 40
0.0782645391
 40
0.0939781808
 40
0.1096678224
 40
0.1253245797
 40
0.1409637179
 40
0.1565984898
 40
0.1878660802
 40
0.219132576
 40
0.2503604362
 40
0.2815802304
 40
0.3128082869
 40
0.3440343633
 40
0.3752518206
 40
0.4064681277
 40
0.4376896259
 40
0.468923262
 40
0.5001638813
 40
0.5314016819
 40
0.5626352929
 40
0.5782577662
 40
0.593884215
 40
0.6251432474
 40
0.6564120518
 40
0.6720471894
 40
0.687675899
 40
0.7032944349
 40
0.7189036712
 40
0.7501165445
 40
0.7813581592
 40
0.8126314978
 40
0.8439095548
 40
0.8751520324
 40
0.9063731479
 40
0.9375942702
 40
1.0
 40
1.0
 40
1.0
 40
1.0
 10
3.6922685646
 20
2.378707354
 30
0.0
 10
3.6979049867
 20
2.3610619982
 30
0.0
 10
3.7116873782
 20
2.3264204743
 30
0.0
 10
3.7344102208
 20
2.2857148487
 30
0.0
 10
3.7555882731
 20
2.2549864252
 30
0.0
 10
3.7728944047
 20
2.2329636688
 30
0.0
 10
3.791521818
 20
2.2120963727
 30
0.0
 10
3.8113933132
 20
2.1924739625
 30
0.0
 10
3.832389354
 20
2.1741106341
 30
0.0
 10
3.8617413524
 20
2.1513110908
 30
0.0
 10
3.9007528288
 20
2.125948517
 30
0.0
 10
3.9504210176
 20
2.1005520301
 30
0.0
 10
4.0022957548
 20
2.080126985
 30
0.0
 10
4.0558233496
 20
2.0646479115
 30
0.0
 10
4.1105177954
 20
2.0540376809
 30
0.0
 10
4.1659213122
 20
2.0482131964
 30
0.0
 10
4.2216112851
 20
2.0471298137
 30
0.0
 10
4.2771895514
 20
2.0507708613
 30
0.0
 10
4.3322696194
 20
2.059109879
 30
0.0
 10
4.3864506153
 20
2.0721273837
 30
0.0
 10
4.4393280149
 20
2.0897402478
 30
0.0
 10
4.4904879636
 20
2.111849311
 30
0.0
 10
4.5313505899
 20
2.1339452799
 30
0.0
 10
4.5627415791
 20
2.1537666605
 30
0.0
 10
4.5932277002
 20
2.1749797538
 30
0.0
 10
4.6295524497
 20
2.2039869288
 30
0.0
 10
4.6632576479
 20
2.2360039409
 30
0.0
 10
4.6885196632
 20
2.2632471891
 30
0.0
 10
4.706584139
 20
2.2844522765
 30
0.0
 10
4.7237303314
 20
2.3063869044
 30
0.0
 10
4.7453371462
 20
2.3365437562
 30
0.0
 10
4.7700410947
 20
2.3758461398
 30
0.0
 10
4.7960429262
 20
2.4251295168
 30
0.0
 10
4.818505906
 20
2.4761609928
 30
0.0
 10
4.8375289734
 20
2.5285670394
 30
0.0
 10
4.8532169217
 20
2.5820288391
 30
0.0
 10
4.8657361675
 20
2.6362824231
 30
0.0
 10
4.8784698127
 20
2.7093667922
 30
0.0
 10
4.883889429
 20
2.7648218331
 30
0.0
 10
4.8859329046
 20
2.8018341799
 30
0.0
  0
SPLINE
  5
2BF
100
AcDbEntity
  8
0
100
AcDbSpline
 62
7
  6
CONTINUOUS
 70
0
 71
3
 72
21
 73
17
 74
0
 42
0.0000001
 43
0.0000001
 44
0.0000000001
 40
0.0
 40
0.0
 40
0.0
 40
0.0
 40
0.1263345727
 40
0.189644506
 40
0.2528466442
 40
0.378507877
 40
0.4409526094
 40
0.5031620622
 40
0.5652435916
 40
0.6273314525
 40
0.6894365445
 40
0.7515431252
 40
0.8136568633
 40
0.8758020884
 40
0.9379427772
 40
1.0
 40
1.0
 40
1.0
 40
1.0
 10
4.8510761875
 20
2.8162923631
 30
0.0
 10
4.8373025655
 20
2.8009393322
 30
0.0
 10
4.8156260113
 20
2.778753413
 30
0.0
 10
4.7847181056
 20
2.7513667944
 30
0.0
 10
4.7525273549
 20
2.7256790762
 30
0.0
 10
4.7183488616
 20
2.7027676991
 30
0.0
 10
4.6823366785
 20
2.6833924816
 30
0.0
 10
4.6545242077
 20
2.6708384292
 30
0.0
 10
4.6259029746
 20
2.6604170906
 30
0.0
 10
4.5965558047
 20
2.6523156974
 30
0.0
 10
4.5666493965
 20
2.6465929959
 30
0.0
 10
4.5363711722
 20
2.6433214399
 30
0.0
 10
4.505917405
 20
2.6425726396
 30
0.0
 10
4.4755040646
 20
2.6444291726
 30
0.0
 10
4.4453691194
 20
2.6488485428
 30
0.0
 10
4.4255966126
 20
2.6534699235
 30
0.0
 10
4.4158370188
 20
2.6561906074
 30
0.0
  0
SPLINE
  5
2C0
100
AcDbEntity
  8
0
100
AcDbSpline
 62
7
  6
CONTINUOUS
 70
0
 71
3
 72
45
 73
41
 74
0
 42
0.0000001
 43
0.0000001
 44
0.0000000001
 40
0.0
 40
0.0
 40
0.0
 40
0.0
 40
0.031340085
 40
0.062714443
 40
0.093966913
 40
0.1250388496
 40
0.1559948645
 40
0.1869756023
 40
0.202471793
 40
0.2179570364
 40
0.2334354563
 40
0.2489175455
 40
0.2644069827
 40
0.2798995422
 40
0.2953848804
 40
0.3108565172
 40
0.3418292947
 40
0.3729390196
 40
0.3885416869
 40
0.4041526374
 40
0.4197481706
 40
0.4352994244
 40
0.46625031
 40
0.4971204329
 40
0.5280324309
 40
0.5590847782
 40
0.590335538
 40
0.6217323257
 40
0.6531974779
 40
0.6846695866
 40
0.747453599
 40
0.7787958309
 40
0.8101370137
 40
0.8415545326
 40
0.8573305208
 40
0.8731608959
 40
0.9049215368
 40
0.9367222927
 40
0.9684470165
 40
1.0
 40
1.0
 40
1.0
 40
1.0
 10
4.3904709853
 20
2.6364966658
 30
0.0
 10
4.3906790105
 20
2.6267899346
 30
0.0
 10
4.3905297079
 20
2.6073470862
 30
0.0
 10
4.3883084103
 20
2.5782954717
 30
0.0
 10
4.3837582888
 20
2.5495894756
 30
0.0
 10
4.3765414759
 20
2.5215552855
 30
0.0
 10
4.3663185688
 20
2.494547168
 30
0.0
 10
4.3550661671
 20
2.4732780278
 30
0.0
 10
4.3444378195
 20
2.4572786368
 30
0.0
 10
4.3356552648
 20
2.4458599673
 30
0.0
 10
4.3260679455
 20
2.43511316
 30
0.0
 10
4.315706524
 20
2.4251090757
 30
0.0
 10
4.3046557558
 20
2.4158669961
 30
0.0
 10
4.2929905216
 20
2.4074131172
 30
0.0
 10
4.2807852197
 20
2.3997699911
 30
0.0
 10
4.2638736957
 20
2.3906847909
 30
0.0
 10
4.2416800064
 20
2.3813260945
 30
0.0
 10
4.2185789172
 20
2.3744308387
 30
0.0
 10
4.199730744
 20
2.3702218094
 30
0.0
 10
4.185449294
 20
2.3676808443
 30
0.0
 10
4.1710931868
 20
2.3657232125
 30
0.0
 10
4.1519445136
 20
2.3638401564
 30
0.0
 10
4.1279772516
 20
2.362773639
 30
0.0
 10
4.0992368963
 20
2.3634655151
 30
0.0
 10
4.070571139
 20
2.3660096001
 30
0.0
 10
4.0419970729
 20
2.3702914333
 30
0.0
 10
4.0135564759
 20
2.3761730387
 30
0.0
 10
3.9853681524
 20
2.3836816219
 30
0.0
 10
3.9576034824
 20
2.3928644368
 30
0.0
 10
3.9214399143
 20
2.4073708181
 30
0.0
 10
3.8867916434
 20
2.4254080801
 30
0.0
 10
3.8545016949
 20
2.4471023953
 30
0.0
 10
3.8316400454
 20
2.4652431539
 30
0.0
 10
3.8138949371
 20
2.4819356399
 30
0.0
 10
3.8005896418
 20
2.4962324825
 30
0.0
 10
3.7878726472
 20
2.5111946139
 30
0.0
 10
3.7732098163
 20
2.5309845854
 30
0.0
 10
3.7577922546
 20
2.5562033467
 30
0.0
 10
3.7447481313
 20
2.5826563451
 30
0.0
 10
3.7377557898
 20
2.6010086654
 30
0.0
 10
3.7347339354
 20
2.6103047589
 30
0.0
  0
SPLINE
  5
2C1
100
AcDbEntity
  8
0
100
AcDbSpline
 62
7
  6
CONTINUOUS
 70
0
 71
3
 72
15
 73
11
 74
0
 42
0.0000001
 43
0.0000001
 44
0.0000000001
 40
0.0
 40
0.0
 40
0.0
 40
0.0
 40
0.1253832763
 40
0.2506201982
 40
0.3756695648
 40
0.4381479362
 40
0.500613126
 40
0.6255432033
 40
0.7504967101
 40
1.0
 40
1.0
 40
1.0
 40
1.0
 10
3.6963573831
 20
2.6091553435
 30
0.0
 10
3.6939087049
 20
2.5997389162
 30
0.0
 10
3.6894819979
 20
2.5807909513
 30
0.0
 10
3.684396823
 20
2.5520716904
 30
0.0
 10
3.6815808882
 20
2.5279483341
 30
0.0
 10
3.6802579788
 20
2.5085911906
 30
0.0
 10
3.6795828127
 20
2.4892099194
 30
0.0
 10
3.6799672161
 20
2.4649548008
 30
0.0
 10
3.6830417975
 20
2.4263075789
 30
0.0
 10
3.6879613928
 20
2.3975833522
 30
0.0
 10
3.6922685646
 20
2.378707354
 30
0.0
  0
SPLINE
  5
2C2
100
AcDbEntity
  8
0
100
AcDbSpline
 62
7
  6
CONTINUOUS
 70
0
 71
3
 72
55
 73
51
 74
0
 42
0.0000001
 43
0.0000001
 44
0.0000000001
 40
0.0
 40
0.0
 40
0.0
 40
0.0
 40
0.0163776731
 40
0.0326803511
 40
0.0489475335
 40
0.0652094857
 40
0.0814845003
 40
0.0977781247
 40
0.1140932176
 40
0.1304309567
 40
0.1467853914
 40
0.1631451642
 40
0.1958396825
 40
0.2284517215
 40
0.2609474619
 40
0.2933076386
 40
0.3255308636
 40
0.3576597535
 40
0.3737188634
 40
0.3897857068
 40
0.4219493443
 40
0.4541890443
 40
0.4865489204
 40
0.5190581686
 40
0.5516391284
 40
0.5841831992
 40
0.6165837617
 40
0.6486773394
 40
0.6802049819
 40
0.6956905074
 40
0.7109584349
 40
0.7259944527
 40
0.7407893873
 40
0.7553353573
 40
0.7696331431
 40
0.7975263866
 40
0.8112153733
 40
0.8248002827
 40
0.8383603404
 40
0.8519754855
 40
0.8657169905
 40
0.8796558777
 40
0.893858083
 40
0.9083517174
 40
0.9231397254
 40
0.9382153307
 40
0.9535460559
 40
0.9690331706
 40
0.9845583989
 40
1.0
 40
1.0
 40
1.0
 40
1.0
 10
3.910008779
 20
4.3200582706
 30
0.0
 10
3.9044905086
 20
4.3208217929
 30
0.0
 10
3.8934465551
 20
4.3221162193
 30
0.0
 10
3.8768486505
 20
4.3234596471
 30
0.0
 10
3.8602581829
 20
4.3243062359
 30
0.0
 10
3.8436628956
 20
4.3247684243
 30
0.0
 10
3.827053358
 20
4.32493803
 30
0.0
 10
3.8104252712
 20
4.3248425099
 30
0.0
 10
3.7937789745
 20
4.324515996
 30
0.0
 10
3.7771169384
 20
4.3239987342
 30
0.0
 10
3.760446518
 20
4.3232911987
 30
0.0
 10
3.738232309
 20
4.3220436046
 30
0.0
 10
3.7105352332
 20
4.3198402476
 30
0.0
 10
3.6774906197
 20
4.3159099799
 30
0.0
 10
3.6447772427
 20
4.3104365378
 30
0.0
 10
3.612540276
 20
4.3031935555
 30
0.0
 10
3.5809359179
 20
4.2939805043
 30
0.0
 10
3.5552548055
 20
4.2844869032
 30
0.0
 10
3.5352304246
 20
4.2757148471
 30
0.0
 10
3.5155642519
 20
4.2661404116
 30
0.0
 10
3.4916944796
 20
4.2526779301
 30
0.0
 10
3.4644143179
 20
4.2341975892
 30
0.0
 10
3.4386749335
 20
4.2134328103
 30
0.0
 10
3.4147056199
 20
4.1904801404
 30
0.0
 10
3.3926818269
 20
4.1655727359
 30
0.0
 10
3.3728153045
 20
4.1389584934
 30
0.0
 10
3.3553359937
 20
4.1109119674
 30
0.0
 10
3.3404992153
 20
4.0817682985
 30
0.0
 10
3.3305333611
 20
4.0567236505
 30
0.0
 10
3.3242277782
 20
4.0364901706
 30
0.0
 10
3.3203994715
 20
4.0213842839
 30
0.0
 10
3.3174878871
 20
4.0063136253
 30
0.0
 10
3.3155364756
 20
3.9913357318
 30
0.0
 10
3.3145874276
 20
3.9765096078
 30
0.0
 10
3.3147129991
 20
3.9572007205
 30
0.0
 10
3.3169923433
 20
3.9382275531
 30
0.0
 10
3.3216816123
 20
3.9200352689
 30
0.0
 10
3.3263994368
 20
3.9069474855
 30
0.0
 10
3.33238695
 20
3.8944164521
 30
0.0
 10
3.3396410975
 20
3.8825108256
 30
0.0
 10
3.348130044
 20
3.8712903103
 30
0.0
 10
3.3578254813
 20
3.8608203871
 30
0.0
 10
3.3686875802
 20
3.8511784252
 30
0.0
 10
3.3806249583
 20
3.8424114268
 30
0.0
 10
3.3935362649
 20
3.8345689866
 30
0.0
 10
3.407313779
 20
3.8277103869
 30
0.0
 10
3.4218188336
 20
3.8218973305
 30
0.0
 10
3.4368680404
 20
3.8171564514
 30
0.0
 10
3.4522614185
 20
3.8135300572
 30
0.0
 10
3.462675789
 20
3.8118757836
 30
0.0
 10
3.4678907712
 20
3.8112496325
 30
0.0
  0
SPLINE
  5
2C3
100
AcDbEntity
  8
0
100
AcDbSpline
 62
7
  6
CONTINUOUS
 70
0
 71
3
 72
65
 73
61
 74
0
 42
0.0000001
 43
0.0000001
 44
0.0000000001
 40
0.0
 40
0.0
 40
0.0
 40
0.0
 40
0.0200893615
 40
0.0383920223
 40
0.0703864019
 40
0.0844746721
 40
0.09749977
 40
0.1096030418
 40
0.1209176342
 40
0.1315704039
 40
0.141677202
 40
0.1513393132
 40
0.1606405218
 40
0.1783774594
 40
0.1869232783
 40
0.1953162993
 40
0.2118001327
 40
0.228081591
 40
0.2442417209
 40
0.2603417673
 40
0.2764778973
 40
0.2926733159
 40
0.3250715489
 40
0.357218615
 40
0.3885199528
 40
0.4036762042
 40
0.4184150779
 40
0.4326810057
 40
0.4464479936
 40
0.4724680251
 40
0.4847872149
 40
0.496712952
 40
0.5083268977
 40
0.5197365042
 40
0.5310436548
 40
0.542326737
 40
0.5536638589
 40
0.565130134
 40
0.5767615562
 40
0.5885665267
 40
0.6005505753
 40
0.6127198491
 40
0.6250766839
 40
0.6376177636
 40
0.6632061028
 40
0.6762826329
 40
0.6895498514
 40
0.7030307202
 40
0.7167679404
 40
0.7308072047
 40
0.7451751938
 40
0.77490232
 40
0.7902601231
 40
0.805911338
 40
0.837955993
 40
0.8707401763
 40
0.9038204229
 40
0.9366535599
 40
0.9687562228
 40
1.0
 40
1.0
 40
1.0
 40
1.0
 10
3.4009948392
 20
3.6408092159
 30
0.0
 10
3.4011712566
 20
3.6362296968
 30
0.0
 10
3.4012169962
 20
3.6274609599
 30
0.0
 10
3.4000817815
 20
3.6114359667
 30
0.0
 10
3.3973137497
 20
3.5969196263
 30
0.0
 10
3.3929154954
 20
3.5841546649
 30
0.0
 10
3.3892111088
 20
3.5759962735
 30
0.0
 10
3.385063864
 20
3.5687759367
 30
0.0
 10
3.3805287304
 20
3.5624469702
 30
0.0
 10
3.3756609623
 20
3.5569658033
 30
0.0
 10
3.3705171155
 20
3.552287593
 30
0.0
 10
3.3651527176
 20
3.5483663416
 30
0.0
 10
3.3579034943
 20
3.5441542493
 30
0.0
 10
3.3502970891
 20
3.5411492051
 30
0.0
 10
3.3425951908
 20
3.5393082698
 30
0.0
 10
3.3350396485
 20
3.5382156824
 30
0.0
 10
3.3256030228
 20
3.5380975611
 30
0.0
 10
3.314521181
 20
3.5397250489
 30
0.0
 10
3.3038622022
 20
3.5428414325
 30
0.0
 10
3.2937023956
 20
3.5472237022
 30
0.0
 10
3.2840669004
 20
3.5526667756
 30
0.0
 10
3.271908899
 20
3.5610761653
 30
0.0
 10
3.2580107416
 20
3.5732496143
 30
0.0
 10
3.2430686971
 20
3.5892346795
 30
0.0
 10
3.231511252
 20
3.6029480882
 30
0.0
 10
3.2225768912
 20
3.6136750526
 30
0.0
 10
3.2160651036
 20
3.6213621587
 30
0.0
 10
3.2096002498
 20
3.6286730625
 30
0.0
 10
3.2011362244
 20
3.6376394928
 30
0.0
 10
3.192398373
 20
3.6457498646
 30
0.0
 10
3.1831588281
 20
3.6525607667
 30
0.0
 10
3.1761789315
 20
3.6568477948
 30
0.0
 10
3.1690068633
 20
3.6603612655
 30
0.0
 10
3.1616330578
 20
3.6630465609
 30
0.0
 10
3.1540788506
 20
3.6648757942
 30
0.0
 10
3.1463840847
 20
3.6658476365
 30
0.0
 10
3.1385924606
 20
3.6659525868
 30
0.0
 10
3.1307588635
 20
3.6651828012
 30
0.0
 10
3.1229502726
 20
3.6635510825
 30
0.0
 10
3.115243923
 20
3.6610733043
 30
0.0
 10
3.1077220609
 20
3.6577638853
 30
0.0
 10
3.1004708496
 20
3.6536376078
 30
0.0
 10
3.0935618751
 20
3.6487372917
 30
0.0
 10
3.0848465784
 20
3.6411872021
 30
0.0
 10
3.0771548853
 20
3.6322820538
 30
0.0
 10
3.0707614127
 20
3.6222920333
 30
0.0
 10
3.0666229398
 20
3.6141866951
 30
0.0
 10
3.0632589926
 20
3.605568852
 30
0.0
 10
3.0607148846
 20
3.5964926499
 30
0.0
 10
3.0589616725
 20
3.587027082
 30
0.0
 10
3.0576382641
 20
3.5738191397
 30
0.0
 10
3.0578597338
 20
3.5602026602
 30
0.0
 10
3.0594470851
 20
3.5464324403
 30
0.0
 10
3.0619876804
 20
3.5322650098
 30
0.0
 10
3.0668599098
 20
3.5145209808
 30
0.0
 10
3.0749019404
 20
3.4936516256
 30
0.0
 10
3.0847615805
 20
3.4733830111
 30
0.0
 10
3.0960310428
 20
3.4540483944
 30
0.0
 10
3.1083903822
 20
3.4358981873
 30
0.0
 10
3.1174014559
 20
3.424578912
 30
0.0
 10
3.1220611502
 20
3.4191854913
 30
0.0
  0
SPLINE
  5
2C4
100
AcDbEntity
  8
0
100
AcDbSpline
 62
7
  6
CONTINUOUS
 70
0
 71
3
 72
44
 73
40
 74
0
 42
0.0000001
 43
0.0000001
 44
0.0000000001
 40
0.0
 40
0.0
 40
0.0
 40
0.0
 40
0.0619201034
 40
0.0928819324
 40
0.1238543255
 40
0.1549065895
 40
0.1861469072
 40
0.2175026359
 40
0.2488277174
 40
0.2800467248
 40
0.2956228585
 40
0.3111869164
 40
0.3267581879
 40
0.3423593031
 40
0.3579956944
 40
0.3736641708
 40
0.4050586635
 40
0.436488483
 40
0.4678757579
 40
0.4835386266
 40
0.499171979
 40
0.5303909807
 40
0.5616378504
 40
0.5929532158
 40
0.6243343224
 40
0.655747363
 40
0.6871424635
 40
0.7184797168
 40
0.7497465697
 40
0.780970025
 40
0.7965942657
 40
0.8122419971
 40
0.8436147995
 40
0.8750545654
 40
0.9064759083
 40
0.9377952181
 40
0.9534036748
 40
0.9689683578
 40
1.0
 40
1.0
 40
1.0
 40
1.0
 10
4.5478779097
 20
3.7207088552
 30
0.0
 10
4.5608622128
 20
3.7276978779
 30
0.0
 10
4.5802808636
 20
3.7383061596
 30
0.0
 10
4.6054742682
 20
3.753657565
 30
0.0
 10
4.6238628415
 20
3.7660118229
 30
0.0
 10
4.6415763983
 20
3.7794355002
 30
0.0
 10
4.6583873988
 20
3.794120574
 30
0.0
 10
4.6740670389
 20
3.8101053302
 30
0.0
 10
4.6883333707
 20
3.8273621474
 30
0.0
 10
4.6987944361
 20
3.8427880584
 30
0.0
 10
4.7061296049
 20
3.8557077574
 30
0.0
 10
4.7110754551
 20
3.8656787474
 30
0.0
 10
4.7154290852
 20
3.8759292526
 30
0.0
 10
4.7191477022
 20
3.8864452481
 30
0.0
 10
4.7222317038
 20
3.8971885524
 30
0.0
 10
4.725498767
 20
3.9117653516
 30
0.0
 10
4.7279901471
 20
3.9303366825
 30
0.0
 10
4.7284296568
 20
3.9528138649
 30
0.0
 10
4.7266639983
 20
3.9714651337
 30
0.0
 10
4.7239639738
 20
3.9861541665
 30
0.0
 10
4.720406618
 20
4.0006183168
 30
0.0
 10
4.7143976165
 20
4.0182655157
 30
0.0
 10
4.7048974146
 20
4.0385236656
 30
0.0
 10
4.6933058823
 20
4.0577049253
 30
0.0
 10
4.6798169262
 20
4.0756484666
 30
0.0
 10
4.6646252551
 20
4.0921991087
 30
0.0
 10
4.647904887
 20
4.1071892269
 30
0.0
 10
4.6297972138
 20
4.1204162042
 30
0.0
 10
4.6104519407
 20
4.1316788569
 30
0.0
 10
4.5934172518
 20
4.139257485
 30
0.0
 10
4.5793452071
 20
4.1441252451
 30
0.0
 10
4.5649772782
 20
4.1481685722
 30
0.0
 10
4.5465683756
 20
4.1516250593
 30
0.0
 10
4.5241371728
 20
4.1532262559
 30
0.0
 10
4.5016811952
 20
4.1522799676
 30
0.0
 10
4.4832070352
 20
4.1493550431
 30
0.0
 10
4.4687655514
 20
4.1457268922
 30
0.0
 10
4.454638615
 20
4.1412447212
 30
0.0
 10
4.4443827402
 20
4.1369226258
 30
0.0
 10
4.4377396312
 20
4.1336852763
 30
0.0
  0
SPLINE
  5
2C5
100
AcDbEntity
  8
0
100
AcDbSpline
 62
7
  6
CONTINUOUS
 70
0
 71
3
 72
28
 73
24
 74
0
 42
0.0000001
 43
0.0000001
 44
0.0000000001
 40
0.0
 40
0.0
 40
0.0
 40
0.0
 40
0.0627540483
 40
0.0942633484
 40
0.1257836484
 40
0.1572587934
 40
0.1729634003
 40
0.1886364387
 40
0.21991019
 40
0.2511485767
 40
0.3136547535
 40
0.3762871239
 40
0.4076069922
 40
0.438869288
 40
0.4700663102
 40
0.5012248185
 40
0.5635050005
 40
0.6258433334
 40
0.6882913896
 40
0.7508370237
 40
0.8134132879
 40
0.8759069711
 40
1.0
 40
1.0
 40
1.0
 40
1.0
 10
3.0697797004
 20
2.9575894928
 30
0.0
 10
3.0872805471
 20
2.9425024787
 30
0.0
 10
3.1119443253
 20
2.9178642552
 30
0.0
 10
3.1411801494
 20
2.8819156488
 30
0.0
 10
3.1612770707
 20
2.8534741194
 30
0.0
 10
3.1763866442
 20
2.8287206836
 30
0.0
 10
3.1874355555
 20
2.8083815458
 30
0.0
 10
3.1977566837
 20
2.7877465886
 30
0.0
 10
3.2093514737
 20
2.7613725838
 30
0.0
 10
3.2252371036
 20
2.7181429721
 30
0.0
 10
3.2403680439
 20
2.6624608876
 30
0.0
 10
3.2499083238
 20
2.6055657971
 30
0.0
 10
3.2546545467
 20
2.5596969334
 30
0.0
 10
3.2568846814
 20
2.5252307673
 30
0.0
 10
3.2578621333
 20
2.4907669289
 30
0.0
 10
3.2575624472
 20
2.4448689257
 30
0.0
 10
3.2543252548
 20
2.3875602083
 30
0.0
 10
3.2463153585
 20
2.3191132657
 30
0.0
 10
3.2346406688
 20
2.2511024397
 30
0.0
 10
3.2197575447
 20
2.1836387652
 30
0.0
 10
3.2021204406
 20
2.1168300652
 30
0.0
 10
3.1756016954
 20
2.0289891041
 30
0.0
 10
3.1528591109
 20
1.9641225314
 30
0.0
 10
3.1369317985
 20
1.9212969972
 30
0.0
  0
SPLINE
  5
2C6
100
AcDbEntity
  8
0
100
AcDbSpline
 62
7
  6
CONTINUOUS
 70
0
 71
3
 72
49
 73
45
 74
0
 42
0.0000001
 43
0.0000001
 44
0.0000000001
 40
0.0
 40
0.0
 40
0.0
 40
0.0
 40
0.0312371898
 40
0.0624905299
 40
0.0781207132
 40
0.0937492005
 40
0.1093752332
 40
0.1249988427
 40
0.1562376674
 40
0.1874744955
 40
0.2030914961
 40
0.2187099407
 40
0.2499515657
 40
0.2655707613
 40
0.2811835146
 40
0.3124048884
 40
0.3280215827
 40
0.343643741
 40
0.3514570178
 40
0.3592714959
 40
0.3749015591
 40
0.3905299112
 40
0.40615387
 40
0.4217724735
 40
0.437386634
 40
0.4529992918
 40
0.46861513
 40
0.4842371044
 40
0.499866172
 40
0.5311418357
 40
0.5624334
 40
0.5937157363
 40
0.6249722592
 40
0.6562230797
 40
0.6874829223
 40
0.7187550248
 40
0.7500322506
 40
0.7656683621
 40
0.7813000878
 40
0.8125538178
 40
0.8438020698
 40
0.8750494469
 40
0.9375397427
 40
1.0
 40
1.0
 40
1.0
 40
1.0
 10
3.5051522381
 20
1.9218037513
 30
0.0
 10
3.4962923843
 20
1.9437793517
 30
0.0
 10
3.4802614898
 20
1.9884451244
 30
0.0
 10
3.4646072964
 20
2.0456618011
 30
0.0
 10
3.4547997656
 20
2.0920645151
 30
0.0
 10
3.4488247412
 20
2.1271322393
 30
0.0
 10
3.4442540084
 20
2.1624057084
 30
0.0
 10
3.440067271
 20
2.2096311813
 30
0.0
 10
3.4384381031
 20
2.2689164813
 30
0.0
 10
3.4413804967
 20
2.3281378298
 30
0.0
 10
3.4463355647
 20
2.375273663
 30
0.0
 10
3.4528884201
 20
2.4222169699
 30
0.0
 10
3.4616489648
 20
2.4688245509
 30
0.0
 10
3.4722282811
 20
2.5150198582
 30
0.0
 10
3.4839143043
 20
2.5609328835
 30
0.0
 10
3.4971770838
 20
2.6064276095
 30
0.0
 10
3.5118188711
 20
2.6514884568
 30
0.0
 10
3.5215088956
 20
2.6794830993
 30
0.0
 10
3.5295602256
 20
2.7017781228
 30
0.0
 10
3.5378048737
 20
2.7240088124
 30
0.0
 10
3.5484868513
 20
2.7516569405
 30
0.0
 10
3.5619560538
 20
2.784571898
 30
0.0
 10
3.5761247144
 20
2.8171829231
 30
0.0
 10
3.5910407115
 20
2.8494476325
 30
0.0
 10
3.6067525683
 20
2.8813233293
 30
0.0
 10
3.6233065995
 20
2.9127683076
 30
0.0
 10
3.6407551747
 20
2.9437329155
 30
0.0
 10
3.6590733215
 20
2.9742055504
 30
0.0
 10
3.6846079313
 20
3.0141792827
 30
0.0
 10
3.7185108729
 20
3.0628843925
 30
0.0
 10
3.7620547509
 20
3.1192356284
 30
0.0
 10
3.8081869815
 20
3.173466815
 30
0.0
 10
3.8566545701
 20
3.2255745018
 30
0.0
 10
3.9072056538
 20
3.2756346595
 30
0.0
 10
3.9596190015
 20
3.3237548188
 30
0.0
 10
4.0136764557
 20
3.3700467252
 30
0.0
 10
4.059917779
 20
3.4071959672
 30
0.0
 10
4.0975249895
 20
3.4361198299
 30
0.0
 10
4.1355021245
 20
3.4645266299
 30
0.0
 10
4.1836505403
 20
3.499096898
 30
0.0
 10
4.242413874
 20
3.5391554682
 30
0.0
 10
4.3219480539
 20
3.59076702
 30
0.0
 10
4.4233524952
 20
3.6521072601
 30
0.0
 10
4.5061595074
 20
3.6982532132
 30
0.0
 10
4.5478779097
 20
3.7207088552
 30
0.0
  0
SPLINE
  5
2C7
100
AcDbEntity
  8
0
100
AcDbSpline
 62
7
  6
CONTINUOUS
 70
0
 71
3
 72
22
 73
18
 74
0
 42
0.0000001
 43
0.0000001
 44
0.0000000001
 40
0.0
 40
0.0
 40
0.0
 40
0.0
 40
0.0651908168
 40
0.1288982301
 40
0.1913384262
 40
0.2527409777
 40
0.3133472497
 40
0.3734082083
 40
0.4331816885
 40
0.4929292473
 40
0.5529127808
 40
0.6133911195
 40
0.6746168188
 40
0.7368333336
 40
0.8002727129
 40
0.8651538859
 40
1.0
 40
1.0
 40
1.0
 40
1.0
 10
2.4408269628
 20
2.8346158243
 30
0.0
 10
2.4573654029
 20
2.8321883765
 30
0.0
 10
2.4899453493
 20
2.826510749
 30
0.0
 10
2.5377455504
 20
2.8153411084
 30
0.0
 10
2.5838683326
 20
2.8016225338
 30
0.0
 10
2.6283100157
 20
2.7853540592
 30
0.0
 10
2.671068844
 20
2.7665347897
 30
0.0
 10
2.7121421974
 20
2.745164501
 30
0.0
 10
2.7515275463
 20
2.7212436078
 30
0.0
 10
2.789222471
 20
2.6947732093
 30
0.0
 10
2.8252249384
 20
2.6657549862
 30
0.0
 10
2.8595334222
 20
2.6341911128
 30
0.0
 10
2.8921471294
 20
2.600083806
 30
0.0
 10
2.9230655161
 20
2.5634360519
 30
0.0
 10
2.9522901061
 20
2.5242478212
 30
0.0
 10
2.9894687554
 20
2.4679024218
 30
0.0
 10
3.0140768847
 20
2.4228488391
 30
0.0
 10
3.0291830136
 20
2.3917473012
 30
0.0
  0
SPLINE
  5
2C8
100
AcDbEntity
  8
0
100
AcDbSpline
 62
7
  6
CONTINUOUS
 70
0
 71
3
 72
38
 73
34
 74
0
 42
0.0000001
 43
0.0000001
 44
0.0000000001
 40
0.0
 40
0.0
 40
0.0
 40
0.0
 40
0.0625876209
 40
0.0941746519
 40
0.1258872127
 40
0.1894355729
 40
0.2211962719
 40
0.2528629054
 40
0.2843901038
 40
0.3157445559
 40
0.3469094772
 40
0.3624246196
 40
0.3778961349
 40
0.3933288511
 40
0.4087375418
 40
0.4241471434
 40
0.4395776465
 40
0.4705497915
 40
0.5017129227
 40
0.5330561636
 40
0.5645224358
 40
0.5802756487
 40
0.5960262818
 40
0.6274900257
 40
0.6588897627
 40
0.6902128667
 40
0.7214496991
 40
0.7525947069
 40
0.8146100135
 40
0.8763404269
 40
0.938003472
 40
0.9689299169
 40
1.0
 40
1.0
 40
1.0
 40
1.0
 10
3.0667090443
 20
2.3962012042
 30
0.0
 10
3.0716032281
 20
2.4185194338
 30
0.0
 10
3.0763141569
 20
2.4527490423
 30
0.0
 10
3.0775861087
 20
2.4987145875
 30
0.0
 10
3.0755735262
 20
2.5450114232
 30
0.0
 10
3.0686921421
 20
2.591050208
 30
0.0
 10
3.0570810949
 20
2.635956642
 30
0.0
 10
3.0460376205
 20
2.6688482686
 30
0.0
 10
3.0326932248
 20
2.7007143333
 30
0.0
 10
3.0170796745
 20
2.7313283934
 30
0.0
 10
3.0021778507
 20
2.7556468253
 30
0.0
 10
2.9891539407
 20
2.7742326441
 30
0.0
 10
2.978853608
 20
2.7876956791
 30
0.0
 10
2.9680060274
 20
2.8006712282
 30
0.0
 10
2.956625381
 20
2.8131505895
 30
0.0
 10
2.9447653427
 20
2.8251729718
 30
0.0
 10
2.9283499818
 20
2.8406622669
 30
0.0
 10
2.9068256555
 20
2.8590885199
 30
0.0
 10
2.8798153227
 20
2.8799610663
 30
0.0
 10
2.8519276085
 20
2.8999490944
 30
0.0
 10
2.8282464855
 20
2.9161303782
 30
0.0
 10
2.809176761
 20
2.9289678424
 30
0.0
 10
2.7900923078
 20
2.9417818408
 30
0.0
 10
2.7663013493
 20
2.9578330909
 30
0.0
 10
2.7379133046
 20
2.9772345887
 30
0.0
 10
2.709777532
 20
2.9968562034
 30
0.0
 10
2.6819707298
 20
3.0167834047
 30
0.0
 10
2.6454920035
 20
3.0438346537
 30
0.0
 10
2.6010719057
 20
3.0788581602
 30
0.0
 10
2.5502140466
 20
3.1235812814
 30
0.0
 10
2.5104864035
 20
3.16360912
 30
0.0
 10
2.4806888629
 20
3.1975367283
 30
0.0
 10
2.4665060001
 20
3.2151865416
 30
0.0
 10
2.459608532
 20
3.22419096
 30
0.0
  0
SPLINE
  5
2C9
100
AcDbEntity
  8
0
100
AcDbSpline
 62
7
  6
CONTINUOUS
 70
0
 71
3
 72
30
 73
26
 74
0
 42
0.0000001
 43
0.0000001
 44
0.0000000001
 40
0.0
 40
0.0
 40
0.0
 40
0.0
 40
0.0623809648
 40
0.1247025283
 40
0.1402937358
 40
0.1558928625
 40
0.1871034159
 40
0.2183207909
 40
0.2495297074
 40
0.2807189976
 40
0.3118834378
 40
0.3741963893
 40
0.4367857679
 40
0.4997564319
 40
0.5630045694
 40
0.5946622735
 40
0.6262786271
 40
0.6578018104
 40
0.6891901583
 40
0.7204493535
 40
0.7515973651
 40
0.8136326381
 40
0.8755214585
 40
0.9375337285
 40
1.0
 40
1.0
 40
1.0
 40
1.0
 10
2.637689461
 20
2.5451641714
 30
0.0
 10
2.6529263516
 20
2.540128536
 30
0.0
 10
2.6829639505
 20
2.5287172335
 30
0.0
 10
2.7152692777
 20
2.5124352002
 30
0.0
 10
2.7358744821
 20
2.500015771
 30
0.0
 10
2.7493611872
 20
2.4913055595
 30
0.0
 10
2.7657114001
 20
2.4796381814
 30
0.0
 10
2.7844257751
 20
2.4644480805
 30
0.0
 10
2.8021500329
 20
2.4481207444
 30
0.0
 10
2.8187947516
 20
2.4307114274
 30
0.0
 10
2.8394248375
 20
2.4061311154
 30
0.0
 10
2.8621419603
 20
2.3728862358
 30
0.0
 10
2.8845118925
 20
2.3299324168
 30
0.0
 10
2.9022257302
 20
2.2846168725
 30
0.0
 10
2.913282973
 20
2.2454722239
 30
0.0
 10
2.9200191001
 20
2.2136209709
 30
0.0
 10
2.9240350775
 20
2.1895595635
 30
0.0
 10
2.927037611
 20
2.1654217004
 30
0.0
 10
2.9290487202
 20
2.1412732561
 30
0.0
 10
2.9300469925
 20
2.117157518
 30
0.0
 10
2.9300065472
 20
2.0851369463
 30
0.0
 10
2.9273472028
 20
2.0452763871
 30
0.0
 10
2.9198213671
 20
1.9979708321
 30
0.0
 10
2.9078290037
 20
1.9514791321
 30
0.0
 10
2.896821581
 20
1.9213427135
 30
0.0
 10
2.8905667944
 20
1.9065405883
 30
0.0
  0
SPLINE
  5
2CA
100
AcDbEntity
  8
0
100
AcDbSpline
 62
7
  6
CONTINUOUS
 70
0
 71
3
 72
29
 73
25
 74
0
 42
0.0000001
 43
0.0000001
 44
0.0000000001
 40
0.0
 40
0.0
 40
0.0
 40
0.0
 40
0.0336878862
 40
0.0663804519
 40
0.0983313142
 40
0.1297621001
 40
0.1608590876
 40
0.1917718771
 40
0.2226139801
 40
0.2534649683
 40
0.3153139804
 40
0.3774681064
 40
0.408623429
 40
0.4397623133
 40
0.4708396713
 40
0.5018740077
 40
0.5639807263
 40
0.626328631
 40
0.6888688083
 40
0.7513515605
 40
0.8136247926
 40
0.8758024358
 40
0.9379369972
 40
1.0
 40
1.0
 40
1.0
 40
1.0
 10
2.4434495946
 20
1.9804466649
 30
0.0
 10
2.4510482872
 20
1.9805537304
 30
0.0
 10
2.466022704
 20
1.9815075451
 30
0.0
 10
2.487937196
 20
1.9851715814
 30
0.0
 10
2.5088759742
 20
1.9909073153
 30
0.0
 10
2.528798026
 20
1.9985772113
 30
0.0
 10
2.5476676762
 20
2.0080436206
 30
0.0
 10
2.5654495138
 20
2.0191688829
 30
0.0
 10
2.5821105367
 20
2.0318175197
 30
0.0
 10
2.6027943726
 20
2.0505385512
 30
0.0
 10
2.6257056847
 20
2.0771168583
 30
0.0
 10
2.6443622127
 20
2.1068861088
 30
0.0
 10
2.6566570363
 20
2.1321452998
 30
0.0
 10
2.6645334697
 20
2.1516996787
 30
0.0
 10
2.6710173227
 20
2.1717293003
 30
0.0
 10
2.677824732
 20
2.198929933
 30
0.0
 10
2.6830359316
 20
2.233714227
 30
0.0
 10
2.6844336822
 20
2.2759550647
 30
0.0
 10
2.6814498556
 20
2.3181864378
 30
0.0
 10
2.6745304034
 20
2.3599245312
 30
0.0
 10
2.6640390034
 20
2.4008188225
 30
0.0
 10
2.6502998058
 20
2.4406495289
 30
0.0
 10
2.6336360699
 20
2.4792876202
 30
0.0
 10
2.6207700939
 20
2.504203272
 30
0.0
 10
2.6139483266
 20
2.5164292768
 30
0.0
  0
SPLINE
  5
2CB
100
AcDbEntity
  8
0
100
AcDbSpline
 62
7
  6
CONTINUOUS
 70
0
 71
3
 72
15
 73
11
 74
0
 42
0.0000001
 43
0.0000001
 44
0.0000000001
 40
0.0
 40
0.0
 40
0.0
 40
0.0
 40
0.1286301392
 40
0.2541745773
 40
0.3776190375
 40
0.4999999969
 40
0.6223809567
 40
0.7458254181
 40
0.8713698581
 40
1.0
 40
1.0
 40
1.0
 40
1.0
 10
4.9855997726
 20
4.6838643598
 30
0.0
 10
4.9806803677
 20
4.6730643014
 30
0.0
 10
4.9700895854
 20
4.6521046119
 30
0.0
 10
4.9517139432
 20
4.622452913
 30
0.0
 10
4.9310739602
 20
4.5950427699
 30
0.0
 10
4.9081725588
 20
4.5698841286
 30
0.0
 10
4.883013918
 20
4.5469827264
 30
0.0
 10
4.8556037752
 20
4.5263427424
 30
0.0
 10
4.8259520765
 20
4.507967099
 30
0.0
 10
4.804992387
 20
4.4973763158
 30
0.0
 10
4.7941923285
 20
4.4924569104
 30
0.0
  0
SPLINE
  5
2CC
100
AcDbEntity
  8
0
100
AcDbSpline
 62
7
  6
CONTINUOUS
 70
0
 71
3
 72
15
 73
11
 74
0
 42
0.0000001
 43
0.0000001
 44
0.0000000001
 40
0.0
 40
0.0
 40
0.0
 40
0.0
 40
0.1286301379
 40
0.254174575
 40
0.3776190346
 40
0.4999999938
 40
0.6223809538
 40
0.7458254158
 40
0.8713698568
 40
1.0
 40
1.0
 40
1.0
 40
1.0
 10
4.7941923293
 20
4.4561937112
 30
0.0
 10
4.8049923875
 20
4.451274306
 30
0.0
 10
4.8259520765
 20
4.4406835231
 30
0.0
 10
4.8556037745
 20
4.4223078801
 30
0.0
 10
4.8830139168
 20
4.4016678962
 30
0.0
 10
4.9081725573
 20
4.378766494
 30
0.0
 10
4.9310739587
 20
4.3536078524
 30
0.0
 10
4.9517139419
 20
4.3261977088
 30
0.0
 10
4.9700895844
 20
4.2965460092
 30
0.0
 10
4.9806803671
 20
4.2755863192
 30
0.0
 10
4.9855997722
 20
4.2647862604
 30
0.0
  0
SPLINE
  5
2CD
100
AcDbEntity
  8
0
100
AcDbSpline
 62
7
  6
CONTINUOUS
 70
0
 71
3
 72
15
 73
11
 74
0
 42
0.0000001
 43
0.0000001
 44
0.0000000001
 40
0.0
 40
0.0
 40
0.0
 40
0.0
 40
0.1286301392
 40
0.2541745773
 40
0.3776190375
 40
0.4999999969
 40
0.6223809567
 40
0.7458254181
 40
0.8713698581
 40
1.0
 40
1.0
 40
1.0
 40
1.0
 10
5.0218629603
 20
4.2647862613
 30
0.0
 10
5.0267823653
 20
4.2755863198
 30
0.0
 10
5.0373731476
 20
4.2965460092
 30
0.0
 10
5.0557487897
 20
4.3261977081
 30
0.0
 10
5.0763887727
 20
4.3536078512
 30
0.0
 10
5.0992901741
 20
4.3787664925
 30
0.0
 10
5.1244488149
 20
4.4016678947
 30
0.0
 10
5.1518589577
 20
4.4223078787
 30
0.0
 10
5.1815106564
 20
4.4406835221
 30
0.0
 10
5.2024703459
 20
4.4512743053
 30
0.0
 10
5.2132704044
 20
4.4561937108
 30
0.0
  0
SPLINE
  5
2CE
100
AcDbEntity
  8
0
100
AcDbSpline
 62
7
  6
CONTINUOUS
 70
0
 71
3
 72
15
 73
11
 74
0
 42
0.0000001
 43
0.0000001
 44
0.0000000001
 40
0.0
 40
0.0
 40
0.0
 40
0.0
 40
0.1286301379
 40
0.254174575
 40
0.3776190346
 40
0.4999999938
 40
0.6223809538
 40
0.7458254158
 40
0.8713698568
 40
1.0
 40
1.0
 40
1.0
 40
1.0
 10
5.2132704036
 20
4.49245691
 30
0.0
 10
5.2024703454
 20
4.4973763152
 30
0.0
 10
5.1815106565
 20
4.507967098
 30
0.0
 10
5.1518589584
 20
4.526342741
 30
0.0
 10
5.1244488161
 20
4.5469827249
 30
0.0
 10
5.0992901756
 20
4.5698841271
 30
0.0
 10
5.0763887742
 20
4.5950427687
 30
0.0
 10
5.055748791
 20
4.6224529124
 30
0.0
 10
5.0373731485
 20
4.652104612
 30
0.0
 10
5.0267823658
 20
4.6730643019
 30
0.0
 10
5.0218629607
 20
4.6838643607
 30
0.0
  0
SPLINE
  5
2CF
100
AcDbEntity
  8
0
100
AcDbSpline
 62
7
  6
CONTINUOUS
 70
0
 71
3
 72
19
 73
15
 74
0
 42
0.0000001
 43
0.0000001
 44
0.0000000001
 40
0.0
 40
0.0
 40
0.0
 40
0.0
 40
0.1247574951
 40
0.1874233266
 40
0.2500190211
 40
0.3125712843
 40
0.3751334431
 40
0.4999847187
 40
0.6248414268
 40
0.6874059587
 40
0.7499625558
 40
0.8125639099
 40
0.8752362157
 40
1.0
 40
1.0
 40
1.0
 40
1.0
 10
4.9855997815
 20
4.6838643558
 30
0.0
 10
4.9863865303
 20
4.6855915661
 30
0.0
 10
4.9879436909
 20
4.6880377486
 30
0.0
 10
4.9906136889
 20
4.6907591109
 30
0.0
 10
4.9928938277
 20
4.6924981648
 30
0.0
 10
4.9953960279
 20
4.6938951922
 30
0.0
 10
4.9989602262
 20
4.6952523878
 30
0.0
 10
5.003730729
 20
4.6959622231
 30
0.0
 10
5.0085013401
 20
4.6952527367
 30
0.0
 10
5.0120657702
 20
4.6938956253
 30
0.0
 10
5.0145682043
 20
4.6924986359
 30
0.0
 10
5.016848635
 20
4.6907595354
 30
0.0
 10
5.0195187615
 20
4.6880379083
 30
0.0
 10
5.0210761629
 20
4.6855916539
 30
0.0
 10
5.0218629516
 20
4.6838643566
 30
0.0
  0
SPLINE
  5
2D0
100
AcDbEntity
  8
0
100
AcDbSpline
 62
7
  6
CONTINUOUS
 70
0
 71
3
 72
19
 73
15
 74
0
 42
0.0000001
 43
0.0000001
 44
0.0000000001
 40
0.0
 40
0.0
 40
0.0
 40
0.0
 40
0.1247575008
 40
0.1874233228
 40
0.2500190146
 40
0.312571284
 40
0.3751334487
 40
0.4999847186
 40
0.6248414211
 40
0.6874059592
 40
0.7499625624
 40
0.8125639134
 40
0.8752362095
 40
1.0
 40
1.0
 40
1.0
 40
1.0
 10
5.2132704006
 20
4.4924569034
 30
0.0
 10
5.2149976138
 20
4.4916701548
 30
0.0
 10
5.2174438028
 20
4.4901129987
 30
0.0
 10
5.2201651735
 20
4.4874430023
 30
0.0
 10
5.2219042311
 20
4.485162862
 30
0.0
 10
5.223301261
 20
4.4826606589
 30
0.0
 10
5.2246584592
 20
4.4790964565
 30
0.0
 10
5.2253682966
 20
4.4743259479
 30
0.0
 10
5.2246588082
 20
4.469555331
 30
0.0
 10
5.2233016942
 20
4.4659908968
 30
0.0
 10
5.2219047023
 20
4.4634884598
 30
0.0
 10
5.220165598
 20
4.4612080276
 30
0.0
 10
5.2174439625
 20
4.4585379027
 30
0.0
 10
5.2149977015
 20
4.4569805059
 30
0.0
 10
5.2132704013
 20
4.4561937175
 30
0.0
  0
SPLINE
  5
2D1
100
AcDbEntity
  8
0
100
AcDbSpline
 62
7
  6
CONTINUOUS
 70
0
 71
3
 72
19
 73
15
 74
0
 42
0.0000001
 43
0.0000001
 44
0.0000000001
 40
0.0
 40
0.0
 40
0.0
 40
0.0
 40
0.1247574951
 40
0.1874233266
 40
0.2500190211
 40
0.3125712843
 40
0.3751334431
 40
0.4999847187
 40
0.6248414268
 40
0.6874059587
 40
0.7499625558
 40
0.8125639099
 40
0.8752362157
 40
1.0
 40
1.0
 40
1.0
 40
1.0
 10
5.0218629515
 20
4.2647862653
 30
0.0
 10
5.0210762026
 20
4.263059055
 30
0.0
 10
5.019519042
 20
4.2606128725
 30
0.0
 10
5.0168490441
 20
4.2578915102
 30
0.0
 10
5.0145689053
 20
4.2561524563
 30
0.0
 10
5.012066705
 20
4.2547554289
 30
0.0
 10
5.0085025068
 20
4.2533982333
 30
0.0
 10
5.0037320039
 20
4.252688398
 30
0.0
 10
4.9989613928
 20
4.2533978844
 30
0.0
 10
4.9953969627
 20
4.2547549958
 30
0.0
 10
4.9928945286
 20
4.2561519852
 30
0.0
 10
4.9906140979
 20
4.2578910857
 30
0.0
 10
4.9879439714
 20
4.2606127128
 30
0.0
 10
4.98638657
 20
4.2630589672
 30
0.0
 10
4.9855997813
 20
4.2647862645
 30
0.0
  0
SPLINE
  5
2D2
100
AcDbEntity
  8
0
100
AcDbSpline
 62
7
  6
CONTINUOUS
 70
0
 71
3
 72
19
 73
15
 74
0
 42
0.0000001
 43
0.0000001
 44
0.0000000001
 40
0.0
 40
0.0
 40
0.0
 40
0.0
 40
0.1247575008
 40
0.1874233228
 40
0.2500190146
 40
0.312571284
 40
0.3751334487
 40
0.4999847186
 40
0.6248414211
 40
0.6874059592
 40
0.7499625624
 40
0.8125639134
 40
0.8752362095
 40
1.0
 40
1.0
 40
1.0
 40
1.0
 10
4.7941923323
 20
4.4561937178
 30
0.0
 10
4.7924651191
 20
4.4569804663
 30
0.0
 10
4.7900189301
 20
4.4585376224
 30
0.0
 10
4.7872975595
 20
4.4612076188
 30
0.0
 10
4.7855585018
 20
4.4634877592
 30
0.0
 10
4.7841614719
 20
4.4659899622
 30
0.0
 10
4.7828042737
 20
4.4695541646
 30
0.0
 10
4.7820944363
 20
4.4743246732
 30
0.0
 10
4.7828039248
 20
4.4790952901
 30
0.0
 10
4.7841610387
 20
4.4826597244
 30
0.0
 10
4.7855580306
 20
4.4851621613
 30
0.0
 10
4.7872971349
 20
4.4874425935
 30
0.0
 10
4.7900187704
 20
4.4901127184
 30
0.0
 10
4.7924650314
 20
4.4916701152
 30
0.0
 10
4.7941923316
 20
4.4924569036
 30
0.0
  0
SPLINE
  5
2D3
100
AcDbEntity
  8
0
100
AcDbSpline
 62
7
  6
CONTINUOUS
 70
0
 71
3
 72
19
 73
15
 74
0
 42
0.0000001
 43
0.0000001
 44
0.0000000001
 40
0.0
 40
0.0
 40
0.0
 40
0.0
 40
0.1247765377
 40
0.1874581354
 40
0.2500796842
 40
0.3126540429
 40
0.3752136275
 40
0.5000427573
 40
0.6248851176
 40
0.6874416385
 40
0.7499884071
 40
0.8125766883
 40
0.8752349054
 40
1.0
 40
1.0
 40
1.0
 40
1.0
 10
2.4237313665
 20
4.7421090736
 30
0.0
 10
2.4237313665
 20
4.7439695928
 30
0.0
 10
2.4241199423
 20
4.7467839757
 30
0.0
 10
2.4253754809
 20
4.7503040376
 30
0.0
 10
2.4266823705
 20
4.7527930372
 30
0.0
 10
2.4283213864
 20
4.7550743613
 30
0.0
 10
2.4309100814
 20
4.7577703625
 30
0.0
 10
2.4348256672
 20
4.7604124377
 30
0.0
 10
2.4393307486
 20
4.761831554
 30
0.0
 10
2.4430517293
 20
4.7621808243
 30
0.0
 10
2.44585654
 20
4.7620438964
 30
0.0
 10
2.4486167657
 20
4.7615175427
 30
0.0
 10
2.4521525256
 20
4.7603101473
 30
0.0
 10
2.4545969478
 20
4.758863235
 30
0.0
 10
2.4560532384
 20
4.7577056018
 30
0.0
  0
SPLINE
  5
2D4
100
AcDbEntity
  8
0
100
AcDbSpline
 62
7
  6
CONTINUOUS
 70
0
 71
3
 72
19
 73
15
 74
0
 42
0.0000001
 43
0.0000001
 44
0.0000000001
 40
0.0
 40
0.0
 40
0.0
 40
0.0
 40
0.1247735969
 40
0.1874408371
 40
0.2500376107
 40
0.3125912173
 40
0.3751514559
 40
0.5000091072
 40
0.6248618179
 40
0.6874195905
 40
0.7499703642
 40
0.8125641684
 40
0.8752286324
 40
1.0
 40
1.0
 40
1.0
 40
1.0
 10
2.4560532384
 20
4.1909450193
 30
0.0
 10
2.4545968489
 20
4.1897873075
 30
0.0
 10
2.4521521117
 20
4.1883404227
 30
0.0
 10
2.4486160113
 20
4.1871328212
 30
0.0
 10
2.4458553758
 20
4.1866066197
 30
0.0
 10
2.4430502776
 20
4.1864698692
 30
0.0
 10
2.4393289333
 20
4.1868192524
 30
0.0
 10
2.4348232346
 20
4.1882390503
 30
0.0
 10
2.4309081923
 20
4.1908827599
 30
0.0
 10
2.4283192173
 20
4.1935784093
 30
0.0
 10
2.4266808637
 20
4.1958592812
 30
0.0
 10
2.4253750296
 20
4.1983476655
 30
0.0
 10
2.4241199529
 20
4.201867069
 30
0.0
 10
2.4237313665
 20
4.2046811058
 30
0.0
 10
2.4237313665
 20
4.2065415475
 30
0.0
  0
SPLINE
  5
2D5
100
AcDbEntity
  8
0
100
AcDbSpline
 62
7
  6
CONTINUOUS
 70
0
 71
3
 72
19
 73
15
 74
0
 42
0.0000001
 43
0.0000001
 44
0.0000000001
 40
0.0
 40
0.0
 40
0.0
 40
0.0
 40
0.1247579438
 40
0.1874283337
 40
0.250037877
 40
0.3126064709
 40
0.3751795433
 40
0.5000485475
 40
0.6248900085
 40
0.6874454527
 40
0.7499917928
 40
0.8125814517
 40
0.8752419801
 40
1.0
 40
1.0
 40
1.0
 40
1.0
 10
2.8858667425
 20
4.4923987818
 30
0.0
 10
2.8875776323
 20
4.4916050154
 30
0.0
 10
2.8899984585
 20
4.4900427686
 30
0.0
 10
2.8926890882
 20
4.4873753829
 30
0.0
 10
2.8944075207
 20
4.4851016657
 30
0.0
 10
2.8957874172
 20
4.4826099443
 30
0.0
 10
2.8971272591
 20
4.4790641508
 30
0.0
 10
2.8978267049
 20
4.47432347
 30
0.0
 10
2.8971263372
 20
4.469583243
 30
0.0
 10
2.8957864133
 20
4.4660385908
 30
0.0
 10
2.8944068796
 20
4.4635477059
 30
0.0
 10
2.8926886893
 20
4.4612747903
 30
0.0
 10
2.8899982903
 20
4.4586078334
 30
0.0
 10
2.8875776334
 20
4.4570456062
 30
0.0
 10
2.8858667425
 20
4.4562518393
 30
0.0
  0
SPLINE
  5
2D6
100
AcDbEntity
  8
0
100
AcDbSpline
 62
7
  6
CONTINUOUS
 70
0
 71
3
 72
19
 73
15
 74
0
 42
0.0000001
 43
0.0000001
 44
0.0000000001
 40
0.0
 40
0.0
 40
0.0
 40
0.0
 40
0.1247579438
 40
0.1874283337
 40
0.250037877
 40
0.3126064709
 40
0.3751795433
 40
0.5000485475
 40
0.6248900085
 40
0.6874454527
 40
0.7499917928
 40
0.8125814517
 40
0.8752419801
 40
1.0
 40
1.0
 40
1.0
 40
1.0
 10
7.1215959904
 20
4.4562518393
 30
0.0
 10
7.1198851006
 20
4.4570456057
 30
0.0
 10
7.1174642744
 20
4.4586078525
 30
0.0
 10
7.1147736447
 20
4.4612752383
 30
0.0
 10
7.1130552122
 20
4.4635489554
 30
0.0
 10
7.1116753158
 20
4.4660406769
 30
0.0
 10
7.1103354739
 20
4.4695864703
 30
0.0
 10
7.109636028
 20
4.4743271511
 30
0.0
 10
7.1103363957
 20
4.4790673781
 30
0.0
 10
7.1116763197
 20
4.4826120303
 30
0.0
 10
7.1130558533
 20
4.4851029153
 30
0.0
 10
7.1147740436
 20
4.4873758308
 30
0.0
 10
7.1174644426
 20
4.4900427877
 30
0.0
 10
7.1198850995
 20
4.4916050149
 30
0.0
 10
7.1215959904
 20
4.4923987818
 30
0.0
  0
SPLINE
  5
2D7
100
AcDbEntity
  8
0
100
AcDbSpline
 62
7
  6
CONTINUOUS
 70
0
 71
3
 72
19
 73
15
 74
0
 42
0.0000001
 43
0.0000001
 44
0.0000000001
 40
0.0
 40
0.0
 40
0.0
 40
0.0
 40
0.1247765377
 40
0.1874581354
 40
0.2500796842
 40
0.3126540429
 40
0.3752136275
 40
0.5000427573
 40
0.6248851176
 40
0.6874416385
 40
0.7499884071
 40
0.8125766883
 40
0.8752349054
 40
1.0
 40
1.0
 40
1.0
 40
1.0
 10
7.5837313665
 20
4.2065415475
 30
0.0
 10
7.5837313665
 20
4.2046810283
 30
0.0
 10
7.5833427906
 20
4.2018666455
 30
0.0
 10
7.582087252
 20
4.1983465835
 30
0.0
 10
7.5807803624
 20
4.1958575839
 30
0.0
 10
7.5791413465
 20
4.1935762598
 30
0.0
 10
7.5765526516
 20
4.1908802586
 30
0.0
 10
7.5726370657
 20
4.1882381835
 30
0.0
 10
7.5681319843
 20
4.1868190671
 30
0.0
 10
7.5644110036
 20
4.1864697968
 30
0.0
 10
7.5616061929
 20
4.1866067247
 30
0.0
 10
7.5588459672
 20
4.1871330784
 30
0.0
 10
7.5553102073
 20
4.1883404738
 30
0.0
 10
7.5528657851
 20
4.1897873861
 30
0.0
 10
7.5514094945
 20
4.1909450193
 30
0.0
  0
SPLINE
  5
2D8
100
AcDbEntity
  8
0
100
AcDbSpline
 62
7
  6
CONTINUOUS
 70
0
 71
3
 72
19
 73
15
 74
0
 42
0.0000001
 43
0.0000001
 44
0.0000000001
 40
0.0
 40
0.0
 40
0.0
 40
0.0
 40
0.1247735969
 40
0.1874408371
 40
0.2500376107
 40
0.3125912173
 40
0.3751514559
 40
0.5000091072
 40
0.6248618179
 40
0.6874195905
 40
0.7499703642
 40
0.8125641684
 40
0.8752286324
 40
1.0
 40
1.0
 40
1.0
 40
1.0
 10
7.5514094945
 20
4.7577056018
 30
0.0
 10
7.5528658841
 20
4.7588633136
 30
0.0
 10
7.5553106212
 20
4.7603101985
 30
0.0
 10
7.5588467216
 20
4.7615177999
 30
0.0
 10
7.5616073571
 20
4.7620440015
 30
0.0
 10
7.5644124553
 20
4.7621807519
 30
0.0
 10
7.5681337996
 20
4.7618313687
 30
0.0
 10
7.5726394984
 20
4.7604115709
 30
0.0
 10
7.5765545406
 20
4.7577678612
 30
0.0
 10
7.5791435157
 20
4.7550722118
 30
0.0
 10
7.5807818692
 20
4.7527913399
 30
0.0
 10
7.5820877033
 20
4.7503029556
 30
0.0
 10
7.58334278
 20
4.7467835521
 30
0.0
 10
7.5837313665
 20
4.7439695153
 30
0.0
 10
7.5837313665
 20
4.7421090736
 30
0.0
  0
SPLINE
  5
2D9
100
AcDbEntity
  8
0
100
AcDbSpline
 62
7
  6
CONTINUOUS
 70
0
 71
3
 72
19
 73
15
 74
0
 42
0.0000001
 43
0.0000001
 44
0.0000000001
 40
0.0
 40
0.0
 40
0.0
 40
0.0
 40
0.1247735969
 40
0.1874408371
 40
0.2500376107
 40
0.3125912173
 40
0.3751514559
 40
0.5000091072
 40
0.6248618179
 40
0.6874195905
 40
0.7499703642
 40
0.8125641684
 40
0.8752286324
 40
1.0
 40
1.0
 40
1.0
 40
1.0
 10
5.2871116577
 20
1.9266471825
 30
0.0
 10
5.2882693695
 20
1.925190793
 30
0.0
 10
5.2897162544
 20
1.9227460558
 30
0.0
 10
5.2909238558
 20
1.9192099554
 30
0.0
 10
5.2914500574
 20
1.9164493199
 30
0.0
 10
5.2915868078
 20
1.9136442217
 30
0.0
 10
5.2912374246
 20
1.9099228774
 30
0.0
 10
5.2898176268
 20
1.9054171787
 30
0.0
 10
5.2871739171
 20
1.9015021364
 30
0.0
 10
5.2844782677
 20
1.8989131614
 30
0.0
 10
5.2821973958
 20
1.8972748078
 30
0.0
 10
5.2797090115
 20
1.8959689737
 30
0.0
 10
5.276189608
 20
1.894713897
 30
0.0
 10
5.2733755712
 20
1.8943253106
 30
0.0
 10
5.2715151295
 20
1.8943253106
 30
0.0
  0
SPLINE
  5
2DA
100
AcDbEntity
  8
0
100
AcDbSpline
 62
7
  6
CONTINUOUS
 70
0
 71
3
 72
19
 73
15
 74
0
 42
0.0000001
 43
0.0000001
 44
0.0000000001
 40
0.0
 40
0.0
 40
0.0
 40
0.0
 40
0.1247765377
 40
0.1874581354
 40
0.2500796842
 40
0.3126540429
 40
0.3752136275
 40
0.5000427573
 40
0.6248851176
 40
0.6874416385
 40
0.7499884071
 40
0.8125766883
 40
0.8752349054
 40
1.0
 40
1.0
 40
1.0
 40
1.0
 10
4.7359476034
 20
1.8943253106
 30
0.0
 10
4.7340870842
 20
1.8943253106
 30
0.0
 10
4.7312727014
 20
1.8947138864
 30
0.0
 10
4.7277526394
 20
1.895969425
 30
0.0
 10
4.7252636398
 20
1.8972763146
 30
0.0
 10
4.7229823157
 20
1.8989153305
 30
0.0
 10
4.7202863145
 20
1.9015040255
 30
0.0
 10
4.7176442394
 20
1.9054196113
 30
0.0
 10
4.716225123
 20
1.9099246927
 30
0.0
 10
4.7158758527
 20
1.9136456734
 30
0.0
 10
4.7160127806
 20
1.9164504841
 30
0.0
 10
4.7165391343
 20
1.9192107098
 30
0.0
 10
4.7177465297
 20
1.9227464697
 30
0.0
 10
4.719193442
 20
1.9251908919
 30
0.0
 10
4.7203510752
 20
1.9266471825
 30
0.0
  0
SPLINE
  5
2DB
100
AcDbEntity
  8
0
100
AcDbSpline
 62
7
  6
CONTINUOUS
 70
0
 71
3
 72
19
 73
15
 74
0
 42
0.0000001
 43
0.0000001
 44
0.0000000001
 40
0.0
 40
0.0
 40
0.0
 40
0.0
 40
0.1247579438
 40
0.1874283337
 40
0.250037877
 40
0.3126064709
 40
0.3751795433
 40
0.5000485475
 40
0.6248900085
 40
0.6874454527
 40
0.7499917928
 40
0.8125814517
 40
0.8752419801
 40
1.0
 40
1.0
 40
1.0
 40
1.0
 10
4.9856578952
 20
2.3564606866
 30
0.0
 10
4.9864516616
 20
2.3581715764
 30
0.0
 10
4.9880139084
 20
2.3605924026
 30
0.0
 10
4.9906812942
 20
2.3632830323
 30
0.0
 10
4.9929550113
 20
2.3650014648
 30
0.0
 10
4.9954467328
 20
2.3663813613
 30
0.0
 10
4.9989925262
 20
2.3677212032
 30
0.0
 10
5.003733207
 20
2.368420649
 30
0.0
 10
5.008473434
 20
2.3677202813
 30
0.0
 10
5.0120180862
 20
2.3663803574
 30
0.0
 10
5.0145089712
 20
2.3650008237
 30
0.0
 10
5.0167818867
 20
2.3632826334
 30
0.0
 10
5.0194488436
 20
2.3605922344
 30
0.0
 10
5.0210110708
 20
2.3581715775
 30
0.0
 10
5.0218048377
 20
2.3564606866
 30
0.0
  0
SPLINE
  5
2DC
100
AcDbEntity
  8
0
100
AcDbSpline
 62
7
  6
CONTINUOUS
 70
0
 71
3
 72
19
 73
15
 74
0
 42
0.0000001
 43
0.0000001
 44
0.0000000001
 40
0.0
 40
0.0
 40
0.0
 40
0.0
 40
0.1247579438
 40
0.1874283337
 40
0.250037877
 40
0.3126064709
 40
0.3751795433
 40
0.5000485475
 40
0.6248900085
 40
0.6874454527
 40
0.7499917928
 40
0.8125814517
 40
0.8752419801
 40
1.0
 40
1.0
 40
1.0
 40
1.0
 10
5.0218048377
 20
6.5921899345
 30
0.0
 10
5.0210110713
 20
6.5904790447
 30
0.0
 10
5.0194488245
 20
6.5880582185
 30
0.0
 10
5.0167814388
 20
6.5853675888
 30
0.0
 10
5.0145077216
 20
6.5836491563
 30
0.0
 10
5.0120160002
 20
6.5822692599
 30
0.0
 10
5.0084702067
 20
6.580929418
 30
0.0
 10
5.0037295259
 20
6.5802299721
 30
0.0
 10
4.9989892989
 20
6.5809303398
 30
0.0
 10
4.9954446467
 20
6.5822702638
 30
0.0
 10
4.9929537618
 20
6.5836497974
 30
0.0
 10
4.9906808462
 20
6.5853679877
 30
0.0
 10
4.9880138893
 20
6.5880583867
 30
0.0
 10
4.9864516621
 20
6.5904790436
 30
0.0
 10
4.9856578952
 20
6.5921899345
 30
0.0
  0
SPLINE
  5
2DD
100
AcDbEntity
  8
0
100
AcDbSpline
 62
7
  6
CONTINUOUS
 70
0
 71
3
 72
19
 73
15
 74
0
 42
0.0000001
 43
0.0000001
 44
0.0000000001
 40
0.0
 40
0.0
 40
0.0
 40
0.0
 40
0.1247735969
 40
0.1874408371
 40
0.2500376107
 40
0.3125912173
 40
0.3751514559
 40
0.5000091072
 40
0.6248618179
 40
0.6874195905
 40
0.7499703642
 40
0.8125641684
 40
0.8752286324
 40
1.0
 40
1.0
 40
1.0
 40
1.0
 10
4.7203510752
 20
7.0220034386
 30
0.0
 10
4.7191933634
 20
7.0234598282
 30
0.0
 10
4.7177464786
 20
7.0259045653
 30
0.0
 10
4.7165388771
 20
7.0294406657
 30
0.0
 10
4.7160126756
 20
7.0322013012
 30
0.0
 10
4.7158759251
 20
7.0350063994
 30
0.0
 10
4.7162253083
 20
7.0387277437
 30
0.0
 10
4.7176451062
 20
7.0432334425
 30
0.0
 10
4.7202888158
 20
7.0471484847
 30
0.0
 10
4.7229844652
 20
7.0497374598
 30
0.0
 10
4.7252653371
 20
7.0513758133
 30
0.0
 10
4.7277537214
 20
7.0526816474
 30
0.0
 10
4.7312731249
 20
7.0539367241
 30
0.0
 10
4.7340871617
 20
7.0543253106
 30
0.0
 10
4.7359476034
 20
7.0543253106
 30
0.0
  0
SPLINE
  5
2DE
100
AcDbEntity
  8
0
100
AcDbSpline
 62
7
  6
CONTINUOUS
 70
0
 71
3
 72
19
 73
15
 74
0
 42
0.0000001
 43
0.0000001
 44
0.0000000001
 40
0.0
 40
0.0
 40
0.0
 40
0.0
 40
0.1247765377
 40
0.1874581354
 40
0.2500796842
 40
0.3126540429
 40
0.3752136275
 40
0.5000427573
 40
0.6248851176
 40
0.6874416385
 40
0.7499884071
 40
0.8125766883
 40
0.8752349054
 40
1.0
 40
1.0
 40
1.0
 40
1.0
 10
5.2715151295
 20
7.0543253106
 30
0.0
 10
5.2733756487
 20
7.0543253106
 30
0.0
 10
5.2761900316
 20
7.0539367347
 30
0.0
 10
5.2797100935
 20
7.0526811961
 30
0.0
 10
5.2821990931
 20
7.0513743065
 30
0.0
 10
5.2844804172
 20
7.0497352906
 30
0.0
 10
5.2871764184
 20
7.0471465957
 30
0.0
 10
5.2898184936
 20
7.0432310098
 30
0.0
 10
5.2912376099
 20
7.0387259284
 30
0.0
 10
5.2915868802
 20
7.0350049477
 30
0.0
 10
5.2914499523
 20
7.032200137
 30
0.0
 10
5.2909235987
 20
7.0294399113
 30
0.0
 10
5.2897162032
 20
7.0259041514
 30
0.0
 10
5.2882692909
 20
7.0234597292
 30
0.0
 10
5.2871116577
 20
7.0220034386
 30
0.0
  0
SPLINE
  5
2DF
100
AcDbEntity
  8
0
100
AcDbSpline
 62
7
  6
CONTINUOUS
 70
0
 71
3
 72
69
 73
65
 74
0
 42
0.0000001
 43
0.0000001
 44
0.0000000001
 40
0.0
 40
0.0
 40
0.0
 40
0.0
 40
0.0156519504
 40
0.0234772259
 40
0.0313009876
 40
0.0469471368
 40
0.0625812407
 40
0.0703981229
 40
0.0782151045
 40
0.0860290727
 40
0.0938393108
 40
0.1016487874
 40
0.1094588391
 40
0.1133640424
 40
0.1172692208
 40
0.1250794487
 40
0.1328895349
 40
0.1406995197
 40
0.1563193659
 40
0.1719393553
 40
0.1875595573
 40
0.2031800143
 40
0.2188006618
 40
0.2500419239
 40
0.281283662
 40
0.3125254352
 40
0.3437660453
 40
0.3750066383
 40
0.4062513198
 40
0.4375015521
 40
0.4687522677
 40
0.5000025608
 40
0.5312556122
 40
0.5625083222
 40
0.5937589033
 40
0.6250114491
 40
0.6562644338
 40
0.6875157469
 40
0.7187670869
 40
0.7500180498
 40
0.7656434057
 40
0.7812680708
 40
0.7968927134
 40
0.8125175874
 40
0.8281424452
 40
0.8437666428
 40
0.8593902729
 40
0.8750136754
 40
0.890636459
 40
0.898447346
 40
0.9062576118
 40
0.914067272
 40
0.9218772406
 40
0.9257827302
 40
0.9296887193
 40
0.9375007222
 40
0.9453109901
 40
0.9492159165
 40
0.9531213284
 40
0.9609339173
 40
0.9687486885
 40
0.9765636748
 40
0.9843763309
 40
1.0
 40
1.0
 40
1.0
 40
1.0
 10
4.6630922036
 20
5.0403152578
 30
0.0
 10
4.658904719
 20
5.0489082782
 30
0.0
 10
4.651701618
 20
5.0613688436
 30
0.0
 10
4.6406534582
 20
5.0769767515
 30
0.0
 10
4.6287301061
 20
5.0919269531
 30
0.0
 10
4.6123648869
 20
5.1093794374
 30
0.0
 10
4.5944700362
 20
5.1252314808
 30
0.0
 10
4.5794754248
 20
5.1370608614
 30
0.0
 10
4.5679396798
 20
5.1455501392
 30
0.0
 10
4.5561632373
 20
5.15369352
 30
0.0
 10
4.5441935206
 20
5.1615408007
 30
0.0
 10
4.532073951
 20
5.1691490612
 30
0.0
 10
4.5218947095
 20
5.1753597556
 30
0.0
 10
4.513742276
 20
5.18031405
 30
0.0
 10
4.5055956558
 20
5.185278135
 30
0.0
 10
4.4954241357
 20
5.1915021876
 30
0.0
 10
4.4832379335
 20
5.1990026894
 30
0.0
 10
4.467017189
 20
5.2090473733
 30
0.0
 10
4.4467948889
 20
5.2216895759
 30
0.0
 10
4.4226214784
 20
5.2370088212
 30
0.0
 10
4.3985446809
 20
5.2524801699
 30
0.0
 10
4.3745679905
 20
5.2681069985
 30
0.0
 10
4.3427392429
 20
5.2891568566
 30
0.0
 10
4.3032311441
 20
5.3158880419
 30
0.0
 10
4.2563152345
 20
5.3486841675
 30
0.0
 10
4.2099489441
 20
5.3822530266
 30
0.0
 10
4.1641971677
 20
5.4166544004
 30
0.0
 10
4.1191280263
 20
5.4519492759
 30
0.0
 10
4.074820527
 20
5.4882061151
 30
0.0
 10
4.0313644909
 20
5.5254901472
 30
0.0
 10
3.988871388
 20
5.5638747973
 30
0.0
 10
3.9474577346
 20
5.6034258442
 30
0.0
 10
3.9072468802
 20
5.6442026969
 30
0.0
 10
3.8683710388
 20
5.686256361
 30
0.0
 10
3.8309703563
 20
5.7296289822
 30
0.0
 10
3.7951988277
 20
5.7743567863
 30
0.0
 10
3.7611744839
 20
5.8204292898
 30
0.0
 10
3.7290143287
 20
5.8678226456
 30
0.0
 10
3.6988345157
 20
5.9164992796
 30
0.0
 10
3.6753501146
 20
5.9580504183
 30
0.0
 10
3.6575779845
 20
5.9918339455
 30
0.0
 10
3.6447557
 20
6.0174314728
 30
0.0
 10
3.6324290672
 20
6.0432707456
 30
0.0
 10
3.6205878406
 20
6.0693360873
 30
0.0
 10
3.6092209216
 20
6.0956113349
 30
0.0
 10
3.5983187562
 20
6.1220818604
 30
0.0
 10
3.5878621937
 20
6.1487304323
 30
0.0
 10
3.5778253912
 20
6.1755388021
 30
0.0
 10
3.5697903169
 20
6.1979987525
 30
0.0
 10
3.5635471106
 20
6.216030053
 30
0.0
 10
3.558953943
 20
6.2295827384
 30
0.0
 10
3.5544471838
 20
6.2431638089
 30
0.0
 10
3.5507738167
 20
6.254508519
 30
0.0
 10
3.5478908559
 20
6.2636029282
 30
0.0
 10
3.5450452763
 20
6.2727103916
 30
0.0
 10
3.541590064
 20
6.2841257755
 30
0.0
 10
3.5383724416
 20
6.2956107398
 30
0.0
 10
3.5360030538
 20
6.3048521217
 30
0.0
 10
3.5337886281
 20
6.31413329
 30
0.0
 10
3.5312998518
 20
6.3258020817
 30
0.0
 10
3.5287334037
 20
6.3398889136
 30
0.0
 10
3.526557955
 20
6.354041319
 30
0.0
 10
3.5241422752
 20
6.3729753631
 30
0.0
 10
3.5228140204
 20
6.3872316831
 30
0.0
 10
3.5220853038
 20
6.3967455724
 30
0.0
  0
SPLINE
  5
2E0
100
AcDbEntity
  8
0
100
AcDbSpline
 62
7
  6
CONTINUOUS
 70
0
 71
3
 72
73
 73
69
 74
0
 42
0.0000001
 43
0.0000001
 44
0.0000000001
 40
0.0
 40
0.0
 40
0.0
 40
0.0
 40
0.0160795849
 40
0.023901835
 40
0.0315856276
 40
0.0466455301
 40
0.0615115412
 40
0.0689531365
 40
0.076437111
 40
0.0915779661
 40
0.1069853499
 40
0.1226525801
 40
0.1385282122
 40
0.1545177279
 40
0.1705016976
 40
0.1863806149
 40
0.2178152497
 40
0.2333914209
 40
0.2489158503
 40
0.2644385122
 40
0.2800007009
 40
0.2956078967
 40
0.3112512214
 40
0.3269228787
 40
0.3426092474
 40
0.358292876
 40
0.3661289213
 40
0.3739590321
 40
0.3896067034
 40
0.4052490001
 40
0.4208947341
 40
0.4365486692
 40
0.4522120076
 40
0.4678828784
 40
0.4835557695
 40
0.4992225451
 40
0.5305167908
 40
0.5461480108
 40
0.5617766306
 40
0.5774146338
 40
0.593065849
 40
0.6087279598
 40
0.624396836
 40
0.6557278973
 40
0.6713748068
 40
0.6870042854
 40
0.7026285723
 40
0.7182608487
 40
0.7495842162
 40
0.7810309072
 40
0.7967701782
 40
0.8124734024
 40
0.8281147855
 40
0.8436944664
 40
0.8592213006
 40
0.874712513
 40
0.8902173032
 40
0.9058024846
 40
0.9136487978
 40
0.9215347878
 40
0.9373938576
 40
0.9453511057
 40
0.9532999462
 40
0.9612229024
 40
0.9691040849
 40
0.9846558489
 40
0.9923435317
 40
1.0
 40
1.0
 40
1.0
 40
1.0
 10
3.1220588938
 20
5.529462518
 30
0.0
 10
3.1274664804
 20
5.5357217605
 30
0.0
 10
3.1359481268
 20
5.5446608042
 30
0.0
 10
3.1480299799
 20
5.5555344846
 30
0.0
 10
3.1602804236
 20
5.5654026589
 30
0.0
 10
3.176351327
 20
5.5762556407
 30
0.0
 10
3.1934706711
 20
5.5851004115
 30
0.0
 10
3.2076526286
 20
5.5909280046
 30
0.0
 10
3.2222771443
 20
5.5959850002
 30
0.0
 10
3.2412599527
 20
5.6008703587
 30
0.0
 10
3.2647686537
 20
5.6046053646
 30
0.0
 10
3.2888765217
 20
5.6064216136
 30
0.0
 10
3.3133461614
 20
5.6065035237
 30
0.0
 10
3.3379313524
 20
5.6050422188
 30
0.0
 10
3.3623971742
 20
5.6022230773
 30
0.0
 10
3.3945297759
 20
5.5968903244
 30
0.0
 10
3.4260520118
 20
5.5894182776
 30
0.0
 10
3.4568985572
 20
5.5802754528
 30
0.0
 10
3.4796519449
 20
5.5726762164
 30
0.0
 10
3.5021465945
 20
5.564367732
 30
0.0
 10
3.524439579
 20
5.5554180604
 30
0.0
 10
3.5465280066
 20
5.5458173219
 30
0.0
 10
3.5683739809
 20
5.5355432178
 30
0.0
 10
3.5899299121
 20
5.5245828748
 30
0.0
 10
3.6111444291
 20
5.512932114
 30
0.0
 10
3.6284976282
 20
5.5026465077
 30
0.0
 10
3.6421570107
 20
5.4940720344
 30
0.0
 10
3.6556499586
 20
5.485271761
 30
0.0
 10
3.6722294085
 20
5.4738589845
 30
0.0
 10
3.691699203
 20
5.4595746715
 30
0.0
 10
3.7107801327
 20
5.4447705649
 30
0.0
 10
3.7295136476
 20
5.4295130987
 30
0.0
 10
3.7479402639
 20
5.4138671449
 30
0.0
 10
3.7661039881
 20
5.3979028953
 30
0.0
 10
3.7840329204
 20
5.3816720498
 30
0.0
 10
3.8075092346
 20
5.35960265
 30
0.0
 10
3.8302308004
 20
5.3367637435
 30
0.0
 10
3.8518882935
 20
5.3129572904
 30
0.0
 10
3.8675215511
 20
5.2945758363
 30
0.0
 10
3.882462276
 20
5.2756135138
 30
0.0
 10
3.8967042424
 20
5.2561002502
 30
0.0
 10
3.9102549814
 20
5.2360816758
 30
0.0
 10
3.9273957844
 20
5.2087761247
 30
0.0
 10
3.9431961445
 20
5.1806623596
 30
0.0
 10
3.9578203558
 20
5.1519651424
 30
0.0
 10
3.968209723
 20
5.130186651
 30
0.0
 10
3.9780057533
 20
5.1081431917
 30
0.0
 10
3.9902774146
 20
5.0783781792
 30
0.0
 10
4.004085074
 20
5.0404581149
 30
0.0
 10
4.0155468779
 20
5.0017005508
 30
0.0
 10
4.0231690973
 20
4.9702544487
 30
0.0
 10
4.0280590664
 20
4.9465270285
 30
0.0
 10
4.032071472
 20
4.9227184685
 30
0.0
 10
4.0351547583
 20
4.8988625913
 30
0.0
 10
4.0372604579
 20
4.8749776323
 30
0.0
 10
4.0383437486
 20
4.8510620039
 30
0.0
 10
4.0383130317
 20
4.8270906085
 30
0.0
 10
4.0372803054
 20
4.8070779932
 30
0.0
 10
4.0358137114
 20
4.7910327007
 30
0.0
 10
4.0338834205
 20
4.7748951121
 30
0.0
 10
4.0311966327
 20
4.7587945724
 30
0.0
 10
4.0276147674
 20
4.7428474269
 30
0.0
 10
4.0244100247
 20
4.7310112857
 30
0.0
 10
4.0206326811
 20
4.7193835212
 30
0.0
 10
4.0147868446
 20
4.7043461757
 30
0.0
 10
4.0074765422
 20
4.6900104073
 30
0.0
 10
3.9983572619
 20
4.6769676606
 30
0.0
 10
3.9932020332
 20
4.6709679716
 30
0.0
 10
3.9904800711
 20
4.6681212623
 30
0.0
  0
SPLINE
  5
2E1
100
AcDbEntity
  8
0
100
AcDbSpline
 62
7
  6
CONTINUOUS
 70
0
 71
3
 72
18
 73
14
 74
0
 42
0.0000001
 43
0.0000001
 44
0.0000000001
 40
0.0
 40
0.0
 40
0.0
 40
0.0
 40
0.1223362176
 40
0.1838269961
 40
0.2456445006
 40
0.370384684
 40
0.4967141392
 40
0.5604474902
 40
0.6244886356
 40
0.6886482887
 40
0.7526341721
 40
0.8787537289
 40
1.0
 40
1.0
 40
1.0
 40
1.0
 10
3.9904800711
 20
4.6681212623
 30
0.0
 10
3.9879164016
 20
4.6654401
 30
0.0
 10
3.9838580656
 20
4.6616000488
 30
0.0
 10
3.978057623
 20
4.6569229154
 30
0.0
 10
3.9719607707
 20
4.6525128038
 30
0.0
 10
3.9638685328
 20
4.6475308986
 30
0.0
 10
3.9553150045
 20
4.6432666268
 30
0.0
 10
3.948223298
 20
4.6402496659
 30
0.0
 10
3.9427818647
 20
4.6381809958
 30
0.0
 10
3.9372679727
 20
4.6362920364
 30
0.0
 10
3.9299099028
 20
4.6339866716
 30
0.0
 10
3.9208176184
 20
4.6314382734
 30
0.0
 10
3.9135615655
 20
4.6295381978
 30
0.0
 10
3.910008779
 20
4.6285923506
 30
0.0
  0
SPLINE
  5
2E2
100
AcDbEntity
  8
0
100
AcDbSpline
 62
7
  6
CONTINUOUS
 70
0
 71
3
 72
64
 73
60
 74
0
 42
0.0000001
 43
0.0000001
 44
0.0000000001
 40
0.0
 40
0.0
 40
0.0
 40
0.0
 40
0.0309412389
 40
0.0460108628
 40
0.0607218558
 40
0.0888409933
 40
0.102220669
 40
0.1151434101
 40
0.1276298384
 40
0.1397198391
 40
0.1514847649
 40
0.1630450641
 40
0.1745313722
 40
0.1860712193
 40
0.1977850887
 40
0.209784015
 40
0.2221637571
 40
0.2349836351
 40
0.2482674543
 40
0.2620113032
 40
0.2907509503
 40
0.3207396948
 40
0.3513400255
 40
0.3819549635
 40
0.3971311786
 40
0.4121813034
 40
0.4271125586
 40
0.4419644619
 40
0.4567960993
 40
0.4716860451
 40
0.4867345239
 40
0.5020624697
 40
0.5178021983
 40
0.5340365382
 40
0.5508068925
 40
0.5681389412
 40
0.5860462468
 40
0.6045313991
 40
0.6235511094
 40
0.6430161608
 40
0.6628268141
 40
0.68287794
 40
0.7232511124
 40
0.7433598986
 40
0.7632537326
 40
0.7828204709
 40
0.8019574399
 40
0.8205850565
 40
0.8386695716
 40
0.8561981769
 40
0.8731768257
 40
0.8896359821
 40
0.9056421234
 40
0.9213248303
 40
0.9368345447
 40
0.952319486
 40
0.9679221417
 40
0.9837763407
 40
1.0
 40
1.0
 40
1.0
 40
1.0
 10
3.4678912537
 20
5.1374010465
 30
0.0
 10
3.4752000569
 20
5.1382785805
 30
0.0
 10
3.4861516977
 20
5.1390099953
 30
0.0
 10
3.5006024928
 20
5.1387216268
 30
0.0
 10
3.5143381338
 20
5.1376087071
 30
0.0
 10
3.5275543015
 20
5.1352342738
 30
0.0
 10
3.5399525917
 20
5.1314610398
 30
0.0
 10
3.5485351626
 20
5.1280363312
 30
0.0
 10
3.5564932277
 20
5.1239732928
 30
0.0
 10
3.5637694445
 20
5.1192725144
 30
0.0
 10
3.5703073635
 20
5.1139286002
 30
0.0
 10
3.5760872892
 20
5.1079709652
 30
0.0
 10
3.5811035673
 20
5.1014248938
 30
0.0
 10
3.5853522342
 20
5.0943148265
 30
0.0
 10
3.5888333471
 20
5.0866657031
 30
0.0
 10
3.591538394
 20
5.0785005971
 30
0.0
 10
3.5935311405
 20
5.0698670806
 30
0.0
 10
3.5948990919
 20
5.0608067179
 30
0.0
 10
3.5957223451
 20
5.0513573771
 30
0.0
 10
3.5962093284
 20
5.0380939724
 30
0.0
 10
3.5958056693
 20
5.0208460132
 30
0.0
 10
3.5946753042
 20
4.9996255973
 30
0.0
 10
3.5938181092
 20
4.9779416283
 30
0.0
 10
3.5940912455
 20
4.9597492496
 30
0.0
 10
3.5953397649
 20
4.9453216458
 30
0.0
 10
3.5968940578
 20
4.9346836637
 30
0.0
 10
3.5991774614
 20
4.9242537877
 30
0.0
 10
3.602296858
 20
4.9140944643
 30
0.0
 10
3.6062953115
 20
4.9042568856
 30
0.0
 10
3.6112173839
 20
4.8947925796
 30
0.0
 10
3.617106917
 20
4.8857550993
 30
0.0
 10
3.6240047098
 20
4.8771982662
 30
0.0
 10
3.6319422838
 20
4.8691939998
 30
0.0
 10
3.6408757357
 20
4.8617733944
 30
0.0
 10
3.6507454731
 20
4.8549644832
 30
0.0
 10
3.6614918304
 20
4.8488036132
 30
0.0
 10
3.6730538171
 20
4.8433256733
 30
0.0
 10
3.6853630457
 20
4.8385740419
 30
0.0
 10
3.6983231326
 20
4.8345725202
 30
0.0
 10
3.7118178794
 20
4.8313337328
 30
0.0
 10
3.7257262989
 20
4.8288783622
 30
0.0
 10
3.7446951883
 20
4.8266702627
 30
0.0
 10
3.7638994904
 20
4.8261240552
 30
0.0
 10
3.782996711
 20
4.8272551425
 30
0.0
 10
3.797077909
 20
4.8289402517
 30
0.0
 10
3.8107984151
 20
4.8314636326
 30
0.0
 10
3.8240286314
 20
4.8348268785
 30
0.0
 10
3.8366451897
 20
4.8390348205
 30
0.0
 10
3.8485448969
 20
4.8440632394
 30
0.0
 10
3.8596352344
 20
4.8498908458
 30
0.0
 10
3.8698242597
 20
4.8564981991
 30
0.0
 10
3.8790224429
 20
4.8638659908
 30
0.0
 10
3.8871354743
 20
4.8719877157
 30
0.0
 10
3.8941210506
 20
4.8808116623
 30
0.0
 10
3.8999667603
 20
4.8902834409
 30
0.0
 10
3.9046607474
 20
4.90035405
 30
0.0
 10
3.9081953806
 20
4.9109736236
 30
0.0
 10
3.9105557216
 20
4.9220912885
 30
0.0
 10
3.91135403
 20
4.9296958504
 30
0.0
 10
3.9115789929
 20
4.9335490939
 30
0.0
  0
SPLINE
  5
2E3
100
AcDbEntity
  8
0
100
AcDbSpline
 62
7
  6
CONTINUOUS
 70
0
 71
3
 72
36
 73
32
 74
0
 42
0.0000001
 43
0.0000001
 44
0.0000000001
 40
0.0
 40
0.0
 40
0.0
 40
0.0
 40
0.0301890827
 40
0.0458812274
 40
0.0619772369
 40
0.0953359564
 40
0.1300948905
 40
0.1659238347
 40
0.2024061735
 40
0.2391417156
 40
0.2757334517
 40
0.3117662934
 40
0.346976832
 40
0.3812257559
 40
0.4143803082
 40
0.4774374128
 40
0.5075785582
 40
0.5369881307
 40
0.5658800276
 40
0.5944723471
 40
0.6229632615
 40
0.6515108553
 40
0.6802562283
 40
0.7092755193
 40
0.7678751623
 40
0.826664081
 40
0.8558964565
 40
0.8849065762
 40
0.9423927236
 40
0.9710425348
 40
1.0
 40
1.0
 40
1.0
 40
1.0
 10
3.9115789929
 20
4.9335490939
 30
0.0
 10
3.9119732735
 20
4.9403024695
 30
0.0
 10
3.9117384836
 20
4.950628469
 30
0.0
 10
3.9100647797
 20
4.9644196812
 30
0.0
 10
3.9074311775
 20
4.9787875021
 30
0.0
 10
3.9024696677
 20
4.9970310887
 30
0.0
 10
3.8943528642
 20
5.0188895147
 30
0.0
 10
3.8843549325
 20
5.0407201752
 30
0.0
 10
3.8728156031
 20
5.0622745616
 30
0.0
 10
3.8600496482
 20
5.0833227221
 30
0.0
 10
3.8463570263
 20
5.1036560219
 30
0.0
 10
3.8320170016
 20
5.1231136828
 30
0.0
 10
3.8172166015
 20
5.1415545297
 30
0.0
 10
3.8020787957
 20
5.1588730227
 30
0.0
 10
3.7819100614
 20
5.180043098
 30
0.0
 10
3.7610082623
 20
5.1992225259
 30
0.0
 10
3.7393446387
 20
5.2161385821
 30
0.0
 10
3.7230676485
 20
5.2274637454
 30
0.0
 10
3.706470088
 20
5.2376652429
 30
0.0
 10
3.6894941658
 20
5.2467971433
 30
0.0
 10
3.6720981754
 20
5.2549183637
 30
0.0
 10
3.6542599722
 20
5.2621048111
 30
0.0
 10
3.6359716659
 20
5.2684228062
 30
0.0
 10
3.6109495555
 20
5.2757860885
 30
0.0
 10
3.5788986976
 20
5.2829796469
 30
0.0
 10
3.5463443664
 20
5.287650282
 30
0.0
 10
3.5202140498
 20
5.2899350282
 30
0.0
 10
3.4943105304
 20
5.2912548569
 30
0.0
 10
3.4684769283
 20
5.2911091725
 30
0.0
 10
3.442737969
 20
5.2893971121
 30
0.0
 10
3.429897764
 20
5.2880299945
 30
0.0
 10
3.4234589087
 20
5.2872257312
 30
0.0
  0
SPLINE
  5
2E4
100
AcDbEntity
  8
0
100
AcDbSpline
 62
7
  6
CONTINUOUS
 70
0
 71
3
 72
64
 73
60
 74
0
 42
0.0000001
 43
0.0000001
 44
0.0000000001
 40
0.0
 40
0.0
 40
0.0
 40
0.0
 40
0.0309412389
 40
0.0460108628
 40
0.0607218558
 40
0.0888409933
 40
0.102220669
 40
0.1151434101
 40
0.1276298384
 40
0.1397198391
 40
0.1514847649
 40
0.1630450641
 40
0.1745313722
 40
0.1860712193
 40
0.1977850887
 40
0.209784015
 40
0.2221637571
 40
0.2349836351
 40
0.2482674543
 40
0.2620113032
 40
0.2907509503
 40
0.3207396948
 40
0.3513400255
 40
0.3819549635
 40
0.3971311786
 40
0.4121813034
 40
0.4271125586
 40
0.4419644619
 40
0.4567960993
 40
0.4716860451
 40
0.4867345239
 40
0.5020624697
 40
0.5178021983
 40
0.5340365382
 40
0.5508068925
 40
0.5681389412
 40
0.5860462468
 40
0.6045313991
 40
0.6235511094
 40
0.6430161608
 40
0.6628268141
 40
0.68287794
 40
0.7232511124
 40
0.7433598986
 40
0.7632537326
 40
0.7828204709
 40
0.8019574399
 40
0.8205850565
 40
0.8386695716
 40
0.8561981769
 40
0.8731768257
 40
0.8896359821
 40
0.9056421234
 40
0.9213248303
 40
0.9368345447
 40
0.952319486
 40
0.9679221417
 40
0.9837763407
 40
1.0
 40
1.0
 40
1.0
 40
1.0
 10
4.3406556305
 20
6.0101654233
 30
0.0
 10
4.3397780965
 20
6.0028566202
 30
0.0
 10
4.3390466817
 20
5.9919049793
 30
0.0
 10
4.3393350502
 20
5.9774541842
 30
0.0
 10
4.3404479699
 20
5.9637185432
 30
0.0
 10
4.3428224032
 20
5.9505023755
 30
0.0
 10
4.3465956373
 20
5.9381040853
 30
0.0
 10
4.3500203458
 20
5.9295215145
 30
0.0
 10
4.3540833842
 20
5.9215634493
 30
0.0
 10
4.3587841626
 20
5.9142872325
 30
0.0
 10
4.3641280768
 20
5.9077493135
 30
0.0
 10
4.3700857118
 20
5.9019693879
 30
0.0
 10
4.3766317832
 20
5.8969531097
 30
0.0
 10
4.3837418505
 20
5.8927044429
 30
0.0
 10
4.391390974
 20
5.8892233299
 30
0.0
 10
4.39955608
 20
5.8865182831
 30
0.0
 10
4.4081895964
 20
5.8845255365
 30
0.0
 10
4.4172499591
 20
5.8831575852
 30
0.0
 10
4.4266992999
 20
5.8823343319
 30
0.0
 10
4.4399627047
 20
5.8818473486
 30
0.0
 10
4.4572106638
 20
5.8822510077
 30
0.0
 10
4.4784310797
 20
5.8833813728
 30
0.0
 10
4.5001150487
 20
5.8842385679
 30
0.0
 10
4.5183074274
 20
5.8839654315
 30
0.0
 10
4.5327350312
 20
5.8827169121
 30
0.0
 10
4.5433730134
 20
5.8811626193
 30
0.0
 10
4.5538028893
 20
5.8788792156
 30
0.0
 10
4.5639622128
 20
5.875759819
 30
0.0
 10
4.5737997914
 20
5.8717613655
 30
0.0
 10
4.5832640974
 20
5.8668392931
 30
0.0
 10
4.5923015777
 20
5.86094976
 30
0.0
 10
4.6008584109
 20
5.8540519672
 30
0.0
 10
4.6088626773
 20
5.8461143933
 30
0.0
 10
4.6162832826
 20
5.8371809413
 30
0.0
 10
4.6230921938
 20
5.8273112039
 30
0.0
 10
4.6292530638
 20
5.8165648466
 30
0.0
 10
4.6347310037
 20
5.8050028599
 30
0.0
 10
4.6394826351
 20
5.7926936313
 30
0.0
 10
4.6434841568
 20
5.7797335445
 30
0.0
 10
4.6467229442
 20
5.7662387976
 30
0.0
 10
4.6491783149
 20
5.7523303781
 30
0.0
 10
4.6513864143
 20
5.7333614887
 30
0.0
 10
4.6519326218
 20
5.7141571867
 30
0.0
 10
4.6508015345
 20
5.695059966
 30
0.0
 10
4.6491164253
 20
5.680978768
 30
0.0
 10
4.6465930444
 20
5.6672582619
 30
0.0
 10
4.6432297985
 20
5.6540280456
 30
0.0
 10
4.6390218565
 20
5.6414114873
 30
0.0
 10
4.6339934376
 20
5.6295117801
 30
0.0
 10
4.6281658312
 20
5.6184214426
 30
0.0
 10
4.6215584779
 20
5.6082324173
 30
0.0
 10
4.6141906863
 20
5.5990342341
 30
0.0
 10
4.6060689613
 20
5.5909212027
 30
0.0
 10
4.5972450147
 20
5.5839356264
 30
0.0
 10
4.5877732361
 20
5.5780899167
 30
0.0
 10
4.577702627
 20
5.5733959297
 30
0.0
 10
4.5670830534
 20
5.5698612964
 30
0.0
 10
4.5559653885
 20
5.5675009554
 30
0.0
 10
4.5483608267
 20
5.566702647
 30
0.0
 10
4.5445075831
 20
5.5664776841
 30
0.0
  0
SPLINE
  5
2E5
100
AcDbEntity
  8
0
100
AcDbSpline
 62
7
  6
CONTINUOUS
 70
0
 71
3
 72
36
 73
32
 74
0
 42
0.0000001
 43
0.0000001
 44
0.0000000001
 40
0.0
 40
0.0
 40
0.0
 40
0.0
 40
0.0301890827
 40
0.0458812274
 40
0.0619772369
 40
0.0953359564
 40
0.1300948905
 40
0.1659238347
 40
0.2024061735
 40
0.2391417156
 40
0.2757334517
 40
0.3117662934
 40
0.346976832
 40
0.3812257559
 40
0.4143803082
 40
0.4774374128
 40
0.5075785582
 40
0.5369881307
 40
0.5658800276
 40
0.5944723471
 40
0.6229632615
 40
0.6515108553
 40
0.6802562283
 40
0.7092755193
 40
0.7678751623
 40
0.826664081
 40
0.8558964565
 40
0.8849065762
 40
0.9423927236
 40
0.9710425348
 40
1.0
 40
1.0
 40
1.0
 40
1.0
 10
4.5445075831
 20
5.5664776841
 30
0.0
 10
4.5377542075
 20
5.5660834035
 30
0.0
 10
4.527428208
 20
5.5663181934
 30
0.0
 10
4.5136369959
 20
5.5679918973
 30
0.0
 10
4.4992691749
 20
5.5706254995
 30
0.0
 10
4.4810255883
 20
5.5755870093
 30
0.0
 10
4.4591671623
 20
5.5837038128
 30
0.0
 10
4.4373365018
 20
5.5937017445
 30
0.0
 10
4.4157821155
 20
5.6052410739
 30
0.0
 10
4.3947339549
 20
5.6180070288
 30
0.0
 10
4.3744006551
 20
5.6316996507
 30
0.0
 10
4.3549429942
 20
5.6460396754
 30
0.0
 10
4.3365021473
 20
5.6608400755
 30
0.0
 10
4.3191836543
 20
5.6759778813
 30
0.0
 10
4.2980135791
 20
5.6961466156
 30
0.0
 10
4.2788341511
 20
5.7170484147
 30
0.0
 10
4.2619180949
 20
5.7387120383
 30
0.0
 10
4.2505929316
 20
5.7549890285
 30
0.0
 10
4.2403914342
 20
5.771586589
 30
0.0
 10
4.2312595337
 20
5.7885625112
 30
0.0
 10
4.2231383133
 20
5.8059585017
 30
0.0
 10
4.2159518659
 20
5.8237967048
 30
0.0
 10
4.2096338708
 20
5.8420850111
 30
0.0
 10
4.2022705885
 20
5.8671071215
 30
0.0
 10
4.1950770302
 20
5.8991579794
 30
0.0
 10
4.190406395
 20
5.9317123106
 30
0.0
 10
4.1881216488
 20
5.9578426272
 30
0.0
 10
4.1868018201
 20
5.9837461466
 30
0.0
 10
4.1869475046
 20
6.0095797487
 30
0.0
 10
4.1886595649
 20
6.035318708
 30
0.0
 10
4.1900266825
 20
6.048158913
 30
0.0
 10
4.1908309459
 20
6.0545977683
 30
0.0
  0
SPLINE
  5
2E6
100
AcDbEntity
  8
0
100
AcDbSpline
 62
7
  6
CONTINUOUS
 70
0
 71
3
 72
73
 73
69
 74
0
 42
0.0000001
 43
0.0000001
 44
0.0000000001
 40
0.0
 40
0.0
 40
0.0
 40
0.0
 40
0.0160795849
 40
0.023901835
 40
0.0315856276
 40
0.0466455301
 40
0.0615115412
 40
0.0689531365
 40
0.076437111
 40
0.0915779661
 40
0.1069853499
 40
0.1226525801
 40
0.1385282122
 40
0.1545177279
 40
0.1705016976
 40
0.1863806149
 40
0.2178152497
 40
0.2333914209
 40
0.2489158503
 40
0.2644385122
 40
0.2800007009
 40
0.2956078967
 40
0.3112512214
 40
0.3269228787
 40
0.3426092474
 40
0.358292876
 40
0.3661289213
 40
0.3739590321
 40
0.3896067034
 40
0.4052490001
 40
0.4208947341
 40
0.4365486692
 40
0.4522120076
 40
0.4678828784
 40
0.4835557695
 40
0.4992225451
 40
0.5305167908
 40
0.5461480108
 40
0.5617766306
 40
0.5774146338
 40
0.593065849
 40
0.6087279598
 40
0.624396836
 40
0.6557278973
 40
0.6713748068
 40
0.6870042854
 40
0.7026285723
 40
0.7182608487
 40
0.7495842162
 40
0.7810309072
 40
0.7967701782
 40
0.8124734024
 40
0.8281147855
 40
0.8436944664
 40
0.8592213006
 40
0.874712513
 40
0.8902173032
 40
0.9058024846
 40
0.9136487978
 40
0.9215347878
 40
0.9373938576
 40
0.9453511057
 40
0.9532999462
 40
0.9612229024
 40
0.9691040849
 40
0.9846558489
 40
0.9923435317
 40
1.0
 40
1.0
 40
1.0
 40
1.0
 10
3.948594159
 20
6.3559977832
 30
0.0
 10
3.9423349165
 20
6.3505901966
 30
0.0
 10
3.9333958728
 20
6.3421085502
 30
0.0
 10
3.9225221924
 20
6.3300266971
 30
0.0
 10
3.9126540181
 20
6.3177762534
 30
0.0
 10
3.9018010364
 20
6.30170535
 30
0.0
 10
3.8929562655
 20
6.284586006
 30
0.0
 10
3.8871286724
 20
6.2704040484
 30
0.0
 10
3.8820716768
 20
6.2557795327
 30
0.0
 10
3.8771863183
 20
6.2367967244
 30
0.0
 10
3.8734513125
 20
6.2132880233
 30
0.0
 10
3.8716350635
 20
6.1891801554
 30
0.0
 10
3.8715531533
 20
6.1647105157
 30
0.0
 10
3.8730144583
 20
6.1401253246
 30
0.0
 10
3.8758335998
 20
6.1156595028
 30
0.0
 10
3.8811663526
 20
6.0835269012
 30
0.0
 10
3.8886383994
 20
6.0520046652
 30
0.0
 10
3.8977812242
 20
6.0211581198
 30
0.0
 10
3.9053804606
 20
5.9984047321
 30
0.0
 10
3.913688945
 20
5.9759100825
 30
0.0
 10
3.9226386166
 20
5.953617098
 30
0.0
 10
3.9322393551
 20
5.9315286704
 30
0.0
 10
3.9425134592
 20
5.9096826961
 30
0.0
 10
3.9534738022
 20
5.8881267649
 30
0.0
 10
3.965124563
 20
5.8669122479
 30
0.0
 10
3.9754101693
 20
5.8495590488
 30
0.0
 10
3.9839846426
 20
5.8358996663
 30
0.0
 10
3.9927849161
 20
5.8224067184
 30
0.0
 10
4.0041976925
 20
5.8058272685
 30
0.0
 10
4.0184820055
 20
5.786357474
 30
0.0
 10
4.0332861121
 20
5.7672765443
 30
0.0
 10
4.0485435784
 20
5.7485430294
 30
0.0
 10
4.0641895321
 20
5.7301164131
 30
0.0
 10
4.0801537817
 20
5.7119526889
 30
0.0
 10
4.0963846272
 20
5.6940237566
 30
0.0
 10
4.1184540271
 20
5.6705474424
 30
0.0
 10
4.1412929335
 20
5.6478258766
 30
0.0
 10
4.1650993866
 20
5.6261683835
 30
0.0
 10
4.1834808408
 20
5.6105351259
 30
0.0
 10
4.2024431632
 20
5.595594401
 30
0.0
 10
4.2219564268
 20
5.5813524346
 30
0.0
 10
4.2419750012
 20
5.5678016956
 30
0.0
 10
4.2692805523
 20
5.5506608926
 30
0.0
 10
4.2973943174
 20
5.5348605325
 30
0.0
 10
4.3260915346
 20
5.5202363212
 30
0.0
 10
4.347870026
 20
5.509846954
 30
0.0
 10
4.3699134853
 20
5.5000509237
 30
0.0
 10
4.3996784978
 20
5.4877792624
 30
0.0
 10
4.4375985621
 20
5.473971603
 30
0.0
 10
4.4763561263
 20
5.4625097991
 30
0.0
 10
4.5078022283
 20
5.4548875798
 30
0.0
 10
4.5315296485
 20
5.4499976106
 30
0.0
 10
4.5553382085
 20
5.445985205
 30
0.0
 10
4.5791940857
 20
5.4429019187
 30
0.0
 10
4.6030790447
 20
5.4407962191
 30
0.0
 10
4.6269946731
 20
5.4397129284
 30
0.0
 10
4.6509660685
 20
5.4397436453
 30
0.0
 10
4.6709786838
 20
5.4407763717
 30
0.0
 10
4.6870239763
 20
5.4422429656
 30
0.0
 10
4.7031615649
 20
5.4441732566
 30
0.0
 10
4.7192621046
 20
5.4468600443
 30
0.0
 10
4.7352092501
 20
5.4504419097
 30
0.0
 10
4.7470453913
 20
5.4536466523
 30
0.0
 10
4.7586731558
 20
5.4574239959
 30
0.0
 10
4.7737105013
 20
5.4632698324
 30
0.0
 10
4.7880462697
 20
5.4705801348
 30
0.0
 10
4.8010890165
 20
5.4796994151
 30
0.0
 10
4.8070887054
 20
5.4848546438
 30
0.0
 10
4.8099354147
 20
5.4875766059
 30
0.0
  0
SPLINE
  5
2E7
100
AcDbEntity
  8
0
100
AcDbSpline
 62
7
  6
CONTINUOUS
 70
0
 71
3
 72
18
 73
14
 74
0
 42
0.0000001
 43
0.0000001
 44
0.0000000001
 40
0.0
 40
0.0
 40
0.0
 40
0.0
 40
0.1223362176
 40
0.1838269961
 40
0.2456445006
 40
0.370384684
 40
0.4967141392
 40
0.5604474902
 40
0.6244886356
 40
0.6886482887
 40
0.7526341721
 40
0.8787537289
 40
1.0
 40
1.0
 40
1.0
 40
1.0
 10
4.8099354147
 20
5.4875766059
 30
0.0
 10
4.812616577
 20
5.4901402755
 30
0.0
 10
4.8164566282
 20
5.4941986114
 30
0.0
 10
4.8211337616
 20
5.4999990541
 30
0.0
 10
4.8255438732
 20
5.5060959064
 30
0.0
 10
4.8305257785
 20
5.5141881442
 30
0.0
 10
4.8347900502
 20
5.5227416725
 30
0.0
 10
4.8378070112
 20
5.529833379
 30
0.0
 10
4.8398756812
 20
5.5352748124
 30
0.0
 10
4.8417646406
 20
5.5407887043
 30
0.0
 10
4.8440700055
 20
5.5481467742
 30
0.0
 10
4.8466184036
 20
5.5572390586
 30
0.0
 10
4.8485184792
 20
5.5644951115
 30
0.0
 10
4.8494643265
 20
5.568047898
 30
0.0
  0
SPLINE
  5
2E8
100
AcDbEntity
  8
0
100
AcDbSpline
 62
7
  6
CONTINUOUS
 70
0
 71
3
 72
73
 73
69
 74
0
 42
0.0000001
 43
0.0000001
 44
0.0000000001
 40
0.0
 40
0.0
 40
0.0
 40
0.0
 40
0.0160795073
 40
0.023901719
 40
0.0315854788
 40
0.0466453409
 40
0.0615113447
 40
0.0689529483
 40
0.0764369368
 40
0.0915778255
 40
0.1069852442
 40
0.1226525054
 40
0.138528159
 40
0.1545176832
 40
0.1705016465
 40
0.1863805524
 40
0.2178151683
 40
0.2333913327
 40
0.248915761
 40
0.2644384267
 40
0.280000622
 40
0.2956078234
 40
0.3112511528
 40
0.3269228139
 40
0.3426091848
 40
0.358292814
 40
0.3661288592
 40
0.3739589697
 40
0.3896066417
 40
0.40524894
 40
0.4208946761
 40
0.4365486136
 40
0.4522119544
 40
0.4678828272
 40
0.4835557197
 40
0.4992224963
 40
0.5305167434
 40
0.5461479645
 40
0.5617765861
 40
0.5774145918
 40
0.5930658094
 40
0.6087279223
 40
0.6243968004
 40
0.6557278643
 40
0.6713747744
 40
0.687004254
 40
0.7026285426
 40
0.7182608212
 40
0.749584194
 40
0.7810308903
 40
0.7967701623
 40
0.8124733865
 40
0.8281147693
 40
0.8436944502
 40
0.8592212847
 40
0.8747124983
 40
0.8902172912
 40
0.9058024765
 40
0.9136487919
 40
0.921534784
 40
0.9373938571
 40
0.9453511061
 40
0.9532999469
 40
0.9612229032
 40
0.9691040853
 40
0.9846558482
 40
0.9923435311
 40
1.0
 40
1.0
 40
1.0
 40
1.0
 10
6.0588711857
 20
6.3559955268
 30
0.0
 10
6.0651303142
 20
6.3505878964
 30
0.0
 10
6.074069182
 20
6.3421061889
 30
0.0
 10
6.0849426146
 20
6.3300242623
 30
0.0
 10
6.0948105505
 20
6.3177737433
 30
0.0
 10
6.1056632413
 20
6.3017027432
 30
0.0
 10
6.1145077238
 20
6.2845833197
 30
0.0
 10
6.1203350984
 20
6.2704012995
 30
0.0
 10
6.1253918855
 20
6.2557767165
 30
0.0
 10
6.1302770045
 20
6.2367938474
 30
0.0
 10
6.1340117549
 20
6.2132851064
 30
0.0
 10
6.1358277785
 20
6.1891772289
 30
0.0
 10
6.1359094933
 20
6.1647076101
 30
0.0
 10
6.1344480214
 20
6.14012247
 30
0.0
 10
6.1316287397
 20
6.1156567225
 30
0.0
 10
6.1262958276
 20
6.0835242372
 30
0.0
 10
6.1188236592
 20
6.052002122
 30
0.0
 10
6.1096807416
 20
6.0211556903
 30
0.0
 10
6.1020814433
 20
5.9984023797
 30
0.0
 10
6.0937729063
 20
5.975907799
 30
0.0
 10
6.0848231894
 20
5.9536148792
 30
0.0
 10
6.0752224042
 20
5.9315265184
 30
0.0
 10
6.0649482552
 20
5.9096806142
 30
0.0
 10
6.0539878689
 20
5.8881247567
 30
0.0
 10
6.0423370677
 20
5.866910317
 30
0.0
 10
6.0320514301
 20
5.849557185
 30
0.0
 10
6.0234769329
 20
5.835897858
 30
0.0
 10
6.0146766374
 20
5.8224049654
 30
0.0
 10
6.0032638394
 20
5.8058255814
 30
0.0
 10
5.9889795086
 20
5.7863558612
 30
0.0
 10
5.9741753918
 20
5.7672750008
 30
0.0
 10
5.9589179228
 20
5.7485415502
 30
0.0
 10
5.9432719726
 20
5.7301149941
 30
0.0
 10
5.9273077348
 20
5.7119513244
 30
0.0
 10
5.9110769002
 20
5.6940224487
 30
0.0
 10
5.8890075111
 20
5.6705462162
 30
0.0
 10
5.8661686108
 20
5.6478247389
 30
0.0
 10
5.8423621613
 20
5.6261673405
 30
0.0
 10
5.8239807085
 20
5.6105341566
 30
0.0
 10
5.8050183884
 20
5.5955935065
 30
0.0
 10
5.7855051328
 20
5.5813516107
 30
0.0
 10
5.7654865708
 20
5.5678009396
 30
0.0
 10
5.7381810427
 20
5.5506602232
 30
0.0
 10
5.7100673107
 20
5.5348599401
 30
0.0
 10
5.6813701339
 20
5.5202357964
 30
0.0
 10
5.6595916741
 20
5.5098464787
 30
0.0
 10
5.6375482473
 20
5.5000504958
 30
0.0
 10
5.6077832793
 20
5.4877788947
 30
0.0
 10
5.569863273
 20
5.4739713083
 30
0.0
 10
5.5311057724
 20
5.4625095733
 30
0.0
 10
5.4996597256
 20
5.4548874055
 30
0.0
 10
5.4759323503
 20
5.4499974735
 30
0.0
 10
5.4521238369
 20
5.4459851031
 30
0.0
 10
5.4282680071
 20
5.4429018496
 30
0.0
 10
5.4043830961
 20
5.44079618
 30
0.0
 10
5.3804675155
 20
5.4397129168
 30
0.0
 10
5.3564961674
 20
5.4397436589
 30
0.0
 10
5.3364835913
 20
5.4407764038
 30
0.0
 10
5.3204383303
 20
5.4422430106
 30
0.0
 10
5.3043007743
 20
5.4441733142
 30
0.0
 10
5.2882002685
 20
5.4468601135
 30
0.0
 10
5.272253159
 20
5.4504419898
 30
0.0
 10
5.2604170463
 20
5.4536467403
 30
0.0
 10
5.2487893114
 20
5.4574240907
 30
0.0
 10
5.2337520066
 20
5.463269935
 30
0.0
 10
5.2194162807
 20
5.4705802438
 30
0.0
 10
5.2063735762
 20
5.4796995248
 30
0.0
 10
5.2003739072
 20
5.4848547513
 30
0.0
 10
5.1975272075
 20
5.4875767117
 30
0.0
  0
SPLINE
  5
2E9
100
AcDbEntity
  8
0
100
AcDbSpline
 62
7
  6
CONTINUOUS
 70
0
 71
3
 72
18
 73
14
 74
0
 42
0.0000001
 43
0.0000001
 44
0.0000000001
 40
0.0
 40
0.0
 40
0.0
 40
0.0
 40
0.1223362195
 40
0.1838270024
 40
0.2456445121
 40
0.3703847057
 40
0.4967141681
 40
0.5604475209
 40
0.6244886666
 40
0.688648317
 40
0.7526341953
 40
0.8787537388
 40
1.0
 40
1.0
 40
1.0
 40
1.0
 10
5.1975272075
 20
5.4875767117
 30
0.0
 10
5.1948460533
 20
5.4901403807
 30
0.0
 10
5.1910060138
 20
5.494198715
 30
0.0
 10
5.1863288952
 20
5.499999154
 30
0.0
 10
5.1819187974
 20
5.5060960013
 30
0.0
 10
5.1769369074
 20
5.5141882305
 30
0.0
 10
5.1726726481
 20
5.5227417477
 30
0.0
 10
5.1696556958
 20
5.529833444
 30
0.0
 10
5.1675870314
 20
5.535274869
 30
0.0
 10
5.1656980768
 20
5.5407887521
 30
0.0
 10
5.1633927173
 20
5.5481468093
 30
0.0
 10
5.1608443243
 20
5.5572390777
 30
0.0
 10
5.158944252
 20
5.5644951178
 30
0.0
 10
5.1579984065
 20
5.568047898
 30
0.0
  0
SPLINE
  5
2EA
100
AcDbEntity
  8
0
100
AcDbSpline
 62
7
  6
CONTINUOUS
 70
0
 71
3
 72
64
 73
60
 74
0
 42
0.0000001
 43
0.0000001
 44
0.0000000001
 40
0.0
 40
0.0
 40
0.0
 40
0.0
 40
0.0309412544
 40
0.0460108892
 40
0.0607218945
 40
0.0888410578
 40
0.1022207452
 40
0.1151434966
 40
0.1276299334
 40
0.1397199407
 40
0.1514848703
 40
0.1630451708
 40
0.1745314779
 40
0.1860713227
 40
0.197785189
 40
0.2097841121
 40
0.2221638514
 40
0.2349837275
 40
0.2482675458
 40
0.2620113949
 40
0.2907510444
 40
0.3207397915
 40
0.3513401217
 40
0.3819550544
 40
0.3971312651
 40
0.4121813851
 40
0.4271126359
 40
0.4419645362
 40
0.4567961728
 40
0.471686121
 40
0.4867346069
 40
0.5020625656
 40
0.5178023132
 40
0.5340366755
 40
0.550807055
 40
0.5681391312
 40
0.586046466
 40
0.6045316483
 40
0.6235513854
 40
0.643016459
 40
0.662827129
 40
0.6828782652
 40
0.7232514366
 40
0.7433602095
 40
0.7632540214
 40
0.7828207286
 40
0.8019576578
 40
0.8205852292
 40
0.8386696961
 40
0.8561982515
 40
0.8731768507
 40
0.8896359603
 40
0.9056420629
 40
0.9213247445
 40
0.9368344478
 40
0.9523193925
 40
0.967922066
 40
0.983776297
 40
1.0
 40
1.0
 40
1.0
 40
1.0
 10
5.6668070445
 20
6.0101659059
 30
0.0
 10
5.6676845982
 20
6.002857083
 30
0.0
 10
5.6684160399
 20
5.9919054103
 30
0.0
 10
5.6681277025
 20
5.9774545695
 30
0.0
 10
5.6670148095
 20
5.9637188804
 30
0.0
 10
5.6646403981
 20
5.950502663
 30
0.0
 10
5.6608671794
 20
5.9381043227
 30
0.0
 10
5.657442479
 20
5.9295217161
 30
0.0
 10
5.6533794456
 20
5.9215636167
 30
0.0
 10
5.6486786693
 20
5.9142873675
 30
0.0
 10
5.6433347539
 20
5.9077494189
 30
0.0
 10
5.6373771141
 20
5.9019694671
 30
0.0
 10
5.6308310347
 20
5.8969531664
 30
0.0
 10
5.6237209564
 20
5.8927044808
 30
0.0
 10
5.6160718191
 20
5.8892233527
 30
0.0
 10
5.6079066966
 20
5.8865182945
 30
0.0
 10
5.5992731612
 20
5.8845255406
 30
0.0
 10
5.5902127775
 20
5.8831575851
 30
0.0
 10
5.5807634138
 20
5.8823343304
 30
0.0
 10
5.5674999757
 20
5.8818473478
 30
0.0
 10
5.5502519727
 20
5.8822510117
 30
0.0
 10
5.5290315032
 20
5.8833813811
 30
0.0
 10
5.507347481
 20
5.8842385726
 30
0.0
 10
5.4891550595
 20
5.8839654219
 30
0.0
 10
5.4747274249
 20
5.8827168809
 30
0.0
 10
5.4640894222
 20
5.8811625663
 30
0.0
 10
5.4536595283
 20
5.878879134
 30
0.0
 10
5.4435001899
 20
5.8757597025
 30
0.0
 10
5.4336625994
 20
5.8717612087
 30
0.0
 10
5.4241982853
 20
5.8668390899
 30
0.0
 10
5.4151608008
 20
5.8609495041
 30
0.0
 10
5.4066039684
 20
5.8540516521
 30
0.0
 10
5.3985997081
 20
5.846114014
 30
0.0
 10
5.3911791124
 20
5.8371804961
 30
0.0
 10
5.3843702155
 20
5.827310691
 30
0.0
 10
5.3782093647
 20
5.8165642649
 30
0.0
 10
5.3727314492
 20
5.8050022087
 30
0.0
 10
5.367979848
 20
5.7926929115
 30
0.0
 10
5.3639783606
 20
5.7797327592
 30
0.0
 10
5.3607396123
 20
5.7662379516
 30
0.0
 10
5.3582842857
 20
5.7523294769
 30
0.0
 10
5.3560762522
 20
5.7333605259
 30
0.0
 10
5.3555301198
 20
5.7141561748
 30
0.0
 10
5.3566612908
 20
5.6950589202
 30
0.0
 10
5.3583464668
 20
5.6809777106
 30
0.0
 10
5.3608699182
 20
5.6672572048
 30
0.0
 10
5.3642332393
 20
5.6540270009
 30
0.0
 10
5.3684412597
 20
5.6414104673
 30
0.0
 10
5.3734697588
 20
5.629510796
 30
0.0
 10
5.3792974474
 20
5.6184205061
 30
0.0
 10
5.385904885
 20
5.6082315406
 30
0.0
 10
5.3932727636
 20
5.5990334302
 30
0.0
 10
5.4013945772
 20
5.5909204843
 30
0.0
 10
5.4102186097
 20
5.5839350002
 30
0.0
 10
5.4196904728
 20
5.5780893895
 30
0.0
 10
5.4297611641
 20
5.573395508
 30
0.0
 10
5.4403808176
 20
5.5698609866
 30
0.0
 10
5.451498559
 20
5.5675007644
 30
0.0
 10
5.4591031659
 20
5.5667025337
 30
0.0
 10
5.4629564317
 20
5.5664776093
 30
0.0
  0
SPLINE
  5
2EB
100
AcDbEntity
  8
0
100
AcDbSpline
 62
7
  6
CONTINUOUS
 70
0
 71
3
 72
36
 73
32
 74
0
 42
0.0000001
 43
0.0000001
 44
0.0000000001
 40
0.0
 40
0.0
 40
0.0
 40
0.0
 40
0.030189176
 40
0.045881369
 40
0.061977426
 40
0.0953362327
 40
0.1300952352
 40
0.1659242238
 40
0.2024065821
 40
0.2391421231
 40
0.2757338375
 40
0.3117666401
 40
0.3469771339
 40
0.381226009
 40
0.4143805102
 40
0.4774375296
 40
0.5075786422
 40
0.5369881903
 40
0.565880071
 40
0.5944723814
 40
0.622963292
 40
0.6515108858
 40
0.6802562615
 40
0.7092755545
 40
0.7678751958
 40
0.8266641065
 40
0.8558964764
 40
0.8849065907
 40
0.9423927296
 40
0.9710425377
 40
1.0
 40
1.0
 40
1.0
 40
1.0
 10
5.4629564317
 20
5.5664776093
 30
0.0
 10
5.4697098194
 20
5.5660833978
 30
0.0
 10
5.4800358276
 20
5.5663182829
 30
0.0
 10
5.4938270422
 20
5.5679920973
 30
0.0
 10
5.5081948572
 20
5.570625804
 30
0.0
 10
5.5264384224
 20
5.575587425
 30
0.0
 10
5.5482968102
 20
5.5837043303
 30
0.0
 10
5.5701274182
 20
5.5937023369
 30
0.0
 10
5.5916817402
 20
5.6052417171
 30
0.0
 10
5.6127298267
 20
5.6180077017
 30
0.0
 10
5.6330630458
 20
5.6317003348
 30
0.0
 10
5.6525206225
 20
5.6460403559
 30
0.0
 10
5.6709613829
 20
5.6608407443
 30
0.0
 10
5.6882797905
 20
5.6759785318
 30
0.0
 10
5.7094497586
 20
5.6961472375
 30
0.0
 10
5.7286290846
 20
5.7170490053
 30
0.0
 10
5.7455450476
 20
5.7387125947
 30
0.0
 10
5.7568701493
 20
5.7549895615
 30
0.0
 10
5.7670715916
 20
5.7715870992
 30
0.0
 10
5.7762034428
 20
5.7885629987
 30
0.0
 10
5.7843246201
 20
5.8059589656
 30
0.0
 10
5.7915110301
 20
5.8237971438
 30
0.0
 10
5.797828993
 20
5.8420854232
 30
0.0
 10
5.8051922376
 20
5.8671074935
 30
0.0
 10
5.812385758
 20
5.8991582938
 30
0.0
 10
5.8170563665
 20
5.9317125618
 30
0.0
 10
5.8193410973
 20
5.9578428252
 30
0.0
 10
5.8206609146
 20
5.9837462913
 30
0.0
 10
5.8205152241
 20
6.0095798401
 30
0.0
 10
5.8188031641
 20
6.0353187468
 30
0.0
 10
5.8174360488
 20
6.048158926
 30
0.0
 10
5.8166317871
 20
6.0545977683
 30
0.0
  0
SPLINE
  5
2EC
100
AcDbEntity
  8
0
100
AcDbSpline
 62
7
  6
CONTINUOUS
 70
0
 71
3
 72
64
 73
60
 74
0
 42
0.0000001
 43
0.0000001
 44
0.0000000001
 40
0.0
 40
0.0
 40
0.0
 40
0.0
 40
0.0309412544
 40
0.0460108892
 40
0.0607218945
 40
0.0888410578
 40
0.1022207452
 40
0.1151434966
 40
0.1276299334
 40
0.1397199407
 40
0.1514848703
 40
0.1630451708
 40
0.1745314779
 40
0.1860713227
 40
0.197785189
 40
0.2097841121
 40
0.2221638514
 40
0.2349837275
 40
0.2482675458
 40
0.2620113949
 40
0.2907510444
 40
0.3207397915
 40
0.3513401217
 40
0.3819550544
 40
0.3971312651
 40
0.4121813851
 40
0.4271126359
 40
0.4419645362
 40
0.4567961728
 40
0.471686121
 40
0.4867346069
 40
0.5020625656
 40
0.5178023132
 40
0.5340366755
 40
0.550807055
 40
0.5681391312
 40
0.586046466
 40
0.6045316483
 40
0.6235513854
 40
0.643016459
 40
0.662827129
 40
0.6828782652
 40
0.7232514366
 40
0.7433602095
 40
0.7632540214
 40
0.7828207286
 40
0.8019576578
 40
0.8205852292
 40
0.8386696961
 40
0.8561982515
 40
0.8731768507
 40
0.8896359603
 40
0.9056420629
 40
0.9213247445
 40
0.9368344478
 40
0.9523193925
 40
0.967922066
 40
0.983776297
 40
1.0
 40
1.0
 40
1.0
 40
1.0
 10
6.5395719618
 20
5.1374009886
 30
0.0
 10
6.5322631389
 20
5.1382785423
 30
0.0
 10
6.5213114662
 20
5.139009984
 30
0.0
 10
6.5068606254
 20
5.1387216466
 30
0.0
 10
6.4931249363
 20
5.1376087536
 30
0.0
 10
6.4799087189
 20
5.1352343422
 30
0.0
 10
6.4675103786
 20
5.1314611235
 30
0.0
 10
6.458927772
 20
5.1280364231
 30
0.0
 10
6.4509696726
 20
5.1239733897
 30
0.0
 10
6.4436934234
 20
5.1192726134
 30
0.0
 10
6.4371554748
 20
5.113928698
 30
0.0
 10
6.431375523
 20
5.1079710582
 30
0.0
 10
6.4263592223
 20
5.1014249788
 30
0.0
 10
6.4221105367
 20
5.0943149005
 30
0.0
 10
6.4186294086
 20
5.0866657632
 30
0.0
 10
6.4159243504
 20
5.0785006407
 30
0.0
 10
6.4139315965
 20
5.0698671053
 30
0.0
 10
6.412563641
 20
5.0608067216
 30
0.0
 10
6.4117403863
 20
5.0513573579
 30
0.0
 10
6.4112534037
 20
5.0380939198
 30
0.0
 10
6.4116570676
 20
5.0208459168
 30
0.0
 10
6.412787437
 20
4.9996254473
 30
0.0
 10
6.4136446285
 20
4.9779414251
 30
0.0
 10
6.4133714778
 20
4.9597490036
 30
0.0
 10
6.4121229368
 20
4.945321369
 30
0.0
 10
6.4105686222
 20
4.9346833663
 30
0.0
 10
6.4082851899
 20
4.9242534724
 30
0.0
 10
6.4051657584
 20
4.914094134
 30
0.0
 10
6.4011672646
 20
4.9042565435
 30
0.0
 10
6.3962451458
 20
4.8947922294
 30
0.0
 10
6.39035556
 20
4.8857547449
 30
0.0
 10
6.383457708
 20
4.8771979125
 30
0.0
 10
6.3755200699
 20
4.8691936522
 30
0.0
 10
6.366586552
 20
4.8617730565
 30
0.0
 10
6.3567167469
 20
4.8549641596
 30
0.0
 10
6.3459703208
 20
4.8488033088
 30
0.0
 10
6.3344082646
 20
4.8433253933
 30
0.0
 10
6.3220989674
 20
4.8385737921
 30
0.0
 10
6.3091388151
 20
4.8345723047
 30
0.0
 10
6.2956440075
 20
4.8313335564
 30
0.0
 10
6.2817355328
 20
4.8288782298
 30
0.0
 10
6.2627665818
 20
4.8266701963
 30
0.0
 10
6.2435622307
 20
4.8261240639
 30
0.0
 10
6.2244649761
 20
4.8272552349
 30
0.0
 10
6.2103837665
 20
4.8289404109
 30
0.0
 10
6.1966632607
 20
4.8314638623
 30
0.0
 10
6.1834330568
 20
4.8348271834
 30
0.0
 10
6.1708165232
 20
4.8390352038
 30
0.0
 10
6.1589168519
 20
4.8440637029
 30
0.0
 10
6.147826562
 20
4.8498913915
 30
0.0
 10
6.1376375965
 20
4.8564988291
 30
0.0
 10
6.1284394861
 20
4.8638667077
 30
0.0
 10
6.1203265402
 20
4.8719885213
 30
0.0
 10
6.1133410561
 20
4.8808125538
 30
0.0
 10
6.1074954454
 20
4.8902844169
 30
0.0
 10
6.1028015639
 20
4.9003551082
 30
0.0
 10
6.0992670425
 20
4.9109747617
 30
0.0
 10
6.0969068203
 20
4.9220925031
 30
0.0
 10
6.0961085896
 20
4.92969711
 30
0.0
 10
6.0958836652
 20
4.9335503758
 30
0.0
  0
SPLINE
  5
2ED
100
AcDbEntity
  8
0
100
AcDbSpline
 62
7
  6
CONTINUOUS
 70
0
 71
3
 72
36
 73
32
 74
0
 42
0.0000001
 43
0.0000001
 44
0.0000000001
 40
0.0
 40
0.0
 40
0.0
 40
0.0
 40
0.030189176
 40
0.045881369
 40
0.061977426
 40
0.0953362327
 40
0.1300952352
 40
0.1659242238
 40
0.2024065821
 40
0.2391421231
 40
0.2757338375
 40
0.3117666401
 40
0.3469771339
 40
0.381226009
 40
0.4143805102
 40
0.4774375296
 40
0.5075786422
 40
0.5369881903
 40
0.565880071
 40
0.5944723814
 40
0.622963292
 40
0.6515108858
 40
0.6802562615
 40
0.7092755545
 40
0.7678751958
 40
0.8266641065
 40
0.8558964764
 40
0.8849065907
 40
0.9423927296
 40
0.9710425377
 40
1.0
 40
1.0
 40
1.0
 40
1.0
 10
6.0958836652
 20
4.9335503758
 30
0.0
 10
6.0954894537
 20
4.9403037635
 30
0.0
 10
6.0957243388
 20
4.9506297717
 30
0.0
 10
6.0973981532
 20
4.9644209863
 30
0.0
 10
6.1000318599
 20
4.9787888013
 30
0.0
 10
6.1049934809
 20
4.9970323665
 30
0.0
 10
6.1131103862
 20
5.0188907543
 30
0.0
 10
6.1231083928
 20
5.0407213623
 30
0.0
 10
6.134647773
 20
5.0622756843
 30
0.0
 10
6.1474137576
 20
5.0833237708
 30
0.0
 10
6.1611063907
 20
5.1036569899
 30
0.0
 10
6.1754464118
 20
5.1231145666
 30
0.0
 10
6.1902468002
 20
5.141555327
 30
0.0
 10
6.2053845877
 20
5.1588737346
 30
0.0
 10
6.2255532934
 20
5.1800437027
 30
0.0
 10
6.2464550612
 20
5.1992230287
 30
0.0
 10
6.2681186506
 20
5.2161389917
 30
0.0
 10
6.2843956174
 20
5.2274640934
 30
0.0
 10
6.3009931551
 20
5.2376655357
 30
0.0
 10
6.3179690546
 20
5.2467973869
 30
0.0
 10
6.3353650215
 20
5.2549185642
 30
0.0
 10
6.3532031997
 20
5.2621049742
 30
0.0
 10
6.3714914791
 20
5.2684229371
 30
0.0
 10
6.3965135494
 20
5.2757861817
 30
0.0
 10
6.4285643497
 20
5.2829797021
 30
0.0
 10
6.4611186177
 20
5.2876503106
 30
0.0
 10
6.4872488811
 20
5.2899350414
 30
0.0
 10
6.5131523472
 20
5.2912548587
 30
0.0
 10
6.538985896
 20
5.2911091682
 30
0.0
 10
6.5647248027
 20
5.2893971082
 30
0.0
 10
6.5775649819
 20
5.2880299929
 30
0.0
 10
6.5840038242
 20
5.2872257312
 30
0.0
  0
SPLINE
  5
2EE
100
AcDbEntity
  8
0
100
AcDbSpline
 62
7
  6
CONTINUOUS
 70
0
 71
3
 72
73
 73
69
 74
0
 42
0.0000001
 43
0.0000001
 44
0.0000000001
 40
0.0
 40
0.0
 40
0.0
 40
0.0
 40
0.0160795073
 40
0.023901719
 40
0.0315854788
 40
0.0466453409
 40
0.0615113447
 40
0.0689529483
 40
0.0764369368
 40
0.0915778255
 40
0.1069852442
 40
0.1226525054
 40
0.138528159
 40
0.1545176832
 40
0.1705016465
 40
0.1863805524
 40
0.2178151683
 40
0.2333913327
 40
0.248915761
 40
0.2644384267
 40
0.280000622
 40
0.2956078234
 40
0.3112511528
 40
0.3269228139
 40
0.3426091848
 40
0.358292814
 40
0.3661288592
 40
0.3739589697
 40
0.3896066417
 40
0.40524894
 40
0.4208946761
 40
0.4365486136
 40
0.4522119544
 40
0.4678828272
 40
0.4835557197
 40
0.4992224963
 40
0.5305167434
 40
0.5461479645
 40
0.5617765861
 40
0.5774145918
 40
0.5930658094
 40
0.6087279223
 40
0.6243968004
 40
0.6557278643
 40
0.6713747744
 40
0.687004254
 40
0.7026285426
 40
0.7182608212
 40
0.749584194
 40
0.7810308903
 40
0.7967701623
 40
0.8124733865
 40
0.8281147693
 40
0.8436944502
 40
0.8592212847
 40
0.8747124983
 40
0.8902172912
 40
0.9058024765
 40
0.9136487919
 40
0.921534784
 40
0.9373938571
 40
0.9453511061
 40
0.9532999469
 40
0.9612229032
 40
0.9691040853
 40
0.9846558482
 40
0.9923435311
 40
1.0
 40
1.0
 40
1.0
 40
1.0
 10
6.8854015827
 20
5.5294651298
 30
0.0
 10
6.8799939523
 20
5.5357242583
 30
0.0
 10
6.8715122448
 20
5.5446631261
 30
0.0
 10
6.8594303182
 20
5.5555365587
 30
0.0
 10
6.8471797992
 20
5.5654044946
 30
0.0
 10
6.8311087991
 20
5.5762571854
 30
0.0
 10
6.8139893756
 20
5.5851016679
 30
0.0
 10
6.7998073554
 20
5.5909290425
 30
0.0
 10
6.7851827724
 20
5.5959858296
 30
0.0
 10
6.7661999033
 20
5.6008709486
 30
0.0
 10
6.7426911623
 20
5.604605699
 30
0.0
 10
6.7185832848
 20
5.6064217226
 30
0.0
 10
6.694113666
 20
5.6065034374
 30
0.0
 10
6.6695285259
 20
5.6050419655
 30
0.0
 10
6.6450627784
 20
5.6022226838
 30
0.0
 10
6.6129302931
 20
5.5968897717
 30
0.0
 10
6.5814081779
 20
5.5894176033
 30
0.0
 10
6.5505617462
 20
5.5802746857
 30
0.0
 10
6.5278084356
 20
5.5726753874
 30
0.0
 10
6.5053138549
 20
5.5643668504
 30
0.0
 10
6.4830209351
 20
5.5554171335
 30
0.0
 10
6.4609325743
 20
5.5458163483
 30
0.0
 10
6.4390866701
 20
5.5355421993
 30
0.0
 10
6.4175308126
 20
5.524581813
 30
0.0
 10
6.3963163729
 20
5.5129310118
 30
0.0
 10
6.3789632409
 20
5.5026453742
 30
0.0
 10
6.3653039139
 20
5.494070877
 30
0.0
 10
6.3518110213
 20
5.4852705815
 30
0.0
 10
6.3352316373
 20
5.4738577835
 30
0.0
 10
6.3157619171
 20
5.4595734527
 30
0.0
 10
6.2966810567
 20
5.4447693359
 30
0.0
 10
6.2779476061
 20
5.4295118669
 30
0.0
 10
6.25952105
 20
5.4138659167
 30
0.0
 10
6.2413573803
 20
5.3979016789
 30
0.0
 10
6.2234285046
 20
5.3816708443
 30
0.0
 10
6.1999522721
 20
5.3596014552
 30
0.0
 10
6.1772307948
 20
5.3367625549
 30
0.0
 10
6.1555733964
 20
5.3129561054
 30
0.0
 10
6.1399402125
 20
5.2945746526
 30
0.0
 10
6.1249995624
 20
5.2756123325
 30
0.0
 10
6.1107576666
 20
5.2560990769
 30
0.0
 10
6.0972069955
 20
5.2360805149
 30
0.0
 10
6.0800662791
 20
5.2087749868
 30
0.0
 10
6.064265996
 20
5.1806612548
 30
0.0
 10
6.0496418523
 20
5.151964078
 30
0.0
 10
6.0392525346
 20
5.1301856182
 30
0.0
 10
6.0294565517
 20
5.1081421914
 30
0.0
 10
6.0171849506
 20
5.0783772234
 30
0.0
 10
6.0033773642
 20
5.0404572171
 30
0.0
 10
5.9919156292
 20
5.0016997165
 30
0.0
 10
5.9842934614
 20
4.9702536697
 30
0.0
 10
5.9794035294
 20
4.9465262944
 30
0.0
 10
5.975391159
 20
4.922717781
 30
0.0
 10
5.9723079055
 20
4.8988619512
 30
0.0
 10
5.9702022359
 20
4.8749770402
 30
0.0
 10
5.9691189727
 20
4.8510614596
 30
0.0
 10
5.9691497148
 20
4.8270901115
 30
0.0
 10
5.9701824597
 20
4.8070775354
 30
0.0
 10
5.9716490665
 20
4.7910322744
 30
0.0
 10
5.9735793701
 20
4.7748947184
 30
0.0
 10
5.9762661694
 20
4.7587942126
 30
0.0
 10
5.9798480457
 20
4.7428471031
 30
0.0
 10
5.9830527962
 20
4.7310109904
 30
0.0
 10
5.9868301466
 20
4.7193832555
 30
0.0
 10
5.9926759909
 20
4.7043459507
 30
0.0
 10
5.9999862997
 20
4.6900102248
 30
0.0
 10
6.0091055807
 20
4.6769675203
 30
0.0
 10
6.0142608072
 20
4.6709678513
 30
0.0
 10
6.0169827676
 20
4.6681211516
 30
0.0
  0
SPLINE
  5
2EF
100
AcDbEntity
  8
0
100
AcDbSpline
 62
7
  6
CONTINUOUS
 70
0
 71
3
 72
18
 73
14
 74
0
 42
0.0000001
 43
0.0000001
 44
0.0000000001
 40
0.0
 40
0.0
 40
0.0
 40
0.0
 40
0.1223362195
 40
0.1838270024
 40
0.2456445121
 40
0.3703847057
 40
0.4967141681
 40
0.5604475209
 40
0.6244886666
 40
0.688648317
 40
0.7526341953
 40
0.8787537388
 40
1.0
 40
1.0
 40
1.0
 40
1.0
 10
6.0169827676
 20
4.6681211516
 30
0.0
 10
6.0195464366
 20
4.6654399974
 30
0.0
 10
6.0236047709
 20
4.6615999579
 30
0.0
 10
6.0294052099
 20
4.6569228393
 30
0.0
 10
6.0355020572
 20
4.6525127415
 30
0.0
 10
6.0435942864
 20
4.6475308515
 30
0.0
 10
6.0521478036
 20
4.6432665922
 30
0.0
 10
6.0592394999
 20
4.6402496399
 30
0.0
 10
6.0646809249
 20
4.6381809755
 30
0.0
 10
6.070194808
 20
4.6362920209
 30
0.0
 10
6.0775528652
 20
4.6339866614
 30
0.0
 10
6.0866451336
 20
4.6314382684
 30
0.0
 10
6.0939011737
 20
4.6295381961
 30
0.0
 10
6.0974539539
 20
4.6285923506
 30
0.0
  0
SPLINE
  5
2F0
100
AcDbEntity
  8
0
100
AcDbSpline
 62
7
  6
CONTINUOUS
 70
0
 71
3
 72
69
 73
65
 74
0
 42
0.0000001
 43
0.0000001
 44
0.0000000001
 40
0.0
 40
0.0
 40
0.0
 40
0.0
 40
0.0156519502
 40
0.0234772251
 40
0.031300987
 40
0.0469471362
 40
0.0625812393
 40
0.0703981216
 40
0.078215103
 40
0.0860290707
 40
0.0938393085
 40
0.1016487852
 40
0.109458837
 40
0.1133640403
 40
0.1172692187
 40
0.1250794466
 40
0.1328895328
 40
0.1406995176
 40
0.1563193639
 40
0.1719393533
 40
0.1875595553
 40
0.2031800124
 40
0.2188006599
 40
0.2500419221
 40
0.2812836603
 40
0.3125254335
 40
0.3437660437
 40
0.3750066368
 40
0.4062513184
 40
0.4375015509
 40
0.4687522666
 40
0.5000025597
 40
0.5312556112
 40
0.5625083213
 40
0.5937589024
 40
0.6250114483
 40
0.6562644331
 40
0.6875157462
 40
0.7187670863
 40
0.7500180493
 40
0.7656434052
 40
0.7812680703
 40
0.796892713
 40
0.812517587
 40
0.8281424448
 40
0.8437666425
 40
0.8593902726
 40
0.8750136751
 40
0.8906364587
 40
0.8984473458
 40
0.9062576116
 40
0.9140672717
 40
0.9218772404
 40
0.92578273
 40
0.9296887191
 40
0.9375007221
 40
0.94531099
 40
0.9492159163
 40
0.9531213283
 40
0.9609339172
 40
0.9687486885
 40
0.9765636747
 40
0.9843763309
 40
1.0
 40
1.0
 40
1.0
 40
1.0
 10
5.5697231017
 20
4.8149653448
 30
0.0
 10
5.5783160716
 20
4.8191529091
 30
0.0
 10
5.590776557
 20
4.8263561139
 30
0.0
 10
5.6063843587
 20
4.8374043869
 30
0.0
 10
5.6213344548
 20
4.8493278373
 30
0.0
 10
5.638786811
 20
4.8656931533
 30
0.0
 10
5.6546387368
 20
4.883588072
 30
0.0
 10
5.6664680349
 20
4.8985827212
 30
0.0
 10
5.6749572568
 20
4.9101184875
 30
0.0
 10
5.6831005873
 20
4.9218949451
 30
0.0
 10
5.6909478261
 20
4.93386467
 30
0.0
 10
5.6985560522
 20
4.9459842428
 30
0.0
 10
5.7047667303
 20
4.9561634792
 30
0.0
 10
5.7097210198
 20
4.9643159035
 30
0.0
 10
5.7146851024
 20
4.9724625131
 30
0.0
 10
5.7209091511
 20
4.9826340204
 30
0.0
 10
5.7284096488
 20
4.994820207
 30
0.0
 10
5.7384543272
 20
5.0110409306
 30
0.0
 10
5.7510965232
 20
5.0312632042
 30
0.0
 10
5.7664157607
 20
5.0554365831
 30
0.0
 10
5.7818871013
 20
5.0795133489
 30
0.0
 10
5.7975139218
 20
5.1034900077
 30
0.0
 10
5.818563769
 20
5.135318713
 30
0.0
 10
5.8452949408
 20
5.1748267585
 30
0.0
 10
5.8780910498
 20
5.2217426042
 30
0.0
 10
5.9116598921
 20
5.2681088301
 30
0.0
 10
5.9460612487
 20
5.3138605419
 30
0.0
 10
5.9813561067
 20
5.3589296185
 30
0.0
 10
6.0176129276
 20
5.4032370529
 30
0.0
 10
6.0548969407
 20
5.4466930237
 30
0.0
 10
6.0932815707
 20
5.4891860613
 30
0.0
 10
6.1328325962
 20
5.5305996494
 30
0.0
 10
6.1736094258
 20
5.570810439
 30
0.0
 10
6.2156630648
 20
5.6096862162
 30
0.0
 10
6.2590356586
 20
5.6470868354
 30
0.0
 10
6.3037634326
 20
5.6828583024
 30
0.0
 10
6.3498359028
 20
5.7168825869
 30
0.0
 10
6.3972292223
 20
5.7490426852
 30
0.0
 10
6.4459058163
 20
5.7792224449
 30
0.0
 10
6.4874569186
 20
5.8027068052
 30
0.0
 10
6.5212404152
 20
5.8204789047
 30
0.0
 10
6.5468379187
 20
5.8333011674
 30
0.0
 10
6.5726771669
 20
5.8456277798
 30
0.0
 10
6.5987424834
 20
5.857468987
 30
0.0
 10
6.625017705
 20
5.8688358879
 30
0.0
 10
6.651488204
 20
5.8797380362
 30
0.0
 10
6.6781367488
 20
5.890194583
 30
0.0
 10
6.704945091
 20
5.9002313709
 30
0.0
 10
6.7274050179
 20
5.9082664339
 30
0.0
 10
6.7454362995
 20
5.9145096316
 30
0.0
 10
6.7589889706
 20
5.9191027931
 30
0.0
 10
6.7725700267
 20
5.9236095463
 30
0.0
 10
6.7839147249
 20
5.9272829085
 30
0.0
 10
6.7930091245
 20
5.9301658653
 30
0.0
 10
6.8021165784
 20
5.933011441
 30
0.0
 10
6.8135319504
 20
5.9364666477
 30
0.0
 10
6.8250169029
 20
5.9396842643
 30
0.0
 10
6.8342582754
 20
5.9420536474
 30
0.0
 10
6.8435394342
 20
5.9442680686
 30
0.0
 10
6.8552082136
 20
5.94675684
 30
0.0
 10
6.8692950307
 20
5.9493232834
 30
0.0
 10
6.883447421
 20
5.9514987284
 30
0.0
 10
6.9023814447
 20
5.9539144043
 30
0.0
 10
6.9166377493
 20
5.9552426574
 30
0.0
 10
6.9261516283
 20
5.9559713732
 30
0.0
  0
SPLINE
  5
2F1
100
AcDbEntity
  8
0
100
AcDbSpline
 62
7
  6
CONTINUOUS
 70
0
 71
3
 72
73
 73
69
 74
0
 42
0.0000001
 43
0.0000001
 44
0.0000000001
 40
0.0
 40
0.0
 40
0.0
 40
0.0
 40
0.0160795073
 40
0.023901719
 40
0.0315854788
 40
0.0466453409
 40
0.0615113447
 40
0.0689529483
 40
0.0764369368
 40
0.0915778255
 40
0.1069852442
 40
0.1226525054
 40
0.138528159
 40
0.1545176832
 40
0.1705016465
 40
0.1863805524
 40
0.2178151683
 40
0.2333913327
 40
0.248915761
 40
0.2644384267
 40
0.280000622
 40
0.2956078234
 40
0.3112511528
 40
0.3269228139
 40
0.3426091848
 40
0.358292814
 40
0.3661288592
 40
0.3739589697
 40
0.3896066417
 40
0.40524894
 40
0.4208946761
 40
0.4365486136
 40
0.4522119544
 40
0.4678828272
 40
0.4835557197
 40
0.4992224963
 40
0.5305167434
 40
0.5461479645
 40
0.5617765861
 40
0.5774145918
 40
0.5930658094
 40
0.6087279223
 40
0.6243968004
 40
0.6557278643
 40
0.6713747744
 40
0.687004254
 40
0.7026285426
 40
0.7182608212
 40
0.749584194
 40
0.7810308903
 40
0.7967701623
 40
0.8124733865
 40
0.8281147693
 40
0.8436944502
 40
0.8592212847
 40
0.8747124983
 40
0.8902172912
 40
0.9058024765
 40
0.9136487919
 40
0.921534784
 40
0.9373938571
 40
0.9453511061
 40
0.9532999469
 40
0.9612229032
 40
0.9691040853
 40
0.9846558482
 40
0.9923435311
 40
1.0
 40
1.0
 40
1.0
 40
1.0
 10
6.8854015827
 20
3.4191854913
 30
0.0
 10
6.8799939523
 20
3.4129263628
 30
0.0
 10
6.8715122448
 20
3.403987495
 30
0.0
 10
6.8594303182
 20
3.3931140624
 30
0.0
 10
6.8471797992
 20
3.3832461265
 30
0.0
 10
6.8311087991
 20
3.3723934357
 30
0.0
 10
6.8139893756
 20
3.3635489532
 30
0.0
 10
6.7998073554
 20
3.3577215787
 30
0.0
 10
6.7851827724
 20
3.3526647916
 30
0.0
 10
6.7661999033
 20
3.3477796725
 30
0.0
 10
6.7426911623
 20
3.3440449221
 30
0.0
 10
6.7185832848
 20
3.3422288985
 30
0.0
 10
6.694113666
 20
3.3421471837
 30
0.0
 10
6.6695285259
 20
3.3436086557
 30
0.0
 10
6.6450627784
 20
3.3464279373
 30
0.0
 10
6.6129302931
 20
3.3517608494
 30
0.0
 10
6.5814081779
 20
3.3592330178
 30
0.0
 10
6.5505617462
 20
3.3683759354
 30
0.0
 10
6.5278084356
 20
3.3759752337
 30
0.0
 10
6.5053138549
 20
3.3842837707
 30
0.0
 10
6.4830209351
 20
3.3932334877
 30
0.0
 10
6.4609325743
 20
3.4028342728
 30
0.0
 10
6.4390866701
 20
3.4131084219
 30
0.0
 10
6.4175308126
 20
3.4240688082
 30
0.0
 10
6.3963163729
 20
3.4357196093
 30
0.0
 10
6.3789632409
 20
3.4460052469
 30
0.0
 10
6.3653039139
 20
3.4545797441
 30
0.0
 10
6.3518110213
 20
3.4633800396
 30
0.0
 10
6.3352316373
 20
3.4747928377
 30
0.0
 10
6.3157619171
 20
3.4890771684
 30
0.0
 10
6.2966810567
 20
3.5038812852
 30
0.0
 10
6.2779476061
 20
3.5191387542
 30
0.0
 10
6.25952105
 20
3.5347847044
 30
0.0
 10
6.2413573803
 20
3.5507489423
 30
0.0
 10
6.2234285046
 20
3.5669797768
 30
0.0
 10
6.1999522721
 20
3.5890491659
 30
0.0
 10
6.1772307948
 20
3.6118880662
 30
0.0
 10
6.1555733964
 20
3.6356945157
 30
0.0
 10
6.1399402125
 20
3.6540759686
 30
0.0
 10
6.1249995624
 20
3.6730382886
 30
0.0
 10
6.1107576666
 20
3.6925515442
 30
0.0
 10
6.0972069955
 20
3.7125701062
 30
0.0
 10
6.0800662791
 20
3.7398756343
 30
0.0
 10
6.064265996
 20
3.7679893663
 30
0.0
 10
6.0496418523
 20
3.7966865432
 30
0.0
 10
6.0392525346
 20
3.8184650029
 30
0.0
 10
6.0294565517
 20
3.8405084297
 30
0.0
 10
6.0171849506
 20
3.8702733977
 30
0.0
 10
6.0033773642
 20
3.908193404
 30
0.0
 10
5.9919156292
 20
3.9469509047
 30
0.0
 10
5.9842934614
 20
3.9783969514
 30
0.0
 10
5.9794035294
 20
4.0021243267
 30
0.0
 10
5.975391159
 20
4.0259328402
 30
0.0
 10
5.9723079055
 20
4.0497886699
 30
0.0
 10
5.9702022359
 20
4.0736735809
 30
0.0
 10
5.9691189727
 20
4.0975891615
 30
0.0
 10
5.9691497148
 20
4.1215605096
 30
0.0
 10
5.9701824597
 20
4.1415730857
 30
0.0
 10
5.9716490665
 20
4.1576183467
 30
0.0
 10
5.9735793701
 20
4.1737559028
 30
0.0
 10
5.9762661694
 20
4.1898564085
 30
0.0
 10
5.9798480457
 20
4.2058035181
 30
0.0
 10
5.9830527962
 20
4.2176396307
 30
0.0
 10
5.9868301466
 20
4.2292673656
 30
0.0
 10
5.9926759909
 20
4.2443046704
 30
0.0
 10
5.9999862997
 20
4.2586403963
 30
0.0
 10
6.0091055807
 20
4.2716831008
 30
0.0
 10
6.0142608072
 20
4.2776827698
 30
0.0
 10
6.0169827676
 20
4.2805294695
 30
0.0
  0
SPLINE
  5
2F2
100
AcDbEntity
  8
0
100
AcDbSpline
 62
7
  6
CONTINUOUS
 70
0
 71
3
 72
18
 73
14
 74
0
 42
0.0000001
 43
0.0000001
 44
0.0000000001
 40
0.0
 40
0.0
 40
0.0
 40
0.0
 40
0.1223362195
 40
0.1838270024
 40
0.2456445121
 40
0.3703847057
 40
0.4967141681
 40
0.5604475209
 40
0.6244886666
 40
0.688648317
 40
0.7526341953
 40
0.8787537388
 40
1.0
 40
1.0
 40
1.0
 40
1.0
 10
6.0169827676
 20
4.2805294695
 30
0.0
 10
6.0195464366
 20
4.2832106237
 30
0.0
 10
6.0236047709
 20
4.2870506633
 30
0.0
 10
6.0294052099
 20
4.2917277818
 30
0.0
 10
6.0355020572
 20
4.2961378796
 30
0.0
 10
6.0435942864
 20
4.3011197697
 30
0.0
 10
6.0521478036
 20
4.3053840289
 30
0.0
 10
6.0592394999
 20
4.3084009813
 30
0.0
 10
6.0646809249
 20
4.3104696456
 30
0.0
 10
6.070194808
 20
4.3123586002
 30
0.0
 10
6.0775528652
 20
4.3146639597
 30
0.0
 10
6.0866451336
 20
4.3172123527
 30
0.0
 10
6.0939011737
 20
4.319112425
 30
0.0
 10
6.0974539539
 20
4.3200582706
 30
0.0
  0
SPLINE
  5
2F3
100
AcDbEntity
  8
0
100
AcDbSpline
 62
7
  6
CONTINUOUS
 70
0
 71
3
 72
64
 73
60
 74
0
 42
0.0000001
 43
0.0000001
 44
0.0000000001
 40
0.0
 40
0.0
 40
0.0
 40
0.0
 40
0.0309412544
 40
0.0460108892
 40
0.0607218945
 40
0.0888410578
 40
0.1022207452
 40
0.1151434966
 40
0.1276299334
 40
0.1397199407
 40
0.1514848703
 40
0.1630451708
 40
0.1745314779
 40
0.1860713227
 40
0.197785189
 40
0.2097841121
 40
0.2221638514
 40
0.2349837275
 40
0.2482675458
 40
0.2620113949
 40
0.2907510444
 40
0.3207397915
 40
0.3513401217
 40
0.3819550544
 40
0.3971312651
 40
0.4121813851
 40
0.4271126359
 40
0.4419645362
 40
0.4567961728
 40
0.471686121
 40
0.4867346069
 40
0.5020625656
 40
0.5178023132
 40
0.5340366755
 40
0.550807055
 40
0.5681391312
 40
0.586046466
 40
0.6045316483
 40
0.6235513854
 40
0.643016459
 40
0.662827129
 40
0.6828782652
 40
0.7232514366
 40
0.7433602095
 40
0.7632540214
 40
0.7828207286
 40
0.8019576578
 40
0.8205852292
 40
0.8386696961
 40
0.8561982515
 40
0.8731768507
 40
0.8896359603
 40
0.9056420629
 40
0.9213247445
 40
0.9368344478
 40
0.9523193925
 40
0.967922066
 40
0.983776297
 40
1.0
 40
1.0
 40
1.0
 40
1.0
 10
6.5395719618
 20
3.8112496325
 30
0.0
 10
6.5322631389
 20
3.8103720788
 30
0.0
 10
6.5213114662
 20
3.8096406371
 30
0.0
 10
6.5068606254
 20
3.8099289746
 30
0.0
 10
6.4931249363
 20
3.8110418675
 30
0.0
 10
6.4799087189
 20
3.8134162789
 30
0.0
 10
6.4675103786
 20
3.8171894977
 30
0.0
 10
6.458927772
 20
3.820614198
 30
0.0
 10
6.4509696726
 20
3.8246772314
 30
0.0
 10
6.4436934234
 20
3.8293780077
 30
0.0
 10
6.4371554748
 20
3.8347219231
 30
0.0
 10
6.431375523
 20
3.8406795629
 30
0.0
 10
6.4263592223
 20
3.8472256423
 30
0.0
 10
6.4221105367
 20
3.8543357206
 30
0.0
 10
6.4186294086
 20
3.8619848579
 30
0.0
 10
6.4159243504
 20
3.8701499804
 30
0.0
 10
6.4139315965
 20
3.8787835158
 30
0.0
 10
6.412563641
 20
3.8878438995
 30
0.0
 10
6.4117403863
 20
3.8972932632
 30
0.0
 10
6.4112534037
 20
3.9105567013
 30
0.0
 10
6.4116570676
 20
3.9278047043
 30
0.0
 10
6.412787437
 20
3.9490251738
 30
0.0
 10
6.4136446285
 20
3.970709196
 30
0.0
 10
6.4133714778
 20
3.9889016175
 30
0.0
 10
6.4121229368
 20
4.0033292521
 30
0.0
 10
6.4105686222
 20
4.0139672548
 30
0.0
 10
6.4082851899
 20
4.0243971487
 30
0.0
 10
6.4051657584
 20
4.0345564871
 30
0.0
 10
6.4011672646
 20
4.0443940776
 30
0.0
 10
6.3962451458
 20
4.0538583918
 30
0.0
 10
6.39035556
 20
4.0628958762
 30
0.0
 10
6.383457708
 20
4.0714527086
 30
0.0
 10
6.3755200699
 20
4.0794569689
 30
0.0
 10
6.366586552
 20
4.0868775646
 30
0.0
 10
6.3567167469
 20
4.0936864615
 30
0.0
 10
6.3459703208
 20
4.0998473123
 30
0.0
 10
6.3344082646
 20
4.1053252279
 30
0.0
 10
6.3220989674
 20
4.110076829
 30
0.0
 10
6.3091388151
 20
4.1140783164
 30
0.0
 10
6.2956440075
 20
4.1173170647
 30
0.0
 10
6.2817355328
 20
4.1197723914
 30
0.0
 10
6.2627665818
 20
4.1219804248
 30
0.0
 10
6.2435622307
 20
4.1225265572
 30
0.0
 10
6.2244649761
 20
4.1213953862
 30
0.0
 10
6.2103837665
 20
4.1197102103
 30
0.0
 10
6.1966632607
 20
4.1171867588
 30
0.0
 10
6.1834330568
 20
4.1138234377
 30
0.0
 10
6.1708165232
 20
4.1096154173
 30
0.0
 10
6.1589168519
 20
4.1045869183
 30
0.0
 10
6.147826562
 20
4.0987592296
 30
0.0
 10
6.1376375965
 20
4.092151792
 30
0.0
 10
6.1284394861
 20
4.0847839135
 30
0.0
 10
6.1203265402
 20
4.0766620998
 30
0.0
 10
6.1133410561
 20
4.0678380673
 30
0.0
 10
6.1074954454
 20
4.0583662043
 30
0.0
 10
6.1028015639
 20
4.0482955129
 30
0.0
 10
6.0992670425
 20
4.0376758594
 30
0.0
 10
6.0969068203
 20
4.026558118
 30
0.0
 10
6.0961085896
 20
4.0189535111
 30
0.0
 10
6.0958836652
 20
4.0151002453
 30
0.0
  0
SPLINE
  5
2F4
100
AcDbEntity
  8
0
100
AcDbSpline
 62
7
  6
CONTINUOUS
 70
0
 71
3
 72
36
 73
32
 74
0
 42
0.0000001
 43
0.0000001
 44
0.0000000001
 40
0.0
 40
0.0
 40
0.0
 40
0.0
 40
0.030189176
 40
0.045881369
 40
0.061977426
 40
0.0953362327
 40
0.1300952352
 40
0.1659242238
 40
0.2024065821
 40
0.2391421231
 40
0.2757338375
 40
0.3117666401
 40
0.3469771339
 40
0.381226009
 40
0.4143805102
 40
0.4774375296
 40
0.5075786422
 40
0.5369881903
 40
0.565880071
 40
0.5944723814
 40
0.622963292
 40
0.6515108858
 40
0.6802562615
 40
0.7092755545
 40
0.7678751958
 40
0.8266641065
 40
0.8558964764
 40
0.8849065907
 40
0.9423927296
 40
0.9710425377
 40
1.0
 40
1.0
 40
1.0
 40
1.0
 10
6.0958836652
 20
4.0151002453
 30
0.0
 10
6.0954894537
 20
4.0083468576
 30
0.0
 10
6.0957243388
 20
3.9980208494
 30
0.0
 10
6.0973981532
 20
3.9842296348
 30
0.0
 10
6.1000318599
 20
3.9698618199
 30
0.0
 10
6.1049934809
 20
3.9516182547
 30
0.0
 10
6.1131103862
 20
3.9297598668
 30
0.0
 10
6.1231083928
 20
3.9079292588
 30
0.0
 10
6.134647773
 20
3.8863749368
 30
0.0
 10
6.1474137576
 20
3.8653268503
 30
0.0
 10
6.1611063907
 20
3.8449936312
 30
0.0
 10
6.1754464118
 20
3.8255360545
 30
0.0
 10
6.1902468002
 20
3.8070952941
 30
0.0
 10
6.2053845877
 20
3.7897768865
 30
0.0
 10
6.2255532934
 20
3.7686069184
 30
0.0
 10
6.2464550612
 20
3.7494275924
 30
0.0
 10
6.2681186506
 20
3.7325116294
 30
0.0
 10
6.2843956174
 20
3.7211865277
 30
0.0
 10
6.3009931551
 20
3.7109850854
 30
0.0
 10
6.3179690546
 20
3.7018532342
 30
0.0
 10
6.3353650215
 20
3.6937320569
 30
0.0
 10
6.3532031997
 20
3.6865456469
 30
0.0
 10
6.3714914791
 20
3.680227684
 30
0.0
 10
6.3965135494
 20
3.6728644394
 30
0.0
 10
6.4285643497
 20
3.665670919
 30
0.0
 10
6.4611186177
 20
3.6610003105
 30
0.0
 10
6.4872488811
 20
3.6587155797
 30
0.0
 10
6.5131523472
 20
3.6573957625
 30
0.0
 10
6.538985896
 20
3.6575414529
 30
0.0
 10
6.5647248027
 20
3.6592535129
 30
0.0
 10
6.5775649819
 20
3.6606206282
 30
0.0
 10
6.5840038242
 20
3.66142489
 30
0.0
  0
SPLINE
  5
2F5
100
AcDbEntity
  8
0
100
AcDbSpline
 62
7
  6
CONTINUOUS
 70
0
 71
3
 72
64
 73
60
 74
0
 42
0.0000001
 43
0.0000001
 44
0.0000000001
 40
0.0
 40
0.0
 40
0.0
 40
0.0
 40
0.0309412544
 40
0.0460108892
 40
0.0607218945
 40
0.0888410578
 40
0.1022207452
 40
0.1151434966
 40
0.1276299334
 40
0.1397199407
 40
0.1514848703
 40
0.1630451708
 40
0.1745314779
 40
0.1860713227
 40
0.197785189
 40
0.2097841121
 40
0.2221638514
 40
0.2349837275
 40
0.2482675458
 40
0.2620113949
 40
0.2907510444
 40
0.3207397915
 40
0.3513401217
 40
0.3819550544
 40
0.3971312651
 40
0.4121813851
 40
0.4271126359
 40
0.4419645362
 40
0.4567961728
 40
0.471686121
 40
0.4867346069
 40
0.5020625656
 40
0.5178023132
 40
0.5340366755
 40
0.550807055
 40
0.5681391312
 40
0.586046466
 40
0.6045316483
 40
0.6235513854
 40
0.643016459
 40
0.662827129
 40
0.6828782652
 40
0.7232514366
 40
0.7433602095
 40
0.7632540214
 40
0.7828207286
 40
0.8019576578
 40
0.8205852292
 40
0.8386696961
 40
0.8561982515
 40
0.8731768507
 40
0.8896359603
 40
0.9056420629
 40
0.9213247445
 40
0.9368344478
 40
0.9523193925
 40
0.967922066
 40
0.983776297
 40
1.0
 40
1.0
 40
1.0
 40
1.0
 10
5.6668070445
 20
2.9384847153
 30
0.0
 10
5.6676845982
 20
2.9457935381
 30
0.0
 10
5.6684160399
 20
2.9567452108
 30
0.0
 10
5.6681277025
 20
2.9711960516
 30
0.0
 10
5.6670148095
 20
2.9849317407
 30
0.0
 10
5.6646403981
 20
2.9981479581
 30
0.0
 10
5.6608671794
 20
3.0105462984
 30
0.0
 10
5.657442479
 20
3.0191289051
 30
0.0
 10
5.6533794456
 20
3.0270870044
 30
0.0
 10
5.6486786693
 20
3.0343632536
 30
0.0
 10
5.6433347539
 20
3.0409012022
 30
0.0
 10
5.6373771141
 20
3.046681154
 30
0.0
 10
5.6308310347
 20
3.0516974547
 30
0.0
 10
5.6237209564
 20
3.0559461404
 30
0.0
 10
5.6160718191
 20
3.0594272685
 30
0.0
 10
5.6079066966
 20
3.0621323266
 30
0.0
 10
5.5992731612
 20
3.0641250805
 30
0.0
 10
5.5902127775
 20
3.065493036
 30
0.0
 10
5.5807634138
 20
3.0663162908
 30
0.0
 10
5.5674999757
 20
3.0668032733
 30
0.0
 10
5.5502519727
 20
3.0663996094
 30
0.0
 10
5.5290315032
 20
3.06526924
 30
0.0
 10
5.507347481
 20
3.0644120485
 30
0.0
 10
5.4891550595
 20
3.0646851992
 30
0.0
 10
5.4747274249
 20
3.0659337402
 30
0.0
 10
5.4640894222
 20
3.0674880548
 30
0.0
 10
5.4536595283
 20
3.0697714871
 30
0.0
 10
5.4435001899
 20
3.0728909186
 30
0.0
 10
5.4336625994
 20
3.0768894124
 30
0.0
 10
5.4241982853
 20
3.0818115313
 30
0.0
 10
5.4151608008
 20
3.087701117
 30
0.0
 10
5.4066039684
 20
3.094598969
 30
0.0
 10
5.3985997081
 20
3.1025366071
 30
0.0
 10
5.3911791124
 20
3.111470125
 30
0.0
 10
5.3843702155
 20
3.1213399301
 30
0.0
 10
5.3782093647
 20
3.1320863562
 30
0.0
 10
5.3727314492
 20
3.1436484124
 30
0.0
 10
5.367979848
 20
3.1559577096
 30
0.0
 10
5.3639783606
 20
3.1689178619
 30
0.0
 10
5.3607396123
 20
3.1824126695
 30
0.0
 10
5.3582842857
 20
3.1963211443
 30
0.0
 10
5.3560762522
 20
3.2152900952
 30
0.0
 10
5.3555301198
 20
3.2344944464
 30
0.0
 10
5.3566612908
 20
3.2535917009
 30
0.0
 10
5.3583464668
 20
3.2676729105
 30
0.0
 10
5.3608699182
 20
3.2813934164
 30
0.0
 10
5.3642332393
 20
3.2946236202
 30
0.0
 10
5.3684412597
 20
3.3072401539
 30
0.0
 10
5.3734697588
 20
3.3191398251
 30
0.0
 10
5.3792974474
 20
3.330230115
 30
0.0
 10
5.385904885
 20
3.3404190805
 30
0.0
 10
5.3932727636
 20
3.3496171909
 30
0.0
 10
5.4013945772
 20
3.3577301368
 30
0.0
 10
5.4102186097
 20
3.3647156209
 30
0.0
 10
5.4196904728
 20
3.3705612316
 30
0.0
 10
5.4297611641
 20
3.3752551132
 30
0.0
 10
5.4403808176
 20
3.3787896345
 30
0.0
 10
5.451498559
 20
3.3811498567
 30
0.0
 10
5.4591031659
 20
3.3819480874
 30
0.0
 10
5.4629564317
 20
3.3821730119
 30
0.0
  0
SPLINE
  5
2F6
100
AcDbEntity
  8
0
100
AcDbSpline
 62
7
  6
CONTINUOUS
 70
0
 71
3
 72
36
 73
32
 74
0
 42
0.0000001
 43
0.0000001
 44
0.0000000001
 40
0.0
 40
0.0
 40
0.0
 40
0.0
 40
0.030189176
 40
0.045881369
 40
0.061977426
 40
0.0953362327
 40
0.1300952352
 40
0.1659242238
 40
0.2024065821
 40
0.2391421231
 40
0.2757338375
 40
0.3117666401
 40
0.3469771339
 40
0.381226009
 40
0.4143805102
 40
0.4774375296
 40
0.5075786422
 40
0.5369881903
 40
0.565880071
 40
0.5944723814
 40
0.622963292
 40
0.6515108858
 40
0.6802562615
 40
0.7092755545
 40
0.7678751958
 40
0.8266641065
 40
0.8558964764
 40
0.8849065907
 40
0.9423927296
 40
0.9710425377
 40
1.0
 40
1.0
 40
1.0
 40
1.0
 10
5.4629564317
 20
3.3821730119
 30
0.0
 10
5.4697098194
 20
3.3825672234
 30
0.0
 10
5.4800358276
 20
3.3823323382
 30
0.0
 10
5.4938270422
 20
3.3806585238
 30
0.0
 10
5.5081948572
 20
3.3780248172
 30
0.0
 10
5.5264384224
 20
3.3730631961
 30
0.0
 10
5.5482968102
 20
3.3649462909
 30
0.0
 10
5.5701274182
 20
3.3549482842
 30
0.0
 10
5.5916817402
 20
3.343408904
 30
0.0
 10
5.6127298267
 20
3.3306429194
 30
0.0
 10
5.6330630458
 20
3.3169502863
 30
0.0
 10
5.6525206225
 20
3.3026102652
 30
0.0
 10
5.6709613829
 20
3.2878098768
 30
0.0
 10
5.6882797905
 20
3.2726720894
 30
0.0
 10
5.7094497586
 20
3.2525033836
 30
0.0
 10
5.7286290846
 20
3.2316016158
 30
0.0
 10
5.7455450476
 20
3.2099380264
 30
0.0
 10
5.7568701493
 20
3.1936610596
 30
0.0
 10
5.7670715916
 20
3.1770635219
 30
0.0
 10
5.7762034428
 20
3.1600876224
 30
0.0
 10
5.7843246201
 20
3.1426916556
 30
0.0
 10
5.7915110301
 20
3.1248534773
 30
0.0
 10
5.797828993
 20
3.1065651979
 30
0.0
 10
5.8051922376
 20
3.0815431276
 30
0.0
 10
5.812385758
 20
3.0494923273
 30
0.0
 10
5.8170563665
 20
3.0169380594
 30
0.0
 10
5.8193410973
 20
2.9908077959
 30
0.0
 10
5.8206609146
 20
2.9649043298
 30
0.0
 10
5.8205152241
 20
2.939070781
 30
0.0
 10
5.8188031641
 20
2.9133318743
 30
0.0
 10
5.8174360488
 20
2.9004916952
 30
0.0
 10
5.8166317871
 20
2.8940528528
 30
0.0
  0
SPLINE
  5
2F7
100
AcDbEntity
  8
0
100
AcDbSpline
 62
7
  6
CONTINUOUS
 70
0
 71
3
 72
73
 73
69
 74
0
 42
0.0000001
 43
0.0000001
 44
0.0000000001
 40
0.0
 40
0.0
 40
0.0
 40
0.0
 40
0.0160795073
 40
0.023901719
 40
0.0315854788
 40
0.0466453409
 40
0.0615113447
 40
0.0689529483
 40
0.0764369368
 40
0.0915778255
 40
0.1069852442
 40
0.1226525054
 40
0.138528159
 40
0.1545176832
 40
0.1705016465
 40
0.1863805524
 40
0.2178151683
 40
0.2333913327
 40
0.248915761
 40
0.2644384267
 40
0.280000622
 40
0.2956078234
 40
0.3112511528
 40
0.3269228139
 40
0.3426091848
 40
0.358292814
 40
0.3661288592
 40
0.3739589697
 40
0.3896066417
 40
0.40524894
 40
0.4208946761
 40
0.4365486136
 40
0.4522119544
 40
0.4678828272
 40
0.4835557197
 40
0.4992224963
 40
0.5305167434
 40
0.5461479645
 40
0.5617765861
 40
0.5774145918
 40
0.5930658094
 40
0.6087279223
 40
0.6243968004
 40
0.6557278643
 40
0.6713747744
 40
0.687004254
 40
0.7026285426
 40
0.7182608212
 40
0.749584194
 40
0.7810308903
 40
0.7967701623
 40
0.8124733865
 40
0.8281147693
 40
0.8436944502
 40
0.8592212847
 40
0.8747124983
 40
0.8902172912
 40
0.9058024765
 40
0.9136487919
 40
0.921534784
 40
0.9373938571
 40
0.9453511061
 40
0.9532999469
 40
0.9612229032
 40
0.9691040853
 40
0.9846558482
 40
0.9923435311
 40
1.0
 40
1.0
 40
1.0
 40
1.0
 10
6.0588711857
 20
2.5926550943
 30
0.0
 10
6.0651303142
 20
2.5980627247
 30
0.0
 10
6.074069182
 20
2.6065444322
 30
0.0
 10
6.0849426146
 20
2.6186263588
 30
0.0
 10
6.0948105505
 20
2.6308768778
 30
0.0
 10
6.1056632413
 20
2.6469478779
 30
0.0
 10
6.1145077238
 20
2.6640673014
 30
0.0
 10
6.1203350984
 20
2.6782493216
 30
0.0
 10
6.1253918855
 20
2.6928739046
 30
0.0
 10
6.1302770045
 20
2.7118567738
 30
0.0
 10
6.1340117549
 20
2.7353655148
 30
0.0
 10
6.1358277785
 20
2.7594733922
 30
0.0
 10
6.1359094933
 20
2.783943011
 30
0.0
 10
6.1344480214
 20
2.8085281511
 30
0.0
 10
6.1316287397
 20
2.8329938986
 30
0.0
 10
6.1262958276
 20
2.8651263839
 30
0.0
 10
6.1188236592
 20
2.8966484991
 30
0.0
 10
6.1096807416
 20
2.9274949308
 30
0.0
 10
6.1020814433
 20
2.9502482415
 30
0.0
 10
6.0937729063
 20
2.9727428221
 30
0.0
 10
6.0848231894
 20
2.9950357419
 30
0.0
 10
6.0752224042
 20
3.0171241027
 30
0.0
 10
6.0649482552
 20
3.0389700069
 30
0.0
 10
6.0539878689
 20
3.0605258644
 30
0.0
 10
6.0423370677
 20
3.0817403041
 30
0.0
 10
6.0320514301
 20
3.0990934361
 30
0.0
 10
6.0234769329
 20
3.1127527631
 30
0.0
 10
6.0146766374
 20
3.1262456557
 30
0.0
 10
6.0032638394
 20
3.1428250397
 30
0.0
 10
5.9889795086
 20
3.1622947599
 30
0.0
 10
5.9741753918
 20
3.1813756204
 30
0.0
 10
5.9589179228
 20
3.2001090709
 30
0.0
 10
5.9432719726
 20
3.2185356271
 30
0.0
 10
5.9273077348
 20
3.2366992967
 30
0.0
 10
5.9110769002
 20
3.2546281725
 30
0.0
 10
5.8890075111
 20
3.2781044049
 30
0.0
 10
5.8661686108
 20
3.3008258822
 30
0.0
 10
5.8423621613
 20
3.3224832806
 30
0.0
 10
5.8239807085
 20
3.3381164645
 30
0.0
 10
5.8050183884
 20
3.3530571146
 30
0.0
 10
5.7855051328
 20
3.3672990104
 30
0.0
 10
5.7654865708
 20
3.3808496815
 30
0.0
 10
5.7381810427
 20
3.3979903979
 30
0.0
 10
5.7100673107
 20
3.4137906811
 30
0.0
 10
5.6813701339
 20
3.4284148247
 30
0.0
 10
5.6595916741
 20
3.4388041424
 30
0.0
 10
5.6375482473
 20
3.4486001253
 30
0.0
 10
5.6077832793
 20
3.4608717264
 30
0.0
 10
5.569863273
 20
3.4746793128
 30
0.0
 10
5.5311057724
 20
3.4861410478
 30
0.0
 10
5.4996597256
 20
3.4937632156
 30
0.0
 10
5.4759323503
 20
3.4986531476
 30
0.0
 10
5.4521238369
 20
3.502665518
 30
0.0
 10
5.4282680071
 20
3.5057487715
 30
0.0
 10
5.4043830961
 20
3.5078544411
 30
0.0
 10
5.3804675155
 20
3.5089377043
 30
0.0
 10
5.3564961674
 20
3.5089069622
 30
0.0
 10
5.3364835913
 20
3.5078742173
 30
0.0
 10
5.3204383303
 20
3.5064076106
 30
0.0
 10
5.3043007743
 20
3.5044773069
 30
0.0
 10
5.2882002685
 20
3.5017905076
 30
0.0
 10
5.272253159
 20
3.4982086313
 30
0.0
 10
5.2604170463
 20
3.4950038808
 30
0.0
 10
5.2487893114
 20
3.4912265305
 30
0.0
 10
5.2337520066
 20
3.4853806861
 30
0.0
 10
5.2194162807
 20
3.4780703773
 30
0.0
 10
5.2063735762
 20
3.4689510963
 30
0.0
 10
5.2003739072
 20
3.4637958698
 30
0.0
 10
5.1975272075
 20
3.4610739094
 30
0.0
  0
SPLINE
  5
2F8
100
AcDbEntity
  8
0
100
AcDbSpline
 62
7
  6
CONTINUOUS
 70
0
 71
3
 72
18
 73
14
 74
0
 42
0.0000001
 43
0.0000001
 44
0.0000000001
 40
0.0
 40
0.0
 40
0.0
 40
0.0
 40
0.1223362195
 40
0.1838270024
 40
0.2456445121
 40
0.3703847057
 40
0.4967141681
 40
0.5604475209
 40
0.6244886666
 40
0.688648317
 40
0.7526341953
 40
0.8787537388
 40
1.0
 40
1.0
 40
1.0
 40
1.0
 10
5.1975272075
 20
3.4610739094
 30
0.0
 10
5.1948460533
 20
3.4585102404
 30
0.0
 10
5.1910060138
 20
3.4544519061
 30
0.0
 10
5.1863288952
 20
3.4486514671
 30
0.0
 10
5.1819187974
 20
3.4425546198
 30
0.0
 10
5.1769369074
 20
3.4344623906
 30
0.0
 10
5.1726726481
 20
3.4259088734
 30
0.0
 10
5.1696556958
 20
3.4188171771
 30
0.0
 10
5.1675870314
 20
3.4133757521
 30
0.0
 10
5.1656980768
 20
3.4078618691
 30
0.0
 10
5.1633927173
 20
3.4005038118
 30
0.0
 10
5.1608443243
 20
3.3914115434
 30
0.0
 10
5.158944252
 20
3.3841555033
 30
0.0
 10
5.1579984065
 20
3.3806027231
 30
0.0
  0
SPLINE
  5
2F9
100
AcDbEntity
  8
0
100
AcDbSpline
 62
7
  6
CONTINUOUS
 70
0
 71
3
 72
69
 73
65
 74
0
 42
0.0000001
 43
0.0000001
 44
0.0000000001
 40
0.0
 40
0.0
 40
0.0
 40
0.0
 40
0.0156519502
 40
0.0234772251
 40
0.031300987
 40
0.0469471362
 40
0.0625812393
 40
0.0703981216
 40
0.078215103
 40
0.0860290707
 40
0.0938393085
 40
0.1016487852
 40
0.109458837
 40
0.1133640403
 40
0.1172692187
 40
0.1250794466
 40
0.1328895328
 40
0.1406995176
 40
0.1563193639
 40
0.1719393533
 40
0.1875595553
 40
0.2031800124
 40
0.2188006599
 40
0.2500419221
 40
0.2812836603
 40
0.3125254335
 40
0.3437660437
 40
0.3750066368
 40
0.4062513184
 40
0.4375015509
 40
0.4687522666
 40
0.5000025597
 40
0.5312556112
 40
0.5625083213
 40
0.5937589024
 40
0.6250114483
 40
0.6562644331
 40
0.6875157462
 40
0.7187670863
 40
0.7500180493
 40
0.7656434052
 40
0.7812680703
 40
0.796892713
 40
0.812517587
 40
0.8281424448
 40
0.8437666425
 40
0.8593902726
 40
0.8750136751
 40
0.8906364587
 40
0.8984473458
 40
0.9062576116
 40
0.9140672717
 40
0.9218772404
 40
0.92578273
 40
0.9296887191
 40
0.9375007221
 40
0.94531099
 40
0.9492159163
 40
0.9531213283
 40
0.9609339172
 40
0.9687486885
 40
0.9765636747
 40
0.9843763309
 40
1.0
 40
1.0
 40
1.0
 40
1.0
 10
5.3443714007
 20
3.9083335753
 30
0.0
 10
5.348558965
 20
3.8997406054
 30
0.0
 10
5.3557621698
 20
3.88728012
 30
0.0
 10
5.3668104428
 20
3.8716723183
 30
0.0
 10
5.3787338932
 20
3.8567222222
 30
0.0
 10
5.3950992092
 20
3.839269866
 30
0.0
 10
5.4129941279
 20
3.8234179403
 30
0.0
 10
5.4279887771
 20
3.8115886422
 30
0.0
 10
5.4395245434
 20
3.8030994203
 30
0.0
 10
5.451301001
 20
3.7949560897
 30
0.0
 10
5.4632707259
 20
3.7871088509
 30
0.0
 10
5.4753902987
 20
3.7795006248
 30
0.0
 10
5.4855695351
 20
3.7732899468
 30
0.0
 10
5.4937219594
 20
3.7683356573
 30
0.0
 10
5.501868569
 20
3.7633715746
 30
0.0
 10
5.5120400763
 20
3.7571475259
 30
0.0
 10
5.5242262629
 20
3.7496470283
 30
0.0
 10
5.5404469865
 20
3.7396023498
 30
0.0
 10
5.5606692601
 20
3.7269601538
 30
0.0
 10
5.584842639
 20
3.7116409164
 30
0.0
 10
5.6089194048
 20
3.6961695757
 30
0.0
 10
5.6328960636
 20
3.6805427552
 30
0.0
 10
5.6647247689
 20
3.659492908
 30
0.0
 10
5.7042328144
 20
3.6327617363
 30
0.0
 10
5.7511486601
 20
3.5999656272
 30
0.0
 10
5.797514886
 20
3.5663967849
 30
0.0
 10
5.8432665978
 20
3.5319954283
 30
0.0
 10
5.8883356744
 20
3.4967005703
 30
0.0
 10
5.9326431088
 20
3.4604437494
 30
0.0
 10
5.9760990796
 20
3.4231597364
 30
0.0
 10
6.0185921172
 20
3.3847751063
 30
0.0
 10
6.0600057053
 20
3.3452240808
 30
0.0
 10
6.1002164949
 20
3.3044472512
 30
0.0
 10
6.1390922721
 20
3.2623936123
 30
0.0
 10
6.1764928913
 20
3.2190210184
 30
0.0
 10
6.2122643583
 20
3.1742932444
 30
0.0
 10
6.2462886428
 20
3.1282207742
 30
0.0
 10
6.2784487411
 20
3.0808274547
 30
0.0
 10
6.3086285008
 20
3.0321508608
 30
0.0
 10
6.3321128611
 20
2.9905997585
 30
0.0
 10
6.3498849606
 20
2.9568162618
 30
0.0
 10
6.3627072233
 20
2.9312187584
 30
0.0
 10
6.3750338357
 20
2.9053795101
 30
0.0
 10
6.3868750429
 20
2.8793141936
 30
0.0
 10
6.3982419438
 20
2.853038972
 30
0.0
 10
6.4091440921
 20
2.826568473
 30
0.0
 10
6.4196006389
 20
2.7999199282
 30
0.0
 10
6.4296374268
 20
2.7731115861
 30
0.0
 10
6.4376724898
 20
2.7506516591
 30
0.0
 10
6.4439156875
 20
2.7326203776
 30
0.0
 10
6.448508849
 20
2.7190677064
 30
0.0
 10
6.4530156022
 20
2.7054866503
 30
0.0
 10
6.4566889644
 20
2.6941419521
 30
0.0
 10
6.4595719212
 20
2.6850475525
 30
0.0
 10
6.4624174969
 20
2.6759400986
 30
0.0
 10
6.4658727036
 20
2.6645247266
 30
0.0
 10
6.4690903202
 20
2.6530397741
 30
0.0
 10
6.4714597033
 20
2.6437984016
 30
0.0
 10
6.4736741245
 20
2.6345172428
 30
0.0
 10
6.4761628959
 20
2.6228484634
 30
0.0
 10
6.4787293393
 20
2.6087616463
 30
0.0
 10
6.4809047843
 20
2.594609256
 30
0.0
 10
6.4833204602
 20
2.5756752323
 30
0.0
 10
6.4846487133
 20
2.5614189277
 30
0.0
 10
6.4853774291
 20
2.5519050487
 30
0.0
  0
SPLINE
  5
2FA
100
AcDbEntity
  8
0
100
AcDbSpline
 62
7
  6
CONTINUOUS
 70
0
 71
3
 72
73
 73
69
 74
0
 42
0.0000001
 43
0.0000001
 44
0.0000000001
 40
0.0
 40
0.0
 40
0.0
 40
0.0
 40
0.0160795073
 40
0.023901719
 40
0.0315854788
 40
0.0466453409
 40
0.0615113447
 40
0.0689529483
 40
0.0764369368
 40
0.0915778255
 40
0.1069852442
 40
0.1226525054
 40
0.138528159
 40
0.1545176832
 40
0.1705016465
 40
0.1863805524
 40
0.2178151683
 40
0.2333913327
 40
0.248915761
 40
0.2644384267
 40
0.280000622
 40
0.2956078234
 40
0.3112511528
 40
0.3269228139
 40
0.3426091848
 40
0.358292814
 40
0.3661288592
 40
0.3739589697
 40
0.3896066417
 40
0.40524894
 40
0.4208946761
 40
0.4365486136
 40
0.4522119544
 40
0.4678828272
 40
0.4835557197
 40
0.4992224963
 40
0.5305167434
 40
0.5461479645
 40
0.5617765861
 40
0.5774145918
 40
0.5930658094
 40
0.6087279223
 40
0.6243968004
 40
0.6557278643
 40
0.6713747744
 40
0.687004254
 40
0.7026285426
 40
0.7182608212
 40
0.749584194
 40
0.7810308903
 40
0.7967701623
 40
0.8124733865
 40
0.8281147693
 40
0.8436944502
 40
0.8592212847
 40
0.8747124983
 40
0.8902172912
 40
0.9058024765
 40
0.9136487919
 40
0.921534784
 40
0.9373938571
 40
0.9453511061
 40
0.9532999469
 40
0.9612229032
 40
0.9691040853
 40
0.9846558482
 40
0.9923435311
 40
1.0
 40
1.0
 40
1.0
 40
1.0
 10
3.9485915472
 20
2.5926550943
 30
0.0
 10
3.9423324187
 20
2.5980627247
 30
0.0
 10
3.9333935509
 20
2.6065444322
 30
0.0
 10
3.9225201183
 20
2.6186263588
 30
0.0
 10
3.9126521824
 20
2.6308768778
 30
0.0
 10
3.9017994916
 20
2.6469478779
 30
0.0
 10
3.8929550091
 20
2.6640673014
 30
0.0
 10
3.8871276346
 20
2.6782493216
 30
0.0
 10
3.8820708475
 20
2.6928739046
 30
0.0
 10
3.8771857284
 20
2.7118567738
 30
0.0
 10
3.873450978
 20
2.7353655148
 30
0.0
 10
3.8716349544
 20
2.7594733922
 30
0.0
 10
3.8715532396
 20
2.783943011
 30
0.0
 10
3.8730147116
 20
2.8085281511
 30
0.0
 10
3.8758339932
 20
2.8329938986
 30
0.0
 10
3.8811669053
 20
2.8651263839
 30
0.0
 10
3.8886390737
 20
2.8966484991
 30
0.0
 10
3.8977819913
 20
2.9274949308
 30
0.0
 10
3.9053812896
 20
2.9502482415
 30
0.0
 10
3.9136898266
 20
2.9727428221
 30
0.0
 10
3.9226395436
 20
2.9950357419
 30
0.0
 10
3.9322403287
 20
3.0171241027
 30
0.0
 10
3.9425144778
 20
3.0389700069
 30
0.0
 10
3.9534748641
 20
3.0605258644
 30
0.0
 10
3.9651256652
 20
3.0817403041
 30
0.0
 10
3.9754113028
 20
3.0990934361
 30
0.0
 10
3.9839858
 20
3.1127527631
 30
0.0
 10
3.9927860955
 20
3.1262456557
 30
0.0
 10
4.0041988936
 20
3.1428250397
 30
0.0
 10
4.0184832243
 20
3.1622947599
 30
0.0
 10
4.0332873411
 20
3.1813756204
 30
0.0
 10
4.0485448101
 20
3.2001090709
 30
0.0
 10
4.0641907603
 20
3.2185356271
 30
0.0
 10
4.0801549982
 20
3.2366992967
 30
0.0
 10
4.0963858327
 20
3.2546281725
 30
0.0
 10
4.1184552218
 20
3.2781044049
 30
0.0
 10
4.1412941221
 20
3.3008258822
 30
0.0
 10
4.1651005716
 20
3.3224832806
 30
0.0
 10
4.1834820245
 20
3.3381164645
 30
0.0
 10
4.2024443445
 20
3.3530571146
 30
0.0
 10
4.2219576001
 20
3.3672990104
 30
0.0
 10
4.2419761621
 20
3.3808496815
 30
0.0
 10
4.2692816902
 20
3.3979903979
 30
0.0
 10
4.2973954222
 20
3.4137906811
 30
0.0
 10
4.3260925991
 20
3.4284148247
 30
0.0
 10
4.3478710588
 20
3.4388041424
 30
0.0
 10
4.3699144856
 20
3.4486001253
 30
0.0
 10
4.3996794536
 20
3.4608717264
 30
0.0
 10
4.4375994599
 20
3.4746793128
 30
0.0
 10
4.4763569606
 20
3.4861410478
 30
0.0
 10
4.5078030073
 20
3.4937632156
 30
0.0
 10
4.5315303826
 20
3.4986531476
 30
0.0
 10
4.5553388961
 20
3.502665518
 30
0.0
 10
4.5791947258
 20
3.5057487715
 30
0.0
 10
4.6030796368
 20
3.5078544411
 30
0.0
 10
4.6269952174
 20
3.5089377043
 30
0.0
 10
4.6509665655
 20
3.5089069622
 30
0.0
 10
4.6709791416
 20
3.5078742173
 30
0.0
 10
4.6870244026
 20
3.5064076106
 30
0.0
 10
4.7031619587
 20
3.5044773069
 30
0.0
 10
4.7192624644
 20
3.5017905076
 30
0.0
 10
4.735209574
 20
3.4982086313
 30
0.0
 10
4.7470456866
 20
3.4950038808
 30
0.0
 10
4.7586734215
 20
3.4912265305
 30
0.0
 10
4.7737107263
 20
3.4853806861
 30
0.0
 10
4.7880464522
 20
3.4780703773
 30
0.0
 10
4.8010891567
 20
3.4689510963
 30
0.0
 10
4.8070888257
 20
3.4637958698
 30
0.0
 10
4.8099355254
 20
3.4610739094
 30
0.0
  0
SPLINE
  5
2FB
100
AcDbEntity
  8
0
100
AcDbSpline
 62
7
  6
CONTINUOUS
 70
0
 71
3
 72
18
 73
14
 74
0
 42
0.0000001
 43
0.0000001
 44
0.0000000001
 40
0.0
 40
0.0
 40
0.0
 40
0.0
 40
0.1223362195
 40
0.1838270024
 40
0.2456445121
 40
0.3703847057
 40
0.4967141681
 40
0.5604475209
 40
0.6244886666
 40
0.688648317
 40
0.7526341953
 40
0.8787537388
 40
1.0
 40
1.0
 40
1.0
 40
1.0
 10
4.8099355254
 20
3.4610739094
 30
0.0
 10
4.8126166796
 20
3.4585102404
 30
0.0
 10
4.8164567192
 20
3.4544519061
 30
0.0
 10
4.8211338377
 20
3.4486514671
 30
0.0
 10
4.8255439355
 20
3.4425546198
 30
0.0
 10
4.8305258256
 20
3.4344623906
 30
0.0
 10
4.8347900848
 20
3.4259088734
 30
0.0
 10
4.8378070372
 20
3.4188171771
 30
0.0
 10
4.8398757015
 20
3.4133757521
 30
0.0
 10
4.8417646561
 20
3.4078618691
 30
0.0
 10
4.8440700156
 20
3.4005038118
 30
0.0
 10
4.8466184086
 20
3.3914115434
 30
0.0
 10
4.8485184809
 20
3.3841555033
 30
0.0
 10
4.8494643265
 20
3.3806027231
 30
0.0
  0
SPLINE
  5
2FC
100
AcDbEntity
  8
0
100
AcDbSpline
 62
7
  6
CONTINUOUS
 70
0
 71
3
 72
64
 73
60
 74
0
 42
0.0000001
 43
0.0000001
 44
0.0000000001
 40
0.0
 40
0.0
 40
0.0
 40
0.0
 40
0.0309412544
 40
0.0460108892
 40
0.0607218945
 40
0.0888410578
 40
0.1022207452
 40
0.1151434966
 40
0.1276299334
 40
0.1397199407
 40
0.1514848703
 40
0.1630451708
 40
0.1745314779
 40
0.1860713227
 40
0.197785189
 40
0.2097841121
 40
0.2221638514
 40
0.2349837275
 40
0.2482675458
 40
0.2620113949
 40
0.2907510444
 40
0.3207397915
 40
0.3513401217
 40
0.3819550544
 40
0.3971312651
 40
0.4121813851
 40
0.4271126359
 40
0.4419645362
 40
0.4567961728
 40
0.471686121
 40
0.4867346069
 40
0.5020625656
 40
0.5178023132
 40
0.5340366755
 40
0.550807055
 40
0.5681391312
 40
0.586046466
 40
0.6045316483
 40
0.6235513854
 40
0.643016459
 40
0.662827129
 40
0.6828782652
 40
0.7232514366
 40
0.7433602095
 40
0.7632540214
 40
0.7828207286
 40
0.8019576578
 40
0.8205852292
 40
0.8386696961
 40
0.8561982515
 40
0.8731768507
 40
0.8896359603
 40
0.9056420629
 40
0.9213247445
 40
0.9368344478
 40
0.9523193925
 40
0.967922066
 40
0.983776297
 40
1.0
 40
1.0
 40
1.0
 40
1.0
 10
4.3406556884
 20
2.9384847153
 30
0.0
 10
4.3397781347
 20
2.9457935381
 30
0.0
 10
4.339046693
 20
2.9567452108
 30
0.0
 10
4.3393350305
 20
2.9711960516
 30
0.0
 10
4.3404479234
 20
2.9849317407
 30
0.0
 10
4.3428223348
 20
2.9981479581
 30
0.0
 10
4.3465955536
 20
3.0105462984
 30
0.0
 10
4.3500202539
 20
3.0191289051
 30
0.0
 10
4.3540832873
 20
3.0270870044
 30
0.0
 10
4.3587840636
 20
3.0343632536
 30
0.0
 10
4.364127979
 20
3.0409012022
 30
0.0
 10
4.3700856188
 20
3.046681154
 30
0.0
 10
4.3766316982
 20
3.0516974547
 30
0.0
 10
4.3837417765
 20
3.0559461404
 30
0.0
 10
4.3913909138
 20
3.0594272685
 30
0.0
 10
4.3995560363
 20
3.0621323266
 30
0.0
 10
4.4081895717
 20
3.0641250805
 30
0.0
 10
4.4172499554
 20
3.065493036
 30
0.0
 10
4.4266993191
 20
3.0663162908
 30
0.0
 10
4.4399627572
 20
3.0668032733
 30
0.0
 10
4.4572107602
 20
3.0663996094
 30
0.0
 10
4.4784312297
 20
3.06526924
 30
0.0
 10
4.500115252
 20
3.0644120485
 30
0.0
 10
4.5183076734
 20
3.0646851992
 30
0.0
 10
4.532735308
 20
3.0659337402
 30
0.0
 10
4.5433733107
 20
3.0674880548
 30
0.0
 10
4.5538032046
 20
3.0697714871
 30
0.0
 10
4.563962543
 20
3.0728909186
 30
0.0
 10
4.5738001335
 20
3.0768894124
 30
0.0
 10
4.5832644477
 20
3.0818115313
 30
0.0
 10
4.5923019321
 20
3.087701117
 30
0.0
 10
4.6008587645
 20
3.094598969
 30
0.0
 10
4.6088630248
 20
3.1025366071
 30
0.0
 10
4.6162836205
 20
3.111470125
 30
0.0
 10
4.6230925174
 20
3.1213399301
 30
0.0
 10
4.6292533682
 20
3.1320863562
 30
0.0
 10
4.6347312838
 20
3.1436484124
 30
0.0
 10
4.6394828849
 20
3.1559577096
 30
0.0
 10
4.6434843723
 20
3.1689178619
 30
0.0
 10
4.6467231207
 20
3.1824126695
 30
0.0
 10
4.6491784473
 20
3.1963211443
 30
0.0
 10
4.6513864807
 20
3.2152900952
 30
0.0
 10
4.6519326131
 20
3.2344944464
 30
0.0
 10
4.6508014421
 20
3.2535917009
 30
0.0
 10
4.6491162662
 20
3.2676729105
 30
0.0
 10
4.6465928147
 20
3.2813934164
 30
0.0
 10
4.6432294936
 20
3.2946236202
 30
0.0
 10
4.6390214732
 20
3.3072401539
 30
0.0
 10
4.6339929742
 20
3.3191398251
 30
0.0
 10
4.6281652855
 20
3.330230115
 30
0.0
 10
4.6215578479
 20
3.3404190805
 30
0.0
 10
4.6141899694
 20
3.3496171909
 30
0.0
 10
4.6060681557
 20
3.3577301368
 30
0.0
 10
4.5972441232
 20
3.3647156209
 30
0.0
 10
4.5877722602
 20
3.3705612316
 30
0.0
 10
4.5777015688
 20
3.3752551132
 30
0.0
 10
4.5670819153
 20
3.3787896345
 30
0.0
 10
4.5559641739
 20
3.3811498567
 30
0.0
 10
4.548359567
 20
3.3819480874
 30
0.0
 10
4.5445063012
 20
3.3821730119
 30
0.0
  0
SPLINE
  5
2FD
100
AcDbEntity
  8
0
100
AcDbSpline
 62
7
  6
CONTINUOUS
 70
0
 71
3
 72
36
 73
32
 74
0
 42
0.0000001
 43
0.0000001
 44
0.0000000001
 40
0.0
 40
0.0
 40
0.0
 40
0.0
 40
0.030189176
 40
0.045881369
 40
0.061977426
 40
0.0953362327
 40
0.1300952352
 40
0.1659242238
 40
0.2024065821
 40
0.2391421231
 40
0.2757338375
 40
0.3117666401
 40
0.3469771339
 40
0.381226009
 40
0.4143805102
 40
0.4774375296
 40
0.5075786422
 40
0.5369881903
 40
0.565880071
 40
0.5944723814
 40
0.622963292
 40
0.6515108858
 40
0.6802562615
 40
0.7092755545
 40
0.7678751958
 40
0.8266641065
 40
0.8558964764
 40
0.8849065907
 40
0.9423927296
 40
0.9710425377
 40
1.0
 40
1.0
 40
1.0
 40
1.0
 10
4.5445063012
 20
3.3821730119
 30
0.0
 10
4.5377529135
 20
3.3825672234
 30
0.0
 10
4.5274269053
 20
3.3823323382
 30
0.0
 10
4.5136356907
 20
3.3806585238
 30
0.0
 10
4.4992678758
 20
3.3780248172
 30
0.0
 10
4.4810243106
 20
3.3730631961
 30
0.0
 10
4.4591659227
 20
3.3649462909
 30
0.0
 10
4.4373353147
 20
3.3549482842
 30
0.0
 10
4.4157809927
 20
3.343408904
 30
0.0
 10
4.3947329062
 20
3.3306429194
 30
0.0
 10
4.3743996871
 20
3.3169502863
 30
0.0
 10
4.3549421104
 20
3.3026102652
 30
0.0
 10
4.33650135
 20
3.2878098768
 30
0.0
 10
4.3191829424
 20
3.2726720894
 30
0.0
 10
4.2980129743
 20
3.2525033836
 30
0.0
 10
4.2788336483
 20
3.2316016158
 30
0.0
 10
4.2619176853
 20
3.2099380264
 30
0.0
 10
4.2505925836
 20
3.1936610596
 30
0.0
 10
4.2403911413
 20
3.1770635219
 30
0.0
 10
4.2312592901
 20
3.1600876224
 30
0.0
 10
4.2231381128
 20
3.1426916556
 30
0.0
 10
4.2159517028
 20
3.1248534773
 30
0.0
 10
4.2096337399
 20
3.1065651979
 30
0.0
 10
4.2022704953
 20
3.0815431276
 30
0.0
 10
4.1950769749
 20
3.0494923273
 30
0.0
 10
4.1904063664
 20
3.0169380594
 30
0.0
 10
4.1881216356
 20
2.9908077959
 30
0.0
 10
4.1868018184
 20
2.9649043298
 30
0.0
 10
4.1869475088
 20
2.939070781
 30
0.0
 10
4.1886595688
 20
2.9133318743
 30
0.0
 10
4.1900266841
 20
2.9004916952
 30
0.0
 10
4.1908309459
 20
2.8940528528
 30
0.0
  0
SPLINE
  5
2FE
100
AcDbEntity
  8
0
100
AcDbSpline
 62
7
  6
CONTINUOUS
 70
0
 71
3
 72
64
 73
60
 74
0
 42
0.0000001
 43
0.0000001
 44
0.0000000001
 40
0.0
 40
0.0
 40
0.0
 40
0.0
 40
0.0309412544
 40
0.0460108892
 40
0.0607218945
 40
0.0888410578
 40
0.1022207452
 40
0.1151434966
 40
0.1276299334
 40
0.1397199407
 40
0.1514848703
 40
0.1630451708
 40
0.1745314779
 40
0.1860713227
 40
0.197785189
 40
0.2097841121
 40
0.2221638514
 40
0.2349837275
 40
0.2482675458
 40
0.2620113949
 40
0.2907510444
 40
0.3207397915
 40
0.3513401217
 40
0.3819550544
 40
0.3971312651
 40
0.4121813851
 40
0.4271126359
 40
0.4419645362
 40
0.4567961728
 40
0.471686121
 40
0.4867346069
 40
0.5020625656
 40
0.5178023132
 40
0.5340366755
 40
0.550807055
 40
0.5681391312
 40
0.586046466
 40
0.6045316483
 40
0.6235513854
 40
0.643016459
 40
0.662827129
 40
0.6828782652
 40
0.7232514366
 40
0.7433602095
 40
0.7632540214
 40
0.7828207286
 40
0.8019576578
 40
0.8205852292
 40
0.8386696961
 40
0.8561982515
 40
0.8731768507
 40
0.8896359603
 40
0.9056420629
 40
0.9213247445
 40
0.9368344478
 40
0.9523193925
 40
0.967922066
 40
0.983776297
 40
1.0
 40
1.0
 40
1.0
 40
1.0
 10
3.4678907712
 20
3.8112496325
 30
0.0
 10
3.475199594
 20
3.8103720788
 30
0.0
 10
3.4861512667
 20
3.8096406371
 30
0.0
 10
3.5006021075
 20
3.8099289746
 30
0.0
 10
3.5143377966
 20
3.8110418675
 30
0.0
 10
3.527554014
 20
3.8134162789
 30
0.0
 10
3.5399523543
 20
3.8171894977
 30
0.0
 10
3.548534961
 20
3.820614198
 30
0.0
 10
3.5564930603
 20
3.8246772314
 30
0.0
 10
3.5637693095
 20
3.8293780077
 30
0.0
 10
3.5703072581
 20
3.8347219231
 30
0.0
 10
3.5760872099
 20
3.8406795629
 30
0.0
 10
3.5811035106
 20
3.8472256423
 30
0.0
 10
3.5853521963
 20
3.8543357206
 30
0.0
 10
3.5888333244
 20
3.8619848579
 30
0.0
 10
3.5915383825
 20
3.8701499804
 30
0.0
 10
3.5935311364
 20
3.8787835158
 30
0.0
 10
3.5948990919
 20
3.8878438995
 30
0.0
 10
3.5957223467
 20
3.8972932632
 30
0.0
 10
3.5962093292
 20
3.9105567013
 30
0.0
 10
3.5958056653
 20
3.9278047043
 30
0.0
 10
3.5946752959
 20
3.9490251738
 30
0.0
 10
3.5938181044
 20
3.970709196
 30
0.0
 10
3.5940912551
 20
3.9889016175
 30
0.0
 10
3.5953397961
 20
4.0033292521
 30
0.0
 10
3.5968941107
 20
4.0139672548
 30
0.0
 10
3.599177543
 20
4.0243971487
 30
0.0
 10
3.6022969745
 20
4.0345564871
 30
0.0
 10
3.6062954683
 20
4.0443940776
 30
0.0
 10
3.6112175872
 20
4.0538583918
 30
0.0
 10
3.6171071729
 20
4.0628958762
 30
0.0
 10
3.6240050249
 20
4.0714527086
 30
0.0
 10
3.631942663
 20
4.0794569689
 30
0.0
 10
3.6408761809
 20
4.0868775646
 30
0.0
 10
3.650745986
 20
4.0936864615
 30
0.0
 10
3.6614924121
 20
4.0998473123
 30
0.0
 10
3.6730544683
 20
4.1053252279
 30
0.0
 10
3.6853637655
 20
4.110076829
 30
0.0
 10
3.6983239178
 20
4.1140783164
 30
0.0
 10
3.7118187254
 20
4.1173170647
 30
0.0
 10
3.7257272002
 20
4.1197723914
 30
0.0
 10
3.7446961511
 20
4.1219804248
 30
0.0
 10
3.7639005023
 20
4.1225265572
 30
0.0
 10
3.7829977568
 20
4.1213953862
 30
0.0
 10
3.7970789664
 20
4.1197102103
 30
0.0
 10
3.8107994723
 20
4.1171867588
 30
0.0
 10
3.8240296761
 20
4.1138234377
 30
0.0
 10
3.8366462098
 20
4.1096154173
 30
0.0
 10
3.848545881
 20
4.1045869183
 30
0.0
 10
3.8596361709
 20
4.0987592296
 30
0.0
 10
3.8698251364
 20
4.092151792
 30
0.0
 10
3.8790232468
 20
4.0847839135
 30
0.0
 10
3.8871361927
 20
4.0766620998
 30
0.0
 10
3.8941216768
 20
4.0678380673
 30
0.0
 10
3.8999672875
 20
4.0583662043
 30
0.0
 10
3.9046611691
 20
4.0482955129
 30
0.0
 10
3.9081956904
 20
4.0376758594
 30
0.0
 10
3.9105559126
 20
4.026558118
 30
0.0
 10
3.9113541433
 20
4.0189535111
 30
0.0
 10
3.9115790678
 20
4.0151002453
 30
0.0
  0
SPLINE
  5
2FF
100
AcDbEntity
  8
0
100
AcDbSpline
 62
7
  6
CONTINUOUS
 70
0
 71
3
 72
36
 73
32
 74
0
 42
0.0000001
 43
0.0000001
 44
0.0000000001
 40
0.0
 40
0.0
 40
0.0
 40
0.0
 40
0.030189176
 40
0.045881369
 40
0.061977426
 40
0.0953362327
 40
0.1300952352
 40
0.1659242238
 40
0.2024065821
 40
0.2391421231
 40
0.2757338375
 40
0.3117666401
 40
0.3469771339
 40
0.381226009
 40
0.4143805102
 40
0.4774375296
 40
0.5075786422
 40
0.5369881903
 40
0.565880071
 40
0.5944723814
 40
0.622963292
 40
0.6515108858
 40
0.6802562615
 40
0.7092755545
 40
0.7678751958
 40
0.8266641065
 40
0.8558964764
 40
0.8849065907
 40
0.9423927296
 40
0.9710425377
 40
1.0
 40
1.0
 40
1.0
 40
1.0
 10
3.9115790678
 20
4.0151002453
 30
0.0
 10
3.9119732793
 20
4.0083468576
 30
0.0
 10
3.9117383941
 20
3.9980208494
 30
0.0
 10
3.9100645797
 20
3.9842296348
 30
0.0
 10
3.9074308731
 20
3.9698618199
 30
0.0
 10
3.902469252
 20
3.9516182547
 30
0.0
 10
3.8943523468
 20
3.9297598668
 30
0.0
 10
3.8843543401
 20
3.9079292588
 30
0.0
 10
3.8728149599
 20
3.8863749368
 30
0.0
 10
3.8600489753
 20
3.8653268503
 30
0.0
 10
3.8463563422
 20
3.8449936312
 30
0.0
 10
3.8320163211
 20
3.8255360545
 30
0.0
 10
3.8172159327
 20
3.8070952941
 30
0.0
 10
3.8020781453
 20
3.7897768865
 30
0.0
 10
3.7819094395
 20
3.7686069184
 30
0.0
 10
3.7610076717
 20
3.7494275924
 30
0.0
 10
3.7393440823
 20
3.7325116294
 30
0.0
 10
3.7230671155
 20
3.7211865277
 30
0.0
 10
3.7064695778
 20
3.7109850854
 30
0.0
 10
3.6894936783
 20
3.7018532342
 30
0.0
 10
3.6720977115
 20
3.6937320569
 30
0.0
 10
3.6542595332
 20
3.6865456469
 30
0.0
 10
3.6359712538
 20
3.680227684
 30
0.0
 10
3.6109491835
 20
3.6728644394
 30
0.0
 10
3.5788983832
 20
3.665670919
 30
0.0
 10
3.5463441153
 20
3.6610003105
 30
0.0
 10
3.5202138518
 20
3.6587155797
 30
0.0
 10
3.4943103857
 20
3.6573957625
 30
0.0
 10
3.4684768369
 20
3.6575414529
 30
0.0
 10
3.4427379302
 20
3.6592535129
 30
0.0
 10
3.4298977511
 20
3.6606206282
 30
0.0
 10
3.4234589087
 20
3.66142489
 30
0.0
  0
SPLINE
  5
300
100
AcDbEntity
  8
0
100
AcDbSpline
 62
7
  6
CONTINUOUS
 70
0
 71
3
 72
73
 73
69
 74
0
 42
0.0000001
 43
0.0000001
 44
0.0000000001
 40
0.0
 40
0.0
 40
0.0
 40
0.0
 40
0.0160795073
 40
0.023901719
 40
0.0315854788
 40
0.0466453409
 40
0.0615113447
 40
0.0689529483
 40
0.0764369368
 40
0.0915778255
 40
0.1069852442
 40
0.1226525054
 40
0.138528159
 40
0.1545176832
 40
0.1705016465
 40
0.1863805524
 40
0.2178151683
 40
0.2333913327
 40
0.248915761
 40
0.2644384267
 40
0.280000622
 40
0.2956078234
 40
0.3112511528
 40
0.3269228139
 40
0.3426091848
 40
0.358292814
 40
0.3661288592
 40
0.3739589697
 40
0.3896066417
 40
0.40524894
 40
0.4208946761
 40
0.4365486136
 40
0.4522119544
 40
0.4678828272
 40
0.4835557197
 40
0.4992224963
 40
0.5305167434
 40
0.5461479645
 40
0.5617765861
 40
0.5774145918
 40
0.5930658094
 40
0.6087279223
 40
0.6243968004
 40
0.6557278643
 40
0.6713747744
 40
0.687004254
 40
0.7026285426
 40
0.7182608212
 40
0.749584194
 40
0.7810308903
 40
0.7967701623
 40
0.8124733865
 40
0.8281147693
 40
0.8436944502
 40
0.8592212847
 40
0.8747124983
 40
0.8902172912
 40
0.9058024765
 40
0.9136487919
 40
0.921534784
 40
0.9373938571
 40
0.9453511061
 40
0.9532999469
 40
0.9612229032
 40
0.9691040853
 40
0.9846558482
 40
0.9923435311
 40
1.0
 40
1.0
 40
1.0
 40
1.0
 10
3.1220611502
 20
3.4191854913
 30
0.0
 10
3.1274687806
 20
3.4129263628
 30
0.0
 10
3.1359504881
 20
3.403987495
 30
0.0
 10
3.1480324147
 20
3.3931140624
 30
0.0
 10
3.1602829337
 20
3.3832461265
 30
0.0
 10
3.1763539338
 20
3.3723934357
 30
0.0
 10
3.1934733573
 20
3.3635489532
 30
0.0
 10
3.2076553775
 20
3.3577215787
 30
0.0
 10
3.2222799605
 20
3.3526647916
 30
0.0
 10
3.2412628297
 20
3.3477796725
 30
0.0
 10
3.2647715707
 20
3.3440449221
 30
0.0
 10
3.2888794481
 20
3.3422288985
 30
0.0
 10
3.3133490669
 20
3.3421471837
 30
0.0
 10
3.337934207
 20
3.3436086557
 30
0.0
 10
3.3623999545
 20
3.3464279373
 30
0.0
 10
3.3945324398
 20
3.3517608494
 30
0.0
 10
3.426054555
 20
3.3592330178
 30
0.0
 10
3.4569009867
 20
3.3683759354
 30
0.0
 10
3.4796542974
 20
3.3759752337
 30
0.0
 10
3.502148878
 20
3.3842837707
 30
0.0
 10
3.5244417978
 20
3.3932334877
 30
0.0
 10
3.5465301586
 20
3.4028342728
 30
0.0
 10
3.5683760628
 20
3.4131084219
 30
0.0
 10
3.5899319203
 20
3.4240688082
 30
0.0
 10
3.61114636
 20
3.4357196093
 30
0.0
 10
3.628499492
 20
3.4460052469
 30
0.0
 10
3.642158819
 20
3.4545797441
 30
0.0
 10
3.6556517116
 20
3.4633800396
 30
0.0
 10
3.6722310956
 20
3.4747928377
 30
0.0
 10
3.6917008158
 20
3.4890771684
 30
0.0
 10
3.7107816763
 20
3.5038812852
 30
0.0
 10
3.7295151268
 20
3.5191387542
 30
0.0
 10
3.747941683
 20
3.5347847044
 30
0.0
 10
3.7661053526
 20
3.5507489423
 30
0.0
 10
3.7840342284
 20
3.5669797768
 30
0.0
 10
3.8075104608
 20
3.5890491659
 30
0.0
 10
3.8302319381
 20
3.6118880662
 30
0.0
 10
3.8518893365
 20
3.6356945157
 30
0.0
 10
3.8675225204
 20
3.6540759686
 30
0.0
 10
3.8824631705
 20
3.6730382886
 30
0.0
 10
3.8967050663
 20
3.6925515442
 30
0.0
 10
3.9102557374
 20
3.7125701062
 30
0.0
 10
3.9273964538
 20
3.7398756343
 30
0.0
 10
3.943196737
 20
3.7679893663
 30
0.0
 10
3.9578208806
 20
3.7966865432
 30
0.0
 10
3.9682101983
 20
3.8184650029
 30
0.0
 10
3.9780061812
 20
3.8405084297
 30
0.0
 10
3.9902777823
 20
3.8702733977
 30
0.0
 10
4.0040853687
 20
3.908193404
 30
0.0
 10
4.0155471037
 20
3.9469509047
 30
0.0
 10
4.0231692715
 20
3.9783969514
 30
0.0
 10
4.0280592035
 20
4.0021243267
 30
0.0
 10
4.0320715739
 20
4.0259328402
 30
0.0
 10
4.0351548274
 20
4.0497886699
 30
0.0
 10
4.037260497
 20
4.0736735809
 30
0.0
 10
4.0383437602
 20
4.0975891615
 30
0.0
 10
4.0383130181
 20
4.1215605096
 30
0.0
 10
4.0372802732
 20
4.1415730857
 30
0.0
 10
4.0358136665
 20
4.1576183467
 30
0.0
 10
4.0338833628
 20
4.1737559028
 30
0.0
 10
4.0311965635
 20
4.1898564085
 30
0.0
 10
4.0276146872
 20
4.2058035181
 30
0.0
 10
4.0244099367
 20
4.2176396307
 30
0.0
 10
4.0206325864
 20
4.2292673656
 30
0.0
 10
4.014786742
 20
4.2443046704
 30
0.0
 10
4.0074764332
 20
4.2586403963
 30
0.0
 10
3.9983571522
 20
4.2716831008
 30
0.0
 10
3.9932019257
 20
4.2776827698
 30
0.0
 10
3.9904799653
 20
4.2805294695
 30
0.0
  0
SPLINE
  5
301
100
AcDbEntity
  8
0
100
AcDbSpline
 62
7
  6
CONTINUOUS
 70
0
 71
3
 72
18
 73
14
 74
0
 42
0.0000001
 43
0.0000001
 44
0.0000000001
 40
0.0
 40
0.0
 40
0.0
 40
0.0
 40
0.1223362195
 40
0.1838270024
 40
0.2456445121
 40
0.3703847057
 40
0.4967141681
 40
0.5604475209
 40
0.6244886666
 40
0.688648317
 40
0.7526341953
 40
0.8787537388
 40
1.0
 40
1.0
 40
1.0
 40
1.0
 10
3.9904799653
 20
4.2805294695
 30
0.0
 10
3.9879162963
 20
4.2832106237
 30
0.0
 10
3.983857962
 20
4.2870506633
 30
0.0
 10
3.978057523
 20
4.2917277818
 30
0.0
 10
3.9719606757
 20
4.2961378796
 30
0.0
 10
3.9638684465
 20
4.3011197697
 30
0.0
 10
3.9553149293
 20
4.3053840289
 30
0.0
 10
3.948223233
 20
4.3084009813
 30
0.0
 10
3.942781808
 20
4.3104696456
 30
0.0
 10
3.937267925
 20
4.3123586002
 30
0.0
 10
3.9299098677
 20
4.3146639597
 30
0.0
 10
3.9208175993
 20
4.3172123527
 30
0.0
 10
3.9135615592
 20
4.319112425
 30
0.0
 10
3.910008779
 20
4.3200582706
 30
0.0
  0
SPLINE
  5
302
100
AcDbEntity
  8
0
100
AcDbSpline
 62
7
  6
CONTINUOUS
 70
0
 71
3
 72
69
 73
65
 74
0
 42
0.0000001
 43
0.0000001
 44
0.0000000001
 40
0.0
 40
0.0
 40
0.0
 40
0.0
 40
0.0156519502
 40
0.0234772251
 40
0.031300987
 40
0.0469471362
 40
0.0625812393
 40
0.0703981216
 40
0.078215103
 40
0.0860290707
 40
0.0938393085
 40
0.1016487852
 40
0.109458837
 40
0.1133640403
 40
0.1172692187
 40
0.1250794466
 40
0.1328895328
 40
0.1406995176
 40
0.1563193639
 40
0.1719393533
 40
0.1875595553
 40
0.2031800124
 40
0.2188006599
 40
0.2500419221
 40
0.2812836603
 40
0.3125254335
 40
0.3437660437
 40
0.3750066368
 40
0.4062513184
 40
0.4375015509
 40
0.4687522666
 40
0.5000025597
 40
0.5312556112
 40
0.5625083213
 40
0.5937589024
 40
0.6250114483
 40
0.6562644331
 40
0.6875157462
 40
0.7187670863
 40
0.7500180493
 40
0.7656434052
 40
0.7812680703
 40
0.796892713
 40
0.812517587
 40
0.8281424448
 40
0.8437666425
 40
0.8593902726
 40
0.8750136751
 40
0.8906364587
 40
0.8984473458
 40
0.9062576116
 40
0.9140672717
 40
0.9218772404
 40
0.92578273
 40
0.9296887191
 40
0.9375007221
 40
0.94531099
 40
0.9492159163
 40
0.9531213283
 40
0.9609339172
 40
0.9687486885
 40
0.9765636747
 40
0.9843763309
 40
1.0
 40
1.0
 40
1.0
 40
1.0
 10
4.4377396312
 20
4.1336852763
 30
0.0
 10
4.4291466613
 20
4.129497712
 30
0.0
 10
4.4166861759
 20
4.1222945073
 30
0.0
 10
4.4010783742
 20
4.1112462342
 30
0.0
 10
4.3861282781
 20
4.0993227838
 30
0.0
 10
4.3686759219
 20
4.0829574678
 30
0.0
 10
4.3528239962
 20
4.0650625491
 30
0.0
 10
4.3409946981
 20
4.0500678999
 30
0.0
 10
4.3325054762
 20
4.0385321336
 30
0.0
 10
4.3243621456
 20
4.026755676
 30
0.0
 10
4.3165149068
 20
4.0147859511
 30
0.0
 10
4.3089066807
 20
4.0026663783
 30
0.0
 10
4.3026960027
 20
3.992487142
 30
0.0
 10
4.2977417132
 20
3.9843347176
 30
0.0
 10
4.2927776305
 20
3.976188108
 30
0.0
 10
4.2865535818
 20
3.9660166008
 30
0.0
 10
4.2790530842
 20
3.9538304141
 30
0.0
 10
4.2690084057
 20
3.9376096905
 30
0.0
 10
4.2563662097
 20
3.9173874169
 30
0.0
 10
4.2410469723
 20
3.893214038
 30
0.0
 10
4.2255756316
 20
3.8691372722
 30
0.0
 10
4.2099488111
 20
3.8451606134
 30
0.0
 10
4.1888989639
 20
3.8133319081
 30
0.0
 10
4.1621677922
 20
3.7738238626
 30
0.0
 10
4.1293716831
 20
3.7269080169
 30
0.0
 10
4.0958028408
 20
3.680541791
 30
0.0
 10
4.0614014842
 20
3.6347900792
 30
0.0
 10
4.0261066262
 20
3.5897210026
 30
0.0
 10
3.9898498053
 20
3.5454135682
 30
0.0
 10
3.9525657923
 20
3.5019575974
 30
0.0
 10
3.9141811622
 20
3.4594645599
 30
0.0
 10
3.8746301367
 20
3.4180509717
 30
0.0
 10
3.8338533071
 20
3.3778401821
 30
0.0
 10
3.7917996682
 20
3.3389644049
 30
0.0
 10
3.7484270743
 20
3.3015637857
 30
0.0
 10
3.7036993003
 20
3.2657923187
 30
0.0
 10
3.6576268301
 20
3.2317680342
 30
0.0
 10
3.6102335106
 20
3.1996079359
 30
0.0
 10
3.5615569167
 20
3.1694281762
 30
0.0
 10
3.5200058144
 20
3.1459438159
 30
0.0
 10
3.4862223177
 20
3.1281717164
 30
0.0
 10
3.4606248143
 20
3.1153494537
 30
0.0
 10
3.434785566
 20
3.1030228414
 30
0.0
 10
3.4087202495
 20
3.0911816342
 30
0.0
 10
3.3824450279
 20
3.0798147332
 30
0.0
 10
3.3559745289
 20
3.0689125849
 30
0.0
 10
3.3293259841
 20
3.0584560381
 30
0.0
 10
3.302517642
 20
3.0484192503
 30
0.0
 10
3.280057715
 20
3.0403841872
 30
0.0
 10
3.2620264335
 20
3.0341409895
 30
0.0
 10
3.2484737623
 20
3.029547828
 30
0.0
 10
3.2348927062
 20
3.0250410748
 30
0.0
 10
3.223548008
 20
3.0213677126
 30
0.0
 10
3.2144536084
 20
3.0184847558
 30
0.0
 10
3.2053461545
 20
3.0156391802
 30
0.0
 10
3.1939307825
 20
3.0121839734
 30
0.0
 10
3.18244583
 20
3.0089663568
 30
0.0
 10
3.1732044575
 20
3.0065969737
 30
0.0
 10
3.1639232987
 20
3.0043825525
 30
0.0
 10
3.1522545193
 20
3.0018937811
 30
0.0
 10
3.1381677022
 20
2.9993273377
 30
0.0
 10
3.1240153119
 20
2.9971518927
 30
0.0
 10
3.1050812882
 20
2.9947362168
 30
0.0
 10
3.0908249836
 20
2.9934079637
 30
0.0
 10
3.0813111046
 20
2.9926792479
 30
0.0
  0
ENDSEC
  0
SECTION
  2
OBJECTS
  0
DICTIONARY
  5
C
100
AcDbDictionary
280
0
281
1
  3
ACAD_GROUP
350
D
  3
ACAD_MLINESTYLE
350
17
  3
ACAD_LAYOUT
350
1A
  3
ACAD_PLOTSETTINGS
350
19
  3
ACAD_PLOTSTYLENAME
350
E
  0
DICTIONARY
  5
D
102
{ACAD_REACTORS
330
C
102
}
100
AcDbDictionary
280
0
281
1
  0
ACDBDICTIONARYWDFLT
  5
E
102
{ACAD_REACTORS
330
C
102
}
100
AcDbDictionary
281
1
  3
Normal
350
F
100
AcDbDictionaryWithDefault
340
F
  0
DICTIONARY
  5
17
102
{ACAD_REACTORS
330
C
102
}
100
AcDbDictionary
280
0
281
1
  3
Standard
350
18
  0
DICTIONARY
  5
19
102
{ACAD_REACTORS
330
C
102
}
100
AcDbDictionary
281
1
  0
DICTIONARY
  5
1A
102
{ACAD_REACTORS
330
C
102
}
100
AcDbDictionary
281
1
  3
Model
350
303
  3
Layout1
350
304
  0
ACDBPLACEHOLDER
  5
F
102
{ACAD_REACTORS
330
E
102
}
  0
MLINESTYLE
  5
18
102
{ACAD_REACTORS
330
17
102
}
100
AcDbMlineStyle
  2
STANDARD
 70
0
  3

 62
256
 51
90.0
 52
90.0
 71
2
 49
0.5
 62
256
  6
BYLAYER
 49
-0.5
 62
256
  6
BYLAYER
  0
LAYOUT
  5
303
102
{ACAD_REACTORS
330
1A
102
}
100
AcDbPlotSettings
  1

  2
none_device
  4
ANSI_A_(11.00_x_8.50_Inches)
  6

 40
0.0
 41
0.0
 42
0.0
 43
0.0
 44
279.4
 45
215.9
 46
0.0
 47
0.0
 48
0.0
 49
0.0
140
0.0
141
0.0
142
1.0
143
1.0
 70
1024
 72
0
 73
0
 74
0
  7

 75
0
147
1.0
148
0.0
149
0.0
100
AcDbLayout
  1
Model
 70
0
 71
0
 10
0.0
 20
0.0
 11
11.0
 21
8.5
 12
0.0
 22
0.0
 32
0.0
 14
0.0
 24
0.0
 34
0.0
 15
0.0
 25
0.0
 35
0.0
146
0.0
 13
0.0
 23
0.0
 33
0.0
 16
1.0
 26
0.0
 36
0.0
 17
0.0
 27
1.0
 37
0.0
 76
0
330
207
345
0
346
0
  0
LAYOUT
  5
304
102
{ACAD_REACTORS
330
1A
102
}
100
AcDbPlotSettings
  1

  2
none_device
  4
ANSI_A_(11.00_x_8.50_Inches)
  6

 40
0.0
 41
0.0
 42
0.0
 43
0.0
 44
279.4
 45
215.9
 46
0.0
 47
0.0
 48
0.0
 49
0.0
140
0.0
141
0.0
142
1.0
143
1.0
 70
0
 72
0
 73
0
 74
0
  7

 75
0
147
1.0
148
0.0
149
0.0
100
AcDbLayout
  1
Layout1
 70
0
 71
1
 10
0.0
 20
0.0
 11
11.0
 21
8.5
 12
0.0
 22
0.0
 32
0.0
 14
0.0
 24
0.0
 34
0.0
 15
0.0
 25
0.0
 35
0.0
146
0.0
 13
0.0
 23
0.0
 33
0.0
 16
1.0
 26
0.0
 36
0.0
 17
0.0
 27
1.0
 37
0.0
 76
0
330
208
345
0
346
0
  0
ENDSEC
  0
EOF
