999
DXF file: 233-607_front.dxf
999
Pro/ENGINEER 2018400 by Parametric Technology Corporation
  0
SECTION
  2
HEADER
  9
$ACADVER
  1
AC1027
  9
$DWGCODEPAGE
  3
ANSI_1252
  9
$EXTMAX
 10
11.0
 20
8.5
 30
0.0
  9
$EXTMIN
 10
0.0
 20
0.0
 30
0.0
  9
$LIMMIN
 10
0.0
 20
0.0
  9
$LIMMAX
 10
11.0
 20
8.5
  9
$VIEWCTR
 10
5.5
 20
4.25
  9
$VIEWSIZE
 40
8.5
  9
$CLAYER
  8
0
  9
$LTSCALE
 40
0.605
  9
$CELTYPE
  6
BYLAYER
  9
$DIMSCALE
 40
1.0
  9
$DIMASZ
 40
0.1
  9
$DIMEXO
 40
0.0625
  9
$DIMDLI
 40
0.418
  9
$DIMEXE
 40
0.125
  9
$DIMCEN
 40
0.099
  9
$DIMLFAC
 40
1.0
  9
$DIMBLK
  1
_FILLED
  9
$DIMALT
 70
1
  9
$DIMALTD
 70
1
  9
$DIMALTTD
 70
2
  9
$DIMALTF
 40
25.4
  9
$DIMTXT
 40
0.08
  9
$DIMTOL
 70
1
  9
$DIMLIM
 70
0
  9
$DIMTFAC
 40
1.0
  9
$DIMTP
 40
0.01
  9
$DIMTM
 40
0.01
  9
$DIMGAP
 40
0.09
  9
$DIMDSEP
 70
46
  9
$AUNITS
 70
0
  9
$PDMODE
 70
3
  9
$PDSIZE
 40
0.3125
  9
$HANDSEED
  5
8D1
  9
$TILEMODE
 70
1
  9
$MEASUREMENT
 70
0
  9
$INSUNITS
 70
1
  0
ENDSEC
  0
SECTION
  2
CLASSES
  0
CLASS
  1
ACDBDICTIONARYWDFLT
  2
AcDbDictionaryWithDefault
  3
AutoCAD 2000
 90
0
 91
1
280
0
281
0
  0
CLASS
  1
ACDBPLACEHOLDER
  2
AcDbPlaceHolder
  3
AutoCAD 2000
 90
0
 91
1
280
0
281
0
  0
CLASS
  1
LAYOUT
  2
AcDbLayout
  3
AutoCAD 2000
 90
0
 91
0
280
0
281
0
  0
ENDSEC
  0
SECTION
  2
TABLES
  0
TABLE
  2
VPORT
  5
8
100
AcDbSymbolTable
 70
2
  0
VPORT
  5
1F4
100
AcDbSymbolTableRecord
100
AcDbViewportTableRecord
  2
*ACTIVE
 70
0
 10
0.0
 20
0.0
 11
1.0
 21
1.0
 12
5.5
 22
4.25
 13
0.0
 23
0.0
 14
1.0
 24
1.0
 15
0.0
 25
0.0
 16
0.0
 26
0.0
 36
1.0
 17
0.0
 27
0.0
 37
0.0
 40
8.5
 41
1.2941176471
 42
50.0
 43
0.0
 44
0.0
 50
0.0
 51
0.0
 71
0
 72
100
 73
1
 74
1
 75
0
 76
0
 77
0
 78
0
  0
ENDTAB
  0
TABLE
  2
LTYPE
  5
5
100
AcDbSymbolTable
 70
6
  0
LTYPE
  5
14
100
AcDbSymbolTableRecord
100
AcDbLinetypeTableRecord
  2
BYBLOCK
 70
0
  3

 72
65
 73
0
 40
0.0
  0
LTYPE
  5
15
100
AcDbSymbolTableRecord
100
AcDbLinetypeTableRecord
  2
BYLAYER
 70
0
  3

 72
65
 73
0
 40
0.0
  0
LTYPE
  5
16
100
AcDbSymbolTableRecord
100
AcDbLinetypeTableRecord
  2
CONTINUOUS
 70
64
  3
Solid line
 72
65
 73
0
 40
0.0
  0
LTYPE
  5
1F5
100
AcDbSymbolTableRecord
100
AcDbLinetypeTableRecord
  2
CENTER
 70
64
  3
____ _ ____ _ ____ _ ____ _ ____ _ ____ _ ____
 72
65
 73
4
 40
0.6
 49
0.375
 74
0
 49
-0.075
 74
0
 49
0.075
 74
0
 49
-0.075
 74
0
  0
LTYPE
  5
1F6
100
AcDbSymbolTableRecord
100
AcDbLinetypeTableRecord
  2
HIDDEN
 70
64
  3
- - - - - - - - - - - - - - - - - - - -
 72
65
 73
2
 40
0.2
 49
0.1
 74
0
 49
-0.1
 74
0
  0
LTYPE
  5
1F7
100
AcDbSymbolTableRecord
100
AcDbLinetypeTableRecord
  2
PHANTOM
 70
64
  3
_____ _ _ _____ _ _ _____ _ _ _____
 72
65
 73
6
 40
0.8
 49
0.45
 74
0
 49
-0.05
 74
0
 49
0.1
 74
0
 49
-0.05
 74
0
 49
0.1
 74
0
 49
-0.05
 74
0
  0
LTYPE
  5
1F8
100
AcDbSymbolTableRecord
100
AcDbLinetypeTableRecord
  2
DOT
 70
64
  3
. . . . . . . . . . . . . . . . . . . .
 72
65
 73
2
 40
0.2
 49
0.1
 74
0
 49
-0.1
 74
0
  0
LTYPE
  5
1F9
100
AcDbSymbolTableRecord
100
AcDbLinetypeTableRecord
  2
DASHED
 70
64
  3
- - - - - - - - - - - - - - - - - - - -
 72
65
 73
2
 40
0.2
 49
0.1
 74
0
 49
-0.1
 74
0
  0
ENDTAB
  0
TABLE
  2
LAYER
  5
2
100
AcDbSymbolTable
 70
36
  0
LAYER
  5
10
100
AcDbSymbolTableRecord
100
AcDbLayerTableRecord
  2
0
 70
0
 62
7
  6
CONTINUOUS
370
-3
390
F
  0
LAYER
  5
1FA
100
AcDbSymbolTableRecord
100
AcDbLayerTableRecord
  2
DEFAULT_1
 70
0
 62
7
  6
CENTER
370
-3
390
F
  0
LAYER
  5
1FB
100
AcDbSymbolTableRecord
100
AcDbLayerTableRecord
  2
DEFAULT_2
 70
0
 62
8
  6
HIDDEN
370
-3
390
F
  0
LAYER
  5
1FC
100
AcDbSymbolTableRecord
100
AcDbLayerTableRecord
  2
DEFAULT_3
 70
0
 62
7
  6
PHANTOM
370
-3
390
F
  0
LAYER
  5
1FD
100
AcDbSymbolTableRecord
100
AcDbLayerTableRecord
  2
DEFAULT_COORDINATE_SYSTEM
 70
0
 62
7
  6
CONTINUOUS
370
-3
390
F
  0
LAYER
  5
1FE
100
AcDbSymbolTableRecord
100
AcDbLayerTableRecord
  2
DEFAULT_DATUM_AXES
 70
0
 62
7
  6
CONTINUOUS
370
-3
390
F
  0
LAYER
  5
1FF
100
AcDbSymbolTableRecord
100
AcDbLayerTableRecord
  2
DEFAULT_DATUM_CURVES
 70
0
 62
7
  6
CONTINUOUS
370
-3
390
F
  0
LAYER
  5
200
100
AcDbSymbolTableRecord
100
AcDbLayerTableRecord
  2
DEFAULT_DATUM_PLANES
 70
0
 62
7
  6
CONTINUOUS
370
-3
390
F
  0
LAYER
  5
201
100
AcDbSymbolTableRecord
100
AcDbLayerTableRecord
  2
DEFAULT_SURFACES
 70
0
 62
7
  6
CONTINUOUS
370
-3
390
F
  0
LAYER
  5
202
100
AcDbSymbolTableRecord
100
AcDbLayerTableRecord
  2
INTF_1
 70
0
 62
7
  6
CONTINUOUS
370
-3
390
F
  0
LAYER
  5
203
100
AcDbSymbolTableRecord
100
AcDbLayerTableRecord
  2
PLATTED_SURFACE_AREA
 70
0
 62
7
  6
CONTINUOUS
370
-3
390
F
  0
LAYER
  5
204
100
AcDbSymbolTableRecord
100
AcDbLayerTableRecord
  2
RGB____0____0____0__
 70
0
 62
7
  6
CONTINUOUS
370
-3
390
F
  0
ENDTAB
  0
TABLE
  2
STYLE
  5
3
100
AcDbSymbolTable
 70
1
  0
STYLE
  5
11
100
AcDbSymbolTableRecord
100
AcDbTextStyleTableRecord
  2
STANDARD
 70
0
 40
0.0
 41
0.8
 50
0.0
 71
0
 42
0.2
  3
txt
  4

  0
STYLE
  5
205
100
AcDbSymbolTableRecord
100
AcDbTextStyleTableRecord
  2
TEXTSTYLE_1
 70
0
 40
0.0
 41
0.8
 50
0.0
 71
0
 42
0.2
  3
gdt
  4

  0
ENDTAB
  0
TABLE
  2
VIEW
  5
6
100
AcDbSymbolTable
 70
0
  0
ENDTAB
  0
TABLE
  2
UCS
  5
7
100
AcDbSymbolTable
 70
0
  0
ENDTAB
  0
TABLE
  2
APPID
  5
9
100
AcDbSymbolTable
 70
1
  0
APPID
  5
206
100
AcDbSymbolTableRecord
100
AcDbRegAppTableRecord
  2
ACAD
 70
0
  0
ENDTAB
  0
TABLE
  2
BLOCK_RECORD
  5
1
100
AcDbSymbolTable
 70
0
  0
BLOCK_RECORD
  5
207
100
AcDbSymbolTableRecord
100
AcDbBlockTableRecord
  2
*Model_Space
  0
BLOCK_RECORD
  5
208
100
AcDbSymbolTableRecord
100
AcDbBlockTableRecord
  2
*Paper_Space
  0
BLOCK_RECORD
  5
209
100
AcDbSymbolTableRecord
100
AcDbBlockTableRecord
  2
_FILLED
  0
ENDTAB
  0
TABLE
  2
DIMSTYLE
  5
A
100
AcDbSymbolTable
 70
1
100
AcDbDimStyleTable
 71
0
  0
DIMSTYLE
105
20A
100
AcDbSymbolTableRecord
100
AcDbDimStyleTableRecord
  2
STANDARD
 70
0
  3

  4

 40
1.0
 41
0.1
 42
0.0625
 43
0.38
 44
0.125
 45
0.0
 46
0.0
 47
0.01
 48
0.01
140
0.08
141
0.09
142
0.0
143
25.4
144
1.0
145
0.0
146
1.0
147
0.09
 71
1.0
 72
0.0
 73
1
 74
1
 75
0
 76
0
 77
0
 78
4
 79
1
170
1
171
1
172
0
173
0
174
0
175
0
176
0
177
0
178
0
270
2
179
2
271
2
272
2
273
2
274
2
275
0
280
0
281
0
282
0
283
1
284
4
285
0
286
0
287
3
288
0
340
11
278
46
341
209
342
209
343
209
344
209
  0
ENDTAB
  0
ENDSEC
  0
SECTION
  2
BLOCKS
  0
BLOCK
  5
20
100
AcDbEntity
  8
0
100
AcDbBlockBegin
  2
*Model_Space
 70
0
 10
0.0
 20
0.0
 30
0.0
  3
*Model_Space
  1

  0
ENDBLK
  5
21
100
AcDbEntity
  8
0
100
AcDbBlockEnd
  0
BLOCK
  5
1C
100
AcDbEntity
  8
0
100
AcDbBlockBegin
  2
*Paper_Space
 70
0
 10
0.0
 20
0.0
 30
0.0
  3
*Paper_Space
  1

  0
ENDBLK
  5
1D
100
AcDbEntity
  8
0
100
AcDbBlockEnd
  0
BLOCK
  5
20B
100
AcDbEntity
  8
0
100
AcDbBlockBegin
  2
_FILLED
 70
64
 10
0.0
 20
0.0
  3
_FILLED
  1

  0
SOLID
  5
20C
100
AcDbEntity
  8
0
  6
BYBLOCK
 62
0
100
AcDbTrace
 10
0.0
 20
0.0
 11
-1.0
 21
0.2
 12
-1.0
 22
-0.2
 13
-1.0
 23
-0.2
  0
ENDBLK
  5
20D
100
AcDbEntity
  8
0
  6
BYBLOCK
 62
0
100
AcDbBlockEnd
  0
ENDSEC
  0
SECTION
  2
ENTITIES
  0
MTEXT
  5
20E
100
AcDbEntity
  8
0
100
AcDbMText
 62
2
  6
CONTINUOUS
  7
STANDARD
 71
3
 72
1
 10
4.9004658385
 20
0.717496118
 30
0.0
 11
1.0
 21
0.0
 31
0.0
 73
2
 44
0.9
  1
SCALE  1.000
 40
0.08
 41
0.768
  0
LINE
  5
20F
100
AcDbEntity
  8
0
100
AcDbLine
 62
7
  6
CONTINUOUS
 10
0.0
 20
0.0
 11
0.0
 21
8.5
  0
LINE
  5
210
100
AcDbEntity
  8
0
100
AcDbLine
 62
7
  6
CONTINUOUS
 10
0.0
 20
0.0
 11
11.0
 21
0.0
  0
LINE
  5
211
100
AcDbEntity
  8
0
100
AcDbLine
 62
7
  6
CONTINUOUS
 10
0.0
 20
8.5
 11
11.0
 21
8.5
  0
LINE
  5
212
100
AcDbEntity
  8
0
100
AcDbLine
 62
7
  6
CONTINUOUS
 10
11.0
 20
0.0
 11
11.0
 21
8.5
  0
LINE
  5
213
100
AcDbEntity
  8
0
100
AcDbLine
 62
7
  6
CONTINUOUS
 10
2.1701174496
 20
6.9303913139
 11
2.0805842181
 21
6.7753152079
  0
LINE
  5
214
100
AcDbEntity
  8
0
100
AcDbLine
 62
7
  6
CONTINUOUS
 10
2.1701174496
 20
1.6503152079
 11
2.0805842181
 21
1.8053913139
  0
LINE
  5
215
100
AcDbEntity
  8
0
100
AcDbLine
 62
7
  6
CONTINUOUS
 10
2.0805842181
 20
6.2253152079
 11
2.1701174496
 21
6.3803913139
  0
LINE
  5
216
100
AcDbEntity
  8
0
100
AcDbLine
 62
7
  6
CONTINUOUS
 10
2.3836931094
 20
6.6003152079
 11
2.4732263409
 21
6.7553913139
  0
LINE
  5
217
100
AcDbEntity
  8
0
100
AcDbLine
 62
7
  6
CONTINUOUS
 10
2.5136174496
 20
6.6553913139
 11
2.4240842181
 21
6.5003152079
  0
LINE
  5
218
100
AcDbEntity
  8
0
100
AcDbLine
 62
7
  6
CONTINUOUS
 10
2.1701174496
 20
2.2003152079
 11
2.0805842181
 21
2.3553913139
  0
LINE
  5
219
100
AcDbEntity
  8
0
100
AcDbLine
 62
7
  6
CONTINUOUS
 10
2.3836931094
 20
1.9803913139
 11
2.4732263409
 21
1.8253152079
  0
LINE
  5
21A
100
AcDbEntity
  8
0
100
AcDbLine
 62
7
  6
CONTINUOUS
 10
2.5136174496
 20
1.9253152079
 11
2.4240842181
 21
2.0803913139
  0
LINE
  5
21B
100
AcDbEntity
  8
0
100
AcDbLine
 62
7
  6
CONTINUOUS
 10
1.7339052795
 20
7.1578532609
 11
1.7339052795
 21
1.4228532609
  0
LINE
  5
21C
100
AcDbEntity
  8
0
100
AcDbLine
 62
7
  6
CONTINUOUS
 10
2.0805842181
 20
5.6753152079
 11
2.1701174496
 21
5.8303913139
  0
LINE
  5
21D
100
AcDbEntity
  8
0
100
AcDbLine
 62
7
  6
CONTINUOUS
 10
2.7675842181
 20
6.7753152079
 11
2.8571174496
 21
6.9303913139
  0
LINE
  5
21E
100
AcDbEntity
  8
0
100
AcDbLine
 62
7
  6
CONTINUOUS
 10
2.4732263409
 20
6.2053913139
 11
2.3836931094
 21
6.0503152079
  0
LINE
  5
21F
100
AcDbEntity
  8
0
100
AcDbLine
 62
7
  6
CONTINUOUS
 10
2.4240842181
 20
5.9503152079
 11
2.5136174496
 21
6.1053913139
  0
LINE
  5
220
100
AcDbEntity
  8
0
100
AcDbLine
 62
7
  6
CONTINUOUS
 10
1.8139052795
 20
1.3428532609
 11
7.5489052795
 21
1.3428532609
  0
LINE
  5
221
100
AcDbEntity
  8
0
100
AcDbLine
 62
7
  6
CONTINUOUS
 10
2.1701174496
 20
2.7503152079
 11
2.0805842181
 21
2.9053913139
  0
LINE
  5
222
100
AcDbEntity
  8
0
100
AcDbLine
 62
7
  6
CONTINUOUS
 10
2.8571174496
 20
1.6503152079
 11
2.7675842181
 21
1.8053913139
  0
LINE
  5
223
100
AcDbEntity
  8
0
100
AcDbLine
 62
7
  6
CONTINUOUS
 10
2.3836931094
 20
2.5303913139
 11
2.4732263409
 21
2.3753152079
  0
LINE
  5
224
100
AcDbEntity
  8
0
100
AcDbLine
 62
7
  6
CONTINUOUS
 10
2.5136174496
 20
2.4753152079
 11
2.4240842181
 21
2.6303913139
  0
LINE
  5
225
100
AcDbEntity
  8
0
100
AcDbLine
 62
7
  6
CONTINUOUS
 10
2.7271931094
 20
6.3253152079
 11
2.8167263409
 21
6.4803913139
  0
LINE
  5
226
100
AcDbEntity
  8
0
100
AcDbLine
 62
7
  6
CONTINUOUS
 10
2.0805842181
 20
5.1253152079
 11
2.1701174496
 21
5.2803913139
  0
LINE
  5
227
100
AcDbEntity
  8
0
100
AcDbLine
 62
7
  6
CONTINUOUS
 10
2.7675842181
 20
6.2253152079
 11
2.8571174496
 21
6.3803913139
  0
LINE
  5
228
100
AcDbEntity
  8
0
100
AcDbLine
 62
7
  6
CONTINUOUS
 10
2.4732263409
 20
5.6553913139
 11
2.3836931094
 21
5.5003152079
  0
LINE
  5
229
100
AcDbEntity
  8
0
100
AcDbLine
 62
7
  6
CONTINUOUS
 10
3.1602263409
 20
6.7553913139
 11
3.0706931094
 21
6.6003152079
  0
LINE
  5
22A
100
AcDbEntity
  8
0
100
AcDbLine
 62
7
  6
CONTINUOUS
 10
2.4240842181
 20
5.4003152079
 11
2.5136174496
 21
5.5553913139
  0
LINE
  5
22B
100
AcDbEntity
  8
0
100
AcDbLine
 62
7
  6
CONTINUOUS
 10
3.1110842181
 20
6.5003152079
 11
3.2006174496
 21
6.6553913139
  0
LINE
  5
22C
100
AcDbEntity
  8
0
100
AcDbLine
 62
7
  6
CONTINUOUS
 10
7.1754385111
 20
1.6403532609
 11
6.9963720479
 21
1.6403532609
  0
LINE
  5
22D
100
AcDbEntity
  8
0
100
AcDbLine
 62
7
  6
CONTINUOUS
 10
6.4884385111
 20
1.6403532609
 11
6.3093720479
 21
1.6403532609
  0
LINE
  5
22E
100
AcDbEntity
  8
0
100
AcDbLine
 62
7
  6
CONTINUOUS
 10
5.8014385111
 20
1.6403532609
 11
5.6223720479
 21
1.6403532609
  0
LINE
  5
22F
100
AcDbEntity
  8
0
100
AcDbLine
 62
7
  6
CONTINUOUS
 10
5.1144385111
 20
1.6403532609
 11
4.9353720479
 21
1.6403532609
  0
LINE
  5
230
100
AcDbEntity
  8
0
100
AcDbLine
 62
7
  6
CONTINUOUS
 10
4.4274385111
 20
1.6403532609
 11
4.2483720479
 21
1.6403532609
  0
LINE
  5
231
100
AcDbEntity
  8
0
100
AcDbLine
 62
7
  6
CONTINUOUS
 10
3.7404385111
 20
1.6403532609
 11
3.5613720479
 21
1.6403532609
  0
LINE
  5
232
100
AcDbEntity
  8
0
100
AcDbLine
 62
7
  6
CONTINUOUS
 10
3.0534385111
 20
1.6403532609
 11
2.8743720479
 21
1.6403532609
  0
LINE
  5
233
100
AcDbEntity
  8
0
100
AcDbLine
 62
7
  6
CONTINUOUS
 10
2.3664385111
 20
1.6403532609
 11
2.1873720479
 21
1.6403532609
  0
LINE
  5
234
100
AcDbEntity
  8
0
100
AcDbLine
 62
7
  6
CONTINUOUS
 10
2.7271931094
 20
2.2553913139
 11
2.8167263409
 21
2.1003152079
  0
LINE
  5
235
100
AcDbEntity
  8
0
100
AcDbLine
 62
7
  6
CONTINUOUS
 10
2.1701174496
 20
3.3003152079
 11
2.0805842181
 21
3.4553913139
  0
LINE
  5
236
100
AcDbEntity
  8
0
100
AcDbLine
 62
7
  6
CONTINUOUS
 10
2.8571174496
 20
2.2003152079
 11
2.7675842181
 21
2.3553913139
  0
LINE
  5
237
100
AcDbEntity
  8
0
100
AcDbLine
 62
7
  6
CONTINUOUS
 10
2.3836931094
 20
3.0803913139
 11
2.4732263409
 21
2.9253152079
  0
LINE
  5
238
100
AcDbEntity
  8
0
100
AcDbLine
 62
7
  6
CONTINUOUS
 10
3.0706931094
 20
1.9803913139
 11
3.1602263409
 21
1.8253152079
  0
LINE
  5
239
100
AcDbEntity
  8
0
100
AcDbLine
 62
7
  6
CONTINUOUS
 10
2.5136174496
 20
3.0253152079
 11
2.4240842181
 21
3.1803913139
  0
LINE
  5
23A
100
AcDbEntity
  8
0
100
AcDbLine
 62
7
  6
CONTINUOUS
 10
3.2006174496
 20
1.9253152079
 11
3.1110842181
 21
2.0803913139
  0
LINE
  5
23B
100
AcDbEntity
  8
0
100
AcDbLine
 62
7
  6
CONTINUOUS
 10
2.8167263409
 20
5.9303913139
 11
2.7271931094
 21
5.7753152079
  0
LINE
  5
23C
100
AcDbEntity
  8
0
100
AcDbLine
 62
7
  6
CONTINUOUS
 10
2.0805842181
 20
4.5753152079
 11
2.1701174496
 21
4.7303913139
  0
LINE
  5
23D
100
AcDbEntity
  8
0
100
AcDbLine
 62
7
  6
CONTINUOUS
 10
2.7675842181
 20
5.6753152079
 11
2.8571174496
 21
5.8303913139
  0
LINE
  5
23E
100
AcDbEntity
  8
0
100
AcDbLine
 62
7
  6
CONTINUOUS
 10
2.4732263409
 20
5.1053913139
 11
2.3836931094
 21
4.9503152079
  0
LINE
  5
23F
100
AcDbEntity
  8
0
100
AcDbLine
 62
7
  6
CONTINUOUS
 10
3.4545842181
 20
6.7753152079
 11
3.5441174496
 21
6.9303913139
  0
LINE
  5
240
100
AcDbEntity
  8
0
100
AcDbLine
 62
7
  6
CONTINUOUS
 10
3.1602263409
 20
6.2053913139
 11
3.0706931094
 21
6.0503152079
  0
LINE
  5
241
100
AcDbEntity
  8
0
100
AcDbLine
 62
7
  6
CONTINUOUS
 10
2.4240842181
 20
4.8503152079
 11
2.5136174496
 21
5.0053913139
  0
LINE
  5
242
100
AcDbEntity
  8
0
100
AcDbLine
 62
7
  6
CONTINUOUS
 10
3.1110842181
 20
5.9503152079
 11
3.2006174496
 21
6.1053913139
  0
LINE
  5
243
100
AcDbEntity
  8
0
100
AcDbLine
 62
7
  6
CONTINUOUS
 10
6.8319385111
 20
1.9153532609
 11
6.6528720479
 21
1.9153532609
  0
LINE
  5
244
100
AcDbEntity
  8
0
100
AcDbLine
 62
7
  6
CONTINUOUS
 10
6.1449385111
 20
1.9153532609
 11
5.9658720479
 21
1.9153532609
  0
LINE
  5
245
100
AcDbEntity
  8
0
100
AcDbLine
 62
7
  6
CONTINUOUS
 10
5.4579385111
 20
1.9153532609
 11
5.2788720479
 21
1.9153532609
  0
LINE
  5
246
100
AcDbEntity
  8
0
100
AcDbLine
 62
7
  6
CONTINUOUS
 10
4.7709385111
 20
1.9153532609
 11
4.5918720479
 21
1.9153532609
  0
LINE
  5
247
100
AcDbEntity
  8
0
100
AcDbLine
 62
7
  6
CONTINUOUS
 10
4.0839385111
 20
1.9153532609
 11
3.9048720479
 21
1.9153532609
  0
LINE
  5
248
100
AcDbEntity
  8
0
100
AcDbLine
 62
7
  6
CONTINUOUS
 10
3.3969385111
 20
1.9153532609
 11
3.2178720479
 21
1.9153532609
  0
LINE
  5
249
100
AcDbEntity
  8
0
100
AcDbLine
 62
7
  6
CONTINUOUS
 10
2.7099385111
 20
1.9153532609
 11
2.5308720479
 21
1.9153532609
  0
LINE
  5
24A
100
AcDbEntity
  8
0
100
AcDbLine
 62
7
  6
CONTINUOUS
 10
2.1873720479
 20
1.9903532609
 11
2.3664385111
 21
1.9903532609
  0
LINE
  5
24B
100
AcDbEntity
  8
0
100
AcDbLine
 62
7
  6
CONTINUOUS
 10
2.8743720479
 20
1.9903532609
 11
3.0534385111
 21
1.9903532609
  0
LINE
  5
24C
100
AcDbEntity
  8
0
100
AcDbLine
 62
7
  6
CONTINUOUS
 10
3.5613720479
 20
1.9903532609
 11
3.7404385111
 21
1.9903532609
  0
LINE
  5
24D
100
AcDbEntity
  8
0
100
AcDbLine
 62
7
  6
CONTINUOUS
 10
4.2483720479
 20
1.9903532609
 11
4.4274385111
 21
1.9903532609
  0
LINE
  5
24E
100
AcDbEntity
  8
0
100
AcDbLine
 62
7
  6
CONTINUOUS
 10
4.9353720479
 20
1.9903532609
 11
5.1144385111
 21
1.9903532609
  0
LINE
  5
24F
100
AcDbEntity
  8
0
100
AcDbLine
 62
7
  6
CONTINUOUS
 10
5.6223720479
 20
1.9903532609
 11
5.8014385111
 21
1.9903532609
  0
LINE
  5
250
100
AcDbEntity
  8
0
100
AcDbLine
 62
7
  6
CONTINUOUS
 10
6.3093720479
 20
1.9903532609
 11
6.4884385111
 21
1.9903532609
  0
LINE
  5
251
100
AcDbEntity
  8
0
100
AcDbLine
 62
7
  6
CONTINUOUS
 10
6.9963720479
 20
1.9903532609
 11
7.1754385111
 21
1.9903532609
  0
LINE
  5
252
100
AcDbEntity
  8
0
100
AcDbLine
 62
7
  6
CONTINUOUS
 10
2.7271931094
 20
2.8053913139
 11
2.8167263409
 21
2.6503152079
  0
LINE
  5
253
100
AcDbEntity
  8
0
100
AcDbLine
 62
7
  6
CONTINUOUS
 10
2.1701174496
 20
3.8503152079
 11
2.0805842181
 21
4.0053913139
  0
LINE
  5
254
100
AcDbEntity
  8
0
100
AcDbLine
 62
7
  6
CONTINUOUS
 10
2.8571174496
 20
2.7503152079
 11
2.7675842181
 21
2.9053913139
  0
LINE
  5
255
100
AcDbEntity
  8
0
100
AcDbLine
 62
7
  6
CONTINUOUS
 10
2.3836931094
 20
3.6303913139
 11
2.4732263409
 21
3.4753152079
  0
LINE
  5
256
100
AcDbEntity
  8
0
100
AcDbLine
 62
7
  6
CONTINUOUS
 10
3.5441174496
 20
1.6503152079
 11
3.4545842181
 21
1.8053913139
  0
LINE
  5
257
100
AcDbEntity
  8
0
100
AcDbLine
 62
7
  6
CONTINUOUS
 10
3.0706931094
 20
2.5303913139
 11
3.1602263409
 21
2.3753152079
  0
LINE
  5
258
100
AcDbEntity
  8
0
100
AcDbLine
 62
7
  6
CONTINUOUS
 10
2.5136174496
 20
3.5753152079
 11
2.4240842181
 21
3.7303913139
  0
LINE
  5
259
100
AcDbEntity
  8
0
100
AcDbLine
 62
7
  6
CONTINUOUS
 10
3.2006174496
 20
2.4753152079
 11
3.1110842181
 21
2.6303913139
  0
LINE
  5
25A
100
AcDbEntity
  8
0
100
AcDbLine
 62
7
  6
CONTINUOUS
 10
2.8167263409
 20
5.3803913139
 11
2.7271931094
 21
5.2253152079
  0
LINE
  5
25B
100
AcDbEntity
  8
0
100
AcDbLine
 62
7
  6
CONTINUOUS
 10
2.0805842181
 20
4.0253152079
 11
2.1701174496
 21
4.1803913139
  0
LINE
  5
25C
100
AcDbEntity
  8
0
100
AcDbLine
 62
7
  6
CONTINUOUS
 10
3.5037263409
 20
6.4803913139
 11
3.4141931094
 21
6.3253152079
  0
LINE
  5
25D
100
AcDbEntity
  8
0
100
AcDbLine
 62
7
  6
CONTINUOUS
 10
2.7675842181
 20
5.1253152079
 11
2.8571174496
 21
5.2803913139
  0
LINE
  5
25E
100
AcDbEntity
  8
0
100
AcDbLine
 62
7
  6
CONTINUOUS
 10
2.4732263409
 20
4.5553913139
 11
2.3836931094
 21
4.4003152079
  0
LINE
  5
25F
100
AcDbEntity
  8
0
100
AcDbLine
 62
7
  6
CONTINUOUS
 10
3.4545842181
 20
6.2253152079
 11
3.5441174496
 21
6.3803913139
  0
LINE
  5
260
100
AcDbEntity
  8
0
100
AcDbLine
 62
7
  6
CONTINUOUS
 10
3.1602263409
 20
5.6553913139
 11
3.0706931094
 21
5.5003152079
  0
LINE
  5
261
100
AcDbEntity
  8
0
100
AcDbLine
 62
7
  6
CONTINUOUS
 10
2.4240842181
 20
4.3003152079
 11
2.5136174496
 21
4.4553913139
  0
LINE
  5
262
100
AcDbEntity
  8
0
100
AcDbLine
 62
7
  6
CONTINUOUS
 10
3.8472263409
 20
6.7553913139
 11
3.7576931094
 21
6.6003152079
  0
LINE
  5
263
100
AcDbEntity
  8
0
100
AcDbLine
 62
7
  6
CONTINUOUS
 10
3.1110842181
 20
5.4003152079
 11
3.2006174496
 21
5.5553913139
  0
LINE
  5
264
100
AcDbEntity
  8
0
100
AcDbLine
 62
7
  6
CONTINUOUS
 10
7.1754385111
 20
2.1903532609
 11
6.9963720479
 21
2.1903532609
  0
LINE
  5
265
100
AcDbEntity
  8
0
100
AcDbLine
 62
7
  6
CONTINUOUS
 10
6.4884385111
 20
2.1903532609
 11
6.3093720479
 21
2.1903532609
  0
LINE
  5
266
100
AcDbEntity
  8
0
100
AcDbLine
 62
7
  6
CONTINUOUS
 10
5.8014385111
 20
2.1903532609
 11
5.6223720479
 21
2.1903532609
  0
LINE
  5
267
100
AcDbEntity
  8
0
100
AcDbLine
 62
7
  6
CONTINUOUS
 10
5.1144385111
 20
2.1903532609
 11
4.9353720479
 21
2.1903532609
  0
LINE
  5
268
100
AcDbEntity
  8
0
100
AcDbLine
 62
7
  6
CONTINUOUS
 10
4.4274385111
 20
2.1903532609
 11
4.2483720479
 21
2.1903532609
  0
LINE
  5
269
100
AcDbEntity
  8
0
100
AcDbLine
 62
7
  6
CONTINUOUS
 10
3.7404385111
 20
2.1903532609
 11
3.5613720479
 21
2.1903532609
  0
LINE
  5
26A
100
AcDbEntity
  8
0
100
AcDbLine
 62
7
  6
CONTINUOUS
 10
3.0534385111
 20
2.1903532609
 11
2.8743720479
 21
2.1903532609
  0
LINE
  5
26B
100
AcDbEntity
  8
0
100
AcDbLine
 62
7
  6
CONTINUOUS
 10
2.3664385111
 20
2.1903532609
 11
2.1873720479
 21
2.1903532609
  0
LINE
  5
26C
100
AcDbEntity
  8
0
100
AcDbLine
 62
7
  6
CONTINUOUS
 10
2.5308720479
 20
2.2653532609
 11
2.7099385111
 21
2.2653532609
  0
LINE
  5
26D
100
AcDbEntity
  8
0
100
AcDbLine
 62
7
  6
CONTINUOUS
 10
3.2178720479
 20
2.2653532609
 11
3.3969385111
 21
2.2653532609
  0
LINE
  5
26E
100
AcDbEntity
  8
0
100
AcDbLine
 62
7
  6
CONTINUOUS
 10
3.9048720479
 20
2.2653532609
 11
4.0839385111
 21
2.2653532609
  0
LINE
  5
26F
100
AcDbEntity
  8
0
100
AcDbLine
 62
7
  6
CONTINUOUS
 10
4.5918720479
 20
2.2653532609
 11
4.7709385111
 21
2.2653532609
  0
LINE
  5
270
100
AcDbEntity
  8
0
100
AcDbLine
 62
7
  6
CONTINUOUS
 10
5.2788720479
 20
2.2653532609
 11
5.4579385111
 21
2.2653532609
  0
LINE
  5
271
100
AcDbEntity
  8
0
100
AcDbLine
 62
7
  6
CONTINUOUS
 10
5.9658720479
 20
2.2653532609
 11
6.1449385111
 21
2.2653532609
  0
LINE
  5
272
100
AcDbEntity
  8
0
100
AcDbLine
 62
7
  6
CONTINUOUS
 10
6.6528720479
 20
2.2653532609
 11
6.8319385111
 21
2.2653532609
  0
LINE
  5
273
100
AcDbEntity
  8
0
100
AcDbLine
 62
7
  6
CONTINUOUS
 10
2.7271931094
 20
3.3553913139
 11
2.8167263409
 21
3.2003152079
  0
LINE
  5
274
100
AcDbEntity
  8
0
100
AcDbLine
 62
7
  6
CONTINUOUS
 10
2.1701174496
 20
4.4003152079
 11
2.0805842181
 21
4.5553913139
  0
LINE
  5
275
100
AcDbEntity
  8
0
100
AcDbLine
 62
7
  6
CONTINUOUS
 10
3.4141931094
 20
2.2553913139
 11
3.5037263409
 21
2.1003152079
  0
LINE
  5
276
100
AcDbEntity
  8
0
100
AcDbLine
 62
7
  6
CONTINUOUS
 10
2.8571174496
 20
3.3003152079
 11
2.7675842181
 21
3.4553913139
  0
LINE
  5
277
100
AcDbEntity
  8
0
100
AcDbLine
 62
7
  6
CONTINUOUS
 10
2.3836931094
 20
4.1803913139
 11
2.4732263409
 21
4.0253152079
  0
LINE
  5
278
100
AcDbEntity
  8
0
100
AcDbLine
 62
7
  6
CONTINUOUS
 10
3.5441174496
 20
2.2003152079
 11
3.4545842181
 21
2.3553913139
  0
LINE
  5
279
100
AcDbEntity
  8
0
100
AcDbLine
 62
7
  6
CONTINUOUS
 10
3.0706931094
 20
3.0803913139
 11
3.1602263409
 21
2.9253152079
  0
LINE
  5
27A
100
AcDbEntity
  8
0
100
AcDbLine
 62
7
  6
CONTINUOUS
 10
2.5136174496
 20
4.1253152079
 11
2.4240842181
 21
4.2803913139
  0
LINE
  5
27B
100
AcDbEntity
  8
0
100
AcDbLine
 62
7
  6
CONTINUOUS
 10
3.7576931094
 20
1.9803913139
 11
3.8472263409
 21
1.8253152079
  0
LINE
  5
27C
100
AcDbEntity
  8
0
100
AcDbLine
 62
7
  6
CONTINUOUS
 10
3.2006174496
 20
3.0253152079
 11
3.1110842181
 21
3.1803913139
  0
LINE
  5
27D
100
AcDbEntity
  8
0
100
AcDbLine
 62
7
  6
CONTINUOUS
 10
2.8167263409
 20
4.8303913139
 11
2.7271931094
 21
4.6753152079
  0
LINE
  5
27E
100
AcDbEntity
  8
0
100
AcDbLine
 62
7
  6
CONTINUOUS
 10
3.7980842181
 20
6.5003152079
 11
3.8876174496
 21
6.6553913139
  0
LINE
  5
27F
100
AcDbEntity
  8
0
100
AcDbLine
 62
7
  6
CONTINUOUS
 10
2.0805842181
 20
3.4753152079
 11
2.1701174496
 21
3.6303913139
  0
LINE
  5
280
100
AcDbEntity
  8
0
100
AcDbLine
 62
7
  6
CONTINUOUS
 10
3.5037263409
 20
5.9303913139
 11
3.4141931094
 21
5.7753152079
  0
LINE
  5
281
100
AcDbEntity
  8
0
100
AcDbLine
 62
7
  6
CONTINUOUS
 10
2.7675842181
 20
4.5753152079
 11
2.8571174496
 21
4.7303913139
  0
LINE
  5
282
100
AcDbEntity
  8
0
100
AcDbLine
 62
7
  6
CONTINUOUS
 10
2.4732263409
 20
4.0053913139
 11
2.3836931094
 21
3.8503152079
  0
LINE
  5
283
100
AcDbEntity
  8
0
100
AcDbLine
 62
7
  6
CONTINUOUS
 10
3.4545842181
 20
5.6753152079
 11
3.5441174496
 21
5.8303913139
  0
LINE
  5
284
100
AcDbEntity
  8
0
100
AcDbLine
 62
7
  6
CONTINUOUS
 10
3.1602263409
 20
5.1053913139
 11
3.0706931094
 21
4.9503152079
  0
LINE
  5
285
100
AcDbEntity
  8
0
100
AcDbLine
 62
7
  6
CONTINUOUS
 10
4.1415842181
 20
6.7753152079
 11
4.2311174496
 21
6.9303913139
  0
LINE
  5
286
100
AcDbEntity
  8
0
100
AcDbLine
 62
7
  6
CONTINUOUS
 10
2.4240842181
 20
3.7503152079
 11
2.5136174496
 21
3.9053913139
  0
LINE
  5
287
100
AcDbEntity
  8
0
100
AcDbLine
 62
7
  6
CONTINUOUS
 10
3.8472263409
 20
6.2053913139
 11
3.7576931094
 21
6.0503152079
  0
LINE
  5
288
100
AcDbEntity
  8
0
100
AcDbLine
 62
7
  6
CONTINUOUS
 10
3.1110842181
 20
4.8503152079
 11
3.2006174496
 21
5.0053913139
  0
LINE
  5
289
100
AcDbEntity
  8
0
100
AcDbLine
 62
7
  6
CONTINUOUS
 10
6.8319385111
 20
2.4653532609
 11
6.6528720479
 21
2.4653532609
  0
LINE
  5
28A
100
AcDbEntity
  8
0
100
AcDbLine
 62
7
  6
CONTINUOUS
 10
6.1449385111
 20
2.4653532609
 11
5.9658720479
 21
2.4653532609
  0
LINE
  5
28B
100
AcDbEntity
  8
0
100
AcDbLine
 62
7
  6
CONTINUOUS
 10
5.4579385111
 20
2.4653532609
 11
5.2788720479
 21
2.4653532609
  0
LINE
  5
28C
100
AcDbEntity
  8
0
100
AcDbLine
 62
7
  6
CONTINUOUS
 10
4.7709385111
 20
2.4653532609
 11
4.5918720479
 21
2.4653532609
  0
LINE
  5
28D
100
AcDbEntity
  8
0
100
AcDbLine
 62
7
  6
CONTINUOUS
 10
4.0839385111
 20
2.4653532609
 11
3.9048720479
 21
2.4653532609
  0
LINE
  5
28E
100
AcDbEntity
  8
0
100
AcDbLine
 62
7
  6
CONTINUOUS
 10
3.3969385111
 20
2.4653532609
 11
3.2178720479
 21
2.4653532609
  0
LINE
  5
28F
100
AcDbEntity
  8
0
100
AcDbLine
 62
7
  6
CONTINUOUS
 10
2.7099385111
 20
2.4653532609
 11
2.5308720479
 21
2.4653532609
  0
LINE
  5
290
100
AcDbEntity
  8
0
100
AcDbLine
 62
7
  6
CONTINUOUS
 10
2.1873720479
 20
2.5403532609
 11
2.3664385111
 21
2.5403532609
  0
LINE
  5
291
100
AcDbEntity
  8
0
100
AcDbLine
 62
7
  6
CONTINUOUS
 10
2.8743720479
 20
2.5403532609
 11
3.0534385111
 21
2.5403532609
  0
LINE
  5
292
100
AcDbEntity
  8
0
100
AcDbLine
 62
7
  6
CONTINUOUS
 10
3.5613720479
 20
2.5403532609
 11
3.7404385111
 21
2.5403532609
  0
LINE
  5
293
100
AcDbEntity
  8
0
100
AcDbLine
 62
7
  6
CONTINUOUS
 10
4.2483720479
 20
2.5403532609
 11
4.4274385111
 21
2.5403532609
  0
LINE
  5
294
100
AcDbEntity
  8
0
100
AcDbLine
 62
7
  6
CONTINUOUS
 10
4.9353720479
 20
2.5403532609
 11
5.1144385111
 21
2.5403532609
  0
LINE
  5
295
100
AcDbEntity
  8
0
100
AcDbLine
 62
7
  6
CONTINUOUS
 10
5.6223720479
 20
2.5403532609
 11
5.8014385111
 21
2.5403532609
  0
LINE
  5
296
100
AcDbEntity
  8
0
100
AcDbLine
 62
7
  6
CONTINUOUS
 10
6.3093720479
 20
2.5403532609
 11
6.4884385111
 21
2.5403532609
  0
LINE
  5
297
100
AcDbEntity
  8
0
100
AcDbLine
 62
7
  6
CONTINUOUS
 10
6.9963720479
 20
2.5403532609
 11
7.1754385111
 21
2.5403532609
  0
LINE
  5
298
100
AcDbEntity
  8
0
100
AcDbLine
 62
7
  6
CONTINUOUS
 10
2.7271931094
 20
3.9053913139
 11
2.8167263409
 21
3.7503152079
  0
LINE
  5
299
100
AcDbEntity
  8
0
100
AcDbLine
 62
7
  6
CONTINUOUS
 10
3.8876174496
 20
1.9253152079
 11
3.7980842181
 21
2.0803913139
  0
LINE
  5
29A
100
AcDbEntity
  8
0
100
AcDbLine
 62
7
  6
CONTINUOUS
 10
2.1701174496
 20
4.9503152079
 11
2.0805842181
 21
5.1053913139
  0
LINE
  5
29B
100
AcDbEntity
  8
0
100
AcDbLine
 62
7
  6
CONTINUOUS
 10
3.4141931094
 20
2.8053913139
 11
3.5037263409
 21
2.6503152079
  0
LINE
  5
29C
100
AcDbEntity
  8
0
100
AcDbLine
 62
7
  6
CONTINUOUS
 10
2.8571174496
 20
3.8503152079
 11
2.7675842181
 21
4.0053913139
  0
LINE
  5
29D
100
AcDbEntity
  8
0
100
AcDbLine
 62
7
  6
CONTINUOUS
 10
2.3836931094
 20
4.7303913139
 11
2.4732263409
 21
4.5753152079
  0
LINE
  5
29E
100
AcDbEntity
  8
0
100
AcDbLine
 62
7
  6
CONTINUOUS
 10
3.5441174496
 20
2.7503152079
 11
3.4545842181
 21
2.9053913139
  0
LINE
  5
29F
100
AcDbEntity
  8
0
100
AcDbLine
 62
7
  6
CONTINUOUS
 10
3.0706931094
 20
3.6303913139
 11
3.1602263409
 21
3.4753152079
  0
LINE
  5
2A0
100
AcDbEntity
  8
0
100
AcDbLine
 62
7
  6
CONTINUOUS
 10
4.2311174496
 20
1.6503152079
 11
4.1415842181
 21
1.8053913139
  0
LINE
  5
2A1
100
AcDbEntity
  8
0
100
AcDbLine
 62
7
  6
CONTINUOUS
 10
2.5136174496
 20
4.6753152079
 11
2.4240842181
 21
4.8303913139
  0
LINE
  5
2A2
100
AcDbEntity
  8
0
100
AcDbLine
 62
7
  6
CONTINUOUS
 10
3.7576931094
 20
2.5303913139
 11
3.8472263409
 21
2.3753152079
  0
LINE
  5
2A3
100
AcDbEntity
  8
0
100
AcDbLine
 62
7
  6
CONTINUOUS
 10
3.2006174496
 20
3.5753152079
 11
3.1110842181
 21
3.7303913139
  0
LINE
  5
2A4
100
AcDbEntity
  8
0
100
AcDbLine
 62
7
  6
CONTINUOUS
 10
2.8167263409
 20
4.2803913139
 11
2.7271931094
 21
4.1253152079
  0
LINE
  5
2A5
100
AcDbEntity
  8
0
100
AcDbLine
 62
7
  6
CONTINUOUS
 10
3.7980842181
 20
5.9503152079
 11
3.8876174496
 21
6.1053913139
  0
LINE
  5
2A6
100
AcDbEntity
  8
0
100
AcDbLine
 62
7
  6
CONTINUOUS
 10
2.0805842181
 20
2.9253152079
 11
2.1701174496
 21
3.0803913139
  0
LINE
  5
2A7
100
AcDbEntity
  8
0
100
AcDbLine
 62
7
  6
CONTINUOUS
 10
3.5037263409
 20
5.3803913139
 11
3.4141931094
 21
5.2253152079
  0
LINE
  5
2A8
100
AcDbEntity
  8
0
100
AcDbLine
 62
7
  6
CONTINUOUS
 10
2.7675842181
 20
4.0253152079
 11
2.8571174496
 21
4.1803913139
  0
LINE
  5
2A9
100
AcDbEntity
  8
0
100
AcDbLine
 62
7
  6
CONTINUOUS
 10
4.1907263409
 20
6.4803913139
 11
4.1011931094
 21
6.3253152079
  0
LINE
  5
2AA
100
AcDbEntity
  8
0
100
AcDbLine
 62
7
  6
CONTINUOUS
 10
2.4732263409
 20
3.4553913139
 11
2.3836931094
 21
3.3003152079
  0
LINE
  5
2AB
100
AcDbEntity
  8
0
100
AcDbLine
 62
7
  6
CONTINUOUS
 10
3.4545842181
 20
5.1253152079
 11
3.5441174496
 21
5.2803913139
  0
LINE
  5
2AC
100
AcDbEntity
  8
0
100
AcDbLine
 62
7
  6
CONTINUOUS
 10
3.1602263409
 20
4.5553913139
 11
3.0706931094
 21
4.4003152079
  0
LINE
  5
2AD
100
AcDbEntity
  8
0
100
AcDbLine
 62
7
  6
CONTINUOUS
 10
4.1415842181
 20
6.2253152079
 11
4.2311174496
 21
6.3803913139
  0
LINE
  5
2AE
100
AcDbEntity
  8
0
100
AcDbLine
 62
7
  6
CONTINUOUS
 10
2.4240842181
 20
3.2003152079
 11
2.5136174496
 21
3.3553913139
  0
LINE
  5
2AF
100
AcDbEntity
  8
0
100
AcDbLine
 62
7
  6
CONTINUOUS
 10
3.8472263409
 20
5.6553913139
 11
3.7576931094
 21
5.5003152079
  0
LINE
  5
2B0
100
AcDbEntity
  8
0
100
AcDbLine
 62
7
  6
CONTINUOUS
 10
3.1110842181
 20
4.3003152079
 11
3.2006174496
 21
4.4553913139
  0
LINE
  5
2B1
100
AcDbEntity
  8
0
100
AcDbLine
 62
7
  6
CONTINUOUS
 10
4.5342263409
 20
6.7553913139
 11
4.4446931094
 21
6.6003152079
  0
LINE
  5
2B2
100
AcDbEntity
  8
0
100
AcDbLine
 62
7
  6
CONTINUOUS
 10
7.1754385111
 20
2.7403532609
 11
6.9963720479
 21
2.7403532609
  0
LINE
  5
2B3
100
AcDbEntity
  8
0
100
AcDbLine
 62
7
  6
CONTINUOUS
 10
6.4884385111
 20
2.7403532609
 11
6.3093720479
 21
2.7403532609
  0
LINE
  5
2B4
100
AcDbEntity
  8
0
100
AcDbLine
 62
7
  6
CONTINUOUS
 10
5.8014385111
 20
2.7403532609
 11
5.6223720479
 21
2.7403532609
  0
LINE
  5
2B5
100
AcDbEntity
  8
0
100
AcDbLine
 62
7
  6
CONTINUOUS
 10
5.1144385111
 20
2.7403532609
 11
4.9353720479
 21
2.7403532609
  0
LINE
  5
2B6
100
AcDbEntity
  8
0
100
AcDbLine
 62
7
  6
CONTINUOUS
 10
4.4274385111
 20
2.7403532609
 11
4.2483720479
 21
2.7403532609
  0
LINE
  5
2B7
100
AcDbEntity
  8
0
100
AcDbLine
 62
7
  6
CONTINUOUS
 10
3.7404385111
 20
2.7403532609
 11
3.5613720479
 21
2.7403532609
  0
LINE
  5
2B8
100
AcDbEntity
  8
0
100
AcDbLine
 62
7
  6
CONTINUOUS
 10
3.0534385111
 20
2.7403532609
 11
2.8743720479
 21
2.7403532609
  0
LINE
  5
2B9
100
AcDbEntity
  8
0
100
AcDbLine
 62
7
  6
CONTINUOUS
 10
2.3664385111
 20
2.7403532609
 11
2.1873720479
 21
2.7403532609
  0
LINE
  5
2BA
100
AcDbEntity
  8
0
100
AcDbLine
 62
7
  6
CONTINUOUS
 10
2.5308720479
 20
2.8153532609
 11
2.7099385111
 21
2.8153532609
  0
LINE
  5
2BB
100
AcDbEntity
  8
0
100
AcDbLine
 62
7
  6
CONTINUOUS
 10
3.2178720479
 20
2.8153532609
 11
3.3969385111
 21
2.8153532609
  0
LINE
  5
2BC
100
AcDbEntity
  8
0
100
AcDbLine
 62
7
  6
CONTINUOUS
 10
3.9048720479
 20
2.8153532609
 11
4.0839385111
 21
2.8153532609
  0
LINE
  5
2BD
100
AcDbEntity
  8
0
100
AcDbLine
 62
7
  6
CONTINUOUS
 10
4.5918720479
 20
2.8153532609
 11
4.7709385111
 21
2.8153532609
  0
LINE
  5
2BE
100
AcDbEntity
  8
0
100
AcDbLine
 62
7
  6
CONTINUOUS
 10
5.2788720479
 20
2.8153532609
 11
5.4579385111
 21
2.8153532609
  0
LINE
  5
2BF
100
AcDbEntity
  8
0
100
AcDbLine
 62
7
  6
CONTINUOUS
 10
5.9658720479
 20
2.8153532609
 11
6.1449385111
 21
2.8153532609
  0
LINE
  5
2C0
100
AcDbEntity
  8
0
100
AcDbLine
 62
7
  6
CONTINUOUS
 10
6.6528720479
 20
2.8153532609
 11
6.8319385111
 21
2.8153532609
  0
LINE
  5
2C1
100
AcDbEntity
  8
0
100
AcDbLine
 62
7
  6
CONTINUOUS
 10
2.7271931094
 20
4.4553913139
 11
2.8167263409
 21
4.3003152079
  0
LINE
  5
2C2
100
AcDbEntity
  8
0
100
AcDbLine
 62
7
  6
CONTINUOUS
 10
3.8876174496
 20
2.4753152079
 11
3.7980842181
 21
2.6303913139
  0
LINE
  5
2C3
100
AcDbEntity
  8
0
100
AcDbLine
 62
7
  6
CONTINUOUS
 10
2.1701174496
 20
5.5003152079
 11
2.0805842181
 21
5.6553913139
  0
LINE
  5
2C4
100
AcDbEntity
  8
0
100
AcDbLine
 62
7
  6
CONTINUOUS
 10
3.4141931094
 20
3.3553913139
 11
3.5037263409
 21
3.2003152079
  0
LINE
  5
2C5
100
AcDbEntity
  8
0
100
AcDbLine
 62
7
  6
CONTINUOUS
 10
2.8571174496
 20
4.4003152079
 11
2.7675842181
 21
4.5553913139
  0
LINE
  5
2C6
100
AcDbEntity
  8
0
100
AcDbLine
 62
7
  6
CONTINUOUS
 10
4.1011931094
 20
2.2553913139
 11
4.1907263409
 21
2.1003152079
  0
LINE
  5
2C7
100
AcDbEntity
  8
0
100
AcDbLine
 62
7
  6
CONTINUOUS
 10
2.3836931094
 20
5.2803913139
 11
2.4732263409
 21
5.1253152079
  0
LINE
  5
2C8
100
AcDbEntity
  8
0
100
AcDbLine
 62
7
  6
CONTINUOUS
 10
3.5441174496
 20
3.3003152079
 11
3.4545842181
 21
3.4553913139
  0
LINE
  5
2C9
100
AcDbEntity
  8
0
100
AcDbLine
 62
7
  6
CONTINUOUS
 10
3.0706931094
 20
4.1803913139
 11
3.1602263409
 21
4.0253152079
  0
LINE
  5
2CA
100
AcDbEntity
  8
0
100
AcDbLine
 62
7
  6
CONTINUOUS
 10
4.2311174496
 20
2.2003152079
 11
4.1415842181
 21
2.3553913139
  0
LINE
  5
2CB
100
AcDbEntity
  8
0
100
AcDbLine
 62
7
  6
CONTINUOUS
 10
2.5136174496
 20
5.2253152079
 11
2.4240842181
 21
5.3803913139
  0
LINE
  5
2CC
100
AcDbEntity
  8
0
100
AcDbLine
 62
7
  6
CONTINUOUS
 10
3.7576931094
 20
3.0803913139
 11
3.8472263409
 21
2.9253152079
  0
LINE
  5
2CD
100
AcDbEntity
  8
0
100
AcDbLine
 62
7
  6
CONTINUOUS
 10
3.2006174496
 20
4.1253152079
 11
3.1110842181
 21
4.2803913139
  0
LINE
  5
2CE
100
AcDbEntity
  8
0
100
AcDbLine
 62
7
  6
CONTINUOUS
 10
4.4446931094
 20
1.9803913139
 11
4.5342263409
 21
1.8253152079
  0
LINE
  5
2CF
100
AcDbEntity
  8
0
100
AcDbLine
 62
7
  6
CONTINUOUS
 10
2.8167263409
 20
3.7303913139
 11
2.7271931094
 21
3.5753152079
  0
LINE
  5
2D0
100
AcDbEntity
  8
0
100
AcDbLine
 62
7
  6
CONTINUOUS
 10
3.7980842181
 20
5.4003152079
 11
3.8876174496
 21
5.5553913139
  0
LINE
  5
2D1
100
AcDbEntity
  8
0
100
AcDbLine
 62
7
  6
CONTINUOUS
 10
2.0805842181
 20
2.3753152079
 11
2.1701174496
 21
2.5303913139
  0
LINE
  5
2D2
100
AcDbEntity
  8
0
100
AcDbLine
 62
7
  6
CONTINUOUS
 10
3.5037263409
 20
4.8303913139
 11
3.4141931094
 21
4.6753152079
  0
LINE
  5
2D3
100
AcDbEntity
  8
0
100
AcDbLine
 62
7
  6
CONTINUOUS
 10
4.4850842181
 20
6.5003152079
 11
4.5746174496
 21
6.6553913139
  0
LINE
  5
2D4
100
AcDbEntity
  8
0
100
AcDbLine
 62
7
  6
CONTINUOUS
 10
2.7675842181
 20
3.4753152079
 11
2.8571174496
 21
3.6303913139
  0
LINE
  5
2D5
100
AcDbEntity
  8
0
100
AcDbLine
 62
7
  6
CONTINUOUS
 10
4.1907263409
 20
5.9303913139
 11
4.1011931094
 21
5.7753152079
  0
LINE
  5
2D6
100
AcDbEntity
  8
0
100
AcDbLine
 62
7
  6
CONTINUOUS
 10
2.4732263409
 20
2.9053913139
 11
2.3836931094
 21
2.7503152079
  0
LINE
  5
2D7
100
AcDbEntity
  8
0
100
AcDbLine
 62
7
  6
CONTINUOUS
 10
3.4545842181
 20
4.5753152079
 11
3.5441174496
 21
4.7303913139
  0
LINE
  5
2D8
100
AcDbEntity
  8
0
100
AcDbLine
 62
7
  6
CONTINUOUS
 10
3.1602263409
 20
4.0053913139
 11
3.0706931094
 21
3.8503152079
  0
LINE
  5
2D9
100
AcDbEntity
  8
0
100
AcDbLine
 62
7
  6
CONTINUOUS
 10
4.1415842181
 20
5.6753152079
 11
4.2311174496
 21
5.8303913139
  0
LINE
  5
2DA
100
AcDbEntity
  8
0
100
AcDbLine
 62
7
  6
CONTINUOUS
 10
2.4240842181
 20
2.6503152079
 11
2.5136174496
 21
2.8053913139
  0
LINE
  5
2DB
100
AcDbEntity
  8
0
100
AcDbLine
 62
7
  6
CONTINUOUS
 10
3.8472263409
 20
5.1053913139
 11
3.7576931094
 21
4.9503152079
  0
LINE
  5
2DC
100
AcDbEntity
  8
0
100
AcDbLine
 62
7
  6
CONTINUOUS
 10
4.8285842181
 20
6.7753152079
 11
4.9181174496
 21
6.9303913139
  0
LINE
  5
2DD
100
AcDbEntity
  8
0
100
AcDbLine
 62
7
  6
CONTINUOUS
 10
3.1110842181
 20
3.7503152079
 11
3.2006174496
 21
3.9053913139
  0
LINE
  5
2DE
100
AcDbEntity
  8
0
100
AcDbLine
 62
7
  6
CONTINUOUS
 10
4.5342263409
 20
6.2053913139
 11
4.4446931094
 21
6.0503152079
  0
LINE
  5
2DF
100
AcDbEntity
  8
0
100
AcDbLine
 62
7
  6
CONTINUOUS
 10
6.8319385111
 20
3.0153532609
 11
6.6528720479
 21
3.0153532609
  0
LINE
  5
2E0
100
AcDbEntity
  8
0
100
AcDbLine
 62
7
  6
CONTINUOUS
 10
6.1449385111
 20
3.0153532609
 11
5.9658720479
 21
3.0153532609
  0
LINE
  5
2E1
100
AcDbEntity
  8
0
100
AcDbLine
 62
7
  6
CONTINUOUS
 10
5.4579385111
 20
3.0153532609
 11
5.2788720479
 21
3.0153532609
  0
LINE
  5
2E2
100
AcDbEntity
  8
0
100
AcDbLine
 62
7
  6
CONTINUOUS
 10
4.7709385111
 20
3.0153532609
 11
4.5918720479
 21
3.0153532609
  0
LINE
  5
2E3
100
AcDbEntity
  8
0
100
AcDbLine
 62
7
  6
CONTINUOUS
 10
4.0839385111
 20
3.0153532609
 11
3.9048720479
 21
3.0153532609
  0
LINE
  5
2E4
100
AcDbEntity
  8
0
100
AcDbLine
 62
7
  6
CONTINUOUS
 10
3.3969385111
 20
3.0153532609
 11
3.2178720479
 21
3.0153532609
  0
LINE
  5
2E5
100
AcDbEntity
  8
0
100
AcDbLine
 62
7
  6
CONTINUOUS
 10
2.7099385111
 20
3.0153532609
 11
2.5308720479
 21
3.0153532609
  0
LINE
  5
2E6
100
AcDbEntity
  8
0
100
AcDbLine
 62
7
  6
CONTINUOUS
 10
2.1873720479
 20
3.0903532609
 11
2.3664385111
 21
3.0903532609
  0
LINE
  5
2E7
100
AcDbEntity
  8
0
100
AcDbLine
 62
7
  6
CONTINUOUS
 10
2.8743720479
 20
3.0903532609
 11
3.0534385111
 21
3.0903532609
  0
LINE
  5
2E8
100
AcDbEntity
  8
0
100
AcDbLine
 62
7
  6
CONTINUOUS
 10
3.5613720479
 20
3.0903532609
 11
3.7404385111
 21
3.0903532609
  0
LINE
  5
2E9
100
AcDbEntity
  8
0
100
AcDbLine
 62
7
  6
CONTINUOUS
 10
4.2483720479
 20
3.0903532609
 11
4.4274385111
 21
3.0903532609
  0
LINE
  5
2EA
100
AcDbEntity
  8
0
100
AcDbLine
 62
7
  6
CONTINUOUS
 10
4.9353720479
 20
3.0903532609
 11
5.1144385111
 21
3.0903532609
  0
LINE
  5
2EB
100
AcDbEntity
  8
0
100
AcDbLine
 62
7
  6
CONTINUOUS
 10
5.6223720479
 20
3.0903532609
 11
5.8014385111
 21
3.0903532609
  0
LINE
  5
2EC
100
AcDbEntity
  8
0
100
AcDbLine
 62
7
  6
CONTINUOUS
 10
6.3093720479
 20
3.0903532609
 11
6.4884385111
 21
3.0903532609
  0
LINE
  5
2ED
100
AcDbEntity
  8
0
100
AcDbLine
 62
7
  6
CONTINUOUS
 10
6.9963720479
 20
3.0903532609
 11
7.1754385111
 21
3.0903532609
  0
LINE
  5
2EE
100
AcDbEntity
  8
0
100
AcDbLine
 62
7
  6
CONTINUOUS
 10
2.7271931094
 20
5.0053913139
 11
2.8167263409
 21
4.8503152079
  0
LINE
  5
2EF
100
AcDbEntity
  8
0
100
AcDbLine
 62
7
  6
CONTINUOUS
 10
3.8876174496
 20
3.0253152079
 11
3.7980842181
 21
3.1803913139
  0
LINE
  5
2F0
100
AcDbEntity
  8
0
100
AcDbLine
 62
7
  6
CONTINUOUS
 10
2.1701174496
 20
6.0503152079
 11
2.0805842181
 21
6.2053913139
  0
LINE
  5
2F1
100
AcDbEntity
  8
0
100
AcDbLine
 62
7
  6
CONTINUOUS
 10
3.4141931094
 20
3.9053913139
 11
3.5037263409
 21
3.7503152079
  0
LINE
  5
2F2
100
AcDbEntity
  8
0
100
AcDbLine
 62
7
  6
CONTINUOUS
 10
4.5746174496
 20
1.9253152079
 11
4.4850842181
 21
2.0803913139
  0
LINE
  5
2F3
100
AcDbEntity
  8
0
100
AcDbLine
 62
7
  6
CONTINUOUS
 10
2.8571174496
 20
4.9503152079
 11
2.7675842181
 21
5.1053913139
  0
LINE
  5
2F4
100
AcDbEntity
  8
0
100
AcDbLine
 62
7
  6
CONTINUOUS
 10
4.1011931094
 20
2.8053913139
 11
4.1907263409
 21
2.6503152079
  0
LINE
  5
2F5
100
AcDbEntity
  8
0
100
AcDbLine
 62
7
  6
CONTINUOUS
 10
2.3836931094
 20
5.8303913139
 11
2.4732263409
 21
5.6753152079
  0
LINE
  5
2F6
100
AcDbEntity
  8
0
100
AcDbLine
 62
7
  6
CONTINUOUS
 10
3.5441174496
 20
3.8503152079
 11
3.4545842181
 21
4.0053913139
  0
LINE
  5
2F7
100
AcDbEntity
  8
0
100
AcDbLine
 62
7
  6
CONTINUOUS
 10
3.0706931094
 20
4.7303913139
 11
3.1602263409
 21
4.5753152079
  0
LINE
  5
2F8
100
AcDbEntity
  8
0
100
AcDbLine
 62
7
  6
CONTINUOUS
 10
4.2311174496
 20
2.7503152079
 11
4.1415842181
 21
2.9053913139
  0
LINE
  5
2F9
100
AcDbEntity
  8
0
100
AcDbLine
 62
7
  6
CONTINUOUS
 10
2.5136174496
 20
5.7753152079
 11
2.4240842181
 21
5.9303913139
  0
LINE
  5
2FA
100
AcDbEntity
  8
0
100
AcDbLine
 62
7
  6
CONTINUOUS
 10
3.7576931094
 20
3.6303913139
 11
3.8472263409
 21
3.4753152079
  0
LINE
  5
2FB
100
AcDbEntity
  8
0
100
AcDbLine
 62
7
  6
CONTINUOUS
 10
4.9181174496
 20
1.6503152079
 11
4.8285842181
 21
1.8053913139
  0
LINE
  5
2FC
100
AcDbEntity
  8
0
100
AcDbLine
 62
7
  6
CONTINUOUS
 10
3.2006174496
 20
4.6753152079
 11
3.1110842181
 21
4.8303913139
  0
LINE
  5
2FD
100
AcDbEntity
  8
0
100
AcDbLine
 62
7
  6
CONTINUOUS
 10
4.4446931094
 20
2.5303913139
 11
4.5342263409
 21
2.3753152079
  0
LINE
  5
2FE
100
AcDbEntity
  8
0
100
AcDbLine
 62
7
  6
CONTINUOUS
 10
2.8167263409
 20
3.1803913139
 11
2.7271931094
 21
3.0253152079
  0
LINE
  5
2FF
100
AcDbEntity
  8
0
100
AcDbLine
 62
7
  6
CONTINUOUS
 10
3.7980842181
 20
4.8503152079
 11
3.8876174496
 21
5.0053913139
  0
LINE
  5
300
100
AcDbEntity
  8
0
100
AcDbLine
 62
7
  6
CONTINUOUS
 10
2.0805842181
 20
1.8253152079
 11
2.1701174496
 21
1.9803913139
  0
LINE
  5
301
100
AcDbEntity
  8
0
100
AcDbLine
 62
7
  6
CONTINUOUS
 10
3.5037263409
 20
4.2803913139
 11
3.4141931094
 21
4.1253152079
  0
LINE
  5
302
100
AcDbEntity
  8
0
100
AcDbLine
 62
7
  6
CONTINUOUS
 10
4.4850842181
 20
5.9503152079
 11
4.5746174496
 21
6.1053913139
  0
LINE
  5
303
100
AcDbEntity
  8
0
100
AcDbLine
 62
7
  6
CONTINUOUS
 10
2.7675842181
 20
2.9253152079
 11
2.8571174496
 21
3.0803913139
  0
LINE
  5
304
100
AcDbEntity
  8
0
100
AcDbLine
 62
7
  6
CONTINUOUS
 10
4.1907263409
 20
5.3803913139
 11
4.1011931094
 21
5.2253152079
  0
LINE
  5
305
100
AcDbEntity
  8
0
100
AcDbLine
 62
7
  6
CONTINUOUS
 10
2.4732263409
 20
2.3553913139
 11
2.3836931094
 21
2.2003152079
  0
LINE
  5
306
100
AcDbEntity
  8
0
100
AcDbLine
 62
7
  6
CONTINUOUS
 10
3.4545842181
 20
4.0253152079
 11
3.5441174496
 21
4.1803913139
  0
LINE
  5
307
100
AcDbEntity
  8
0
100
AcDbLine
 62
7
  6
CONTINUOUS
 10
4.8777263409
 20
6.4803913139
 11
4.7881931094
 21
6.3253152079
  0
LINE
  5
308
100
AcDbEntity
  8
0
100
AcDbLine
 62
7
  6
CONTINUOUS
 10
3.1602263409
 20
3.4553913139
 11
3.0706931094
 21
3.3003152079
  0
LINE
  5
309
100
AcDbEntity
  8
0
100
AcDbLine
 62
7
  6
CONTINUOUS
 10
4.1415842181
 20
5.1253152079
 11
4.2311174496
 21
5.2803913139
  0
LINE
  5
30A
100
AcDbEntity
  8
0
100
AcDbLine
 62
7
  6
CONTINUOUS
 10
2.4240842181
 20
2.1003152079
 11
2.5136174496
 21
2.2553913139
  0
LINE
  5
30B
100
AcDbEntity
  8
0
100
AcDbLine
 62
7
  6
CONTINUOUS
 10
3.8472263409
 20
4.5553913139
 11
3.7576931094
 21
4.4003152079
  0
LINE
  5
30C
100
AcDbEntity
  8
0
100
AcDbLine
 62
7
  6
CONTINUOUS
 10
4.8285842181
 20
6.2253152079
 11
4.9181174496
 21
6.3803913139
  0
LINE
  5
30D
100
AcDbEntity
  8
0
100
AcDbLine
 62
7
  6
CONTINUOUS
 10
3.1110842181
 20
3.2003152079
 11
3.2006174496
 21
3.3553913139
  0
LINE
  5
30E
100
AcDbEntity
  8
0
100
AcDbLine
 62
7
  6
CONTINUOUS
 10
4.5342263409
 20
5.6553913139
 11
4.4446931094
 21
5.5003152079
  0
LINE
  5
30F
100
AcDbEntity
  8
0
100
AcDbLine
 62
7
  6
CONTINUOUS
 10
7.1754385111
 20
3.2903532609
 11
6.9963720479
 21
3.2903532609
  0
LINE
  5
310
100
AcDbEntity
  8
0
100
AcDbLine
 62
7
  6
CONTINUOUS
 10
6.4884385111
 20
3.2903532609
 11
6.3093720479
 21
3.2903532609
  0
LINE
  5
311
100
AcDbEntity
  8
0
100
AcDbLine
 62
7
  6
CONTINUOUS
 10
5.8014385111
 20
3.2903532609
 11
5.6223720479
 21
3.2903532609
  0
LINE
  5
312
100
AcDbEntity
  8
0
100
AcDbLine
 62
7
  6
CONTINUOUS
 10
5.1144385111
 20
3.2903532609
 11
4.9353720479
 21
3.2903532609
  0
LINE
  5
313
100
AcDbEntity
  8
0
100
AcDbLine
 62
7
  6
CONTINUOUS
 10
4.4274385111
 20
3.2903532609
 11
4.2483720479
 21
3.2903532609
  0
LINE
  5
314
100
AcDbEntity
  8
0
100
AcDbLine
 62
7
  6
CONTINUOUS
 10
3.7404385111
 20
3.2903532609
 11
3.5613720479
 21
3.2903532609
  0
LINE
  5
315
100
AcDbEntity
  8
0
100
AcDbLine
 62
7
  6
CONTINUOUS
 10
3.0534385111
 20
3.2903532609
 11
2.8743720479
 21
3.2903532609
  0
LINE
  5
316
100
AcDbEntity
  8
0
100
AcDbLine
 62
7
  6
CONTINUOUS
 10
2.3664385111
 20
3.2903532609
 11
2.1873720479
 21
3.2903532609
  0
LINE
  5
317
100
AcDbEntity
  8
0
100
AcDbLine
 62
7
  6
CONTINUOUS
 10
2.5308720479
 20
3.3653532609
 11
2.7099385111
 21
3.3653532609
  0
LINE
  5
318
100
AcDbEntity
  8
0
100
AcDbLine
 62
7
  6
CONTINUOUS
 10
3.2178720479
 20
3.3653532609
 11
3.3969385111
 21
3.3653532609
  0
LINE
  5
319
100
AcDbEntity
  8
0
100
AcDbLine
 62
7
  6
CONTINUOUS
 10
3.9048720479
 20
3.3653532609
 11
4.0839385111
 21
3.3653532609
  0
LINE
  5
31A
100
AcDbEntity
  8
0
100
AcDbLine
 62
7
  6
CONTINUOUS
 10
4.5918720479
 20
3.3653532609
 11
4.7709385111
 21
3.3653532609
  0
LINE
  5
31B
100
AcDbEntity
  8
0
100
AcDbLine
 62
7
  6
CONTINUOUS
 10
5.2788720479
 20
3.3653532609
 11
5.4579385111
 21
3.3653532609
  0
LINE
  5
31C
100
AcDbEntity
  8
0
100
AcDbLine
 62
7
  6
CONTINUOUS
 10
5.9658720479
 20
3.3653532609
 11
6.1449385111
 21
3.3653532609
  0
LINE
  5
31D
100
AcDbEntity
  8
0
100
AcDbLine
 62
7
  6
CONTINUOUS
 10
6.6528720479
 20
3.3653532609
 11
6.8319385111
 21
3.3653532609
  0
LINE
  5
31E
100
AcDbEntity
  8
0
100
AcDbLine
 62
7
  6
CONTINUOUS
 10
2.7271931094
 20
5.5553913139
 11
2.8167263409
 21
5.4003152079
  0
LINE
  5
31F
100
AcDbEntity
  8
0
100
AcDbLine
 62
7
  6
CONTINUOUS
 10
3.8876174496
 20
3.5753152079
 11
3.7980842181
 21
3.7303913139
  0
LINE
  5
320
100
AcDbEntity
  8
0
100
AcDbLine
 62
7
  6
CONTINUOUS
 10
2.0805842181
 20
6.7553913139
 11
2.1701174496
 21
6.6003152079
  0
LINE
  5
321
100
AcDbEntity
  8
0
100
AcDbLine
 62
7
  6
CONTINUOUS
 10
3.4141931094
 20
4.4553913139
 11
3.5037263409
 21
4.3003152079
  0
LINE
  5
322
100
AcDbEntity
  8
0
100
AcDbLine
 62
7
  6
CONTINUOUS
 10
4.5746174496
 20
2.4753152079
 11
4.4850842181
 21
2.6303913139
  0
LINE
  5
323
100
AcDbEntity
  8
0
100
AcDbLine
 62
7
  6
CONTINUOUS
 10
2.8571174496
 20
5.5003152079
 11
2.7675842181
 21
5.6553913139
  0
LINE
  5
324
100
AcDbEntity
  8
0
100
AcDbLine
 62
7
  6
CONTINUOUS
 10
4.1011931094
 20
3.3553913139
 11
4.1907263409
 21
3.2003152079
  0
LINE
  5
325
100
AcDbEntity
  8
0
100
AcDbLine
 62
7
  6
CONTINUOUS
 10
2.3836931094
 20
6.3803913139
 11
2.4732263409
 21
6.2253152079
  0
LINE
  5
326
100
AcDbEntity
  8
0
100
AcDbLine
 62
7
  6
CONTINUOUS
 10
3.5441174496
 20
4.4003152079
 11
3.4545842181
 21
4.5553913139
  0
LINE
  5
327
100
AcDbEntity
  8
0
100
AcDbLine
 62
7
  6
CONTINUOUS
 10
4.7881931094
 20
2.2553913139
 11
4.8777263409
 21
2.1003152079
  0
LINE
  5
328
100
AcDbEntity
  8
0
100
AcDbLine
 62
7
  6
CONTINUOUS
 10
3.0706931094
 20
5.2803913139
 11
3.1602263409
 21
5.1253152079
  0
LINE
  5
329
100
AcDbEntity
  8
0
100
AcDbLine
 62
7
  6
CONTINUOUS
 10
4.2311174496
 20
3.3003152079
 11
4.1415842181
 21
3.4553913139
  0
LINE
  5
32A
100
AcDbEntity
  8
0
100
AcDbLine
 62
7
  6
CONTINUOUS
 10
2.4240842181
 20
6.4803913139
 11
2.5136174496
 21
6.3253152079
  0
LINE
  5
32B
100
AcDbEntity
  8
0
100
AcDbLine
 62
7
  6
CONTINUOUS
 10
3.7576931094
 20
4.1803913139
 11
3.8472263409
 21
4.0253152079
  0
LINE
  5
32C
100
AcDbEntity
  8
0
100
AcDbLine
 62
7
  6
CONTINUOUS
 10
4.9181174496
 20
2.2003152079
 11
4.8285842181
 21
2.3553913139
  0
LINE
  5
32D
100
AcDbEntity
  8
0
100
AcDbLine
 62
7
  6
CONTINUOUS
 10
3.2006174496
 20
5.2253152079
 11
3.1110842181
 21
5.3803913139
  0
LINE
  5
32E
100
AcDbEntity
  8
0
100
AcDbLine
 62
7
  6
CONTINUOUS
 10
4.4446931094
 20
3.0803913139
 11
4.5342263409
 21
2.9253152079
  0
LINE
  5
32F
100
AcDbEntity
  8
0
100
AcDbLine
 62
7
  6
CONTINUOUS
 10
2.8167263409
 20
2.6303913139
 11
2.7271931094
 21
2.4753152079
  0
LINE
  5
330
100
AcDbEntity
  8
0
100
AcDbLine
 62
7
  6
CONTINUOUS
 10
3.7980842181
 20
4.3003152079
 11
3.8876174496
 21
4.4553913139
  0
LINE
  5
331
100
AcDbEntity
  8
0
100
AcDbLine
 62
7
  6
CONTINUOUS
 10
5.2212263409
 20
6.7553913139
 11
5.1316931094
 21
6.6003152079
  0
LINE
  5
332
100
AcDbEntity
  8
0
100
AcDbLine
 62
7
  6
CONTINUOUS
 10
3.5037263409
 20
3.7303913139
 11
3.4141931094
 21
3.5753152079
  0
LINE
  5
333
100
AcDbEntity
  8
0
100
AcDbLine
 62
7
  6
CONTINUOUS
 10
4.4850842181
 20
5.4003152079
 11
4.5746174496
 21
5.5553913139
  0
LINE
  5
334
100
AcDbEntity
  8
0
100
AcDbLine
 62
7
  6
CONTINUOUS
 10
2.7675842181
 20
2.3753152079
 11
2.8571174496
 21
2.5303913139
  0
LINE
  5
335
100
AcDbEntity
  8
0
100
AcDbLine
 62
7
  6
CONTINUOUS
 10
4.1907263409
 20
4.8303913139
 11
4.1011931094
 21
4.6753152079
  0
LINE
  5
336
100
AcDbEntity
  8
0
100
AcDbLine
 62
7
  6
CONTINUOUS
 10
5.1720842181
 20
6.5003152079
 11
5.2616174496
 21
6.6553913139
  0
LINE
  5
337
100
AcDbEntity
  8
0
100
AcDbLine
 62
7
  6
CONTINUOUS
 10
2.4732263409
 20
1.8053913139
 11
2.3836931094
 21
1.6503152079
  0
LINE
  5
338
100
AcDbEntity
  8
0
100
AcDbLine
 62
7
  6
CONTINUOUS
 10
3.4545842181
 20
3.4753152079
 11
3.5441174496
 21
3.6303913139
  0
LINE
  5
339
100
AcDbEntity
  8
0
100
AcDbLine
 62
7
  6
CONTINUOUS
 10
4.8777263409
 20
5.9303913139
 11
4.7881931094
 21
5.7753152079
  0
LINE
  5
33A
100
AcDbEntity
  8
0
100
AcDbLine
 62
7
  6
CONTINUOUS
 10
3.1602263409
 20
2.9053913139
 11
3.0706931094
 21
2.7503152079
  0
LINE
  5
33B
100
AcDbEntity
  8
0
100
AcDbLine
 62
7
  6
CONTINUOUS
 10
4.1415842181
 20
4.5753152079
 11
4.2311174496
 21
4.7303913139
  0
LINE
  5
33C
100
AcDbEntity
  8
0
100
AcDbLine
 62
7
  6
CONTINUOUS
 10
3.8472263409
 20
4.0053913139
 11
3.7576931094
 21
3.8503152079
  0
LINE
  5
33D
100
AcDbEntity
  8
0
100
AcDbLine
 62
7
  6
CONTINUOUS
 10
4.8285842181
 20
5.6753152079
 11
4.9181174496
 21
5.8303913139
  0
LINE
  5
33E
100
AcDbEntity
  8
0
100
AcDbLine
 62
7
  6
CONTINUOUS
 10
3.1110842181
 20
2.6503152079
 11
3.2006174496
 21
2.8053913139
  0
LINE
  5
33F
100
AcDbEntity
  8
0
100
AcDbLine
 62
7
  6
CONTINUOUS
 10
4.5342263409
 20
5.1053913139
 11
4.4446931094
 21
4.9503152079
  0
LINE
  5
340
100
AcDbEntity
  8
0
100
AcDbLine
 62
7
  6
CONTINUOUS
 10
5.5155842181
 20
6.7753152079
 11
5.6051174496
 21
6.9303913139
  0
LINE
  5
341
100
AcDbEntity
  8
0
100
AcDbLine
 62
7
  6
CONTINUOUS
 10
6.8319385111
 20
3.5653532609
 11
6.6528720479
 21
3.5653532609
  0
LINE
  5
342
100
AcDbEntity
  8
0
100
AcDbLine
 62
7
  6
CONTINUOUS
 10
6.1449385111
 20
3.5653532609
 11
5.9658720479
 21
3.5653532609
  0
LINE
  5
343
100
AcDbEntity
  8
0
100
AcDbLine
 62
7
  6
CONTINUOUS
 10
5.4579385111
 20
3.5653532609
 11
5.2788720479
 21
3.5653532609
  0
LINE
  5
344
100
AcDbEntity
  8
0
100
AcDbLine
 62
7
  6
CONTINUOUS
 10
4.7709385111
 20
3.5653532609
 11
4.5918720479
 21
3.5653532609
  0
LINE
  5
345
100
AcDbEntity
  8
0
100
AcDbLine
 62
7
  6
CONTINUOUS
 10
4.0839385111
 20
3.5653532609
 11
3.9048720479
 21
3.5653532609
  0
LINE
  5
346
100
AcDbEntity
  8
0
100
AcDbLine
 62
7
  6
CONTINUOUS
 10
3.3969385111
 20
3.5653532609
 11
3.2178720479
 21
3.5653532609
  0
LINE
  5
347
100
AcDbEntity
  8
0
100
AcDbLine
 62
7
  6
CONTINUOUS
 10
2.7099385111
 20
3.5653532609
 11
2.5308720479
 21
3.5653532609
  0
LINE
  5
348
100
AcDbEntity
  8
0
100
AcDbLine
 62
7
  6
CONTINUOUS
 10
2.1873720479
 20
3.6403532609
 11
2.3664385111
 21
3.6403532609
  0
LINE
  5
349
100
AcDbEntity
  8
0
100
AcDbLine
 62
7
  6
CONTINUOUS
 10
2.8743720479
 20
3.6403532609
 11
3.0534385111
 21
3.6403532609
  0
LINE
  5
34A
100
AcDbEntity
  8
0
100
AcDbLine
 62
7
  6
CONTINUOUS
 10
3.5613720479
 20
3.6403532609
 11
3.7404385111
 21
3.6403532609
  0
LINE
  5
34B
100
AcDbEntity
  8
0
100
AcDbLine
 62
7
  6
CONTINUOUS
 10
4.2483720479
 20
3.6403532609
 11
4.4274385111
 21
3.6403532609
  0
LINE
  5
34C
100
AcDbEntity
  8
0
100
AcDbLine
 62
7
  6
CONTINUOUS
 10
4.9353720479
 20
3.6403532609
 11
5.1144385111
 21
3.6403532609
  0
LINE
  5
34D
100
AcDbEntity
  8
0
100
AcDbLine
 62
7
  6
CONTINUOUS
 10
5.6223720479
 20
3.6403532609
 11
5.8014385111
 21
3.6403532609
  0
LINE
  5
34E
100
AcDbEntity
  8
0
100
AcDbLine
 62
7
  6
CONTINUOUS
 10
6.3093720479
 20
3.6403532609
 11
6.4884385111
 21
3.6403532609
  0
LINE
  5
34F
100
AcDbEntity
  8
0
100
AcDbLine
 62
7
  6
CONTINUOUS
 10
6.9963720479
 20
3.6403532609
 11
7.1754385111
 21
3.6403532609
  0
LINE
  5
350
100
AcDbEntity
  8
0
100
AcDbLine
 62
7
  6
CONTINUOUS
 10
2.7271931094
 20
6.1053913139
 11
2.8167263409
 21
5.9503152079
  0
LINE
  5
351
100
AcDbEntity
  8
0
100
AcDbLine
 62
7
  6
CONTINUOUS
 10
3.8876174496
 20
4.1253152079
 11
3.7980842181
 21
4.2803913139
  0
LINE
  5
352
100
AcDbEntity
  8
0
100
AcDbLine
 62
7
  6
CONTINUOUS
 10
5.1316931094
 20
1.9803913139
 11
5.2212263409
 21
1.8253152079
  0
LINE
  5
353
100
AcDbEntity
  8
0
100
AcDbLine
 62
7
  6
CONTINUOUS
 10
3.4141931094
 20
5.0053913139
 11
3.5037263409
 21
4.8503152079
  0
LINE
  5
354
100
AcDbEntity
  8
0
100
AcDbLine
 62
7
  6
CONTINUOUS
 10
4.5746174496
 20
3.0253152079
 11
4.4850842181
 21
3.1803913139
  0
LINE
  5
355
100
AcDbEntity
  8
0
100
AcDbLine
 62
7
  6
CONTINUOUS
 10
2.8571174496
 20
6.0503152079
 11
2.7675842181
 21
6.2053913139
  0
LINE
  5
356
100
AcDbEntity
  8
0
100
AcDbLine
 62
7
  6
CONTINUOUS
 10
4.1011931094
 20
3.9053913139
 11
4.1907263409
 21
3.7503152079
  0
LINE
  5
357
100
AcDbEntity
  8
0
100
AcDbLine
 62
7
  6
CONTINUOUS
 10
5.2616174496
 20
1.9253152079
 11
5.1720842181
 21
2.0803913139
  0
LINE
  5
358
100
AcDbEntity
  8
0
100
AcDbLine
 62
7
  6
CONTINUOUS
 10
2.4732263409
 20
6.7753152079
 11
2.3836931094
 21
6.9303913139
  0
LINE
  5
359
100
AcDbEntity
  8
0
100
AcDbLine
 62
7
  6
CONTINUOUS
 10
3.5441174496
 20
4.9503152079
 11
3.4545842181
 21
5.1053913139
  0
LINE
  5
35A
100
AcDbEntity
  8
0
100
AcDbLine
 62
7
  6
CONTINUOUS
 10
4.7881931094
 20
2.8053913139
 11
4.8777263409
 21
2.6503152079
  0
LINE
  5
35B
100
AcDbEntity
  8
0
100
AcDbLine
 62
7
  6
CONTINUOUS
 10
3.0706931094
 20
5.8303913139
 11
3.1602263409
 21
5.6753152079
  0
LINE
  5
35C
100
AcDbEntity
  8
0
100
AcDbLine
 62
7
  6
CONTINUOUS
 10
4.2311174496
 20
3.8503152079
 11
4.1415842181
 21
4.0053913139
  0
LINE
  5
35D
100
AcDbEntity
  8
0
100
AcDbLine
 62
7
  6
CONTINUOUS
 10
3.7576931094
 20
4.7303913139
 11
3.8472263409
 21
4.5753152079
  0
LINE
  5
35E
100
AcDbEntity
  8
0
100
AcDbLine
 62
7
  6
CONTINUOUS
 10
4.9181174496
 20
2.7503152079
 11
4.8285842181
 21
2.9053913139
  0
LINE
  5
35F
100
AcDbEntity
  8
0
100
AcDbLine
 62
7
  6
CONTINUOUS
 10
3.2006174496
 20
5.7753152079
 11
3.1110842181
 21
5.9303913139
  0
LINE
  5
360
100
AcDbEntity
  8
0
100
AcDbLine
 62
7
  6
CONTINUOUS
 10
4.4446931094
 20
3.6303913139
 11
4.5342263409
 21
3.4753152079
  0
LINE
  5
361
100
AcDbEntity
  8
0
100
AcDbLine
 62
7
  6
CONTINUOUS
 10
5.6051174496
 20
1.6503152079
 11
5.5155842181
 21
1.8053913139
  0
LINE
  5
362
100
AcDbEntity
  8
0
100
AcDbLine
 62
7
  6
CONTINUOUS
 10
2.8167263409
 20
2.0803913139
 11
2.7271931094
 21
1.9253152079
  0
LINE
  5
363
100
AcDbEntity
  8
0
100
AcDbLine
 62
7
  6
CONTINUOUS
 10
3.7980842181
 20
3.7503152079
 11
3.8876174496
 21
3.9053913139
  0
LINE
  5
364
100
AcDbEntity
  8
0
100
AcDbLine
 62
7
  6
CONTINUOUS
 10
5.2212263409
 20
6.2053913139
 11
5.1316931094
 21
6.0503152079
  0
LINE
  5
365
100
AcDbEntity
  8
0
100
AcDbLine
 62
7
  6
CONTINUOUS
 10
3.5037263409
 20
3.1803913139
 11
3.4141931094
 21
3.0253152079
  0
LINE
  5
366
100
AcDbEntity
  8
0
100
AcDbLine
 62
7
  6
CONTINUOUS
 10
4.4850842181
 20
4.8503152079
 11
4.5746174496
 21
5.0053913139
  0
LINE
  5
367
100
AcDbEntity
  8
0
100
AcDbLine
 62
7
  6
CONTINUOUS
 10
2.7675842181
 20
1.8253152079
 11
2.8571174496
 21
1.9803913139
  0
LINE
  5
368
100
AcDbEntity
  8
0
100
AcDbLine
 62
7
  6
CONTINUOUS
 10
4.1907263409
 20
4.2803913139
 11
4.1011931094
 21
4.1253152079
  0
LINE
  5
369
100
AcDbEntity
  8
0
100
AcDbLine
 62
7
  6
CONTINUOUS
 10
5.1720842181
 20
5.9503152079
 11
5.2616174496
 21
6.1053913139
  0
LINE
  5
36A
100
AcDbEntity
  8
0
100
AcDbLine
 62
7
  6
CONTINUOUS
 10
3.4545842181
 20
2.9253152079
 11
3.5441174496
 21
3.0803913139
  0
LINE
  5
36B
100
AcDbEntity
  8
0
100
AcDbLine
 62
7
  6
CONTINUOUS
 10
4.8777263409
 20
5.3803913139
 11
4.7881931094
 21
5.2253152079
  0
LINE
  5
36C
100
AcDbEntity
  8
0
100
AcDbLine
 62
7
  6
CONTINUOUS
 10
3.1602263409
 20
2.3553913139
 11
3.0706931094
 21
2.2003152079
  0
LINE
  5
36D
100
AcDbEntity
  8
0
100
AcDbLine
 62
7
  6
CONTINUOUS
 10
4.1415842181
 20
4.0253152079
 11
4.2311174496
 21
4.1803913139
  0
LINE
  5
36E
100
AcDbEntity
  8
0
100
AcDbLine
 62
7
  6
CONTINUOUS
 10
5.5647263409
 20
6.4803913139
 11
5.4751931094
 21
6.3253152079
  0
LINE
  5
36F
100
AcDbEntity
  8
0
100
AcDbLine
 62
7
  6
CONTINUOUS
 10
3.8472263409
 20
3.4553913139
 11
3.7576931094
 21
3.3003152079
  0
LINE
  5
370
100
AcDbEntity
  8
0
100
AcDbLine
 62
7
  6
CONTINUOUS
 10
4.8285842181
 20
5.1253152079
 11
4.9181174496
 21
5.2803913139
  0
LINE
  5
371
100
AcDbEntity
  8
0
100
AcDbLine
 62
7
  6
CONTINUOUS
 10
3.1110842181
 20
2.1003152079
 11
3.2006174496
 21
2.2553913139
  0
LINE
  5
372
100
AcDbEntity
  8
0
100
AcDbLine
 62
7
  6
CONTINUOUS
 10
4.5342263409
 20
4.5553913139
 11
4.4446931094
 21
4.4003152079
  0
LINE
  5
373
100
AcDbEntity
  8
0
100
AcDbLine
 62
7
  6
CONTINUOUS
 10
5.5155842181
 20
6.2253152079
 11
5.6051174496
 21
6.3803913139
  0
LINE
  5
374
100
AcDbEntity
  8
0
100
AcDbLine
 62
7
  6
CONTINUOUS
 10
7.1754385111
 20
3.8403532609
 11
6.9963720479
 21
3.8403532609
  0
LINE
  5
375
100
AcDbEntity
  8
0
100
AcDbLine
 62
7
  6
CONTINUOUS
 10
6.4884385111
 20
3.8403532609
 11
6.3093720479
 21
3.8403532609
  0
LINE
  5
376
100
AcDbEntity
  8
0
100
AcDbLine
 62
7
  6
CONTINUOUS
 10
5.8014385111
 20
3.8403532609
 11
5.6223720479
 21
3.8403532609
  0
LINE
  5
377
100
AcDbEntity
  8
0
100
AcDbLine
 62
7
  6
CONTINUOUS
 10
5.1144385111
 20
3.8403532609
 11
4.9353720479
 21
3.8403532609
  0
LINE
  5
378
100
AcDbEntity
  8
0
100
AcDbLine
 62
7
  6
CONTINUOUS
 10
4.4274385111
 20
3.8403532609
 11
4.2483720479
 21
3.8403532609
  0
LINE
  5
379
100
AcDbEntity
  8
0
100
AcDbLine
 62
7
  6
CONTINUOUS
 10
3.7404385111
 20
3.8403532609
 11
3.5613720479
 21
3.8403532609
  0
LINE
  5
37A
100
AcDbEntity
  8
0
100
AcDbLine
 62
7
  6
CONTINUOUS
 10
3.0534385111
 20
3.8403532609
 11
2.8743720479
 21
3.8403532609
  0
LINE
  5
37B
100
AcDbEntity
  8
0
100
AcDbLine
 62
7
  6
CONTINUOUS
 10
2.3664385111
 20
3.8403532609
 11
2.1873720479
 21
3.8403532609
  0
LINE
  5
37C
100
AcDbEntity
  8
0
100
AcDbLine
 62
7
  6
CONTINUOUS
 10
2.5308720479
 20
3.9153532609
 11
2.7099385111
 21
3.9153532609
  0
LINE
  5
37D
100
AcDbEntity
  8
0
100
AcDbLine
 62
7
  6
CONTINUOUS
 10
3.2178720479
 20
3.9153532609
 11
3.3969385111
 21
3.9153532609
  0
LINE
  5
37E
100
AcDbEntity
  8
0
100
AcDbLine
 62
7
  6
CONTINUOUS
 10
3.9048720479
 20
3.9153532609
 11
4.0839385111
 21
3.9153532609
  0
LINE
  5
37F
100
AcDbEntity
  8
0
100
AcDbLine
 62
7
  6
CONTINUOUS
 10
4.5918720479
 20
3.9153532609
 11
4.7709385111
 21
3.9153532609
  0
LINE
  5
380
100
AcDbEntity
  8
0
100
AcDbLine
 62
7
  6
CONTINUOUS
 10
5.2788720479
 20
3.9153532609
 11
5.4579385111
 21
3.9153532609
  0
LINE
  5
381
100
AcDbEntity
  8
0
100
AcDbLine
 62
7
  6
CONTINUOUS
 10
5.9658720479
 20
3.9153532609
 11
6.1449385111
 21
3.9153532609
  0
LINE
  5
382
100
AcDbEntity
  8
0
100
AcDbLine
 62
7
  6
CONTINUOUS
 10
6.6528720479
 20
3.9153532609
 11
6.8319385111
 21
3.9153532609
  0
LINE
  5
383
100
AcDbEntity
  8
0
100
AcDbLine
 62
7
  6
CONTINUOUS
 10
2.8167263409
 20
6.5003152079
 11
2.7271931094
 21
6.6553913139
  0
LINE
  5
384
100
AcDbEntity
  8
0
100
AcDbLine
 62
7
  6
CONTINUOUS
 10
3.8876174496
 20
4.6753152079
 11
3.7980842181
 21
4.8303913139
  0
LINE
  5
385
100
AcDbEntity
  8
0
100
AcDbLine
 62
7
  6
CONTINUOUS
 10
5.1316931094
 20
2.5303913139
 11
5.2212263409
 21
2.3753152079
  0
LINE
  5
386
100
AcDbEntity
  8
0
100
AcDbLine
 62
7
  6
CONTINUOUS
 10
3.4141931094
 20
5.5553913139
 11
3.5037263409
 21
5.4003152079
  0
LINE
  5
387
100
AcDbEntity
  8
0
100
AcDbLine
 62
7
  6
CONTINUOUS
 10
4.5746174496
 20
3.5753152079
 11
4.4850842181
 21
3.7303913139
  0
LINE
  5
388
100
AcDbEntity
  8
0
100
AcDbLine
 62
7
  6
CONTINUOUS
 10
2.8571174496
 20
6.6003152079
 11
2.7675842181
 21
6.7553913139
  0
LINE
  5
389
100
AcDbEntity
  8
0
100
AcDbLine
 62
7
  6
CONTINUOUS
 10
4.1011931094
 20
4.4553913139
 11
4.1907263409
 21
4.3003152079
  0
LINE
  5
38A
100
AcDbEntity
  8
0
100
AcDbLine
 62
7
  6
CONTINUOUS
 10
5.2616174496
 20
2.4753152079
 11
5.1720842181
 21
2.6303913139
  0
LINE
  5
38B
100
AcDbEntity
  8
0
100
AcDbLine
 62
7
  6
CONTINUOUS
 10
3.5441174496
 20
5.5003152079
 11
3.4545842181
 21
5.6553913139
  0
LINE
  5
38C
100
AcDbEntity
  8
0
100
AcDbLine
 62
7
  6
CONTINUOUS
 10
4.7881931094
 20
3.3553913139
 11
4.8777263409
 21
3.2003152079
  0
LINE
  5
38D
100
AcDbEntity
  8
0
100
AcDbLine
 62
7
  6
CONTINUOUS
 10
3.0706931094
 20
6.3803913139
 11
3.1602263409
 21
6.2253152079
  0
LINE
  5
38E
100
AcDbEntity
  8
0
100
AcDbLine
 62
7
  6
CONTINUOUS
 10
4.2311174496
 20
4.4003152079
 11
4.1415842181
 21
4.5553913139
  0
LINE
  5
38F
100
AcDbEntity
  8
0
100
AcDbLine
 62
7
  6
CONTINUOUS
 10
5.4751931094
 20
2.2553913139
 11
5.5647263409
 21
2.1003152079
  0
LINE
  5
390
100
AcDbEntity
  8
0
100
AcDbLine
 62
7
  6
CONTINUOUS
 10
3.7576931094
 20
5.2803913139
 11
3.8472263409
 21
5.1253152079
  0
LINE
  5
391
100
AcDbEntity
  8
0
100
AcDbLine
 62
7
  6
CONTINUOUS
 10
4.9181174496
 20
3.3003152079
 11
4.8285842181
 21
3.4553913139
  0
LINE
  5
392
100
AcDbEntity
  8
0
100
AcDbLine
 62
7
  6
CONTINUOUS
 10
3.2006174496
 20
6.3253152079
 11
3.1110842181
 21
6.4803913139
  0
LINE
  5
393
100
AcDbEntity
  8
0
100
AcDbLine
 62
7
  6
CONTINUOUS
 10
4.4446931094
 20
4.1803913139
 11
4.5342263409
 21
4.0253152079
  0
LINE
  5
394
100
AcDbEntity
  8
0
100
AcDbLine
 62
7
  6
CONTINUOUS
 10
5.6051174496
 20
2.2003152079
 11
5.5155842181
 21
2.3553913139
  0
LINE
  5
395
100
AcDbEntity
  8
0
100
AcDbLine
 62
7
  6
CONTINUOUS
 10
3.7980842181
 20
3.2003152079
 11
3.8876174496
 21
3.3553913139
  0
LINE
  5
396
100
AcDbEntity
  8
0
100
AcDbLine
 62
7
  6
CONTINUOUS
 10
5.2212263409
 20
5.6553913139
 11
5.1316931094
 21
5.5003152079
  0
LINE
  5
397
100
AcDbEntity
  8
0
100
AcDbLine
 62
7
  6
CONTINUOUS
 10
3.5037263409
 20
2.6303913139
 11
3.4141931094
 21
2.4753152079
  0
LINE
  5
398
100
AcDbEntity
  8
0
100
AcDbLine
 62
7
  6
CONTINUOUS
 10
4.4850842181
 20
4.3003152079
 11
4.5746174496
 21
4.4553913139
  0
LINE
  5
399
100
AcDbEntity
  8
0
100
AcDbLine
 62
7
  6
CONTINUOUS
 10
5.9082263409
 20
6.7553913139
 11
5.8186931094
 21
6.6003152079
  0
LINE
  5
39A
100
AcDbEntity
  8
0
100
AcDbLine
 62
7
  6
CONTINUOUS
 10
4.1907263409
 20
3.7303913139
 11
4.1011931094
 21
3.5753152079
  0
LINE
  5
39B
100
AcDbEntity
  8
0
100
AcDbLine
 62
7
  6
CONTINUOUS
 10
5.1720842181
 20
5.4003152079
 11
5.2616174496
 21
5.5553913139
  0
LINE
  5
39C
100
AcDbEntity
  8
0
100
AcDbLine
 62
7
  6
CONTINUOUS
 10
3.4545842181
 20
2.3753152079
 11
3.5441174496
 21
2.5303913139
  0
LINE
  5
39D
100
AcDbEntity
  8
0
100
AcDbLine
 62
7
  6
CONTINUOUS
 10
4.8777263409
 20
4.8303913139
 11
4.7881931094
 21
4.6753152079
  0
LINE
  5
39E
100
AcDbEntity
  8
0
100
AcDbLine
 62
7
  6
CONTINUOUS
 10
5.8590842181
 20
6.5003152079
 11
5.9486174496
 21
6.6553913139
  0
LINE
  5
39F
100
AcDbEntity
  8
0
100
AcDbLine
 62
7
  6
CONTINUOUS
 10
3.1602263409
 20
1.8053913139
 11
3.0706931094
 21
1.6503152079
  0
LINE
  5
3A0
100
AcDbEntity
  8
0
100
AcDbLine
 62
7
  6
CONTINUOUS
 10
4.1415842181
 20
3.4753152079
 11
4.2311174496
 21
3.6303913139
  0
LINE
  5
3A1
100
AcDbEntity
  8
0
100
AcDbLine
 62
7
  6
CONTINUOUS
 10
5.5647263409
 20
5.9303913139
 11
5.4751931094
 21
5.7753152079
  0
LINE
  5
3A2
100
AcDbEntity
  8
0
100
AcDbLine
 62
7
  6
CONTINUOUS
 10
3.8472263409
 20
2.9053913139
 11
3.7576931094
 21
2.7503152079
  0
LINE
  5
3A3
100
AcDbEntity
  8
0
100
AcDbLine
 62
7
  6
CONTINUOUS
 10
4.8285842181
 20
4.5753152079
 11
4.9181174496
 21
4.7303913139
  0
LINE
  5
3A4
100
AcDbEntity
  8
0
100
AcDbLine
 62
7
  6
CONTINUOUS
 10
4.5342263409
 20
4.0053913139
 11
4.4446931094
 21
3.8503152079
  0
LINE
  5
3A5
100
AcDbEntity
  8
0
100
AcDbLine
 62
7
  6
CONTINUOUS
 10
5.5155842181
 20
5.6753152079
 11
5.6051174496
 21
5.8303913139
  0
LINE
  5
3A6
100
AcDbEntity
  8
0
100
AcDbLine
 62
7
  6
CONTINUOUS
 10
6.8319385111
 20
4.1153532609
 11
6.6528720479
 21
4.1153532609
  0
LINE
  5
3A7
100
AcDbEntity
  8
0
100
AcDbLine
 62
7
  6
CONTINUOUS
 10
6.1449385111
 20
4.1153532609
 11
5.9658720479
 21
4.1153532609
  0
LINE
  5
3A8
100
AcDbEntity
  8
0
100
AcDbLine
 62
7
  6
CONTINUOUS
 10
5.4579385111
 20
4.1153532609
 11
5.2788720479
 21
4.1153532609
  0
LINE
  5
3A9
100
AcDbEntity
  8
0
100
AcDbLine
 62
7
  6
CONTINUOUS
 10
4.7709385111
 20
4.1153532609
 11
4.5918720479
 21
4.1153532609
  0
LINE
  5
3AA
100
AcDbEntity
  8
0
100
AcDbLine
 62
7
  6
CONTINUOUS
 10
4.0839385111
 20
4.1153532609
 11
3.9048720479
 21
4.1153532609
  0
LINE
  5
3AB
100
AcDbEntity
  8
0
100
AcDbLine
 62
7
  6
CONTINUOUS
 10
3.3969385111
 20
4.1153532609
 11
3.2178720479
 21
4.1153532609
  0
LINE
  5
3AC
100
AcDbEntity
  8
0
100
AcDbLine
 62
7
  6
CONTINUOUS
 10
2.7099385111
 20
4.1153532609
 11
2.5308720479
 21
4.1153532609
  0
LINE
  5
3AD
100
AcDbEntity
  8
0
100
AcDbLine
 62
7
  6
CONTINUOUS
 10
2.1873720479
 20
4.1903532609
 11
2.3664385111
 21
4.1903532609
  0
LINE
  5
3AE
100
AcDbEntity
  8
0
100
AcDbLine
 62
7
  6
CONTINUOUS
 10
2.8743720479
 20
4.1903532609
 11
3.0534385111
 21
4.1903532609
  0
LINE
  5
3AF
100
AcDbEntity
  8
0
100
AcDbLine
 62
7
  6
CONTINUOUS
 10
3.5613720479
 20
4.1903532609
 11
3.7404385111
 21
4.1903532609
  0
LINE
  5
3B0
100
AcDbEntity
  8
0
100
AcDbLine
 62
7
  6
CONTINUOUS
 10
4.2483720479
 20
4.1903532609
 11
4.4274385111
 21
4.1903532609
  0
LINE
  5
3B1
100
AcDbEntity
  8
0
100
AcDbLine
 62
7
  6
CONTINUOUS
 10
4.9353720479
 20
4.1903532609
 11
5.1144385111
 21
4.1903532609
  0
LINE
  5
3B2
100
AcDbEntity
  8
0
100
AcDbLine
 62
7
  6
CONTINUOUS
 10
5.6223720479
 20
4.1903532609
 11
5.8014385111
 21
4.1903532609
  0
LINE
  5
3B3
100
AcDbEntity
  8
0
100
AcDbLine
 62
7
  6
CONTINUOUS
 10
6.3093720479
 20
4.1903532609
 11
6.4884385111
 21
4.1903532609
  0
LINE
  5
3B4
100
AcDbEntity
  8
0
100
AcDbLine
 62
7
  6
CONTINUOUS
 10
6.9963720479
 20
4.1903532609
 11
7.1754385111
 21
4.1903532609
  0
LINE
  5
3B5
100
AcDbEntity
  8
0
100
AcDbLine
 62
7
  6
CONTINUOUS
 10
3.8876174496
 20
5.2253152079
 11
3.7980842181
 21
5.3803913139
  0
LINE
  5
3B6
100
AcDbEntity
  8
0
100
AcDbLine
 62
7
  6
CONTINUOUS
 10
5.1316931094
 20
3.0803913139
 11
5.2212263409
 21
2.9253152079
  0
LINE
  5
3B7
100
AcDbEntity
  8
0
100
AcDbLine
 62
7
  6
CONTINUOUS
 10
3.4141931094
 20
6.1053913139
 11
3.5037263409
 21
5.9503152079
  0
LINE
  5
3B8
100
AcDbEntity
  8
0
100
AcDbLine
 62
7
  6
CONTINUOUS
 10
4.5746174496
 20
4.1253152079
 11
4.4850842181
 21
4.2803913139
  0
LINE
  5
3B9
100
AcDbEntity
  8
0
100
AcDbLine
 62
7
  6
CONTINUOUS
 10
5.8186931094
 20
1.9803913139
 11
5.9082263409
 21
1.8253152079
  0
LINE
  5
3BA
100
AcDbEntity
  8
0
100
AcDbLine
 62
7
  6
CONTINUOUS
 10
4.1011931094
 20
5.0053913139
 11
4.1907263409
 21
4.8503152079
  0
LINE
  5
3BB
100
AcDbEntity
  8
0
100
AcDbLine
 62
7
  6
CONTINUOUS
 10
5.2616174496
 20
3.0253152079
 11
5.1720842181
 21
3.1803913139
  0
LINE
  5
3BC
100
AcDbEntity
  8
0
100
AcDbLine
 62
7
  6
CONTINUOUS
 10
3.5441174496
 20
6.0503152079
 11
3.4545842181
 21
6.2053913139
  0
LINE
  5
3BD
100
AcDbEntity
  8
0
100
AcDbLine
 62
7
  6
CONTINUOUS
 10
4.7881931094
 20
3.9053913139
 11
4.8777263409
 21
3.7503152079
  0
LINE
  5
3BE
100
AcDbEntity
  8
0
100
AcDbLine
 62
7
  6
CONTINUOUS
 10
5.9486174496
 20
1.9253152079
 11
5.8590842181
 21
2.0803913139
  0
LINE
  5
3BF
100
AcDbEntity
  8
0
100
AcDbLine
 62
7
  6
CONTINUOUS
 10
3.0706931094
 20
6.9303913139
 11
3.1602263409
 21
6.7753152079
  0
LINE
  5
3C0
100
AcDbEntity
  8
0
100
AcDbLine
 62
7
  6
CONTINUOUS
 10
4.2311174496
 20
4.9503152079
 11
4.1415842181
 21
5.1053913139
  0
LINE
  5
3C1
100
AcDbEntity
  8
0
100
AcDbLine
 62
7
  6
CONTINUOUS
 10
5.4751931094
 20
2.8053913139
 11
5.5647263409
 21
2.6503152079
  0
LINE
  5
3C2
100
AcDbEntity
  8
0
100
AcDbLine
 62
7
  6
CONTINUOUS
 10
3.7576931094
 20
5.8303913139
 11
3.8472263409
 21
5.6753152079
  0
LINE
  5
3C3
100
AcDbEntity
  8
0
100
AcDbLine
 62
7
  6
CONTINUOUS
 10
4.9181174496
 20
3.8503152079
 11
4.8285842181
 21
4.0053913139
  0
LINE
  5
3C4
100
AcDbEntity
  8
0
100
AcDbLine
 62
7
  6
CONTINUOUS
 10
4.4446931094
 20
4.7303913139
 11
4.5342263409
 21
4.5753152079
  0
LINE
  5
3C5
100
AcDbEntity
  8
0
100
AcDbLine
 62
7
  6
CONTINUOUS
 10
5.6051174496
 20
2.7503152079
 11
5.5155842181
 21
2.9053913139
  0
LINE
  5
3C6
100
AcDbEntity
  8
0
100
AcDbLine
 62
7
  6
CONTINUOUS
 10
3.7980842181
 20
2.6503152079
 11
3.8876174496
 21
2.8053913139
  0
LINE
  5
3C7
100
AcDbEntity
  8
0
100
AcDbLine
 62
7
  6
CONTINUOUS
 10
5.2212263409
 20
5.1053913139
 11
5.1316931094
 21
4.9503152079
  0
LINE
  5
3C8
100
AcDbEntity
  8
0
100
AcDbLine
 62
7
  6
CONTINUOUS
 10
6.2025842181
 20
6.7753152079
 11
6.2921174496
 21
6.9303913139
  0
LINE
  5
3C9
100
AcDbEntity
  8
0
100
AcDbLine
 62
7
  6
CONTINUOUS
 10
3.5037263409
 20
2.0803913139
 11
3.4141931094
 21
1.9253152079
  0
LINE
  5
3CA
100
AcDbEntity
  8
0
100
AcDbLine
 62
7
  6
CONTINUOUS
 10
4.4850842181
 20
3.7503152079
 11
4.5746174496
 21
3.9053913139
  0
LINE
  5
3CB
100
AcDbEntity
  8
0
100
AcDbLine
 62
7
  6
CONTINUOUS
 10
5.9082263409
 20
6.2053913139
 11
5.8186931094
 21
6.0503152079
  0
LINE
  5
3CC
100
AcDbEntity
  8
0
100
AcDbLine
 62
7
  6
CONTINUOUS
 10
4.1907263409
 20
3.1803913139
 11
4.1011931094
 21
3.0253152079
  0
LINE
  5
3CD
100
AcDbEntity
  8
0
100
AcDbLine
 62
7
  6
CONTINUOUS
 10
5.1720842181
 20
4.8503152079
 11
5.2616174496
 21
5.0053913139
  0
LINE
  5
3CE
100
AcDbEntity
  8
0
100
AcDbLine
 62
7
  6
CONTINUOUS
 10
3.4545842181
 20
1.8253152079
 11
3.5441174496
 21
1.9803913139
  0
LINE
  5
3CF
100
AcDbEntity
  8
0
100
AcDbLine
 62
7
  6
CONTINUOUS
 10
4.8777263409
 20
4.2803913139
 11
4.7881931094
 21
4.1253152079
  0
LINE
  5
3D0
100
AcDbEntity
  8
0
100
AcDbLine
 62
7
  6
CONTINUOUS
 10
5.8590842181
 20
5.9503152079
 11
5.9486174496
 21
6.1053913139
  0
LINE
  5
3D1
100
AcDbEntity
  8
0
100
AcDbLine
 62
7
  6
CONTINUOUS
 10
4.1415842181
 20
2.9253152079
 11
4.2311174496
 21
3.0803913139
  0
LINE
  5
3D2
100
AcDbEntity
  8
0
100
AcDbLine
 62
7
  6
CONTINUOUS
 10
5.5647263409
 20
5.3803913139
 11
5.4751931094
 21
5.2253152079
  0
LINE
  5
3D3
100
AcDbEntity
  8
0
100
AcDbLine
 62
7
  6
CONTINUOUS
 10
3.8472263409
 20
2.3553913139
 11
3.7576931094
 21
2.2003152079
  0
LINE
  5
3D4
100
AcDbEntity
  8
0
100
AcDbLine
 62
7
  6
CONTINUOUS
 10
4.8285842181
 20
4.0253152079
 11
4.9181174496
 21
4.1803913139
  0
LINE
  5
3D5
100
AcDbEntity
  8
0
100
AcDbLine
 62
7
  6
CONTINUOUS
 10
6.2517263409
 20
6.4803913139
 11
6.1621931094
 21
6.3253152079
  0
LINE
  5
3D6
100
AcDbEntity
  8
0
100
AcDbLine
 62
7
  6
CONTINUOUS
 10
4.5342263409
 20
3.4553913139
 11
4.4446931094
 21
3.3003152079
  0
LINE
  5
3D7
100
AcDbEntity
  8
0
100
AcDbLine
 62
7
  6
CONTINUOUS
 10
5.5155842181
 20
5.1253152079
 11
5.6051174496
 21
5.2803913139
  0
LINE
  5
3D8
100
AcDbEntity
  8
0
100
AcDbLine
 62
7
  6
CONTINUOUS
 10
7.1754385111
 20
4.3903532609
 11
6.9963720479
 21
4.3903532609
  0
LINE
  5
3D9
100
AcDbEntity
  8
0
100
AcDbLine
 62
7
  6
CONTINUOUS
 10
6.4884385111
 20
4.3903532609
 11
6.3093720479
 21
4.3903532609
  0
LINE
  5
3DA
100
AcDbEntity
  8
0
100
AcDbLine
 62
7
  6
CONTINUOUS
 10
5.8014385111
 20
4.3903532609
 11
5.6223720479
 21
4.3903532609
  0
LINE
  5
3DB
100
AcDbEntity
  8
0
100
AcDbLine
 62
7
  6
CONTINUOUS
 10
5.1144385111
 20
4.3903532609
 11
4.9353720479
 21
4.3903532609
  0
LINE
  5
3DC
100
AcDbEntity
  8
0
100
AcDbLine
 62
7
  6
CONTINUOUS
 10
4.4274385111
 20
4.3903532609
 11
4.2483720479
 21
4.3903532609
  0
LINE
  5
3DD
100
AcDbEntity
  8
0
100
AcDbLine
 62
7
  6
CONTINUOUS
 10
3.7404385111
 20
4.3903532609
 11
3.5613720479
 21
4.3903532609
  0
LINE
  5
3DE
100
AcDbEntity
  8
0
100
AcDbLine
 62
7
  6
CONTINUOUS
 10
3.0534385111
 20
4.3903532609
 11
2.8743720479
 21
4.3903532609
  0
LINE
  5
3DF
100
AcDbEntity
  8
0
100
AcDbLine
 62
7
  6
CONTINUOUS
 10
2.3664385111
 20
4.3903532609
 11
2.1873720479
 21
4.3903532609
  0
LINE
  5
3E0
100
AcDbEntity
  8
0
100
AcDbLine
 62
7
  6
CONTINUOUS
 10
2.5308720479
 20
4.4653532609
 11
2.7099385111
 21
4.4653532609
  0
LINE
  5
3E1
100
AcDbEntity
  8
0
100
AcDbLine
 62
7
  6
CONTINUOUS
 10
3.2178720479
 20
4.4653532609
 11
3.3969385111
 21
4.4653532609
  0
LINE
  5
3E2
100
AcDbEntity
  8
0
100
AcDbLine
 62
7
  6
CONTINUOUS
 10
3.9048720479
 20
4.4653532609
 11
4.0839385111
 21
4.4653532609
  0
LINE
  5
3E3
100
AcDbEntity
  8
0
100
AcDbLine
 62
7
  6
CONTINUOUS
 10
4.5918720479
 20
4.4653532609
 11
4.7709385111
 21
4.4653532609
  0
LINE
  5
3E4
100
AcDbEntity
  8
0
100
AcDbLine
 62
7
  6
CONTINUOUS
 10
5.2788720479
 20
4.4653532609
 11
5.4579385111
 21
4.4653532609
  0
LINE
  5
3E5
100
AcDbEntity
  8
0
100
AcDbLine
 62
7
  6
CONTINUOUS
 10
5.9658720479
 20
4.4653532609
 11
6.1449385111
 21
4.4653532609
  0
LINE
  5
3E6
100
AcDbEntity
  8
0
100
AcDbLine
 62
7
  6
CONTINUOUS
 10
6.6528720479
 20
4.4653532609
 11
6.8319385111
 21
4.4653532609
  0
LINE
  5
3E7
100
AcDbEntity
  8
0
100
AcDbLine
 62
7
  6
CONTINUOUS
 10
3.8876174496
 20
5.7753152079
 11
3.7980842181
 21
5.9303913139
  0
LINE
  5
3E8
100
AcDbEntity
  8
0
100
AcDbLine
 62
7
  6
CONTINUOUS
 10
5.1316931094
 20
3.6303913139
 11
5.2212263409
 21
3.4753152079
  0
LINE
  5
3E9
100
AcDbEntity
  8
0
100
AcDbLine
 62
7
  6
CONTINUOUS
 10
6.2921174496
 20
1.6503152079
 11
6.2025842181
 21
1.8053913139
  0
LINE
  5
3EA
100
AcDbEntity
  8
0
100
AcDbLine
 62
7
  6
CONTINUOUS
 10
3.4141931094
 20
6.6553913139
 11
3.5037263409
 21
6.5003152079
  0
LINE
  5
3EB
100
AcDbEntity
  8
0
100
AcDbLine
 62
7
  6
CONTINUOUS
 10
4.5746174496
 20
4.6753152079
 11
4.4850842181
 21
4.8303913139
  0
LINE
  5
3EC
100
AcDbEntity
  8
0
100
AcDbLine
 62
7
  6
CONTINUOUS
 10
5.8186931094
 20
2.5303913139
 11
5.9082263409
 21
2.3753152079
  0
LINE
  5
3ED
100
AcDbEntity
  8
0
100
AcDbLine
 62
7
  6
CONTINUOUS
 10
4.1011931094
 20
5.5553913139
 11
4.1907263409
 21
5.4003152079
  0
LINE
  5
3EE
100
AcDbEntity
  8
0
100
AcDbLine
 62
7
  6
CONTINUOUS
 10
5.2616174496
 20
3.5753152079
 11
5.1720842181
 21
3.7303913139
  0
LINE
  5
3EF
100
AcDbEntity
  8
0
100
AcDbLine
 62
7
  6
CONTINUOUS
 10
3.5441174496
 20
6.6003152079
 11
3.4545842181
 21
6.7553913139
  0
LINE
  5
3F0
100
AcDbEntity
  8
0
100
AcDbLine
 62
7
  6
CONTINUOUS
 10
4.7881931094
 20
4.4553913139
 11
4.8777263409
 21
4.3003152079
  0
LINE
  5
3F1
100
AcDbEntity
  8
0
100
AcDbLine
 62
7
  6
CONTINUOUS
 10
5.9486174496
 20
2.4753152079
 11
5.8590842181
 21
2.6303913139
  0
LINE
  5
3F2
100
AcDbEntity
  8
0
100
AcDbLine
 62
7
  6
CONTINUOUS
 10
4.2311174496
 20
5.5003152079
 11
4.1415842181
 21
5.6553913139
  0
LINE
  5
3F3
100
AcDbEntity
  8
0
100
AcDbLine
 62
7
  6
CONTINUOUS
 10
5.4751931094
 20
3.3553913139
 11
5.5647263409
 21
3.2003152079
  0
LINE
  5
3F4
100
AcDbEntity
  8
0
100
AcDbLine
 62
7
  6
CONTINUOUS
 10
3.7576931094
 20
6.3803913139
 11
3.8472263409
 21
6.2253152079
  0
LINE
  5
3F5
100
AcDbEntity
  8
0
100
AcDbLine
 62
7
  6
CONTINUOUS
 10
4.9181174496
 20
4.4003152079
 11
4.8285842181
 21
4.5553913139
  0
LINE
  5
3F6
100
AcDbEntity
  8
0
100
AcDbLine
 62
7
  6
CONTINUOUS
 10
6.1621931094
 20
2.2553913139
 11
6.2517263409
 21
2.1003152079
  0
LINE
  5
3F7
100
AcDbEntity
  8
0
100
AcDbLine
 62
7
  6
CONTINUOUS
 10
4.4446931094
 20
5.2803913139
 11
4.5342263409
 21
5.1253152079
  0
LINE
  5
3F8
100
AcDbEntity
  8
0
100
AcDbLine
 62
7
  6
CONTINUOUS
 10
5.6051174496
 20
3.3003152079
 11
5.5155842181
 21
3.4553913139
  0
LINE
  5
3F9
100
AcDbEntity
  8
0
100
AcDbLine
 62
7
  6
CONTINUOUS
 10
3.7980842181
 20
2.1003152079
 11
3.8876174496
 21
2.2553913139
  0
LINE
  5
3FA
100
AcDbEntity
  8
0
100
AcDbLine
 62
7
  6
CONTINUOUS
 10
5.2212263409
 20
4.5553913139
 11
5.1316931094
 21
4.4003152079
  0
LINE
  5
3FB
100
AcDbEntity
  8
0
100
AcDbLine
 62
7
  6
CONTINUOUS
 10
6.2025842181
 20
6.2253152079
 11
6.2921174496
 21
6.3803913139
  0
LINE
  5
3FC
100
AcDbEntity
  8
0
100
AcDbLine
 62
7
  6
CONTINUOUS
 10
4.4850842181
 20
3.2003152079
 11
4.5746174496
 21
3.3553913139
  0
LINE
  5
3FD
100
AcDbEntity
  8
0
100
AcDbLine
 62
7
  6
CONTINUOUS
 10
5.9082263409
 20
5.6553913139
 11
5.8186931094
 21
5.5003152079
  0
LINE
  5
3FE
100
AcDbEntity
  8
0
100
AcDbLine
 62
7
  6
CONTINUOUS
 10
4.1907263409
 20
2.6303913139
 11
4.1011931094
 21
2.4753152079
  0
LINE
  5
3FF
100
AcDbEntity
  8
0
100
AcDbLine
 62
7
  6
CONTINUOUS
 10
5.1720842181
 20
4.3003152079
 11
5.2616174496
 21
4.4553913139
  0
LINE
  5
400
100
AcDbEntity
  8
0
100
AcDbLine
 62
7
  6
CONTINUOUS
 10
6.5952263409
 20
6.7553913139
 11
6.5056931094
 21
6.6003152079
  0
LINE
  5
401
100
AcDbEntity
  8
0
100
AcDbLine
 62
7
  6
CONTINUOUS
 10
4.8777263409
 20
3.7303913139
 11
4.7881931094
 21
3.5753152079
  0
LINE
  5
402
100
AcDbEntity
  8
0
100
AcDbLine
 62
7
  6
CONTINUOUS
 10
5.8590842181
 20
5.4003152079
 11
5.9486174496
 21
5.5553913139
  0
LINE
  5
403
100
AcDbEntity
  8
0
100
AcDbLine
 62
7
  6
CONTINUOUS
 10
4.1415842181
 20
2.3753152079
 11
4.2311174496
 21
2.5303913139
  0
LINE
  5
404
100
AcDbEntity
  8
0
100
AcDbLine
 62
7
  6
CONTINUOUS
 10
5.5647263409
 20
4.8303913139
 11
5.4751931094
 21
4.6753152079
  0
LINE
  5
405
100
AcDbEntity
  8
0
100
AcDbLine
 62
7
  6
CONTINUOUS
 10
6.5460842181
 20
6.5003152079
 11
6.6356174496
 21
6.6553913139
  0
LINE
  5
406
100
AcDbEntity
  8
0
100
AcDbLine
 62
7
  6
CONTINUOUS
 10
3.8472263409
 20
1.8053913139
 11
3.7576931094
 21
1.6503152079
  0
LINE
  5
407
100
AcDbEntity
  8
0
100
AcDbLine
 62
7
  6
CONTINUOUS
 10
4.8285842181
 20
3.4753152079
 11
4.9181174496
 21
3.6303913139
  0
LINE
  5
408
100
AcDbEntity
  8
0
100
AcDbLine
 62
7
  6
CONTINUOUS
 10
6.2517263409
 20
5.9303913139
 11
6.1621931094
 21
5.7753152079
  0
LINE
  5
409
100
AcDbEntity
  8
0
100
AcDbLine
 62
7
  6
CONTINUOUS
 10
4.5342263409
 20
2.9053913139
 11
4.4446931094
 21
2.7503152079
  0
LINE
  5
40A
100
AcDbEntity
  8
0
100
AcDbLine
 62
7
  6
CONTINUOUS
 10
5.5155842181
 20
4.5753152079
 11
5.6051174496
 21
4.7303913139
  0
LINE
  5
40B
100
AcDbEntity
  8
0
100
AcDbLine
 62
7
  6
CONTINUOUS
 10
6.8319385111
 20
4.6653532609
 11
6.6528720479
 21
4.6653532609
  0
LINE
  5
40C
100
AcDbEntity
  8
0
100
AcDbLine
 62
7
  6
CONTINUOUS
 10
6.1449385111
 20
4.6653532609
 11
5.9658720479
 21
4.6653532609
  0
LINE
  5
40D
100
AcDbEntity
  8
0
100
AcDbLine
 62
7
  6
CONTINUOUS
 10
5.4579385111
 20
4.6653532609
 11
5.2788720479
 21
4.6653532609
  0
LINE
  5
40E
100
AcDbEntity
  8
0
100
AcDbLine
 62
7
  6
CONTINUOUS
 10
4.7709385111
 20
4.6653532609
 11
4.5918720479
 21
4.6653532609
  0
LINE
  5
40F
100
AcDbEntity
  8
0
100
AcDbLine
 62
7
  6
CONTINUOUS
 10
4.0839385111
 20
4.6653532609
 11
3.9048720479
 21
4.6653532609
  0
LINE
  5
410
100
AcDbEntity
  8
0
100
AcDbLine
 62
7
  6
CONTINUOUS
 10
3.3969385111
 20
4.6653532609
 11
3.2178720479
 21
4.6653532609
  0
LINE
  5
411
100
AcDbEntity
  8
0
100
AcDbLine
 62
7
  6
CONTINUOUS
 10
2.7099385111
 20
4.6653532609
 11
2.5308720479
 21
4.6653532609
  0
LINE
  5
412
100
AcDbEntity
  8
0
100
AcDbLine
 62
7
  6
CONTINUOUS
 10
2.1873720479
 20
4.7403532609
 11
2.3664385111
 21
4.7403532609
  0
LINE
  5
413
100
AcDbEntity
  8
0
100
AcDbLine
 62
7
  6
CONTINUOUS
 10
2.8743720479
 20
4.7403532609
 11
3.0534385111
 21
4.7403532609
  0
LINE
  5
414
100
AcDbEntity
  8
0
100
AcDbLine
 62
7
  6
CONTINUOUS
 10
3.5613720479
 20
4.7403532609
 11
3.7404385111
 21
4.7403532609
  0
LINE
  5
415
100
AcDbEntity
  8
0
100
AcDbLine
 62
7
  6
CONTINUOUS
 10
4.2483720479
 20
4.7403532609
 11
4.4274385111
 21
4.7403532609
  0
LINE
  5
416
100
AcDbEntity
  8
0
100
AcDbLine
 62
7
  6
CONTINUOUS
 10
4.9353720479
 20
4.7403532609
 11
5.1144385111
 21
4.7403532609
  0
LINE
  5
417
100
AcDbEntity
  8
0
100
AcDbLine
 62
7
  6
CONTINUOUS
 10
5.6223720479
 20
4.7403532609
 11
5.8014385111
 21
4.7403532609
  0
LINE
  5
418
100
AcDbEntity
  8
0
100
AcDbLine
 62
7
  6
CONTINUOUS
 10
6.3093720479
 20
4.7403532609
 11
6.4884385111
 21
4.7403532609
  0
LINE
  5
419
100
AcDbEntity
  8
0
100
AcDbLine
 62
7
  6
CONTINUOUS
 10
6.9963720479
 20
4.7403532609
 11
7.1754385111
 21
4.7403532609
  0
LINE
  5
41A
100
AcDbEntity
  8
0
100
AcDbLine
 62
7
  6
CONTINUOUS
 10
3.8876174496
 20
6.3253152079
 11
3.7980842181
 21
6.4803913139
  0
LINE
  5
41B
100
AcDbEntity
  8
0
100
AcDbLine
 62
7
  6
CONTINUOUS
 10
5.1316931094
 20
4.1803913139
 11
5.2212263409
 21
4.0253152079
  0
LINE
  5
41C
100
AcDbEntity
  8
0
100
AcDbLine
 62
7
  6
CONTINUOUS
 10
6.2921174496
 20
2.2003152079
 11
6.2025842181
 21
2.3553913139
  0
LINE
  5
41D
100
AcDbEntity
  8
0
100
AcDbLine
 62
7
  6
CONTINUOUS
 10
4.5746174496
 20
5.2253152079
 11
4.4850842181
 21
5.3803913139
  0
LINE
  5
41E
100
AcDbEntity
  8
0
100
AcDbLine
 62
7
  6
CONTINUOUS
 10
5.8186931094
 20
3.0803913139
 11
5.9082263409
 21
2.9253152079
  0
LINE
  5
41F
100
AcDbEntity
  8
0
100
AcDbLine
 62
7
  6
CONTINUOUS
 10
4.1011931094
 20
6.1053913139
 11
4.1907263409
 21
5.9503152079
  0
LINE
  5
420
100
AcDbEntity
  8
0
100
AcDbLine
 62
7
  6
CONTINUOUS
 10
5.2616174496
 20
4.1253152079
 11
5.1720842181
 21
4.2803913139
  0
LINE
  5
421
100
AcDbEntity
  8
0
100
AcDbLine
 62
7
  6
CONTINUOUS
 10
6.5056931094
 20
1.9803913139
 11
6.5952263409
 21
1.8253152079
  0
LINE
  5
422
100
AcDbEntity
  8
0
100
AcDbLine
 62
7
  6
CONTINUOUS
 10
4.7881931094
 20
5.0053913139
 11
4.8777263409
 21
4.8503152079
  0
LINE
  5
423
100
AcDbEntity
  8
0
100
AcDbLine
 62
7
  6
CONTINUOUS
 10
5.9486174496
 20
3.0253152079
 11
5.8590842181
 21
3.1803913139
  0
LINE
  5
424
100
AcDbEntity
  8
0
100
AcDbLine
 62
7
  6
CONTINUOUS
 10
4.2311174496
 20
6.0503152079
 11
4.1415842181
 21
6.2053913139
  0
LINE
  5
425
100
AcDbEntity
  8
0
100
AcDbLine
 62
7
  6
CONTINUOUS
 10
5.4751931094
 20
3.9053913139
 11
5.5647263409
 21
3.7503152079
  0
LINE
  5
426
100
AcDbEntity
  8
0
100
AcDbLine
 62
7
  6
CONTINUOUS
 10
6.6356174496
 20
1.9253152079
 11
6.5460842181
 21
2.0803913139
  0
LINE
  5
427
100
AcDbEntity
  8
0
100
AcDbLine
 62
7
  6
CONTINUOUS
 10
3.7576931094
 20
6.9303913139
 11
3.8472263409
 21
6.7753152079
  0
LINE
  5
428
100
AcDbEntity
  8
0
100
AcDbLine
 62
7
  6
CONTINUOUS
 10
4.9181174496
 20
4.9503152079
 11
4.8285842181
 21
5.1053913139
  0
LINE
  5
429
100
AcDbEntity
  8
0
100
AcDbLine
 62
7
  6
CONTINUOUS
 10
6.1621931094
 20
2.8053913139
 11
6.2517263409
 21
2.6503152079
  0
LINE
  5
42A
100
AcDbEntity
  8
0
100
AcDbLine
 62
7
  6
CONTINUOUS
 10
4.4446931094
 20
5.8303913139
 11
4.5342263409
 21
5.6753152079
  0
LINE
  5
42B
100
AcDbEntity
  8
0
100
AcDbLine
 62
7
  6
CONTINUOUS
 10
5.6051174496
 20
3.8503152079
 11
5.5155842181
 21
4.0053913139
  0
LINE
  5
42C
100
AcDbEntity
  8
0
100
AcDbLine
 62
7
  6
CONTINUOUS
 10
5.2212263409
 20
4.0053913139
 11
5.1316931094
 21
3.8503152079
  0
LINE
  5
42D
100
AcDbEntity
  8
0
100
AcDbLine
 62
7
  6
CONTINUOUS
 10
6.2025842181
 20
5.6753152079
 11
6.2921174496
 21
5.8303913139
  0
LINE
  5
42E
100
AcDbEntity
  8
0
100
AcDbLine
 62
7
  6
CONTINUOUS
 10
4.4850842181
 20
2.6503152079
 11
4.5746174496
 21
2.8053913139
  0
LINE
  5
42F
100
AcDbEntity
  8
0
100
AcDbLine
 62
7
  6
CONTINUOUS
 10
5.9082263409
 20
5.1053913139
 11
5.8186931094
 21
4.9503152079
  0
LINE
  5
430
100
AcDbEntity
  8
0
100
AcDbLine
 62
7
  6
CONTINUOUS
 10
6.8895842181
 20
6.7753152079
 11
6.9791174496
 21
6.9303913139
  0
LINE
  5
431
100
AcDbEntity
  8
0
100
AcDbLine
 62
7
  6
CONTINUOUS
 10
4.1907263409
 20
2.0803913139
 11
4.1011931094
 21
1.9253152079
  0
LINE
  5
432
100
AcDbEntity
  8
0
100
AcDbLine
 62
7
  6
CONTINUOUS
 10
5.1720842181
 20
3.7503152079
 11
5.2616174496
 21
3.9053913139
  0
LINE
  5
433
100
AcDbEntity
  8
0
100
AcDbLine
 62
7
  6
CONTINUOUS
 10
6.5952263409
 20
6.2053913139
 11
6.5056931094
 21
6.0503152079
  0
LINE
  5
434
100
AcDbEntity
  8
0
100
AcDbLine
 62
7
  6
CONTINUOUS
 10
4.8777263409
 20
3.1803913139
 11
4.7881931094
 21
3.0253152079
  0
LINE
  5
435
100
AcDbEntity
  8
0
100
AcDbLine
 62
7
  6
CONTINUOUS
 10
5.8590842181
 20
4.8503152079
 11
5.9486174496
 21
5.0053913139
  0
LINE
  5
436
100
AcDbEntity
  8
0
100
AcDbLine
 62
7
  6
CONTINUOUS
 10
4.1415842181
 20
1.8253152079
 11
4.2311174496
 21
1.9803913139
  0
LINE
  5
437
100
AcDbEntity
  8
0
100
AcDbLine
 62
7
  6
CONTINUOUS
 10
5.5647263409
 20
4.2803913139
 11
5.4751931094
 21
4.1253152079
  0
LINE
  5
438
100
AcDbEntity
  8
0
100
AcDbLine
 62
7
  6
CONTINUOUS
 10
6.5460842181
 20
5.9503152079
 11
6.6356174496
 21
6.1053913139
  0
LINE
  5
439
100
AcDbEntity
  8
0
100
AcDbLine
 62
7
  6
CONTINUOUS
 10
4.8285842181
 20
2.9253152079
 11
4.9181174496
 21
3.0803913139
  0
LINE
  5
43A
100
AcDbEntity
  8
0
100
AcDbLine
 62
7
  6
CONTINUOUS
 10
6.2517263409
 20
5.3803913139
 11
6.1621931094
 21
5.2253152079
  0
LINE
  5
43B
100
AcDbEntity
  8
0
100
AcDbLine
 62
7
  6
CONTINUOUS
 10
4.5342263409
 20
2.3553913139
 11
4.4446931094
 21
2.2003152079
  0
LINE
  5
43C
100
AcDbEntity
  8
0
100
AcDbLine
 62
7
  6
CONTINUOUS
 10
5.5155842181
 20
4.0253152079
 11
5.6051174496
 21
4.1803913139
  0
LINE
  5
43D
100
AcDbEntity
  8
0
100
AcDbLine
 62
7
  6
CONTINUOUS
 10
6.9387263409
 20
6.4803913139
 11
6.8491931094
 21
6.3253152079
  0
LINE
  5
43E
100
AcDbEntity
  8
0
100
AcDbLine
 62
7
  6
CONTINUOUS
 10
7.1754385111
 20
4.9403532609
 11
6.9963720479
 21
4.9403532609
  0
LINE
  5
43F
100
AcDbEntity
  8
0
100
AcDbLine
 62
7
  6
CONTINUOUS
 10
6.4884385111
 20
4.9403532609
 11
6.3093720479
 21
4.9403532609
  0
LINE
  5
440
100
AcDbEntity
  8
0
100
AcDbLine
 62
7
  6
CONTINUOUS
 10
5.8014385111
 20
4.9403532609
 11
5.6223720479
 21
4.9403532609
  0
LINE
  5
441
100
AcDbEntity
  8
0
100
AcDbLine
 62
7
  6
CONTINUOUS
 10
5.1144385111
 20
4.9403532609
 11
4.9353720479
 21
4.9403532609
  0
LINE
  5
442
100
AcDbEntity
  8
0
100
AcDbLine
 62
7
  6
CONTINUOUS
 10
4.4274385111
 20
4.9403532609
 11
4.2483720479
 21
4.9403532609
  0
LINE
  5
443
100
AcDbEntity
  8
0
100
AcDbLine
 62
7
  6
CONTINUOUS
 10
3.7404385111
 20
4.9403532609
 11
3.5613720479
 21
4.9403532609
  0
LINE
  5
444
100
AcDbEntity
  8
0
100
AcDbLine
 62
7
  6
CONTINUOUS
 10
3.0534385111
 20
4.9403532609
 11
2.8743720479
 21
4.9403532609
  0
LINE
  5
445
100
AcDbEntity
  8
0
100
AcDbLine
 62
7
  6
CONTINUOUS
 10
2.3664385111
 20
4.9403532609
 11
2.1873720479
 21
4.9403532609
  0
LINE
  5
446
100
AcDbEntity
  8
0
100
AcDbLine
 62
7
  6
CONTINUOUS
 10
2.5308720479
 20
5.0153532609
 11
2.7099385111
 21
5.0153532609
  0
LINE
  5
447
100
AcDbEntity
  8
0
100
AcDbLine
 62
7
  6
CONTINUOUS
 10
3.2178720479
 20
5.0153532609
 11
3.3969385111
 21
5.0153532609
  0
LINE
  5
448
100
AcDbEntity
  8
0
100
AcDbLine
 62
7
  6
CONTINUOUS
 10
3.9048720479
 20
5.0153532609
 11
4.0839385111
 21
5.0153532609
  0
LINE
  5
449
100
AcDbEntity
  8
0
100
AcDbLine
 62
7
  6
CONTINUOUS
 10
4.5918720479
 20
5.0153532609
 11
4.7709385111
 21
5.0153532609
  0
LINE
  5
44A
100
AcDbEntity
  8
0
100
AcDbLine
 62
7
  6
CONTINUOUS
 10
5.2788720479
 20
5.0153532609
 11
5.4579385111
 21
5.0153532609
  0
LINE
  5
44B
100
AcDbEntity
  8
0
100
AcDbLine
 62
7
  6
CONTINUOUS
 10
5.9658720479
 20
5.0153532609
 11
6.1449385111
 21
5.0153532609
  0
LINE
  5
44C
100
AcDbEntity
  8
0
100
AcDbLine
 62
7
  6
CONTINUOUS
 10
6.6528720479
 20
5.0153532609
 11
6.8319385111
 21
5.0153532609
  0
LINE
  5
44D
100
AcDbEntity
  8
0
100
AcDbLine
 62
7
  6
CONTINUOUS
 10
5.1316931094
 20
4.7303913139
 11
5.2212263409
 21
4.5753152079
  0
LINE
  5
44E
100
AcDbEntity
  8
0
100
AcDbLine
 62
7
  6
CONTINUOUS
 10
6.2921174496
 20
2.7503152079
 11
6.2025842181
 21
2.9053913139
  0
LINE
  5
44F
100
AcDbEntity
  8
0
100
AcDbLine
 62
7
  6
CONTINUOUS
 10
4.5746174496
 20
5.7753152079
 11
4.4850842181
 21
5.9303913139
  0
LINE
  5
450
100
AcDbEntity
  8
0
100
AcDbLine
 62
7
  6
CONTINUOUS
 10
5.8186931094
 20
3.6303913139
 11
5.9082263409
 21
3.4753152079
  0
LINE
  5
451
100
AcDbEntity
  8
0
100
AcDbLine
 62
7
  6
CONTINUOUS
 10
6.9791174496
 20
1.6503152079
 11
6.8895842181
 21
1.8053913139
  0
LINE
  5
452
100
AcDbEntity
  8
0
100
AcDbLine
 62
7
  6
CONTINUOUS
 10
4.1011931094
 20
6.6553913139
 11
4.1907263409
 21
6.5003152079
  0
LINE
  5
453
100
AcDbEntity
  8
0
100
AcDbLine
 62
7
  6
CONTINUOUS
 10
5.2616174496
 20
4.6753152079
 11
5.1720842181
 21
4.8303913139
  0
LINE
  5
454
100
AcDbEntity
  8
0
100
AcDbLine
 62
7
  6
CONTINUOUS
 10
6.5056931094
 20
2.5303913139
 11
6.5952263409
 21
2.3753152079
  0
LINE
  5
455
100
AcDbEntity
  8
0
100
AcDbLine
 62
7
  6
CONTINUOUS
 10
4.7881931094
 20
5.5553913139
 11
4.8777263409
 21
5.4003152079
  0
LINE
  5
456
100
AcDbEntity
  8
0
100
AcDbLine
 62
7
  6
CONTINUOUS
 10
5.9486174496
 20
3.5753152079
 11
5.8590842181
 21
3.7303913139
  0
LINE
  5
457
100
AcDbEntity
  8
0
100
AcDbLine
 62
7
  6
CONTINUOUS
 10
4.2311174496
 20
6.6003152079
 11
4.1415842181
 21
6.7553913139
  0
LINE
  5
458
100
AcDbEntity
  8
0
100
AcDbLine
 62
7
  6
CONTINUOUS
 10
5.4751931094
 20
4.4553913139
 11
5.5647263409
 21
4.3003152079
  0
LINE
  5
459
100
AcDbEntity
  8
0
100
AcDbLine
 62
7
  6
CONTINUOUS
 10
6.6356174496
 20
2.4753152079
 11
6.5460842181
 21
2.6303913139
  0
LINE
  5
45A
100
AcDbEntity
  8
0
100
AcDbLine
 62
7
  6
CONTINUOUS
 10
4.9181174496
 20
5.5003152079
 11
4.8285842181
 21
5.6553913139
  0
LINE
  5
45B
100
AcDbEntity
  8
0
100
AcDbLine
 62
7
  6
CONTINUOUS
 10
6.1621931094
 20
3.3553913139
 11
6.2517263409
 21
3.2003152079
  0
LINE
  5
45C
100
AcDbEntity
  8
0
100
AcDbLine
 62
7
  6
CONTINUOUS
 10
4.4446931094
 20
6.3803913139
 11
4.5342263409
 21
6.2253152079
  0
LINE
  5
45D
100
AcDbEntity
  8
0
100
AcDbLine
 62
7
  6
CONTINUOUS
 10
5.6051174496
 20
4.4003152079
 11
5.5155842181
 21
4.5553913139
  0
LINE
  5
45E
100
AcDbEntity
  8
0
100
AcDbLine
 62
7
  6
CONTINUOUS
 10
6.8491931094
 20
2.2553913139
 11
6.9387263409
 21
2.1003152079
  0
LINE
  5
45F
100
AcDbEntity
  8
0
100
AcDbLine
 62
7
  6
CONTINUOUS
 10
5.2212263409
 20
3.4553913139
 11
5.1316931094
 21
3.3003152079
  0
LINE
  5
460
100
AcDbEntity
  8
0
100
AcDbLine
 62
7
  6
CONTINUOUS
 10
6.2025842181
 20
5.1253152079
 11
6.2921174496
 21
5.2803913139
  0
LINE
  5
461
100
AcDbEntity
  8
0
100
AcDbLine
 62
7
  6
CONTINUOUS
 10
4.4850842181
 20
2.1003152079
 11
4.5746174496
 21
2.2553913139
  0
LINE
  5
462
100
AcDbEntity
  8
0
100
AcDbLine
 62
7
  6
CONTINUOUS
 10
5.9082263409
 20
4.5553913139
 11
5.8186931094
 21
4.4003152079
  0
LINE
  5
463
100
AcDbEntity
  8
0
100
AcDbLine
 62
7
  6
CONTINUOUS
 10
6.8895842181
 20
6.2253152079
 11
6.9791174496
 21
6.3803913139
  0
LINE
  5
464
100
AcDbEntity
  8
0
100
AcDbLine
 62
7
  6
CONTINUOUS
 10
5.1720842181
 20
3.2003152079
 11
5.2616174496
 21
3.3553913139
  0
LINE
  5
465
100
AcDbEntity
  8
0
100
AcDbLine
 62
7
  6
CONTINUOUS
 10
6.5952263409
 20
5.6553913139
 11
6.5056931094
 21
5.5003152079
  0
LINE
  5
466
100
AcDbEntity
  8
0
100
AcDbLine
 62
7
  6
CONTINUOUS
 10
4.8777263409
 20
2.6303913139
 11
4.7881931094
 21
2.4753152079
  0
LINE
  5
467
100
AcDbEntity
  8
0
100
AcDbLine
 62
7
  6
CONTINUOUS
 10
5.8590842181
 20
4.3003152079
 11
5.9486174496
 21
4.4553913139
  0
LINE
  5
468
100
AcDbEntity
  8
0
100
AcDbLine
 62
7
  6
CONTINUOUS
 10
7.2822263409
 20
6.7553913139
 11
7.1926931094
 21
6.6003152079
  0
LINE
  5
469
100
AcDbEntity
  8
0
100
AcDbLine
 62
7
  6
CONTINUOUS
 10
5.5647263409
 20
3.7303913139
 11
5.4751931094
 21
3.5753152079
  0
LINE
  5
46A
100
AcDbEntity
  8
0
100
AcDbLine
 62
7
  6
CONTINUOUS
 10
6.5460842181
 20
5.4003152079
 11
6.6356174496
 21
5.5553913139
  0
LINE
  5
46B
100
AcDbEntity
  8
0
100
AcDbLine
 62
7
  6
CONTINUOUS
 10
4.8285842181
 20
2.3753152079
 11
4.9181174496
 21
2.5303913139
  0
LINE
  5
46C
100
AcDbEntity
  8
0
100
AcDbLine
 62
7
  6
CONTINUOUS
 10
6.2517263409
 20
4.8303913139
 11
6.1621931094
 21
4.6753152079
  0
LINE
  5
46D
100
AcDbEntity
  8
0
100
AcDbLine
 62
7
  6
CONTINUOUS
 10
4.5342263409
 20
1.8053913139
 11
4.4446931094
 21
1.6503152079
  0
LINE
  5
46E
100
AcDbEntity
  8
0
100
AcDbLine
 62
7
  6
CONTINUOUS
 10
5.5155842181
 20
3.4753152079
 11
5.6051174496
 21
3.6303913139
  0
LINE
  5
46F
100
AcDbEntity
  8
0
100
AcDbLine
 62
7
  6
CONTINUOUS
 10
6.9387263409
 20
5.9303913139
 11
6.8491931094
 21
5.7753152079
  0
LINE
  5
470
100
AcDbEntity
  8
0
100
AcDbLine
 62
7
  6
CONTINUOUS
 10
6.8319385111
 20
5.2153532609
 11
6.6528720479
 21
5.2153532609
  0
LINE
  5
471
100
AcDbEntity
  8
0
100
AcDbLine
 62
7
  6
CONTINUOUS
 10
6.1449385111
 20
5.2153532609
 11
5.9658720479
 21
5.2153532609
  0
LINE
  5
472
100
AcDbEntity
  8
0
100
AcDbLine
 62
7
  6
CONTINUOUS
 10
5.4579385111
 20
5.2153532609
 11
5.2788720479
 21
5.2153532609
  0
LINE
  5
473
100
AcDbEntity
  8
0
100
AcDbLine
 62
7
  6
CONTINUOUS
 10
4.7709385111
 20
5.2153532609
 11
4.5918720479
 21
5.2153532609
  0
LINE
  5
474
100
AcDbEntity
  8
0
100
AcDbLine
 62
7
  6
CONTINUOUS
 10
4.0839385111
 20
5.2153532609
 11
3.9048720479
 21
5.2153532609
  0
LINE
  5
475
100
AcDbEntity
  8
0
100
AcDbLine
 62
7
  6
CONTINUOUS
 10
3.3969385111
 20
5.2153532609
 11
3.2178720479
 21
5.2153532609
  0
LINE
  5
476
100
AcDbEntity
  8
0
100
AcDbLine
 62
7
  6
CONTINUOUS
 10
2.7099385111
 20
5.2153532609
 11
2.5308720479
 21
5.2153532609
  0
LINE
  5
477
100
AcDbEntity
  8
0
100
AcDbLine
 62
7
  6
CONTINUOUS
 10
2.1873720479
 20
5.2903532609
 11
2.3664385111
 21
5.2903532609
  0
LINE
  5
478
100
AcDbEntity
  8
0
100
AcDbLine
 62
7
  6
CONTINUOUS
 10
2.8743720479
 20
5.2903532609
 11
3.0534385111
 21
5.2903532609
  0
LINE
  5
479
100
AcDbEntity
  8
0
100
AcDbLine
 62
7
  6
CONTINUOUS
 10
3.5613720479
 20
5.2903532609
 11
3.7404385111
 21
5.2903532609
  0
LINE
  5
47A
100
AcDbEntity
  8
0
100
AcDbLine
 62
7
  6
CONTINUOUS
 10
4.2483720479
 20
5.2903532609
 11
4.4274385111
 21
5.2903532609
  0
LINE
  5
47B
100
AcDbEntity
  8
0
100
AcDbLine
 62
7
  6
CONTINUOUS
 10
4.9353720479
 20
5.2903532609
 11
5.1144385111
 21
5.2903532609
  0
LINE
  5
47C
100
AcDbEntity
  8
0
100
AcDbLine
 62
7
  6
CONTINUOUS
 10
5.6223720479
 20
5.2903532609
 11
5.8014385111
 21
5.2903532609
  0
LINE
  5
47D
100
AcDbEntity
  8
0
100
AcDbLine
 62
7
  6
CONTINUOUS
 10
6.3093720479
 20
5.2903532609
 11
6.4884385111
 21
5.2903532609
  0
LINE
  5
47E
100
AcDbEntity
  8
0
100
AcDbLine
 62
7
  6
CONTINUOUS
 10
6.9963720479
 20
5.2903532609
 11
7.1754385111
 21
5.2903532609
  0
LINE
  5
47F
100
AcDbEntity
  8
0
100
AcDbLine
 62
7
  6
CONTINUOUS
 10
5.1316931094
 20
5.2803913139
 11
5.2212263409
 21
5.1253152079
  0
LINE
  5
480
100
AcDbEntity
  8
0
100
AcDbLine
 62
7
  6
CONTINUOUS
 10
6.2921174496
 20
3.3003152079
 11
6.2025842181
 21
3.4553913139
  0
LINE
  5
481
100
AcDbEntity
  8
0
100
AcDbLine
 62
7
  6
CONTINUOUS
 10
4.5746174496
 20
6.3253152079
 11
4.4850842181
 21
6.4803913139
  0
LINE
  5
482
100
AcDbEntity
  8
0
100
AcDbLine
 62
7
  6
CONTINUOUS
 10
5.8186931094
 20
4.1803913139
 11
5.9082263409
 21
4.0253152079
  0
LINE
  5
483
100
AcDbEntity
  8
0
100
AcDbLine
 62
7
  6
CONTINUOUS
 10
6.9791174496
 20
2.2003152079
 11
6.8895842181
 21
2.3553913139
  0
LINE
  5
484
100
AcDbEntity
  8
0
100
AcDbLine
 62
7
  6
CONTINUOUS
 10
5.2616174496
 20
5.2253152079
 11
5.1720842181
 21
5.3803913139
  0
LINE
  5
485
100
AcDbEntity
  8
0
100
AcDbLine
 62
7
  6
CONTINUOUS
 10
6.5056931094
 20
3.0803913139
 11
6.5952263409
 21
2.9253152079
  0
LINE
  5
486
100
AcDbEntity
  8
0
100
AcDbLine
 62
7
  6
CONTINUOUS
 10
4.7881931094
 20
6.1053913139
 11
4.8777263409
 21
5.9503152079
  0
LINE
  5
487
100
AcDbEntity
  8
0
100
AcDbLine
 62
7
  6
CONTINUOUS
 10
5.9486174496
 20
4.1253152079
 11
5.8590842181
 21
4.2803913139
  0
LINE
  5
488
100
AcDbEntity
  8
0
100
AcDbLine
 62
7
  6
CONTINUOUS
 10
7.1926931094
 20
1.9803913139
 11
7.2822263409
 21
1.8253152079
  0
LINE
  5
489
100
AcDbEntity
  8
0
100
AcDbLine
 62
7
  6
CONTINUOUS
 10
5.4751931094
 20
5.0053913139
 11
5.5647263409
 21
4.8503152079
  0
LINE
  5
48A
100
AcDbEntity
  8
0
100
AcDbLine
 62
7
  6
CONTINUOUS
 10
6.6356174496
 20
3.0253152079
 11
6.5460842181
 21
3.1803913139
  0
LINE
  5
48B
100
AcDbEntity
  8
0
100
AcDbLine
 62
7
  6
CONTINUOUS
 10
4.9181174496
 20
6.0503152079
 11
4.8285842181
 21
6.2053913139
  0
LINE
  5
48C
100
AcDbEntity
  8
0
100
AcDbLine
 62
7
  6
CONTINUOUS
 10
6.1621931094
 20
3.9053913139
 11
6.2517263409
 21
3.7503152079
  0
LINE
  5
48D
100
AcDbEntity
  8
0
100
AcDbLine
 62
7
  6
CONTINUOUS
 10
4.4446931094
 20
6.9303913139
 11
4.5342263409
 21
6.7753152079
  0
LINE
  5
48E
100
AcDbEntity
  8
0
100
AcDbLine
 62
7
  6
CONTINUOUS
 10
5.6051174496
 20
4.9503152079
 11
5.5155842181
 21
5.1053913139
  0
LINE
  5
48F
100
AcDbEntity
  8
0
100
AcDbLine
 62
7
  6
CONTINUOUS
 10
6.8491931094
 20
2.8053913139
 11
6.9387263409
 21
2.6503152079
  0
LINE
  5
490
100
AcDbEntity
  8
0
100
AcDbLine
 62
7
  6
CONTINUOUS
 10
5.2212263409
 20
2.9053913139
 11
5.1316931094
 21
2.7503152079
  0
LINE
  5
491
100
AcDbEntity
  8
0
100
AcDbLine
 62
7
  6
CONTINUOUS
 10
6.2025842181
 20
4.5753152079
 11
6.2921174496
 21
4.7303913139
  0
LINE
  5
492
100
AcDbEntity
  8
0
100
AcDbLine
 62
7
  6
CONTINUOUS
 10
5.9082263409
 20
4.0053913139
 11
5.8186931094
 21
3.8503152079
  0
LINE
  5
493
100
AcDbEntity
  8
0
100
AcDbLine
 62
7
  6
CONTINUOUS
 10
6.8895842181
 20
5.6753152079
 11
6.9791174496
 21
5.8303913139
  0
LINE
  5
494
100
AcDbEntity
  8
0
100
AcDbLine
 62
7
  6
CONTINUOUS
 10
5.1720842181
 20
2.6503152079
 11
5.2616174496
 21
2.8053913139
  0
LINE
  5
495
100
AcDbEntity
  8
0
100
AcDbLine
 62
7
  6
CONTINUOUS
 10
6.5952263409
 20
5.1053913139
 11
6.5056931094
 21
4.9503152079
  0
LINE
  5
496
100
AcDbEntity
  8
0
100
AcDbLine
 62
7
  6
CONTINUOUS
 10
4.8777263409
 20
2.0803913139
 11
4.7881931094
 21
1.9253152079
  0
LINE
  5
497
100
AcDbEntity
  8
0
100
AcDbLine
 62
7
  6
CONTINUOUS
 10
5.8590842181
 20
3.7503152079
 11
5.9486174496
 21
3.9053913139
  0
LINE
  5
498
100
AcDbEntity
  8
0
100
AcDbLine
 62
7
  6
CONTINUOUS
 10
7.2822263409
 20
6.2053913139
 11
7.1926931094
 21
6.0503152079
  0
LINE
  5
499
100
AcDbEntity
  8
0
100
AcDbLine
 62
7
  6
CONTINUOUS
 10
5.5647263409
 20
3.1803913139
 11
5.4751931094
 21
3.0253152079
  0
LINE
  5
49A
100
AcDbEntity
  8
0
100
AcDbLine
 62
7
  6
CONTINUOUS
 10
6.5460842181
 20
4.8503152079
 11
6.6356174496
 21
5.0053913139
  0
LINE
  5
49B
100
AcDbEntity
  8
0
100
AcDbLine
 62
7
  6
CONTINUOUS
 10
4.8285842181
 20
1.8253152079
 11
4.9181174496
 21
1.9803913139
  0
LINE
  5
49C
100
AcDbEntity
  8
0
100
AcDbLine
 62
7
  6
CONTINUOUS
 10
6.2517263409
 20
4.2803913139
 11
6.1621931094
 21
4.1253152079
  0
LINE
  5
49D
100
AcDbEntity
  8
0
100
AcDbLine
 62
7
  6
CONTINUOUS
 10
5.5155842181
 20
2.9253152079
 11
5.6051174496
 21
3.0803913139
  0
LINE
  5
49E
100
AcDbEntity
  8
0
100
AcDbLine
 62
7
  6
CONTINUOUS
 10
6.9387263409
 20
5.3803913139
 11
6.8491931094
 21
5.2253152079
  0
LINE
  5
49F
100
AcDbEntity
  8
0
100
AcDbLine
 62
7
  6
CONTINUOUS
 10
7.1754385111
 20
5.4903532609
 11
6.9963720479
 21
5.4903532609
  0
LINE
  5
4A0
100
AcDbEntity
  8
0
100
AcDbLine
 62
7
  6
CONTINUOUS
 10
6.4884385111
 20
5.4903532609
 11
6.3093720479
 21
5.4903532609
  0
LINE
  5
4A1
100
AcDbEntity
  8
0
100
AcDbLine
 62
7
  6
CONTINUOUS
 10
5.8014385111
 20
5.4903532609
 11
5.6223720479
 21
5.4903532609
  0
LINE
  5
4A2
100
AcDbEntity
  8
0
100
AcDbLine
 62
7
  6
CONTINUOUS
 10
5.1144385111
 20
5.4903532609
 11
4.9353720479
 21
5.4903532609
  0
LINE
  5
4A3
100
AcDbEntity
  8
0
100
AcDbLine
 62
7
  6
CONTINUOUS
 10
4.4274385111
 20
5.4903532609
 11
4.2483720479
 21
5.4903532609
  0
LINE
  5
4A4
100
AcDbEntity
  8
0
100
AcDbLine
 62
7
  6
CONTINUOUS
 10
3.7404385111
 20
5.4903532609
 11
3.5613720479
 21
5.4903532609
  0
LINE
  5
4A5
100
AcDbEntity
  8
0
100
AcDbLine
 62
7
  6
CONTINUOUS
 10
3.0534385111
 20
5.4903532609
 11
2.8743720479
 21
5.4903532609
  0
LINE
  5
4A6
100
AcDbEntity
  8
0
100
AcDbLine
 62
7
  6
CONTINUOUS
 10
2.3664385111
 20
5.4903532609
 11
2.1873720479
 21
5.4903532609
  0
LINE
  5
4A7
100
AcDbEntity
  8
0
100
AcDbLine
 62
7
  6
CONTINUOUS
 10
2.5308720479
 20
5.5653532609
 11
2.7099385111
 21
5.5653532609
  0
LINE
  5
4A8
100
AcDbEntity
  8
0
100
AcDbLine
 62
7
  6
CONTINUOUS
 10
3.2178720479
 20
5.5653532609
 11
3.3969385111
 21
5.5653532609
  0
LINE
  5
4A9
100
AcDbEntity
  8
0
100
AcDbLine
 62
7
  6
CONTINUOUS
 10
3.9048720479
 20
5.5653532609
 11
4.0839385111
 21
5.5653532609
  0
LINE
  5
4AA
100
AcDbEntity
  8
0
100
AcDbLine
 62
7
  6
CONTINUOUS
 10
4.5918720479
 20
5.5653532609
 11
4.7709385111
 21
5.5653532609
  0
LINE
  5
4AB
100
AcDbEntity
  8
0
100
AcDbLine
 62
7
  6
CONTINUOUS
 10
5.2788720479
 20
5.5653532609
 11
5.4579385111
 21
5.5653532609
  0
LINE
  5
4AC
100
AcDbEntity
  8
0
100
AcDbLine
 62
7
  6
CONTINUOUS
 10
5.9658720479
 20
5.5653532609
 11
6.1449385111
 21
5.5653532609
  0
LINE
  5
4AD
100
AcDbEntity
  8
0
100
AcDbLine
 62
7
  6
CONTINUOUS
 10
6.6528720479
 20
5.5653532609
 11
6.8319385111
 21
5.5653532609
  0
LINE
  5
4AE
100
AcDbEntity
  8
0
100
AcDbLine
 62
7
  6
CONTINUOUS
 10
5.1316931094
 20
5.8303913139
 11
5.2212263409
 21
5.6753152079
  0
LINE
  5
4AF
100
AcDbEntity
  8
0
100
AcDbLine
 62
7
  6
CONTINUOUS
 10
6.2921174496
 20
3.8503152079
 11
6.2025842181
 21
4.0053913139
  0
LINE
  5
4B0
100
AcDbEntity
  8
0
100
AcDbLine
 62
7
  6
CONTINUOUS
 10
5.8186931094
 20
4.7303913139
 11
5.9082263409
 21
4.5753152079
  0
LINE
  5
4B1
100
AcDbEntity
  8
0
100
AcDbLine
 62
7
  6
CONTINUOUS
 10
6.9791174496
 20
2.7503152079
 11
6.8895842181
 21
2.9053913139
  0
LINE
  5
4B2
100
AcDbEntity
  8
0
100
AcDbLine
 62
7
  6
CONTINUOUS
 10
5.2616174496
 20
5.7753152079
 11
5.1720842181
 21
5.9303913139
  0
LINE
  5
4B3
100
AcDbEntity
  8
0
100
AcDbLine
 62
7
  6
CONTINUOUS
 10
6.5056931094
 20
3.6303913139
 11
6.5952263409
 21
3.4753152079
  0
LINE
  5
4B4
100
AcDbEntity
  8
0
100
AcDbLine
 62
7
  6
CONTINUOUS
 10
4.7881931094
 20
6.6553913139
 11
4.8777263409
 21
6.5003152079
  0
LINE
  5
4B5
100
AcDbEntity
  8
0
100
AcDbLine
 62
7
  6
CONTINUOUS
 10
5.9486174496
 20
4.6753152079
 11
5.8590842181
 21
4.8303913139
  0
LINE
  5
4B6
100
AcDbEntity
  8
0
100
AcDbLine
 62
7
  6
CONTINUOUS
 10
7.1926931094
 20
2.5303913139
 11
7.2822263409
 21
2.3753152079
  0
LINE
  5
4B7
100
AcDbEntity
  8
0
100
AcDbLine
 62
7
  6
CONTINUOUS
 10
5.4751931094
 20
5.5553913139
 11
5.5647263409
 21
5.4003152079
  0
LINE
  5
4B8
100
AcDbEntity
  8
0
100
AcDbLine
 62
7
  6
CONTINUOUS
 10
6.6356174496
 20
3.5753152079
 11
6.5460842181
 21
3.7303913139
  0
LINE
  5
4B9
100
AcDbEntity
  8
0
100
AcDbLine
 62
7
  6
CONTINUOUS
 10
4.9181174496
 20
6.6003152079
 11
4.8285842181
 21
6.7553913139
  0
LINE
  5
4BA
100
AcDbEntity
  8
0
100
AcDbLine
 62
7
  6
CONTINUOUS
 10
6.1621931094
 20
4.4553913139
 11
6.2517263409
 21
4.3003152079
  0
LINE
  5
4BB
100
AcDbEntity
  8
0
100
AcDbLine
 62
7
  6
CONTINUOUS
 10
5.6051174496
 20
5.5003152079
 11
5.5155842181
 21
5.6553913139
  0
LINE
  5
4BC
100
AcDbEntity
  8
0
100
AcDbLine
 62
7
  6
CONTINUOUS
 10
6.8491931094
 20
3.3553913139
 11
6.9387263409
 21
3.2003152079
  0
LINE
  5
4BD
100
AcDbEntity
  8
0
100
AcDbLine
 62
7
  6
CONTINUOUS
 10
5.2212263409
 20
2.3553913139
 11
5.1316931094
 21
2.2003152079
  0
LINE
  5
4BE
100
AcDbEntity
  8
0
100
AcDbLine
 62
7
  6
CONTINUOUS
 10
6.2025842181
 20
4.0253152079
 11
6.2921174496
 21
4.1803913139
  0
LINE
  5
4BF
100
AcDbEntity
  8
0
100
AcDbLine
 62
7
  6
CONTINUOUS
 10
5.9082263409
 20
3.4553913139
 11
5.8186931094
 21
3.3003152079
  0
LINE
  5
4C0
100
AcDbEntity
  8
0
100
AcDbLine
 62
7
  6
CONTINUOUS
 10
6.8895842181
 20
5.1253152079
 11
6.9791174496
 21
5.2803913139
  0
LINE
  5
4C1
100
AcDbEntity
  8
0
100
AcDbLine
 62
7
  6
CONTINUOUS
 10
5.1720842181
 20
2.1003152079
 11
5.2616174496
 21
2.2553913139
  0
LINE
  5
4C2
100
AcDbEntity
  8
0
100
AcDbLine
 62
7
  6
CONTINUOUS
 10
6.5952263409
 20
4.5553913139
 11
6.5056931094
 21
4.4003152079
  0
LINE
  5
4C3
100
AcDbEntity
  8
0
100
AcDbLine
 62
7
  6
CONTINUOUS
 10
5.8590842181
 20
3.2003152079
 11
5.9486174496
 21
3.3553913139
  0
LINE
  5
4C4
100
AcDbEntity
  8
0
100
AcDbLine
 62
7
  6
CONTINUOUS
 10
7.2822263409
 20
5.6553913139
 11
7.1926931094
 21
5.5003152079
  0
LINE
  5
4C5
100
AcDbEntity
  8
0
100
AcDbLine
 62
7
  6
CONTINUOUS
 10
5.5647263409
 20
2.6303913139
 11
5.4751931094
 21
2.4753152079
  0
LINE
  5
4C6
100
AcDbEntity
  8
0
100
AcDbLine
 62
7
  6
CONTINUOUS
 10
6.5460842181
 20
4.3003152079
 11
6.6356174496
 21
4.4553913139
  0
LINE
  5
4C7
100
AcDbEntity
  8
0
100
AcDbLine
 62
7
  6
CONTINUOUS
 10
6.2517263409
 20
3.7303913139
 11
6.1621931094
 21
3.5753152079
  0
LINE
  5
4C8
100
AcDbEntity
  8
0
100
AcDbLine
 62
7
  6
CONTINUOUS
 10
5.5155842181
 20
2.3753152079
 11
5.6051174496
 21
2.5303913139
  0
LINE
  5
4C9
100
AcDbEntity
  8
0
100
AcDbLine
 62
7
  6
CONTINUOUS
 10
6.9387263409
 20
4.8303913139
 11
6.8491931094
 21
4.6753152079
  0
LINE
  5
4CA
100
AcDbEntity
  8
0
100
AcDbLine
 62
7
  6
CONTINUOUS
 10
6.8319385111
 20
5.7653532609
 11
6.6528720479
 21
5.7653532609
  0
LINE
  5
4CB
100
AcDbEntity
  8
0
100
AcDbLine
 62
7
  6
CONTINUOUS
 10
6.1449385111
 20
5.7653532609
 11
5.9658720479
 21
5.7653532609
  0
LINE
  5
4CC
100
AcDbEntity
  8
0
100
AcDbLine
 62
7
  6
CONTINUOUS
 10
5.4579385111
 20
5.7653532609
 11
5.2788720479
 21
5.7653532609
  0
LINE
  5
4CD
100
AcDbEntity
  8
0
100
AcDbLine
 62
7
  6
CONTINUOUS
 10
4.7709385111
 20
5.7653532609
 11
4.5918720479
 21
5.7653532609
  0
LINE
  5
4CE
100
AcDbEntity
  8
0
100
AcDbLine
 62
7
  6
CONTINUOUS
 10
4.0839385111
 20
5.7653532609
 11
3.9048720479
 21
5.7653532609
  0
LINE
  5
4CF
100
AcDbEntity
  8
0
100
AcDbLine
 62
7
  6
CONTINUOUS
 10
3.3969385111
 20
5.7653532609
 11
3.2178720479
 21
5.7653532609
  0
LINE
  5
4D0
100
AcDbEntity
  8
0
100
AcDbLine
 62
7
  6
CONTINUOUS
 10
2.7099385111
 20
5.7653532609
 11
2.5308720479
 21
5.7653532609
  0
LINE
  5
4D1
100
AcDbEntity
  8
0
100
AcDbLine
 62
7
  6
CONTINUOUS
 10
2.1873720479
 20
5.8403532609
 11
2.3664385111
 21
5.8403532609
  0
LINE
  5
4D2
100
AcDbEntity
  8
0
100
AcDbLine
 62
7
  6
CONTINUOUS
 10
2.8743720479
 20
5.8403532609
 11
3.0534385111
 21
5.8403532609
  0
LINE
  5
4D3
100
AcDbEntity
  8
0
100
AcDbLine
 62
7
  6
CONTINUOUS
 10
3.5613720479
 20
5.8403532609
 11
3.7404385111
 21
5.8403532609
  0
LINE
  5
4D4
100
AcDbEntity
  8
0
100
AcDbLine
 62
7
  6
CONTINUOUS
 10
4.2483720479
 20
5.8403532609
 11
4.4274385111
 21
5.8403532609
  0
LINE
  5
4D5
100
AcDbEntity
  8
0
100
AcDbLine
 62
7
  6
CONTINUOUS
 10
4.9353720479
 20
5.8403532609
 11
5.1144385111
 21
5.8403532609
  0
LINE
  5
4D6
100
AcDbEntity
  8
0
100
AcDbLine
 62
7
  6
CONTINUOUS
 10
5.6223720479
 20
5.8403532609
 11
5.8014385111
 21
5.8403532609
  0
LINE
  5
4D7
100
AcDbEntity
  8
0
100
AcDbLine
 62
7
  6
CONTINUOUS
 10
6.3093720479
 20
5.8403532609
 11
6.4884385111
 21
5.8403532609
  0
LINE
  5
4D8
100
AcDbEntity
  8
0
100
AcDbLine
 62
7
  6
CONTINUOUS
 10
6.9963720479
 20
5.8403532609
 11
7.1754385111
 21
5.8403532609
  0
LINE
  5
4D9
100
AcDbEntity
  8
0
100
AcDbLine
 62
7
  6
CONTINUOUS
 10
5.1316931094
 20
6.3803913139
 11
5.2212263409
 21
6.2253152079
  0
LINE
  5
4DA
100
AcDbEntity
  8
0
100
AcDbLine
 62
7
  6
CONTINUOUS
 10
6.2921174496
 20
4.4003152079
 11
6.2025842181
 21
4.5553913139
  0
LINE
  5
4DB
100
AcDbEntity
  8
0
100
AcDbLine
 62
7
  6
CONTINUOUS
 10
5.8186931094
 20
5.2803913139
 11
5.9082263409
 21
5.1253152079
  0
LINE
  5
4DC
100
AcDbEntity
  8
0
100
AcDbLine
 62
7
  6
CONTINUOUS
 10
6.9791174496
 20
3.3003152079
 11
6.8895842181
 21
3.4553913139
  0
LINE
  5
4DD
100
AcDbEntity
  8
0
100
AcDbLine
 62
7
  6
CONTINUOUS
 10
5.2616174496
 20
6.3253152079
 11
5.1720842181
 21
6.4803913139
  0
LINE
  5
4DE
100
AcDbEntity
  8
0
100
AcDbLine
 62
7
  6
CONTINUOUS
 10
6.5056931094
 20
4.1803913139
 11
6.5952263409
 21
4.0253152079
  0
LINE
  5
4DF
100
AcDbEntity
  8
0
100
AcDbLine
 62
7
  6
CONTINUOUS
 10
5.9486174496
 20
5.2253152079
 11
5.8590842181
 21
5.3803913139
  0
LINE
  5
4E0
100
AcDbEntity
  8
0
100
AcDbLine
 62
7
  6
CONTINUOUS
 10
7.1926931094
 20
3.0803913139
 11
7.2822263409
 21
2.9253152079
  0
LINE
  5
4E1
100
AcDbEntity
  8
0
100
AcDbLine
 62
7
  6
CONTINUOUS
 10
5.4751931094
 20
6.1053913139
 11
5.5647263409
 21
5.9503152079
  0
LINE
  5
4E2
100
AcDbEntity
  8
0
100
AcDbLine
 62
7
  6
CONTINUOUS
 10
6.6356174496
 20
4.1253152079
 11
6.5460842181
 21
4.2803913139
  0
LINE
  5
4E3
100
AcDbEntity
  8
0
100
AcDbLine
 62
7
  6
CONTINUOUS
 10
6.1621931094
 20
5.0053913139
 11
6.2517263409
 21
4.8503152079
  0
LINE
  5
4E4
100
AcDbEntity
  8
0
100
AcDbLine
 62
7
  6
CONTINUOUS
 10
5.6051174496
 20
6.0503152079
 11
5.5155842181
 21
6.2053913139
  0
LINE
  5
4E5
100
AcDbEntity
  8
0
100
AcDbLine
 62
7
  6
CONTINUOUS
 10
6.8491931094
 20
3.9053913139
 11
6.9387263409
 21
3.7503152079
  0
LINE
  5
4E6
100
AcDbEntity
  8
0
100
AcDbLine
 62
7
  6
CONTINUOUS
 10
5.2212263409
 20
1.8053913139
 11
5.1316931094
 21
1.6503152079
  0
LINE
  5
4E7
100
AcDbEntity
  8
0
100
AcDbLine
 62
7
  6
CONTINUOUS
 10
6.2025842181
 20
3.4753152079
 11
6.2921174496
 21
3.6303913139
  0
LINE
  5
4E8
100
AcDbEntity
  8
0
100
AcDbLine
 62
7
  6
CONTINUOUS
 10
5.9082263409
 20
2.9053913139
 11
5.8186931094
 21
2.7503152079
  0
LINE
  5
4E9
100
AcDbEntity
  8
0
100
AcDbLine
 62
7
  6
CONTINUOUS
 10
6.8895842181
 20
4.5753152079
 11
6.9791174496
 21
4.7303913139
  0
LINE
  5
4EA
100
AcDbEntity
  8
0
100
AcDbLine
 62
7
  6
CONTINUOUS
 10
6.5952263409
 20
4.0053913139
 11
6.5056931094
 21
3.8503152079
  0
LINE
  5
4EB
100
AcDbEntity
  8
0
100
AcDbLine
 62
7
  6
CONTINUOUS
 10
5.8590842181
 20
2.6503152079
 11
5.9486174496
 21
2.8053913139
  0
LINE
  5
4EC
100
AcDbEntity
  8
0
100
AcDbLine
 62
7
  6
CONTINUOUS
 10
7.2822263409
 20
5.1053913139
 11
7.1926931094
 21
4.9503152079
  0
LINE
  5
4ED
100
AcDbEntity
  8
0
100
AcDbLine
 62
7
  6
CONTINUOUS
 10
5.5647263409
 20
2.0803913139
 11
5.4751931094
 21
1.9253152079
  0
LINE
  5
4EE
100
AcDbEntity
  8
0
100
AcDbLine
 62
7
  6
CONTINUOUS
 10
6.5460842181
 20
3.7503152079
 11
6.6356174496
 21
3.9053913139
  0
LINE
  5
4EF
100
AcDbEntity
  8
0
100
AcDbLine
 62
7
  6
CONTINUOUS
 10
6.2517263409
 20
3.1803913139
 11
6.1621931094
 21
3.0253152079
  0
LINE
  5
4F0
100
AcDbEntity
  8
0
100
AcDbLine
 62
7
  6
CONTINUOUS
 10
5.5155842181
 20
1.8253152079
 11
5.6051174496
 21
1.9803913139
  0
LINE
  5
4F1
100
AcDbEntity
  8
0
100
AcDbLine
 62
7
  6
CONTINUOUS
 10
6.9387263409
 20
4.2803913139
 11
6.8491931094
 21
4.1253152079
  0
LINE
  5
4F2
100
AcDbEntity
  8
0
100
AcDbLine
 62
7
  6
CONTINUOUS
 10
7.1754385111
 20
6.0403532609
 11
6.9963720479
 21
6.0403532609
  0
LINE
  5
4F3
100
AcDbEntity
  8
0
100
AcDbLine
 62
7
  6
CONTINUOUS
 10
6.4884385111
 20
6.0403532609
 11
6.3093720479
 21
6.0403532609
  0
LINE
  5
4F4
100
AcDbEntity
  8
0
100
AcDbLine
 62
7
  6
CONTINUOUS
 10
5.8014385111
 20
6.0403532609
 11
5.6223720479
 21
6.0403532609
  0
LINE
  5
4F5
100
AcDbEntity
  8
0
100
AcDbLine
 62
7
  6
CONTINUOUS
 10
5.1144385111
 20
6.0403532609
 11
4.9353720479
 21
6.0403532609
  0
LINE
  5
4F6
100
AcDbEntity
  8
0
100
AcDbLine
 62
7
  6
CONTINUOUS
 10
4.4274385111
 20
6.0403532609
 11
4.2483720479
 21
6.0403532609
  0
LINE
  5
4F7
100
AcDbEntity
  8
0
100
AcDbLine
 62
7
  6
CONTINUOUS
 10
3.7404385111
 20
6.0403532609
 11
3.5613720479
 21
6.0403532609
  0
LINE
  5
4F8
100
AcDbEntity
  8
0
100
AcDbLine
 62
7
  6
CONTINUOUS
 10
3.0534385111
 20
6.0403532609
 11
2.8743720479
 21
6.0403532609
  0
LINE
  5
4F9
100
AcDbEntity
  8
0
100
AcDbLine
 62
7
  6
CONTINUOUS
 10
2.3664385111
 20
6.0403532609
 11
2.1873720479
 21
6.0403532609
  0
LINE
  5
4FA
100
AcDbEntity
  8
0
100
AcDbLine
 62
7
  6
CONTINUOUS
 10
2.5308720479
 20
6.1153532609
 11
2.7099385111
 21
6.1153532609
  0
LINE
  5
4FB
100
AcDbEntity
  8
0
100
AcDbLine
 62
7
  6
CONTINUOUS
 10
3.2178720479
 20
6.1153532609
 11
3.3969385111
 21
6.1153532609
  0
LINE
  5
4FC
100
AcDbEntity
  8
0
100
AcDbLine
 62
7
  6
CONTINUOUS
 10
3.9048720479
 20
6.1153532609
 11
4.0839385111
 21
6.1153532609
  0
LINE
  5
4FD
100
AcDbEntity
  8
0
100
AcDbLine
 62
7
  6
CONTINUOUS
 10
4.5918720479
 20
6.1153532609
 11
4.7709385111
 21
6.1153532609
  0
LINE
  5
4FE
100
AcDbEntity
  8
0
100
AcDbLine
 62
7
  6
CONTINUOUS
 10
5.2788720479
 20
6.1153532609
 11
5.4579385111
 21
6.1153532609
  0
LINE
  5
4FF
100
AcDbEntity
  8
0
100
AcDbLine
 62
7
  6
CONTINUOUS
 10
5.9658720479
 20
6.1153532609
 11
6.1449385111
 21
6.1153532609
  0
LINE
  5
500
100
AcDbEntity
  8
0
100
AcDbLine
 62
7
  6
CONTINUOUS
 10
6.6528720479
 20
6.1153532609
 11
6.8319385111
 21
6.1153532609
  0
LINE
  5
501
100
AcDbEntity
  8
0
100
AcDbLine
 62
7
  6
CONTINUOUS
 10
5.1316931094
 20
6.9303913139
 11
5.2212263409
 21
6.7753152079
  0
LINE
  5
502
100
AcDbEntity
  8
0
100
AcDbLine
 62
7
  6
CONTINUOUS
 10
6.2921174496
 20
4.9503152079
 11
6.2025842181
 21
5.1053913139
  0
LINE
  5
503
100
AcDbEntity
  8
0
100
AcDbLine
 62
7
  6
CONTINUOUS
 10
5.8186931094
 20
5.8303913139
 11
5.9082263409
 21
5.6753152079
  0
LINE
  5
504
100
AcDbEntity
  8
0
100
AcDbLine
 62
7
  6
CONTINUOUS
 10
6.9791174496
 20
3.8503152079
 11
6.8895842181
 21
4.0053913139
  0
LINE
  5
505
100
AcDbEntity
  8
0
100
AcDbLine
 62
7
  6
CONTINUOUS
 10
6.5056931094
 20
4.7303913139
 11
6.5952263409
 21
4.5753152079
  0
LINE
  5
506
100
AcDbEntity
  8
0
100
AcDbLine
 62
7
  6
CONTINUOUS
 10
5.9486174496
 20
5.7753152079
 11
5.8590842181
 21
5.9303913139
  0
LINE
  5
507
100
AcDbEntity
  8
0
100
AcDbLine
 62
7
  6
CONTINUOUS
 10
7.1926931094
 20
3.6303913139
 11
7.2822263409
 21
3.4753152079
  0
LINE
  5
508
100
AcDbEntity
  8
0
100
AcDbLine
 62
7
  6
CONTINUOUS
 10
5.4751931094
 20
6.6553913139
 11
5.5647263409
 21
6.5003152079
  0
LINE
  5
509
100
AcDbEntity
  8
0
100
AcDbLine
 62
7
  6
CONTINUOUS
 10
6.6356174496
 20
4.6753152079
 11
6.5460842181
 21
4.8303913139
  0
LINE
  5
50A
100
AcDbEntity
  8
0
100
AcDbLine
 62
7
  6
CONTINUOUS
 10
6.1621931094
 20
5.5553913139
 11
6.2517263409
 21
5.4003152079
  0
LINE
  5
50B
100
AcDbEntity
  8
0
100
AcDbLine
 62
7
  6
CONTINUOUS
 10
5.6051174496
 20
6.6003152079
 11
5.5155842181
 21
6.7553913139
  0
LINE
  5
50C
100
AcDbEntity
  8
0
100
AcDbLine
 62
7
  6
CONTINUOUS
 10
6.8491931094
 20
4.4553913139
 11
6.9387263409
 21
4.3003152079
  0
LINE
  5
50D
100
AcDbEntity
  8
0
100
AcDbLine
 62
7
  6
CONTINUOUS
 10
6.2025842181
 20
2.9253152079
 11
6.2921174496
 21
3.0803913139
  0
LINE
  5
50E
100
AcDbEntity
  8
0
100
AcDbLine
 62
7
  6
CONTINUOUS
 10
5.9082263409
 20
2.3553913139
 11
5.8186931094
 21
2.2003152079
  0
LINE
  5
50F
100
AcDbEntity
  8
0
100
AcDbLine
 62
7
  6
CONTINUOUS
 10
6.8895842181
 20
4.0253152079
 11
6.9791174496
 21
4.1803913139
  0
LINE
  5
510
100
AcDbEntity
  8
0
100
AcDbLine
 62
7
  6
CONTINUOUS
 10
6.5952263409
 20
3.4553913139
 11
6.5056931094
 21
3.3003152079
  0
LINE
  5
511
100
AcDbEntity
  8
0
100
AcDbLine
 62
7
  6
CONTINUOUS
 10
5.8590842181
 20
2.1003152079
 11
5.9486174496
 21
2.2553913139
  0
LINE
  5
512
100
AcDbEntity
  8
0
100
AcDbLine
 62
7
  6
CONTINUOUS
 10
7.2822263409
 20
4.5553913139
 11
7.1926931094
 21
4.4003152079
  0
LINE
  5
513
100
AcDbEntity
  8
0
100
AcDbLine
 62
7
  6
CONTINUOUS
 10
6.5460842181
 20
3.2003152079
 11
6.6356174496
 21
3.3553913139
  0
LINE
  5
514
100
AcDbEntity
  8
0
100
AcDbLine
 62
7
  6
CONTINUOUS
 10
6.2517263409
 20
2.6303913139
 11
6.1621931094
 21
2.4753152079
  0
LINE
  5
515
100
AcDbEntity
  8
0
100
AcDbLine
 62
7
  6
CONTINUOUS
 10
6.9387263409
 20
3.7303913139
 11
6.8491931094
 21
3.5753152079
  0
LINE
  5
516
100
AcDbEntity
  8
0
100
AcDbLine
 62
7
  6
CONTINUOUS
 10
6.8319385111
 20
6.3153532609
 11
6.6528720479
 21
6.3153532609
  0
LINE
  5
517
100
AcDbEntity
  8
0
100
AcDbLine
 62
7
  6
CONTINUOUS
 10
6.1449385111
 20
6.3153532609
 11
5.9658720479
 21
6.3153532609
  0
LINE
  5
518
100
AcDbEntity
  8
0
100
AcDbLine
 62
7
  6
CONTINUOUS
 10
5.4579385111
 20
6.3153532609
 11
5.2788720479
 21
6.3153532609
  0
LINE
  5
519
100
AcDbEntity
  8
0
100
AcDbLine
 62
7
  6
CONTINUOUS
 10
4.7709385111
 20
6.3153532609
 11
4.5918720479
 21
6.3153532609
  0
LINE
  5
51A
100
AcDbEntity
  8
0
100
AcDbLine
 62
7
  6
CONTINUOUS
 10
4.0839385111
 20
6.3153532609
 11
3.9048720479
 21
6.3153532609
  0
LINE
  5
51B
100
AcDbEntity
  8
0
100
AcDbLine
 62
7
  6
CONTINUOUS
 10
3.3969385111
 20
6.3153532609
 11
3.2178720479
 21
6.3153532609
  0
LINE
  5
51C
100
AcDbEntity
  8
0
100
AcDbLine
 62
7
  6
CONTINUOUS
 10
2.5308720479
 20
6.3153532609
 11
2.7099385111
 21
6.3153532609
  0
LINE
  5
51D
100
AcDbEntity
  8
0
100
AcDbLine
 62
7
  6
CONTINUOUS
 10
2.1873720479
 20
6.3903532609
 11
2.3664385111
 21
6.3903532609
  0
LINE
  5
51E
100
AcDbEntity
  8
0
100
AcDbLine
 62
7
  6
CONTINUOUS
 10
2.8743720479
 20
6.3903532609
 11
3.0534385111
 21
6.3903532609
  0
LINE
  5
51F
100
AcDbEntity
  8
0
100
AcDbLine
 62
7
  6
CONTINUOUS
 10
3.5613720479
 20
6.3903532609
 11
3.7404385111
 21
6.3903532609
  0
LINE
  5
520
100
AcDbEntity
  8
0
100
AcDbLine
 62
7
  6
CONTINUOUS
 10
4.2483720479
 20
6.3903532609
 11
4.4274385111
 21
6.3903532609
  0
LINE
  5
521
100
AcDbEntity
  8
0
100
AcDbLine
 62
7
  6
CONTINUOUS
 10
4.9353720479
 20
6.3903532609
 11
5.1144385111
 21
6.3903532609
  0
LINE
  5
522
100
AcDbEntity
  8
0
100
AcDbLine
 62
7
  6
CONTINUOUS
 10
5.6223720479
 20
6.3903532609
 11
5.8014385111
 21
6.3903532609
  0
LINE
  5
523
100
AcDbEntity
  8
0
100
AcDbLine
 62
7
  6
CONTINUOUS
 10
6.3093720479
 20
6.3903532609
 11
6.4884385111
 21
6.3903532609
  0
LINE
  5
524
100
AcDbEntity
  8
0
100
AcDbLine
 62
7
  6
CONTINUOUS
 10
6.9963720479
 20
6.3903532609
 11
7.1754385111
 21
6.3903532609
  0
LINE
  5
525
100
AcDbEntity
  8
0
100
AcDbLine
 62
7
  6
CONTINUOUS
 10
6.2921174496
 20
5.5003152079
 11
6.2025842181
 21
5.6553913139
  0
LINE
  5
526
100
AcDbEntity
  8
0
100
AcDbLine
 62
7
  6
CONTINUOUS
 10
5.8186931094
 20
6.3803913139
 11
5.9082263409
 21
6.2253152079
  0
LINE
  5
527
100
AcDbEntity
  8
0
100
AcDbLine
 62
7
  6
CONTINUOUS
 10
6.9791174496
 20
4.4003152079
 11
6.8895842181
 21
4.5553913139
  0
LINE
  5
528
100
AcDbEntity
  8
0
100
AcDbLine
 62
7
  6
CONTINUOUS
 10
6.5056931094
 20
5.2803913139
 11
6.5952263409
 21
5.1253152079
  0
LINE
  5
529
100
AcDbEntity
  8
0
100
AcDbLine
 62
7
  6
CONTINUOUS
 10
5.9486174496
 20
6.3253152079
 11
5.8590842181
 21
6.4803913139
  0
LINE
  5
52A
100
AcDbEntity
  8
0
100
AcDbLine
 62
7
  6
CONTINUOUS
 10
7.1926931094
 20
4.1803913139
 11
7.2822263409
 21
4.0253152079
  0
LINE
  5
52B
100
AcDbEntity
  8
0
100
AcDbLine
 62
7
  6
CONTINUOUS
 10
6.6356174496
 20
5.2253152079
 11
6.5460842181
 21
5.3803913139
  0
LINE
  5
52C
100
AcDbEntity
  8
0
100
AcDbLine
 62
7
  6
CONTINUOUS
 10
6.1621931094
 20
6.1053913139
 11
6.2517263409
 21
5.9503152079
  0
LINE
  5
52D
100
AcDbEntity
  8
0
100
AcDbLine
 62
7
  6
CONTINUOUS
 10
6.8491931094
 20
5.0053913139
 11
6.9387263409
 21
4.8503152079
  0
LINE
  5
52E
100
AcDbEntity
  8
0
100
AcDbLine
 62
7
  6
CONTINUOUS
 10
6.2025842181
 20
2.3753152079
 11
6.2921174496
 21
2.5303913139
  0
LINE
  5
52F
100
AcDbEntity
  8
0
100
AcDbLine
 62
7
  6
CONTINUOUS
 10
5.9082263409
 20
1.8053913139
 11
5.8186931094
 21
1.6503152079
  0
LINE
  5
530
100
AcDbEntity
  8
0
100
AcDbLine
 62
7
  6
CONTINUOUS
 10
6.8895842181
 20
3.4753152079
 11
6.9791174496
 21
3.6303913139
  0
LINE
  5
531
100
AcDbEntity
  8
0
100
AcDbLine
 62
7
  6
CONTINUOUS
 10
6.5952263409
 20
2.9053913139
 11
6.5056931094
 21
2.7503152079
  0
LINE
  5
532
100
AcDbEntity
  8
0
100
AcDbLine
 62
7
  6
CONTINUOUS
 10
7.2822263409
 20
4.0053913139
 11
7.1926931094
 21
3.8503152079
  0
LINE
  5
533
100
AcDbEntity
  8
0
100
AcDbLine
 62
7
  6
CONTINUOUS
 10
6.5460842181
 20
2.6503152079
 11
6.6356174496
 21
2.8053913139
  0
LINE
  5
534
100
AcDbEntity
  8
0
100
AcDbLine
 62
7
  6
CONTINUOUS
 10
6.2517263409
 20
2.0803913139
 11
6.1621931094
 21
1.9253152079
  0
LINE
  5
535
100
AcDbEntity
  8
0
100
AcDbLine
 62
7
  6
CONTINUOUS
 10
6.9387263409
 20
3.1803913139
 11
6.8491931094
 21
3.0253152079
  0
LINE
  5
536
100
AcDbEntity
  8
0
100
AcDbLine
 62
7
  6
CONTINUOUS
 10
7.1754385111
 20
6.5903532609
 11
6.9963720479
 21
6.5903532609
  0
LINE
  5
537
100
AcDbEntity
  8
0
100
AcDbLine
 62
7
  6
CONTINUOUS
 10
6.4884385111
 20
6.5903532609
 11
6.3093720479
 21
6.5903532609
  0
LINE
  5
538
100
AcDbEntity
  8
0
100
AcDbLine
 62
7
  6
CONTINUOUS
 10
5.8014385111
 20
6.5903532609
 11
5.6223720479
 21
6.5903532609
  0
LINE
  5
539
100
AcDbEntity
  8
0
100
AcDbLine
 62
7
  6
CONTINUOUS
 10
5.1144385111
 20
6.5903532609
 11
4.9353720479
 21
6.5903532609
  0
LINE
  5
53A
100
AcDbEntity
  8
0
100
AcDbLine
 62
7
  6
CONTINUOUS
 10
4.4274385111
 20
6.5903532609
 11
4.2483720479
 21
6.5903532609
  0
LINE
  5
53B
100
AcDbEntity
  8
0
100
AcDbLine
 62
7
  6
CONTINUOUS
 10
3.7404385111
 20
6.5903532609
 11
3.5613720479
 21
6.5903532609
  0
LINE
  5
53C
100
AcDbEntity
  8
0
100
AcDbLine
 62
7
  6
CONTINUOUS
 10
3.0534385111
 20
6.5903532609
 11
2.8743720479
 21
6.5903532609
  0
LINE
  5
53D
100
AcDbEntity
  8
0
100
AcDbLine
 62
7
  6
CONTINUOUS
 10
2.1873720479
 20
6.5903532609
 11
2.3664385111
 21
6.5903532609
  0
LINE
  5
53E
100
AcDbEntity
  8
0
100
AcDbLine
 62
7
  6
CONTINUOUS
 10
2.7099385111
 20
6.6653532609
 11
2.5308720479
 21
6.6653532609
  0
LINE
  5
53F
100
AcDbEntity
  8
0
100
AcDbLine
 62
7
  6
CONTINUOUS
 10
3.2178720479
 20
6.6653532609
 11
3.3969385111
 21
6.6653532609
  0
LINE
  5
540
100
AcDbEntity
  8
0
100
AcDbLine
 62
7
  6
CONTINUOUS
 10
3.9048720479
 20
6.6653532609
 11
4.0839385111
 21
6.6653532609
  0
LINE
  5
541
100
AcDbEntity
  8
0
100
AcDbLine
 62
7
  6
CONTINUOUS
 10
4.5918720479
 20
6.6653532609
 11
4.7709385111
 21
6.6653532609
  0
LINE
  5
542
100
AcDbEntity
  8
0
100
AcDbLine
 62
7
  6
CONTINUOUS
 10
5.2788720479
 20
6.6653532609
 11
5.4579385111
 21
6.6653532609
  0
LINE
  5
543
100
AcDbEntity
  8
0
100
AcDbLine
 62
7
  6
CONTINUOUS
 10
5.9658720479
 20
6.6653532609
 11
6.1449385111
 21
6.6653532609
  0
LINE
  5
544
100
AcDbEntity
  8
0
100
AcDbLine
 62
7
  6
CONTINUOUS
 10
6.6528720479
 20
6.6653532609
 11
6.8319385111
 21
6.6653532609
  0
LINE
  5
545
100
AcDbEntity
  8
0
100
AcDbLine
 62
7
  6
CONTINUOUS
 10
6.2921174496
 20
6.0503152079
 11
6.2025842181
 21
6.2053913139
  0
LINE
  5
546
100
AcDbEntity
  8
0
100
AcDbLine
 62
7
  6
CONTINUOUS
 10
5.8186931094
 20
6.9303913139
 11
5.9082263409
 21
6.7753152079
  0
LINE
  5
547
100
AcDbEntity
  8
0
100
AcDbLine
 62
7
  6
CONTINUOUS
 10
6.9791174496
 20
4.9503152079
 11
6.8895842181
 21
5.1053913139
  0
LINE
  5
548
100
AcDbEntity
  8
0
100
AcDbLine
 62
7
  6
CONTINUOUS
 10
6.5056931094
 20
5.8303913139
 11
6.5952263409
 21
5.6753152079
  0
LINE
  5
549
100
AcDbEntity
  8
0
100
AcDbLine
 62
7
  6
CONTINUOUS
 10
7.1926931094
 20
4.7303913139
 11
7.2822263409
 21
4.5753152079
  0
LINE
  5
54A
100
AcDbEntity
  8
0
100
AcDbLine
 62
7
  6
CONTINUOUS
 10
6.6356174496
 20
5.7753152079
 11
6.5460842181
 21
5.9303913139
  0
LINE
  5
54B
100
AcDbEntity
  8
0
100
AcDbLine
 62
7
  6
CONTINUOUS
 10
6.1621931094
 20
6.6553913139
 11
6.2517263409
 21
6.5003152079
  0
LINE
  5
54C
100
AcDbEntity
  8
0
100
AcDbLine
 62
7
  6
CONTINUOUS
 10
6.8491931094
 20
5.5553913139
 11
6.9387263409
 21
5.4003152079
  0
LINE
  5
54D
100
AcDbEntity
  8
0
100
AcDbLine
 62
7
  6
CONTINUOUS
 10
6.2025842181
 20
1.8253152079
 11
6.2921174496
 21
1.9803913139
  0
LINE
  5
54E
100
AcDbEntity
  8
0
100
AcDbLine
 62
7
  6
CONTINUOUS
 10
6.8895842181
 20
2.9253152079
 11
6.9791174496
 21
3.0803913139
  0
LINE
  5
54F
100
AcDbEntity
  8
0
100
AcDbLine
 62
7
  6
CONTINUOUS
 10
6.5952263409
 20
2.3553913139
 11
6.5056931094
 21
2.2003152079
  0
LINE
  5
550
100
AcDbEntity
  8
0
100
AcDbLine
 62
7
  6
CONTINUOUS
 10
7.2822263409
 20
3.4553913139
 11
7.1926931094
 21
3.3003152079
  0
LINE
  5
551
100
AcDbEntity
  8
0
100
AcDbLine
 62
7
  6
CONTINUOUS
 10
6.5460842181
 20
2.1003152079
 11
6.6356174496
 21
2.2553913139
  0
LINE
  5
552
100
AcDbEntity
  8
0
100
AcDbLine
 62
7
  6
CONTINUOUS
 10
6.9387263409
 20
2.6303913139
 11
6.8491931094
 21
2.4753152079
  0
LINE
  5
553
100
AcDbEntity
  8
0
100
AcDbLine
 62
7
  6
CONTINUOUS
 10
2.3664385111
 20
6.9403532609
 11
2.1873720479
 21
6.9403532609
  0
LINE
  5
554
100
AcDbEntity
  8
0
100
AcDbLine
 62
7
  6
CONTINUOUS
 10
2.8743720479
 20
6.9403532609
 11
3.0534385111
 21
6.9403532609
  0
LINE
  5
555
100
AcDbEntity
  8
0
100
AcDbLine
 62
7
  6
CONTINUOUS
 10
3.5613720479
 20
6.9403532609
 11
3.7404385111
 21
6.9403532609
  0
LINE
  5
556
100
AcDbEntity
  8
0
100
AcDbLine
 62
7
  6
CONTINUOUS
 10
4.2483720479
 20
6.9403532609
 11
4.4274385111
 21
6.9403532609
  0
LINE
  5
557
100
AcDbEntity
  8
0
100
AcDbLine
 62
7
  6
CONTINUOUS
 10
4.9353720479
 20
6.9403532609
 11
5.1144385111
 21
6.9403532609
  0
LINE
  5
558
100
AcDbEntity
  8
0
100
AcDbLine
 62
7
  6
CONTINUOUS
 10
5.6223720479
 20
6.9403532609
 11
5.8014385111
 21
6.9403532609
  0
LINE
  5
559
100
AcDbEntity
  8
0
100
AcDbLine
 62
7
  6
CONTINUOUS
 10
6.3093720479
 20
6.9403532609
 11
6.4884385111
 21
6.9403532609
  0
LINE
  5
55A
100
AcDbEntity
  8
0
100
AcDbLine
 62
7
  6
CONTINUOUS
 10
6.9963720479
 20
6.9403532609
 11
7.1754385111
 21
6.9403532609
  0
LINE
  5
55B
100
AcDbEntity
  8
0
100
AcDbLine
 62
7
  6
CONTINUOUS
 10
6.2921174496
 20
6.6003152079
 11
6.2025842181
 21
6.7553913139
  0
LINE
  5
55C
100
AcDbEntity
  8
0
100
AcDbLine
 62
7
  6
CONTINUOUS
 10
6.9791174496
 20
5.5003152079
 11
6.8895842181
 21
5.6553913139
  0
LINE
  5
55D
100
AcDbEntity
  8
0
100
AcDbLine
 62
7
  6
CONTINUOUS
 10
6.5056931094
 20
6.3803913139
 11
6.5952263409
 21
6.2253152079
  0
LINE
  5
55E
100
AcDbEntity
  8
0
100
AcDbLine
 62
7
  6
CONTINUOUS
 10
7.1926931094
 20
5.2803913139
 11
7.2822263409
 21
5.1253152079
  0
LINE
  5
55F
100
AcDbEntity
  8
0
100
AcDbLine
 62
7
  6
CONTINUOUS
 10
6.6356174496
 20
6.3253152079
 11
6.5460842181
 21
6.4803913139
  0
LINE
  5
560
100
AcDbEntity
  8
0
100
AcDbLine
 62
7
  6
CONTINUOUS
 10
6.8491931094
 20
6.1053913139
 11
6.9387263409
 21
5.9503152079
  0
LINE
  5
561
100
AcDbEntity
  8
0
100
AcDbLine
 62
7
  6
CONTINUOUS
 10
7.6289052795
 20
1.4228532609
 11
7.6289052795
 21
7.1578532609
  0
LINE
  5
562
100
AcDbEntity
  8
0
100
AcDbLine
 62
7
  6
CONTINUOUS
 10
6.8895842181
 20
2.3753152079
 11
6.9791174496
 21
2.5303913139
  0
LINE
  5
563
100
AcDbEntity
  8
0
100
AcDbLine
 62
7
  6
CONTINUOUS
 10
6.5952263409
 20
1.8053913139
 11
6.5056931094
 21
1.6503152079
  0
LINE
  5
564
100
AcDbEntity
  8
0
100
AcDbLine
 62
7
  6
CONTINUOUS
 10
7.2822263409
 20
2.9053913139
 11
7.1926931094
 21
2.7503152079
  0
LINE
  5
565
100
AcDbEntity
  8
0
100
AcDbLine
 62
7
  6
CONTINUOUS
 10
6.9387263409
 20
2.0803913139
 11
6.8491931094
 21
1.9253152079
  0
LINE
  5
566
100
AcDbEntity
  8
0
100
AcDbLine
 62
7
  6
CONTINUOUS
 10
7.5489052795
 20
7.2378532609
 11
1.8139052795
 21
7.2378532609
  0
LINE
  5
567
100
AcDbEntity
  8
0
100
AcDbLine
 62
7
  6
CONTINUOUS
 10
6.9791174496
 20
6.0503152079
 11
6.8895842181
 21
6.2053913139
  0
LINE
  5
568
100
AcDbEntity
  8
0
100
AcDbLine
 62
7
  6
CONTINUOUS
 10
6.5056931094
 20
6.9303913139
 11
6.5952263409
 21
6.7753152079
  0
LINE
  5
569
100
AcDbEntity
  8
0
100
AcDbLine
 62
7
  6
CONTINUOUS
 10
7.1926931094
 20
5.8303913139
 11
7.2822263409
 21
5.6753152079
  0
LINE
  5
56A
100
AcDbEntity
  8
0
100
AcDbLine
 62
7
  6
CONTINUOUS
 10
6.8491931094
 20
6.6553913139
 11
6.9387263409
 21
6.5003152079
  0
LINE
  5
56B
100
AcDbEntity
  8
0
100
AcDbLine
 62
7
  6
CONTINUOUS
 10
6.8895842181
 20
1.8253152079
 11
6.9791174496
 21
1.9803913139
  0
LINE
  5
56C
100
AcDbEntity
  8
0
100
AcDbLine
 62
7
  6
CONTINUOUS
 10
7.2822263409
 20
2.3553913139
 11
7.1926931094
 21
2.2003152079
  0
LINE
  5
56D
100
AcDbEntity
  8
0
100
AcDbLine
 62
7
  6
CONTINUOUS
 10
6.9791174496
 20
6.6003152079
 11
6.8895842181
 21
6.7553913139
  0
LINE
  5
56E
100
AcDbEntity
  8
0
100
AcDbLine
 62
7
  6
CONTINUOUS
 10
7.1926931094
 20
6.3803913139
 11
7.2822263409
 21
6.2253152079
  0
LINE
  5
56F
100
AcDbEntity
  8
0
100
AcDbLine
 62
7
  6
CONTINUOUS
 10
7.2822263409
 20
1.8053913139
 11
7.1926931094
 21
1.6503152079
  0
LINE
  5
570
100
AcDbEntity
  8
0
100
AcDbLine
 62
7
  6
CONTINUOUS
 10
7.1926931094
 20
6.9303913139
 11
7.2822263409
 21
6.7753152079
  0
ARC
  5
571
100
AcDbEntity
  8
0
100
AcDbCircle
 62
7
  6
CONTINUOUS
 10
7.5489052795
 20
1.4228532609
 40
0.08
100
AcDbArc
 50
270.0
 51
360.0
  0
ARC
  5
572
100
AcDbEntity
  8
0
100
AcDbCircle
 62
7
  6
CONTINUOUS
 10
7.5489052795
 20
7.1578532609
 40
0.08
100
AcDbArc
 50
0.0
 51
90.0
  0
ARC
  5
573
100
AcDbEntity
  8
0
100
AcDbCircle
 62
7
  6
CONTINUOUS
 10
1.8139052795
 20
7.1578532609
 40
0.08
100
AcDbArc
 50
90.0
 51
180.0
  0
ARC
  5
574
100
AcDbEntity
  8
0
100
AcDbCircle
 62
7
  6
CONTINUOUS
 10
1.8139052795
 20
1.4228532609
 40
0.08
100
AcDbArc
 50
180.0
 51
270.0
  0
ELLIPSE
  5
575
100
AcDbEntity
  8
0
100
AcDbEllipse
 62
7
  6
CONTINUOUS
 10
6.8318504635
 20
2.2452768641
 30
0.0
 11
0.0100508989
 21
0.0174086676
 31
0.0
 40
0.9949358851
 41
-0.5214031734
 42
0.5214031734
  0
ELLIPSE
  5
576
100
AcDbEntity
  8
0
100
AcDbEllipse
 62
7
  6
CONTINUOUS
 10
6.6529600955
 20
2.2452768641
 30
0.0
 11
-0.0100508989
 21
0.0174086676
 31
0.0
 40
0.9949358851
 41
-0.5214031734
 42
0.5214031734
  0
ELLIPSE
  5
577
100
AcDbEntity
  8
0
100
AcDbEllipse
 62
7
  6
CONTINUOUS
 10
6.5635149114
 20
2.0903532609
 30
0.0
 11
0.0201017978
 21
-0.0
 31
0.0
 40
0.9949358851
 41
2.6201894802
 42
3.6629958269
  0
ELLIPSE
  5
578
100
AcDbEntity
  8
0
100
AcDbEllipse
 62
7
  6
CONTINUOUS
 10
6.6529600955
 20
1.9354296576
 30
0.0
 11
0.0100508989
 21
0.0174086676
 31
0.0
 40
0.9949358851
 41
-3.6629958269
 42
-2.6201894802
  0
ELLIPSE
  5
579
100
AcDbEntity
  8
0
100
AcDbEllipse
 62
7
  6
CONTINUOUS
 10
6.8318504635
 20
1.9354296576
 30
0.0
 11
-0.0100508989
 21
0.0174086676
 31
0.0
 40
0.9949358851
 41
-3.6629958269
 42
-2.6201894802
  0
ELLIPSE
  5
57A
100
AcDbEntity
  8
0
100
AcDbEllipse
 62
7
  6
CONTINUOUS
 10
6.9212956476
 20
2.0903532609
 30
0.0
 11
0.0201017978
 21
0.0
 31
0.0
 40
0.9949358851
 41
-0.5214031734
 42
0.5214031734
  0
ELLIPSE
  5
57B
100
AcDbEntity
  8
0
100
AcDbEllipse
 62
7
  6
CONTINUOUS
 10
6.8318504635
 20
2.7952768641
 30
0.0
 11
0.0100508989
 21
0.0174086676
 31
0.0
 40
0.9949358851
 41
-0.5214031734
 42
0.5214031734
  0
ELLIPSE
  5
57C
100
AcDbEntity
  8
0
100
AcDbEllipse
 62
7
  6
CONTINUOUS
 10
6.6529600955
 20
2.7952768641
 30
0.0
 11
-0.0100508989
 21
0.0174086676
 31
0.0
 40
0.9949358851
 41
-0.5214031734
 42
0.5214031734
  0
ELLIPSE
  5
57D
100
AcDbEntity
  8
0
100
AcDbEllipse
 62
7
  6
CONTINUOUS
 10
6.5635149114
 20
2.6403532609
 30
0.0
 11
0.0201017978
 21
-0.0
 31
0.0
 40
0.9949358851
 41
2.6201894802
 42
3.6629958269
  0
ELLIPSE
  5
57E
100
AcDbEntity
  8
0
100
AcDbEllipse
 62
7
  6
CONTINUOUS
 10
6.6529600955
 20
2.4854296576
 30
0.0
 11
0.0100508989
 21
0.0174086676
 31
0.0
 40
0.9949358851
 41
-3.6629958269
 42
-2.6201894802
  0
ELLIPSE
  5
57F
100
AcDbEntity
  8
0
100
AcDbEllipse
 62
7
  6
CONTINUOUS
 10
6.8318504635
 20
2.4854296576
 30
0.0
 11
-0.0100508989
 21
0.0174086676
 31
0.0
 40
0.9949358851
 41
-3.6629958269
 42
-2.6201894802
  0
ELLIPSE
  5
580
100
AcDbEntity
  8
0
100
AcDbEllipse
 62
7
  6
CONTINUOUS
 10
6.9212956476
 20
2.6403532609
 30
0.0
 11
0.0201017978
 21
0.0
 31
0.0
 40
0.9949358851
 41
-0.5214031734
 42
0.5214031734
  0
ELLIPSE
  5
581
100
AcDbEntity
  8
0
100
AcDbEllipse
 62
7
  6
CONTINUOUS
 10
6.8318504635
 20
3.3452768641
 30
0.0
 11
0.0100508989
 21
0.0174086676
 31
0.0
 40
0.9949358851
 41
-0.5214031734
 42
0.5214031734
  0
ELLIPSE
  5
582
100
AcDbEntity
  8
0
100
AcDbEllipse
 62
7
  6
CONTINUOUS
 10
6.6529600955
 20
3.3452768641
 30
0.0
 11
-0.0100508989
 21
0.0174086676
 31
0.0
 40
0.9949358851
 41
-0.5214031734
 42
0.5214031734
  0
ELLIPSE
  5
583
100
AcDbEntity
  8
0
100
AcDbEllipse
 62
7
  6
CONTINUOUS
 10
6.5635149114
 20
3.1903532609
 30
0.0
 11
0.0201017978
 21
-0.0
 31
0.0
 40
0.9949358851
 41
2.6201894802
 42
3.6629958269
  0
ELLIPSE
  5
584
100
AcDbEntity
  8
0
100
AcDbEllipse
 62
7
  6
CONTINUOUS
 10
6.6529600955
 20
3.0354296576
 30
0.0
 11
0.0100508989
 21
0.0174086676
 31
0.0
 40
0.9949358851
 41
-3.6629958269
 42
-2.6201894802
  0
ELLIPSE
  5
585
100
AcDbEntity
  8
0
100
AcDbEllipse
 62
7
  6
CONTINUOUS
 10
6.8318504635
 20
3.0354296576
 30
0.0
 11
-0.0100508989
 21
0.0174086676
 31
0.0
 40
0.9949358851
 41
-3.6629958269
 42
-2.6201894802
  0
ELLIPSE
  5
586
100
AcDbEntity
  8
0
100
AcDbEllipse
 62
7
  6
CONTINUOUS
 10
6.9212956476
 20
3.1903532609
 30
0.0
 11
0.0201017978
 21
-0.0
 31
0.0
 40
0.9949358851
 41
-0.5214031734
 42
0.5214031734
  0
ELLIPSE
  5
587
100
AcDbEntity
  8
0
100
AcDbEllipse
 62
7
  6
CONTINUOUS
 10
6.8318504635
 20
3.8952768641
 30
0.0
 11
0.0100508989
 21
0.0174086676
 31
0.0
 40
0.9949358851
 41
-0.5214031734
 42
0.5214031734
  0
ELLIPSE
  5
588
100
AcDbEntity
  8
0
100
AcDbEllipse
 62
7
  6
CONTINUOUS
 10
6.6529600955
 20
3.8952768641
 30
0.0
 11
-0.0100508989
 21
0.0174086676
 31
0.0
 40
0.9949358851
 41
-0.5214031734
 42
0.5214031734
  0
ELLIPSE
  5
589
100
AcDbEntity
  8
0
100
AcDbEllipse
 62
7
  6
CONTINUOUS
 10
6.5635149114
 20
3.7403532609
 30
0.0
 11
0.0201017978
 21
0.0
 31
0.0
 40
0.9949358851
 41
2.6201894802
 42
3.6629958269
  0
ELLIPSE
  5
58A
100
AcDbEntity
  8
0
100
AcDbEllipse
 62
7
  6
CONTINUOUS
 10
6.6529600955
 20
3.5854296576
 30
0.0
 11
0.0100508989
 21
0.0174086676
 31
0.0
 40
0.9949358851
 41
-3.6629958269
 42
-2.6201894802
  0
ELLIPSE
  5
58B
100
AcDbEntity
  8
0
100
AcDbEllipse
 62
7
  6
CONTINUOUS
 10
6.8318504635
 20
3.5854296576
 30
0.0
 11
-0.0100508989
 21
0.0174086676
 31
0.0
 40
0.9949358851
 41
-3.6629958269
 42
-2.6201894802
  0
ELLIPSE
  5
58C
100
AcDbEntity
  8
0
100
AcDbEllipse
 62
7
  6
CONTINUOUS
 10
6.9212956476
 20
3.7403532609
 30
0.0
 11
0.0201017978
 21
0.0
 31
0.0
 40
0.9949358851
 41
-0.5214031734
 42
0.5214031734
  0
ELLIPSE
  5
58D
100
AcDbEntity
  8
0
100
AcDbEllipse
 62
7
  6
CONTINUOUS
 10
6.8318504635
 20
4.4452768641
 30
0.0
 11
0.0100508989
 21
0.0174086676
 31
0.0
 40
0.9949358851
 41
-0.5214031734
 42
0.5214031734
  0
ELLIPSE
  5
58E
100
AcDbEntity
  8
0
100
AcDbEllipse
 62
7
  6
CONTINUOUS
 10
6.6529600955
 20
4.4452768641
 30
0.0
 11
-0.0100508989
 21
0.0174086676
 31
0.0
 40
0.9949358851
 41
-0.5214031734
 42
0.5214031734
  0
ELLIPSE
  5
58F
100
AcDbEntity
  8
0
100
AcDbEllipse
 62
7
  6
CONTINUOUS
 10
6.5635149114
 20
4.2903532609
 30
0.0
 11
0.0201017978
 21
0.0
 31
0.0
 40
0.9949358851
 41
2.6201894802
 42
3.6629958269
  0
ELLIPSE
  5
590
100
AcDbEntity
  8
0
100
AcDbEllipse
 62
7
  6
CONTINUOUS
 10
6.6529600955
 20
4.1354296576
 30
0.0
 11
0.0100508989
 21
0.0174086676
 31
0.0
 40
0.9949358851
 41
-3.6629958269
 42
-2.6201894802
  0
ELLIPSE
  5
591
100
AcDbEntity
  8
0
100
AcDbEllipse
 62
7
  6
CONTINUOUS
 10
6.8318504635
 20
4.1354296576
 30
0.0
 11
-0.0100508989
 21
0.0174086676
 31
0.0
 40
0.9949358851
 41
-3.6629958269
 42
-2.6201894802
  0
ELLIPSE
  5
592
100
AcDbEntity
  8
0
100
AcDbEllipse
 62
7
  6
CONTINUOUS
 10
6.9212956476
 20
4.2903532609
 30
0.0
 11
0.0201017978
 21
-0.0
 31
0.0
 40
0.9949358851
 41
-0.5214031734
 42
0.5214031734
  0
ELLIPSE
  5
593
100
AcDbEntity
  8
0
100
AcDbEllipse
 62
7
  6
CONTINUOUS
 10
6.8318504635
 20
4.9952768641
 30
0.0
 11
0.0100508989
 21
0.0174086676
 31
0.0
 40
0.9949358851
 41
-0.5214031734
 42
0.5214031734
  0
ELLIPSE
  5
594
100
AcDbEntity
  8
0
100
AcDbEllipse
 62
7
  6
CONTINUOUS
 10
6.6529600955
 20
4.9952768641
 30
0.0
 11
-0.0100508989
 21
0.0174086676
 31
0.0
 40
0.9949358851
 41
-0.5214031734
 42
0.5214031734
  0
ELLIPSE
  5
595
100
AcDbEntity
  8
0
100
AcDbEllipse
 62
7
  6
CONTINUOUS
 10
6.5635149114
 20
4.8403532609
 30
0.0
 11
0.0201017978
 21
-0.0
 31
0.0
 40
0.9949358851
 41
2.6201894802
 42
3.6629958269
  0
ELLIPSE
  5
596
100
AcDbEntity
  8
0
100
AcDbEllipse
 62
7
  6
CONTINUOUS
 10
6.6529600955
 20
4.6854296576
 30
0.0
 11
0.0100508989
 21
0.0174086676
 31
0.0
 40
0.9949358851
 41
-3.6629958269
 42
-2.6201894802
  0
ELLIPSE
  5
597
100
AcDbEntity
  8
0
100
AcDbEllipse
 62
7
  6
CONTINUOUS
 10
6.8318504635
 20
4.6854296576
 30
0.0
 11
-0.0100508989
 21
0.0174086676
 31
0.0
 40
0.9949358851
 41
-3.6629958269
 42
-2.6201894802
  0
ELLIPSE
  5
598
100
AcDbEntity
  8
0
100
AcDbEllipse
 62
7
  6
CONTINUOUS
 10
6.9212956476
 20
4.8403532609
 30
0.0
 11
0.0201017978
 21
0.0
 31
0.0
 40
0.9949358851
 41
-0.5214031734
 42
0.5214031734
  0
ELLIPSE
  5
599
100
AcDbEntity
  8
0
100
AcDbEllipse
 62
7
  6
CONTINUOUS
 10
6.8318504635
 20
5.5452768641
 30
0.0
 11
0.0100508989
 21
0.0174086676
 31
0.0
 40
0.9949358851
 41
-0.5214031734
 42
0.5214031734
  0
ELLIPSE
  5
59A
100
AcDbEntity
  8
0
100
AcDbEllipse
 62
7
  6
CONTINUOUS
 10
6.6529600955
 20
5.5452768641
 30
0.0
 11
-0.0100508989
 21
0.0174086676
 31
0.0
 40
0.9949358851
 41
-0.5214031734
 42
0.5214031734
  0
ELLIPSE
  5
59B
100
AcDbEntity
  8
0
100
AcDbEllipse
 62
7
  6
CONTINUOUS
 10
6.5635149114
 20
5.3903532609
 30
0.0
 11
0.0201017978
 21
-0.0
 31
0.0
 40
0.9949358851
 41
2.6201894802
 42
3.6629958269
  0
ELLIPSE
  5
59C
100
AcDbEntity
  8
0
100
AcDbEllipse
 62
7
  6
CONTINUOUS
 10
6.6529600955
 20
5.2354296576
 30
0.0
 11
0.0100508989
 21
0.0174086676
 31
0.0
 40
0.9949358851
 41
-3.6629958269
 42
-2.6201894802
  0
ELLIPSE
  5
59D
100
AcDbEntity
  8
0
100
AcDbEllipse
 62
7
  6
CONTINUOUS
 10
6.8318504635
 20
5.2354296576
 30
0.0
 11
-0.0100508989
 21
0.0174086676
 31
0.0
 40
0.9949358851
 41
-3.6629958269
 42
-2.6201894802
  0
ELLIPSE
  5
59E
100
AcDbEntity
  8
0
100
AcDbEllipse
 62
7
  6
CONTINUOUS
 10
6.9212956476
 20
5.3903532609
 30
0.0
 11
0.0201017978
 21
-0.0
 31
0.0
 40
0.9949358851
 41
-0.5214031734
 42
0.5214031734
  0
ELLIPSE
  5
59F
100
AcDbEntity
  8
0
100
AcDbEllipse
 62
7
  6
CONTINUOUS
 10
6.8318504635
 20
6.0952768641
 30
0.0
 11
0.0100508989
 21
0.0174086676
 31
0.0
 40
0.9949358851
 41
-0.5214031734
 42
0.5214031734
  0
ELLIPSE
  5
5A0
100
AcDbEntity
  8
0
100
AcDbEllipse
 62
7
  6
CONTINUOUS
 10
6.6529600955
 20
6.0952768641
 30
0.0
 11
-0.0100508989
 21
0.0174086676
 31
0.0
 40
0.9949358851
 41
-0.5214031734
 42
0.5214031734
  0
ELLIPSE
  5
5A1
100
AcDbEntity
  8
0
100
AcDbEllipse
 62
7
  6
CONTINUOUS
 10
6.5635149114
 20
5.9403532609
 30
0.0
 11
0.0201017978
 21
-0.0
 31
0.0
 40
0.9949358851
 41
2.6201894802
 42
3.6629958269
  0
ELLIPSE
  5
5A2
100
AcDbEntity
  8
0
100
AcDbEllipse
 62
7
  6
CONTINUOUS
 10
6.6529600955
 20
5.7854296576
 30
0.0
 11
0.0100508989
 21
0.0174086676
 31
0.0
 40
0.9949358851
 41
-3.6629958269
 42
-2.6201894802
  0
ELLIPSE
  5
5A3
100
AcDbEntity
  8
0
100
AcDbEllipse
 62
7
  6
CONTINUOUS
 10
6.8318504635
 20
5.7854296576
 30
0.0
 11
-0.0100508989
 21
0.0174086676
 31
0.0
 40
0.9949358851
 41
-3.6629958269
 42
-2.6201894802
  0
ELLIPSE
  5
5A4
100
AcDbEntity
  8
0
100
AcDbEllipse
 62
7
  6
CONTINUOUS
 10
6.9212956476
 20
5.9403532609
 30
0.0
 11
0.0201017978
 21
-0.0
 31
0.0
 40
0.9949358851
 41
-0.5214031734
 42
0.5214031734
  0
ELLIPSE
  5
5A5
100
AcDbEntity
  8
0
100
AcDbEllipse
 62
7
  6
CONTINUOUS
 10
6.8318504635
 20
6.6452768641
 30
0.0
 11
0.0100508989
 21
0.0174086676
 31
0.0
 40
0.9949358851
 41
-0.5214031734
 42
0.5214031734
  0
ELLIPSE
  5
5A6
100
AcDbEntity
  8
0
100
AcDbEllipse
 62
7
  6
CONTINUOUS
 10
6.6529600955
 20
6.6452768641
 30
0.0
 11
-0.0100508989
 21
0.0174086676
 31
0.0
 40
0.9949358851
 41
-0.5214031734
 42
0.5214031734
  0
ELLIPSE
  5
5A7
100
AcDbEntity
  8
0
100
AcDbEllipse
 62
7
  6
CONTINUOUS
 10
6.5635149114
 20
6.4903532609
 30
0.0
 11
0.0201017978
 21
-0.0
 31
0.0
 40
0.9949358851
 41
2.6201894802
 42
3.6629958269
  0
ELLIPSE
  5
5A8
100
AcDbEntity
  8
0
100
AcDbEllipse
 62
7
  6
CONTINUOUS
 10
6.6529600955
 20
6.3354296576
 30
0.0
 11
0.0100508989
 21
0.0174086676
 31
0.0
 40
0.9949358851
 41
-3.6629958269
 42
-2.6201894802
  0
ELLIPSE
  5
5A9
100
AcDbEntity
  8
0
100
AcDbEllipse
 62
7
  6
CONTINUOUS
 10
6.8318504635
 20
6.3354296576
 30
0.0
 11
-0.0100508989
 21
0.0174086676
 31
0.0
 40
0.9949358851
 41
-3.6629958269
 42
-2.6201894802
  0
ELLIPSE
  5
5AA
100
AcDbEntity
  8
0
100
AcDbEllipse
 62
7
  6
CONTINUOUS
 10
6.9212956476
 20
6.4903532609
 30
0.0
 11
0.0201017978
 21
-0.0
 31
0.0
 40
0.9949358851
 41
-0.5214031734
 42
0.5214031734
  0
ELLIPSE
  5
5AB
100
AcDbEntity
  8
0
100
AcDbEllipse
 62
7
  6
CONTINUOUS
 10
6.1448504635
 20
2.2452768641
 30
0.0
 11
0.0100508989
 21
0.0174086676
 31
0.0
 40
0.9949358851
 41
-0.5214031734
 42
0.5214031734
  0
ELLIPSE
  5
5AC
100
AcDbEntity
  8
0
100
AcDbEllipse
 62
7
  6
CONTINUOUS
 10
5.9659600955
 20
2.2452768641
 30
0.0
 11
-0.0100508989
 21
0.0174086676
 31
0.0
 40
0.9949358851
 41
-0.5214031734
 42
0.5214031734
  0
ELLIPSE
  5
5AD
100
AcDbEntity
  8
0
100
AcDbEllipse
 62
7
  6
CONTINUOUS
 10
5.8765149114
 20
2.0903532609
 30
0.0
 11
0.0201017978
 21
0.0
 31
0.0
 40
0.9949358851
 41
2.6201894802
 42
3.6629958269
  0
ELLIPSE
  5
5AE
100
AcDbEntity
  8
0
100
AcDbEllipse
 62
7
  6
CONTINUOUS
 10
5.9659600955
 20
1.9354296576
 30
0.0
 11
0.0100508989
 21
0.0174086676
 31
0.0
 40
0.9949358851
 41
-3.6629958269
 42
-2.6201894802
  0
ELLIPSE
  5
5AF
100
AcDbEntity
  8
0
100
AcDbEllipse
 62
7
  6
CONTINUOUS
 10
6.1448504635
 20
1.9354296576
 30
0.0
 11
-0.0100508989
 21
0.0174086676
 31
0.0
 40
0.9949358851
 41
-3.6629958269
 42
-2.6201894802
  0
ELLIPSE
  5
5B0
100
AcDbEntity
  8
0
100
AcDbEllipse
 62
7
  6
CONTINUOUS
 10
6.2342956476
 20
2.0903532609
 30
0.0
 11
0.0201017978
 21
0.0
 31
0.0
 40
0.9949358851
 41
-0.5214031734
 42
0.5214031734
  0
ELLIPSE
  5
5B1
100
AcDbEntity
  8
0
100
AcDbEllipse
 62
7
  6
CONTINUOUS
 10
6.1448504635
 20
2.7952768641
 30
0.0
 11
0.0100508989
 21
0.0174086676
 31
0.0
 40
0.9949358851
 41
-0.5214031734
 42
0.5214031734
  0
ELLIPSE
  5
5B2
100
AcDbEntity
  8
0
100
AcDbEllipse
 62
7
  6
CONTINUOUS
 10
5.9659600955
 20
2.7952768641
 30
0.0
 11
-0.0100508989
 21
0.0174086676
 31
0.0
 40
0.9949358851
 41
-0.5214031734
 42
0.5214031734
  0
ELLIPSE
  5
5B3
100
AcDbEntity
  8
0
100
AcDbEllipse
 62
7
  6
CONTINUOUS
 10
5.8765149114
 20
2.6403532609
 30
0.0
 11
0.0201017978
 21
0.0
 31
0.0
 40
0.9949358851
 41
2.6201894802
 42
3.6629958269
  0
ELLIPSE
  5
5B4
100
AcDbEntity
  8
0
100
AcDbEllipse
 62
7
  6
CONTINUOUS
 10
5.9659600955
 20
2.4854296576
 30
0.0
 11
0.0100508989
 21
0.0174086676
 31
0.0
 40
0.9949358851
 41
-3.6629958269
 42
-2.6201894802
  0
ELLIPSE
  5
5B5
100
AcDbEntity
  8
0
100
AcDbEllipse
 62
7
  6
CONTINUOUS
 10
6.1448504635
 20
2.4854296576
 30
0.0
 11
-0.0100508989
 21
0.0174086676
 31
0.0
 40
0.9949358851
 41
-3.6629958269
 42
-2.6201894802
  0
ELLIPSE
  5
5B6
100
AcDbEntity
  8
0
100
AcDbEllipse
 62
7
  6
CONTINUOUS
 10
6.2342956476
 20
2.6403532609
 30
0.0
 11
0.0201017978
 21
-0.0
 31
0.0
 40
0.9949358851
 41
-0.5214031734
 42
0.5214031734
  0
ELLIPSE
  5
5B7
100
AcDbEntity
  8
0
100
AcDbEllipse
 62
7
  6
CONTINUOUS
 10
6.1448504635
 20
3.3452768641
 30
0.0
 11
0.0100508989
 21
0.0174086676
 31
0.0
 40
0.9949358851
 41
-0.5214031734
 42
0.5214031734
  0
ELLIPSE
  5
5B8
100
AcDbEntity
  8
0
100
AcDbEllipse
 62
7
  6
CONTINUOUS
 10
5.9659600955
 20
3.3452768641
 30
0.0
 11
-0.0100508989
 21
0.0174086676
 31
0.0
 40
0.9949358851
 41
-0.5214031734
 42
0.5214031734
  0
ELLIPSE
  5
5B9
100
AcDbEntity
  8
0
100
AcDbEllipse
 62
7
  6
CONTINUOUS
 10
5.8765149114
 20
3.1903532609
 30
0.0
 11
0.0201017978
 21
-0.0
 31
0.0
 40
0.9949358851
 41
2.6201894802
 42
3.6629958269
  0
ELLIPSE
  5
5BA
100
AcDbEntity
  8
0
100
AcDbEllipse
 62
7
  6
CONTINUOUS
 10
5.9659600955
 20
3.0354296576
 30
0.0
 11
0.0100508989
 21
0.0174086676
 31
0.0
 40
0.9949358851
 41
-3.6629958269
 42
-2.6201894802
  0
ELLIPSE
  5
5BB
100
AcDbEntity
  8
0
100
AcDbEllipse
 62
7
  6
CONTINUOUS
 10
6.1448504635
 20
3.0354296576
 30
0.0
 11
-0.0100508989
 21
0.0174086676
 31
0.0
 40
0.9949358851
 41
-3.6629958269
 42
-2.6201894802
  0
ELLIPSE
  5
5BC
100
AcDbEntity
  8
0
100
AcDbEllipse
 62
7
  6
CONTINUOUS
 10
6.2342956476
 20
3.1903532609
 30
0.0
 11
0.0201017978
 21
0.0
 31
0.0
 40
0.9949358851
 41
-0.5214031734
 42
0.5214031734
  0
ELLIPSE
  5
5BD
100
AcDbEntity
  8
0
100
AcDbEllipse
 62
7
  6
CONTINUOUS
 10
6.1448504635
 20
3.8952768641
 30
0.0
 11
0.0100508989
 21
0.0174086676
 31
0.0
 40
0.9949358851
 41
-0.5214031734
 42
0.5214031734
  0
ELLIPSE
  5
5BE
100
AcDbEntity
  8
0
100
AcDbEllipse
 62
7
  6
CONTINUOUS
 10
5.9659600955
 20
3.8952768641
 30
0.0
 11
-0.0100508989
 21
0.0174086676
 31
0.0
 40
0.9949358851
 41
-0.5214031734
 42
0.5214031734
  0
ELLIPSE
  5
5BF
100
AcDbEntity
  8
0
100
AcDbEllipse
 62
7
  6
CONTINUOUS
 10
5.8765149114
 20
3.7403532609
 30
0.0
 11
0.0201017978
 21
0.0
 31
0.0
 40
0.9949358851
 41
2.6201894802
 42
3.6629958269
  0
ELLIPSE
  5
5C0
100
AcDbEntity
  8
0
100
AcDbEllipse
 62
7
  6
CONTINUOUS
 10
5.9659600955
 20
3.5854296576
 30
0.0
 11
0.0100508989
 21
0.0174086676
 31
0.0
 40
0.9949358851
 41
-3.6629958269
 42
-2.6201894802
  0
ELLIPSE
  5
5C1
100
AcDbEntity
  8
0
100
AcDbEllipse
 62
7
  6
CONTINUOUS
 10
6.1448504635
 20
3.5854296576
 30
0.0
 11
-0.0100508989
 21
0.0174086676
 31
0.0
 40
0.9949358851
 41
-3.6629958269
 42
-2.6201894802
  0
ELLIPSE
  5
5C2
100
AcDbEntity
  8
0
100
AcDbEllipse
 62
7
  6
CONTINUOUS
 10
6.2342956476
 20
3.7403532609
 30
0.0
 11
0.0201017978
 21
0.0
 31
0.0
 40
0.9949358851
 41
-0.5214031734
 42
0.5214031734
  0
ELLIPSE
  5
5C3
100
AcDbEntity
  8
0
100
AcDbEllipse
 62
7
  6
CONTINUOUS
 10
6.1448504635
 20
4.4452768641
 30
0.0
 11
0.0100508989
 21
0.0174086676
 31
0.0
 40
0.9949358851
 41
-0.5214031734
 42
0.5214031734
  0
ELLIPSE
  5
5C4
100
AcDbEntity
  8
0
100
AcDbEllipse
 62
7
  6
CONTINUOUS
 10
5.9659600955
 20
4.4452768641
 30
0.0
 11
-0.0100508989
 21
0.0174086676
 31
0.0
 40
0.9949358851
 41
-0.5214031734
 42
0.5214031734
  0
ELLIPSE
  5
5C5
100
AcDbEntity
  8
0
100
AcDbEllipse
 62
7
  6
CONTINUOUS
 10
5.8765149114
 20
4.2903532609
 30
0.0
 11
0.0201017978
 21
-0.0
 31
0.0
 40
0.9949358851
 41
2.6201894802
 42
3.6629958269
  0
ELLIPSE
  5
5C6
100
AcDbEntity
  8
0
100
AcDbEllipse
 62
7
  6
CONTINUOUS
 10
5.9659600955
 20
4.1354296576
 30
0.0
 11
0.0100508989
 21
0.0174086676
 31
0.0
 40
0.9949358851
 41
-3.6629958269
 42
-2.6201894802
  0
ELLIPSE
  5
5C7
100
AcDbEntity
  8
0
100
AcDbEllipse
 62
7
  6
CONTINUOUS
 10
6.1448504635
 20
4.1354296576
 30
0.0
 11
-0.0100508989
 21
0.0174086676
 31
0.0
 40
0.9949358851
 41
-3.6629958269
 42
-2.6201894802
  0
ELLIPSE
  5
5C8
100
AcDbEntity
  8
0
100
AcDbEllipse
 62
7
  6
CONTINUOUS
 10
6.2342956476
 20
4.2903532609
 30
0.0
 11
0.0201017978
 21
0.0
 31
0.0
 40
0.9949358851
 41
-0.5214031734
 42
0.5214031734
  0
ELLIPSE
  5
5C9
100
AcDbEntity
  8
0
100
AcDbEllipse
 62
7
  6
CONTINUOUS
 10
6.1448504635
 20
4.9952768641
 30
0.0
 11
0.0100508989
 21
0.0174086676
 31
0.0
 40
0.9949358851
 41
-0.5214031734
 42
0.5214031734
  0
ELLIPSE
  5
5CA
100
AcDbEntity
  8
0
100
AcDbEllipse
 62
7
  6
CONTINUOUS
 10
5.9659600955
 20
4.9952768641
 30
0.0
 11
-0.0100508989
 21
0.0174086676
 31
0.0
 40
0.9949358851
 41
-0.5214031734
 42
0.5214031734
  0
ELLIPSE
  5
5CB
100
AcDbEntity
  8
0
100
AcDbEllipse
 62
7
  6
CONTINUOUS
 10
5.8765149114
 20
4.8403532609
 30
0.0
 11
0.0201017978
 21
-0.0
 31
0.0
 40
0.9949358851
 41
2.6201894802
 42
3.6629958269
  0
ELLIPSE
  5
5CC
100
AcDbEntity
  8
0
100
AcDbEllipse
 62
7
  6
CONTINUOUS
 10
5.9659600955
 20
4.6854296576
 30
0.0
 11
0.0100508989
 21
0.0174086676
 31
0.0
 40
0.9949358851
 41
-3.6629958269
 42
-2.6201894802
  0
ELLIPSE
  5
5CD
100
AcDbEntity
  8
0
100
AcDbEllipse
 62
7
  6
CONTINUOUS
 10
6.1448504635
 20
4.6854296576
 30
0.0
 11
-0.0100508989
 21
0.0174086676
 31
0.0
 40
0.9949358851
 41
-3.6629958269
 42
-2.6201894802
  0
ELLIPSE
  5
5CE
100
AcDbEntity
  8
0
100
AcDbEllipse
 62
7
  6
CONTINUOUS
 10
6.2342956476
 20
4.8403532609
 30
0.0
 11
0.0201017978
 21
0.0
 31
0.0
 40
0.9949358851
 41
-0.5214031734
 42
0.5214031734
  0
ELLIPSE
  5
5CF
100
AcDbEntity
  8
0
100
AcDbEllipse
 62
7
  6
CONTINUOUS
 10
6.1448504635
 20
5.5452768641
 30
0.0
 11
0.0100508989
 21
0.0174086676
 31
0.0
 40
0.9949358851
 41
-0.5214031734
 42
0.5214031734
  0
ELLIPSE
  5
5D0
100
AcDbEntity
  8
0
100
AcDbEllipse
 62
7
  6
CONTINUOUS
 10
5.9659600955
 20
5.5452768641
 30
0.0
 11
-0.0100508989
 21
0.0174086676
 31
0.0
 40
0.9949358851
 41
-0.5214031734
 42
0.5214031734
  0
ELLIPSE
  5
5D1
100
AcDbEntity
  8
0
100
AcDbEllipse
 62
7
  6
CONTINUOUS
 10
5.8765149114
 20
5.3903532609
 30
0.0
 11
0.0201017978
 21
-0.0
 31
0.0
 40
0.9949358851
 41
2.6201894802
 42
3.6629958269
  0
ELLIPSE
  5
5D2
100
AcDbEntity
  8
0
100
AcDbEllipse
 62
7
  6
CONTINUOUS
 10
5.9659600955
 20
5.2354296576
 30
0.0
 11
0.0100508989
 21
0.0174086676
 31
0.0
 40
0.9949358851
 41
-3.6629958269
 42
-2.6201894802
  0
ELLIPSE
  5
5D3
100
AcDbEntity
  8
0
100
AcDbEllipse
 62
7
  6
CONTINUOUS
 10
6.1448504635
 20
5.2354296576
 30
0.0
 11
-0.0100508989
 21
0.0174086676
 31
0.0
 40
0.9949358851
 41
-3.6629958269
 42
-2.6201894802
  0
ELLIPSE
  5
5D4
100
AcDbEntity
  8
0
100
AcDbEllipse
 62
7
  6
CONTINUOUS
 10
6.2342956476
 20
5.3903532609
 30
0.0
 11
0.0201017978
 21
-0.0
 31
0.0
 40
0.9949358851
 41
-0.5214031734
 42
0.5214031734
  0
ELLIPSE
  5
5D5
100
AcDbEntity
  8
0
100
AcDbEllipse
 62
7
  6
CONTINUOUS
 10
6.1448504635
 20
6.0952768641
 30
0.0
 11
0.0100508989
 21
0.0174086676
 31
0.0
 40
0.9949358851
 41
-0.5214031734
 42
0.5214031734
  0
ELLIPSE
  5
5D6
100
AcDbEntity
  8
0
100
AcDbEllipse
 62
7
  6
CONTINUOUS
 10
5.9659600955
 20
6.0952768641
 30
0.0
 11
-0.0100508989
 21
0.0174086676
 31
0.0
 40
0.9949358851
 41
-0.5214031734
 42
0.5214031734
  0
ELLIPSE
  5
5D7
100
AcDbEntity
  8
0
100
AcDbEllipse
 62
7
  6
CONTINUOUS
 10
5.8765149114
 20
5.9403532609
 30
0.0
 11
0.0201017978
 21
0.0
 31
0.0
 40
0.9949358851
 41
2.6201894802
 42
3.6629958269
  0
ELLIPSE
  5
5D8
100
AcDbEntity
  8
0
100
AcDbEllipse
 62
7
  6
CONTINUOUS
 10
5.9659600955
 20
5.7854296576
 30
0.0
 11
0.0100508989
 21
0.0174086676
 31
0.0
 40
0.9949358851
 41
-3.6629958269
 42
-2.6201894802
  0
ELLIPSE
  5
5D9
100
AcDbEntity
  8
0
100
AcDbEllipse
 62
7
  6
CONTINUOUS
 10
6.1448504635
 20
5.7854296576
 30
0.0
 11
-0.0100508989
 21
0.0174086676
 31
0.0
 40
0.9949358851
 41
-3.6629958269
 42
-2.6201894802
  0
ELLIPSE
  5
5DA
100
AcDbEntity
  8
0
100
AcDbEllipse
 62
7
  6
CONTINUOUS
 10
6.2342956476
 20
5.9403532609
 30
0.0
 11
0.0201017978
 21
0.0
 31
0.0
 40
0.9949358851
 41
-0.5214031734
 42
0.5214031734
  0
ELLIPSE
  5
5DB
100
AcDbEntity
  8
0
100
AcDbEllipse
 62
7
  6
CONTINUOUS
 10
6.1448504635
 20
6.6452768641
 30
0.0
 11
0.0100508989
 21
0.0174086676
 31
0.0
 40
0.9949358851
 41
-0.5214031734
 42
0.5214031734
  0
ELLIPSE
  5
5DC
100
AcDbEntity
  8
0
100
AcDbEllipse
 62
7
  6
CONTINUOUS
 10
5.9659600955
 20
6.6452768641
 30
0.0
 11
-0.0100508989
 21
0.0174086676
 31
0.0
 40
0.9949358851
 41
-0.5214031734
 42
0.5214031734
  0
ELLIPSE
  5
5DD
100
AcDbEntity
  8
0
100
AcDbEllipse
 62
7
  6
CONTINUOUS
 10
5.8765149114
 20
6.4903532609
 30
0.0
 11
0.0201017978
 21
-0.0
 31
0.0
 40
0.9949358851
 41
2.6201894802
 42
3.6629958269
  0
ELLIPSE
  5
5DE
100
AcDbEntity
  8
0
100
AcDbEllipse
 62
7
  6
CONTINUOUS
 10
5.9659600955
 20
6.3354296576
 30
0.0
 11
0.0100508989
 21
0.0174086676
 31
0.0
 40
0.9949358851
 41
-3.6629958269
 42
-2.6201894802
  0
ELLIPSE
  5
5DF
100
AcDbEntity
  8
0
100
AcDbEllipse
 62
7
  6
CONTINUOUS
 10
6.1448504635
 20
6.3354296576
 30
0.0
 11
-0.0100508989
 21
0.0174086676
 31
0.0
 40
0.9949358851
 41
-3.6629958269
 42
-2.6201894802
  0
ELLIPSE
  5
5E0
100
AcDbEntity
  8
0
100
AcDbEllipse
 62
7
  6
CONTINUOUS
 10
6.2342956476
 20
6.4903532609
 30
0.0
 11
0.0201017978
 21
0.0
 31
0.0
 40
0.9949358851
 41
-0.5214031734
 42
0.5214031734
  0
ELLIPSE
  5
5E1
100
AcDbEntity
  8
0
100
AcDbEllipse
 62
7
  6
CONTINUOUS
 10
5.4578504635
 20
2.2452768641
 30
0.0
 11
0.0100508989
 21
0.0174086676
 31
0.0
 40
0.9949358851
 41
-0.5214031734
 42
0.5214031734
  0
ELLIPSE
  5
5E2
100
AcDbEntity
  8
0
100
AcDbEllipse
 62
7
  6
CONTINUOUS
 10
5.2789600955
 20
2.2452768641
 30
0.0
 11
-0.0100508989
 21
0.0174086676
 31
0.0
 40
0.9949358851
 41
-0.5214031734
 42
0.5214031734
  0
ELLIPSE
  5
5E3
100
AcDbEntity
  8
0
100
AcDbEllipse
 62
7
  6
CONTINUOUS
 10
5.1895149114
 20
2.0903532609
 30
0.0
 11
0.0201017978
 21
0.0
 31
0.0
 40
0.9949358851
 41
2.6201894802
 42
3.6629958269
  0
ELLIPSE
  5
5E4
100
AcDbEntity
  8
0
100
AcDbEllipse
 62
7
  6
CONTINUOUS
 10
5.2789600955
 20
1.9354296576
 30
0.0
 11
0.0100508989
 21
0.0174086676
 31
0.0
 40
0.9949358851
 41
-3.6629958269
 42
-2.6201894802
  0
ELLIPSE
  5
5E5
100
AcDbEntity
  8
0
100
AcDbEllipse
 62
7
  6
CONTINUOUS
 10
5.4578504635
 20
1.9354296576
 30
0.0
 11
-0.0100508989
 21
0.0174086676
 31
0.0
 40
0.9949358851
 41
-3.6629958269
 42
-2.6201894802
  0
ELLIPSE
  5
5E6
100
AcDbEntity
  8
0
100
AcDbEllipse
 62
7
  6
CONTINUOUS
 10
5.5472956476
 20
2.0903532609
 30
0.0
 11
0.0201017978
 21
0.0
 31
0.0
 40
0.9949358851
 41
-0.5214031734
 42
0.5214031734
  0
ELLIPSE
  5
5E7
100
AcDbEntity
  8
0
100
AcDbEllipse
 62
7
  6
CONTINUOUS
 10
5.4578504635
 20
2.7952768641
 30
0.0
 11
0.0100508989
 21
0.0174086676
 31
0.0
 40
0.9949358851
 41
-0.5214031734
 42
0.5214031734
  0
ELLIPSE
  5
5E8
100
AcDbEntity
  8
0
100
AcDbEllipse
 62
7
  6
CONTINUOUS
 10
5.2789600955
 20
2.7952768641
 30
0.0
 11
-0.0100508989
 21
0.0174086676
 31
0.0
 40
0.9949358851
 41
-0.5214031734
 42
0.5214031734
  0
ELLIPSE
  5
5E9
100
AcDbEntity
  8
0
100
AcDbEllipse
 62
7
  6
CONTINUOUS
 10
5.1895149114
 20
2.6403532609
 30
0.0
 11
0.0201017978
 21
0.0
 31
0.0
 40
0.9949358851
 41
2.6201894802
 42
3.6629958269
  0
ELLIPSE
  5
5EA
100
AcDbEntity
  8
0
100
AcDbEllipse
 62
7
  6
CONTINUOUS
 10
5.2789600955
 20
2.4854296576
 30
0.0
 11
0.0100508989
 21
0.0174086676
 31
0.0
 40
0.9949358851
 41
-3.6629958269
 42
-2.6201894802
  0
ELLIPSE
  5
5EB
100
AcDbEntity
  8
0
100
AcDbEllipse
 62
7
  6
CONTINUOUS
 10
5.4578504635
 20
2.4854296576
 30
0.0
 11
-0.0100508989
 21
0.0174086676
 31
0.0
 40
0.9949358851
 41
-3.6629958269
 42
-2.6201894802
  0
ELLIPSE
  5
5EC
100
AcDbEntity
  8
0
100
AcDbEllipse
 62
7
  6
CONTINUOUS
 10
5.5472956476
 20
2.6403532609
 30
0.0
 11
0.0201017978
 21
-0.0
 31
0.0
 40
0.9949358851
 41
-0.5214031734
 42
0.5214031734
  0
ELLIPSE
  5
5ED
100
AcDbEntity
  8
0
100
AcDbEllipse
 62
7
  6
CONTINUOUS
 10
5.4578504635
 20
3.3452768641
 30
0.0
 11
0.0100508989
 21
0.0174086676
 31
0.0
 40
0.9949358851
 41
-0.5214031734
 42
0.5214031734
  0
ELLIPSE
  5
5EE
100
AcDbEntity
  8
0
100
AcDbEllipse
 62
7
  6
CONTINUOUS
 10
5.2789600955
 20
3.3452768641
 30
0.0
 11
-0.0100508989
 21
0.0174086676
 31
0.0
 40
0.9949358851
 41
-0.5214031734
 42
0.5214031734
  0
ELLIPSE
  5
5EF
100
AcDbEntity
  8
0
100
AcDbEllipse
 62
7
  6
CONTINUOUS
 10
5.1895149114
 20
3.1903532609
 30
0.0
 11
0.0201017978
 21
0.0
 31
0.0
 40
0.9949358851
 41
2.6201894802
 42
3.6629958269
  0
ELLIPSE
  5
5F0
100
AcDbEntity
  8
0
100
AcDbEllipse
 62
7
  6
CONTINUOUS
 10
5.2789600955
 20
3.0354296576
 30
0.0
 11
0.0100508989
 21
0.0174086676
 31
0.0
 40
0.9949358851
 41
-3.6629958269
 42
-2.6201894802
  0
ELLIPSE
  5
5F1
100
AcDbEntity
  8
0
100
AcDbEllipse
 62
7
  6
CONTINUOUS
 10
5.4578504635
 20
3.0354296576
 30
0.0
 11
-0.0100508989
 21
0.0174086676
 31
0.0
 40
0.9949358851
 41
-3.6629958269
 42
-2.6201894802
  0
ELLIPSE
  5
5F2
100
AcDbEntity
  8
0
100
AcDbEllipse
 62
7
  6
CONTINUOUS
 10
5.5472956476
 20
3.1903532609
 30
0.0
 11
0.0201017978
 21
-0.0
 31
0.0
 40
0.9949358851
 41
-0.5214031734
 42
0.5214031734
  0
ELLIPSE
  5
5F3
100
AcDbEntity
  8
0
100
AcDbEllipse
 62
7
  6
CONTINUOUS
 10
5.4578504635
 20
3.8952768641
 30
0.0
 11
0.0100508989
 21
0.0174086676
 31
0.0
 40
0.9949358851
 41
-0.5214031734
 42
0.5214031734
  0
ELLIPSE
  5
5F4
100
AcDbEntity
  8
0
100
AcDbEllipse
 62
7
  6
CONTINUOUS
 10
5.2789600955
 20
3.8952768641
 30
0.0
 11
-0.0100508989
 21
0.0174086676
 31
0.0
 40
0.9949358851
 41
-0.5214031734
 42
0.5214031734
  0
ELLIPSE
  5
5F5
100
AcDbEntity
  8
0
100
AcDbEllipse
 62
7
  6
CONTINUOUS
 10
5.1895149114
 20
3.7403532609
 30
0.0
 11
0.0201017978
 21
0.0
 31
0.0
 40
0.9949358851
 41
2.6201894802
 42
3.6629958269
  0
ELLIPSE
  5
5F6
100
AcDbEntity
  8
0
100
AcDbEllipse
 62
7
  6
CONTINUOUS
 10
5.2789600955
 20
3.5854296576
 30
0.0
 11
0.0100508989
 21
0.0174086676
 31
0.0
 40
0.9949358851
 41
-3.6629958269
 42
-2.6201894802
  0
ELLIPSE
  5
5F7
100
AcDbEntity
  8
0
100
AcDbEllipse
 62
7
  6
CONTINUOUS
 10
5.4578504635
 20
3.5854296576
 30
0.0
 11
-0.0100508989
 21
0.0174086676
 31
0.0
 40
0.9949358851
 41
-3.6629958269
 42
-2.6201894802
  0
ELLIPSE
  5
5F8
100
AcDbEntity
  8
0
100
AcDbEllipse
 62
7
  6
CONTINUOUS
 10
5.5472956476
 20
3.7403532609
 30
0.0
 11
0.0201017978
 21
0.0
 31
0.0
 40
0.9949358851
 41
-0.5214031734
 42
0.5214031734
  0
ELLIPSE
  5
5F9
100
AcDbEntity
  8
0
100
AcDbEllipse
 62
7
  6
CONTINUOUS
 10
5.4578504635
 20
4.4452768641
 30
0.0
 11
0.0100508989
 21
0.0174086676
 31
0.0
 40
0.9949358851
 41
-0.5214031734
 42
0.5214031734
  0
ELLIPSE
  5
5FA
100
AcDbEntity
  8
0
100
AcDbEllipse
 62
7
  6
CONTINUOUS
 10
5.2789600955
 20
4.4452768641
 30
0.0
 11
-0.0100508989
 21
0.0174086676
 31
0.0
 40
0.9949358851
 41
-0.5214031734
 42
0.5214031734
  0
ELLIPSE
  5
5FB
100
AcDbEntity
  8
0
100
AcDbEllipse
 62
7
  6
CONTINUOUS
 10
5.1895149114
 20
4.2903532609
 30
0.0
 11
0.0201017978
 21
0.0
 31
0.0
 40
0.9949358851
 41
2.6201894802
 42
3.6629958269
  0
ELLIPSE
  5
5FC
100
AcDbEntity
  8
0
100
AcDbEllipse
 62
7
  6
CONTINUOUS
 10
5.2789600955
 20
4.1354296576
 30
0.0
 11
0.0100508989
 21
0.0174086676
 31
0.0
 40
0.9949358851
 41
-3.6629958269
 42
-2.6201894802
  0
ELLIPSE
  5
5FD
100
AcDbEntity
  8
0
100
AcDbEllipse
 62
7
  6
CONTINUOUS
 10
5.4578504635
 20
4.1354296576
 30
0.0
 11
-0.0100508989
 21
0.0174086676
 31
0.0
 40
0.9949358851
 41
-3.6629958269
 42
-2.6201894802
  0
ELLIPSE
  5
5FE
100
AcDbEntity
  8
0
100
AcDbEllipse
 62
7
  6
CONTINUOUS
 10
5.5472956476
 20
4.2903532609
 30
0.0
 11
0.0201017978
 21
-0.0
 31
0.0
 40
0.9949358851
 41
-0.5214031734
 42
0.5214031734
  0
ELLIPSE
  5
5FF
100
AcDbEntity
  8
0
100
AcDbEllipse
 62
7
  6
CONTINUOUS
 10
5.4578504635
 20
4.9952768641
 30
0.0
 11
0.0100508989
 21
0.0174086676
 31
0.0
 40
0.9949358851
 41
-0.5214031734
 42
0.5214031734
  0
ELLIPSE
  5
600
100
AcDbEntity
  8
0
100
AcDbEllipse
 62
7
  6
CONTINUOUS
 10
5.2789600955
 20
4.9952768641
 30
0.0
 11
-0.0100508989
 21
0.0174086676
 31
0.0
 40
0.9949358851
 41
-0.5214031734
 42
0.5214031734
  0
ELLIPSE
  5
601
100
AcDbEntity
  8
0
100
AcDbEllipse
 62
7
  6
CONTINUOUS
 10
5.1895149114
 20
4.8403532609
 30
0.0
 11
0.0201017978
 21
0.0
 31
0.0
 40
0.9949358851
 41
2.6201894802
 42
3.6629958269
  0
ELLIPSE
  5
602
100
AcDbEntity
  8
0
100
AcDbEllipse
 62
7
  6
CONTINUOUS
 10
5.2789600955
 20
4.6854296576
 30
0.0
 11
0.0100508989
 21
0.0174086676
 31
0.0
 40
0.9949358851
 41
-3.6629958269
 42
-2.6201894802
  0
ELLIPSE
  5
603
100
AcDbEntity
  8
0
100
AcDbEllipse
 62
7
  6
CONTINUOUS
 10
5.4578504635
 20
4.6854296576
 30
0.0
 11
-0.0100508989
 21
0.0174086676
 31
0.0
 40
0.9949358851
 41
-3.6629958269
 42
-2.6201894802
  0
ELLIPSE
  5
604
100
AcDbEntity
  8
0
100
AcDbEllipse
 62
7
  6
CONTINUOUS
 10
5.5472956476
 20
4.8403532609
 30
0.0
 11
0.0201017978
 21
0.0
 31
0.0
 40
0.9949358851
 41
-0.5214031734
 42
0.5214031734
  0
ELLIPSE
  5
605
100
AcDbEntity
  8
0
100
AcDbEllipse
 62
7
  6
CONTINUOUS
 10
5.4578504635
 20
5.5452768641
 30
0.0
 11
0.0100508989
 21
0.0174086676
 31
0.0
 40
0.9949358851
 41
-0.5214031734
 42
0.5214031734
  0
ELLIPSE
  5
606
100
AcDbEntity
  8
0
100
AcDbEllipse
 62
7
  6
CONTINUOUS
 10
5.2789600955
 20
5.5452768641
 30
0.0
 11
-0.0100508989
 21
0.0174086676
 31
0.0
 40
0.9949358851
 41
-0.5214031734
 42
0.5214031734
  0
ELLIPSE
  5
607
100
AcDbEntity
  8
0
100
AcDbEllipse
 62
7
  6
CONTINUOUS
 10
5.1895149114
 20
5.3903532609
 30
0.0
 11
0.0201017978
 21
0.0
 31
0.0
 40
0.9949358851
 41
2.6201894802
 42
3.6629958269
  0
ELLIPSE
  5
608
100
AcDbEntity
  8
0
100
AcDbEllipse
 62
7
  6
CONTINUOUS
 10
5.2789600955
 20
5.2354296576
 30
0.0
 11
0.0100508989
 21
0.0174086676
 31
0.0
 40
0.9949358851
 41
-3.6629958269
 42
-2.6201894802
  0
ELLIPSE
  5
609
100
AcDbEntity
  8
0
100
AcDbEllipse
 62
7
  6
CONTINUOUS
 10
5.4578504635
 20
5.2354296576
 30
0.0
 11
-0.0100508989
 21
0.0174086676
 31
0.0
 40
0.9949358851
 41
-3.6629958269
 42
-2.6201894802
  0
ELLIPSE
  5
60A
100
AcDbEntity
  8
0
100
AcDbEllipse
 62
7
  6
CONTINUOUS
 10
5.5472956476
 20
5.3903532609
 30
0.0
 11
0.0201017978
 21
0.0
 31
0.0
 40
0.9949358851
 41
-0.5214031734
 42
0.5214031734
  0
ELLIPSE
  5
60B
100
AcDbEntity
  8
0
100
AcDbEllipse
 62
7
  6
CONTINUOUS
 10
5.4578504635
 20
6.0952768641
 30
0.0
 11
0.0100508989
 21
0.0174086676
 31
0.0
 40
0.9949358851
 41
-0.5214031734
 42
0.5214031734
  0
ELLIPSE
  5
60C
100
AcDbEntity
  8
0
100
AcDbEllipse
 62
7
  6
CONTINUOUS
 10
5.2789600955
 20
6.0952768641
 30
0.0
 11
-0.0100508989
 21
0.0174086676
 31
0.0
 40
0.9949358851
 41
-0.5214031734
 42
0.5214031734
  0
ELLIPSE
  5
60D
100
AcDbEntity
  8
0
100
AcDbEllipse
 62
7
  6
CONTINUOUS
 10
5.1895149114
 20
5.9403532609
 30
0.0
 11
0.0201017978
 21
-0.0
 31
0.0
 40
0.9949358851
 41
2.6201894802
 42
3.6629958269
  0
ELLIPSE
  5
60E
100
AcDbEntity
  8
0
100
AcDbEllipse
 62
7
  6
CONTINUOUS
 10
5.2789600955
 20
5.7854296576
 30
0.0
 11
0.0100508989
 21
0.0174086676
 31
0.0
 40
0.9949358851
 41
-3.6629958269
 42
-2.6201894802
  0
ELLIPSE
  5
60F
100
AcDbEntity
  8
0
100
AcDbEllipse
 62
7
  6
CONTINUOUS
 10
5.4578504635
 20
5.7854296576
 30
0.0
 11
-0.0100508989
 21
0.0174086676
 31
0.0
 40
0.9949358851
 41
-3.6629958269
 42
-2.6201894802
  0
ELLIPSE
  5
610
100
AcDbEntity
  8
0
100
AcDbEllipse
 62
7
  6
CONTINUOUS
 10
5.5472956476
 20
5.9403532609
 30
0.0
 11
0.0201017978
 21
-0.0
 31
0.0
 40
0.9949358851
 41
-0.5214031734
 42
0.5214031734
  0
ELLIPSE
  5
611
100
AcDbEntity
  8
0
100
AcDbEllipse
 62
7
  6
CONTINUOUS
 10
5.4578504635
 20
6.6452768641
 30
0.0
 11
0.0100508989
 21
0.0174086676
 31
0.0
 40
0.9949358851
 41
-0.5214031734
 42
0.5214031734
  0
ELLIPSE
  5
612
100
AcDbEntity
  8
0
100
AcDbEllipse
 62
7
  6
CONTINUOUS
 10
5.2789600955
 20
6.6452768641
 30
0.0
 11
-0.0100508989
 21
0.0174086676
 31
0.0
 40
0.9949358851
 41
-0.5214031734
 42
0.5214031734
  0
ELLIPSE
  5
613
100
AcDbEntity
  8
0
100
AcDbEllipse
 62
7
  6
CONTINUOUS
 10
5.1895149114
 20
6.4903532609
 30
0.0
 11
0.0201017978
 21
0.0
 31
0.0
 40
0.9949358851
 41
2.6201894802
 42
3.6629958269
  0
ELLIPSE
  5
614
100
AcDbEntity
  8
0
100
AcDbEllipse
 62
7
  6
CONTINUOUS
 10
5.2789600955
 20
6.3354296576
 30
0.0
 11
0.0100508989
 21
0.0174086676
 31
0.0
 40
0.9949358851
 41
-3.6629958269
 42
-2.6201894802
  0
ELLIPSE
  5
615
100
AcDbEntity
  8
0
100
AcDbEllipse
 62
7
  6
CONTINUOUS
 10
5.4578504635
 20
6.3354296576
 30
0.0
 11
-0.0100508989
 21
0.0174086676
 31
0.0
 40
0.9949358851
 41
-3.6629958269
 42
-2.6201894802
  0
ELLIPSE
  5
616
100
AcDbEntity
  8
0
100
AcDbEllipse
 62
7
  6
CONTINUOUS
 10
5.5472956476
 20
6.4903532609
 30
0.0
 11
0.0201017978
 21
0.0
 31
0.0
 40
0.9949358851
 41
-0.5214031734
 42
0.5214031734
  0
ELLIPSE
  5
617
100
AcDbEntity
  8
0
100
AcDbEllipse
 62
7
  6
CONTINUOUS
 10
4.7708504635
 20
2.2452768641
 30
0.0
 11
0.0100508989
 21
0.0174086676
 31
0.0
 40
0.9949358851
 41
-0.5214031734
 42
0.5214031734
  0
ELLIPSE
  5
618
100
AcDbEntity
  8
0
100
AcDbEllipse
 62
7
  6
CONTINUOUS
 10
4.5919600955
 20
2.2452768641
 30
0.0
 11
-0.0100508989
 21
0.0174086676
 31
0.0
 40
0.9949358851
 41
-0.5214031734
 42
0.5214031734
  0
ELLIPSE
  5
619
100
AcDbEntity
  8
0
100
AcDbEllipse
 62
7
  6
CONTINUOUS
 10
4.5025149114
 20
2.0903532609
 30
0.0
 11
0.0201017978
 21
0.0
 31
0.0
 40
0.9949358851
 41
2.6201894802
 42
3.6629958269
  0
ELLIPSE
  5
61A
100
AcDbEntity
  8
0
100
AcDbEllipse
 62
7
  6
CONTINUOUS
 10
4.5919600955
 20
1.9354296576
 30
0.0
 11
0.0100508989
 21
0.0174086676
 31
0.0
 40
0.9949358851
 41
-3.6629958269
 42
-2.6201894802
  0
ELLIPSE
  5
61B
100
AcDbEntity
  8
0
100
AcDbEllipse
 62
7
  6
CONTINUOUS
 10
4.7708504635
 20
1.9354296576
 30
0.0
 11
-0.0100508989
 21
0.0174086676
 31
0.0
 40
0.9949358851
 41
-3.6629958269
 42
-2.6201894802
  0
ELLIPSE
  5
61C
100
AcDbEntity
  8
0
100
AcDbEllipse
 62
7
  6
CONTINUOUS
 10
4.8602956476
 20
2.0903532609
 30
0.0
 11
0.0201017978
 21
0.0
 31
0.0
 40
0.9949358851
 41
-0.5214031734
 42
0.5214031734
  0
ELLIPSE
  5
61D
100
AcDbEntity
  8
0
100
AcDbEllipse
 62
7
  6
CONTINUOUS
 10
4.7708504635
 20
2.7952768641
 30
0.0
 11
0.0100508989
 21
0.0174086676
 31
0.0
 40
0.9949358851
 41
-0.5214031734
 42
0.5214031734
  0
ELLIPSE
  5
61E
100
AcDbEntity
  8
0
100
AcDbEllipse
 62
7
  6
CONTINUOUS
 10
4.5919600955
 20
2.7952768641
 30
0.0
 11
-0.0100508989
 21
0.0174086676
 31
0.0
 40
0.9949358851
 41
-0.5214031734
 42
0.5214031734
  0
ELLIPSE
  5
61F
100
AcDbEntity
  8
0
100
AcDbEllipse
 62
7
  6
CONTINUOUS
 10
4.5025149114
 20
2.6403532609
 30
0.0
 11
0.0201017978
 21
0.0
 31
0.0
 40
0.9949358851
 41
2.6201894802
 42
3.6629958269
  0
ELLIPSE
  5
620
100
AcDbEntity
  8
0
100
AcDbEllipse
 62
7
  6
CONTINUOUS
 10
4.5919600955
 20
2.4854296576
 30
0.0
 11
0.0100508989
 21
0.0174086676
 31
0.0
 40
0.9949358851
 41
-3.6629958269
 42
-2.6201894802
  0
ELLIPSE
  5
621
100
AcDbEntity
  8
0
100
AcDbEllipse
 62
7
  6
CONTINUOUS
 10
4.7708504635
 20
2.4854296576
 30
0.0
 11
-0.0100508989
 21
0.0174086676
 31
0.0
 40
0.9949358851
 41
-3.6629958269
 42
-2.6201894802
  0
ELLIPSE
  5
622
100
AcDbEntity
  8
0
100
AcDbEllipse
 62
7
  6
CONTINUOUS
 10
4.8602956476
 20
2.6403532609
 30
0.0
 11
0.0201017978
 21
0.0
 31
0.0
 40
0.9949358851
 41
-0.5214031734
 42
0.5214031734
  0
ELLIPSE
  5
623
100
AcDbEntity
  8
0
100
AcDbEllipse
 62
7
  6
CONTINUOUS
 10
4.7708504635
 20
3.3452768641
 30
0.0
 11
0.0100508989
 21
0.0174086676
 31
0.0
 40
0.9949358851
 41
-0.5214031734
 42
0.5214031734
  0
ELLIPSE
  5
624
100
AcDbEntity
  8
0
100
AcDbEllipse
 62
7
  6
CONTINUOUS
 10
4.5919600955
 20
3.3452768641
 30
0.0
 11
-0.0100508989
 21
0.0174086676
 31
0.0
 40
0.9949358851
 41
-0.5214031734
 42
0.5214031734
  0
ELLIPSE
  5
625
100
AcDbEntity
  8
0
100
AcDbEllipse
 62
7
  6
CONTINUOUS
 10
4.5025149114
 20
3.1903532609
 30
0.0
 11
0.0201017978
 21
0.0
 31
0.0
 40
0.9949358851
 41
2.6201894802
 42
3.6629958269
  0
ELLIPSE
  5
626
100
AcDbEntity
  8
0
100
AcDbEllipse
 62
7
  6
CONTINUOUS
 10
4.5919600955
 20
3.0354296576
 30
0.0
 11
0.0100508989
 21
0.0174086676
 31
0.0
 40
0.9949358851
 41
-3.6629958269
 42
-2.6201894802
  0
ELLIPSE
  5
627
100
AcDbEntity
  8
0
100
AcDbEllipse
 62
7
  6
CONTINUOUS
 10
4.7708504635
 20
3.0354296576
 30
0.0
 11
-0.0100508989
 21
0.0174086676
 31
0.0
 40
0.9949358851
 41
-3.6629958269
 42
-2.6201894802
  0
ELLIPSE
  5
628
100
AcDbEntity
  8
0
100
AcDbEllipse
 62
7
  6
CONTINUOUS
 10
4.8602956476
 20
3.1903532609
 30
0.0
 11
0.0201017978
 21
0.0
 31
0.0
 40
0.9949358851
 41
-0.5214031734
 42
0.5214031734
  0
ELLIPSE
  5
629
100
AcDbEntity
  8
0
100
AcDbEllipse
 62
7
  6
CONTINUOUS
 10
4.7708504635
 20
3.8952768641
 30
0.0
 11
0.0100508989
 21
0.0174086676
 31
0.0
 40
0.9949358851
 41
-0.5214031734
 42
0.5214031734
  0
ELLIPSE
  5
62A
100
AcDbEntity
  8
0
100
AcDbEllipse
 62
7
  6
CONTINUOUS
 10
4.5919600955
 20
3.8952768641
 30
0.0
 11
-0.0100508989
 21
0.0174086676
 31
0.0
 40
0.9949358851
 41
-0.5214031734
 42
0.5214031734
  0
ELLIPSE
  5
62B
100
AcDbEntity
  8
0
100
AcDbEllipse
 62
7
  6
CONTINUOUS
 10
4.5025149114
 20
3.7403532609
 30
0.0
 11
0.0201017978
 21
0.0
 31
0.0
 40
0.9949358851
 41
2.6201894802
 42
3.6629958269
  0
ELLIPSE
  5
62C
100
AcDbEntity
  8
0
100
AcDbEllipse
 62
7
  6
CONTINUOUS
 10
4.5919600955
 20
3.5854296576
 30
0.0
 11
0.0100508989
 21
0.0174086676
 31
0.0
 40
0.9949358851
 41
-3.6629958269
 42
-2.6201894802
  0
ELLIPSE
  5
62D
100
AcDbEntity
  8
0
100
AcDbEllipse
 62
7
  6
CONTINUOUS
 10
4.7708504635
 20
3.5854296576
 30
0.0
 11
-0.0100508989
 21
0.0174086676
 31
0.0
 40
0.9949358851
 41
-3.6629958269
 42
-2.6201894802
  0
ELLIPSE
  5
62E
100
AcDbEntity
  8
0
100
AcDbEllipse
 62
7
  6
CONTINUOUS
 10
4.8602956476
 20
3.7403532609
 30
0.0
 11
0.0201017978
 21
-0.0
 31
0.0
 40
0.9949358851
 41
-0.5214031734
 42
0.5214031734
  0
ELLIPSE
  5
62F
100
AcDbEntity
  8
0
100
AcDbEllipse
 62
7
  6
CONTINUOUS
 10
4.7708504635
 20
4.4452768641
 30
0.0
 11
0.0100508989
 21
0.0174086676
 31
0.0
 40
0.9949358851
 41
-0.5214031734
 42
0.5214031734
  0
ELLIPSE
  5
630
100
AcDbEntity
  8
0
100
AcDbEllipse
 62
7
  6
CONTINUOUS
 10
4.5919600955
 20
4.4452768641
 30
0.0
 11
-0.0100508989
 21
0.0174086676
 31
0.0
 40
0.9949358851
 41
-0.5214031734
 42
0.5214031734
  0
ELLIPSE
  5
631
100
AcDbEntity
  8
0
100
AcDbEllipse
 62
7
  6
CONTINUOUS
 10
4.5025149114
 20
4.2903532609
 30
0.0
 11
0.0201017978
 21
0.0
 31
0.0
 40
0.9949358851
 41
2.6201894802
 42
3.6629958269
  0
ELLIPSE
  5
632
100
AcDbEntity
  8
0
100
AcDbEllipse
 62
7
  6
CONTINUOUS
 10
4.5919600955
 20
4.1354296576
 30
0.0
 11
0.0100508989
 21
0.0174086676
 31
0.0
 40
0.9949358851
 41
-3.6629958269
 42
-2.6201894802
  0
ELLIPSE
  5
633
100
AcDbEntity
  8
0
100
AcDbEllipse
 62
7
  6
CONTINUOUS
 10
4.7708504635
 20
4.1354296576
 30
0.0
 11
-0.0100508989
 21
0.0174086676
 31
0.0
 40
0.9949358851
 41
-3.6629958269
 42
-2.6201894802
  0
ELLIPSE
  5
634
100
AcDbEntity
  8
0
100
AcDbEllipse
 62
7
  6
CONTINUOUS
 10
4.8602956476
 20
4.2903532609
 30
0.0
 11
0.0201017978
 21
-0.0
 31
0.0
 40
0.9949358851
 41
-0.5214031734
 42
0.5214031734
  0
ELLIPSE
  5
635
100
AcDbEntity
  8
0
100
AcDbEllipse
 62
7
  6
CONTINUOUS
 10
4.7708504635
 20
4.9952768641
 30
0.0
 11
0.0100508989
 21
0.0174086676
 31
0.0
 40
0.9949358851
 41
-0.5214031734
 42
0.5214031734
  0
ELLIPSE
  5
636
100
AcDbEntity
  8
0
100
AcDbEllipse
 62
7
  6
CONTINUOUS
 10
4.5919600955
 20
4.9952768641
 30
0.0
 11
-0.0100508989
 21
0.0174086676
 31
0.0
 40
0.9949358851
 41
-0.5214031734
 42
0.5214031734
  0
ELLIPSE
  5
637
100
AcDbEntity
  8
0
100
AcDbEllipse
 62
7
  6
CONTINUOUS
 10
4.5025149114
 20
4.8403532609
 30
0.0
 11
0.0201017978
 21
-0.0
 31
0.0
 40
0.9949358851
 41
2.6201894802
 42
3.6629958269
  0
ELLIPSE
  5
638
100
AcDbEntity
  8
0
100
AcDbEllipse
 62
7
  6
CONTINUOUS
 10
4.5919600955
 20
4.6854296576
 30
0.0
 11
0.0100508989
 21
0.0174086676
 31
0.0
 40
0.9949358851
 41
-3.6629958269
 42
-2.6201894802
  0
ELLIPSE
  5
639
100
AcDbEntity
  8
0
100
AcDbEllipse
 62
7
  6
CONTINUOUS
 10
4.7708504635
 20
4.6854296576
 30
0.0
 11
-0.0100508989
 21
0.0174086676
 31
0.0
 40
0.9949358851
 41
-3.6629958269
 42
-2.6201894802
  0
ELLIPSE
  5
63A
100
AcDbEntity
  8
0
100
AcDbEllipse
 62
7
  6
CONTINUOUS
 10
4.8602956476
 20
4.8403532609
 30
0.0
 11
0.0201017978
 21
-0.0
 31
0.0
 40
0.9949358851
 41
-0.5214031734
 42
0.5214031734
  0
ELLIPSE
  5
63B
100
AcDbEntity
  8
0
100
AcDbEllipse
 62
7
  6
CONTINUOUS
 10
4.7708504635
 20
5.5452768641
 30
0.0
 11
0.0100508989
 21
0.0174086676
 31
0.0
 40
0.9949358851
 41
-0.5214031734
 42
0.5214031734
  0
ELLIPSE
  5
63C
100
AcDbEntity
  8
0
100
AcDbEllipse
 62
7
  6
CONTINUOUS
 10
4.5919600955
 20
5.5452768641
 30
0.0
 11
-0.0100508989
 21
0.0174086676
 31
0.0
 40
0.9949358851
 41
-0.5214031734
 42
0.5214031734
  0
ELLIPSE
  5
63D
100
AcDbEntity
  8
0
100
AcDbEllipse
 62
7
  6
CONTINUOUS
 10
4.5025149114
 20
5.3903532609
 30
0.0
 11
0.0201017978
 21
0.0
 31
0.0
 40
0.9949358851
 41
2.6201894802
 42
3.6629958269
  0
ELLIPSE
  5
63E
100
AcDbEntity
  8
0
100
AcDbEllipse
 62
7
  6
CONTINUOUS
 10
4.5919600955
 20
5.2354296576
 30
0.0
 11
0.0100508989
 21
0.0174086676
 31
0.0
 40
0.9949358851
 41
-3.6629958269
 42
-2.6201894802
  0
ELLIPSE
  5
63F
100
AcDbEntity
  8
0
100
AcDbEllipse
 62
7
  6
CONTINUOUS
 10
4.7708504635
 20
5.2354296576
 30
0.0
 11
-0.0100508989
 21
0.0174086676
 31
0.0
 40
0.9949358851
 41
-3.6629958269
 42
-2.6201894802
  0
ELLIPSE
  5
640
100
AcDbEntity
  8
0
100
AcDbEllipse
 62
7
  6
CONTINUOUS
 10
4.8602956476
 20
5.3903532609
 30
0.0
 11
0.0201017978
 21
-0.0
 31
0.0
 40
0.9949358851
 41
-0.5214031734
 42
0.5214031734
  0
ELLIPSE
  5
641
100
AcDbEntity
  8
0
100
AcDbEllipse
 62
7
  6
CONTINUOUS
 10
4.7708504635
 20
6.0952768641
 30
0.0
 11
0.0100508989
 21
0.0174086676
 31
0.0
 40
0.9949358851
 41
-0.5214031734
 42
0.5214031734
  0
ELLIPSE
  5
642
100
AcDbEntity
  8
0
100
AcDbEllipse
 62
7
  6
CONTINUOUS
 10
4.5919600955
 20
6.0952768641
 30
0.0
 11
-0.0100508989
 21
0.0174086676
 31
0.0
 40
0.9949358851
 41
-0.5214031734
 42
0.5214031734
  0
ELLIPSE
  5
643
100
AcDbEntity
  8
0
100
AcDbEllipse
 62
7
  6
CONTINUOUS
 10
4.5025149114
 20
5.9403532609
 30
0.0
 11
0.0201017978
 21
0.0
 31
0.0
 40
0.9949358851
 41
2.6201894802
 42
3.6629958269
  0
ELLIPSE
  5
644
100
AcDbEntity
  8
0
100
AcDbEllipse
 62
7
  6
CONTINUOUS
 10
4.5919600955
 20
5.7854296576
 30
0.0
 11
0.0100508989
 21
0.0174086676
 31
0.0
 40
0.9949358851
 41
-3.6629958269
 42
-2.6201894802
  0
ELLIPSE
  5
645
100
AcDbEntity
  8
0
100
AcDbEllipse
 62
7
  6
CONTINUOUS
 10
4.7708504635
 20
5.7854296576
 30
0.0
 11
-0.0100508989
 21
0.0174086676
 31
0.0
 40
0.9949358851
 41
-3.6629958269
 42
-2.6201894802
  0
ELLIPSE
  5
646
100
AcDbEntity
  8
0
100
AcDbEllipse
 62
7
  6
CONTINUOUS
 10
4.8602956476
 20
5.9403532609
 30
0.0
 11
0.0201017978
 21
-0.0
 31
0.0
 40
0.9949358851
 41
-0.5214031734
 42
0.5214031734
  0
ELLIPSE
  5
647
100
AcDbEntity
  8
0
100
AcDbEllipse
 62
7
  6
CONTINUOUS
 10
4.7708504635
 20
6.6452768641
 30
0.0
 11
0.0100508989
 21
0.0174086676
 31
0.0
 40
0.9949358851
 41
-0.5214031734
 42
0.5214031734
  0
ELLIPSE
  5
648
100
AcDbEntity
  8
0
100
AcDbEllipse
 62
7
  6
CONTINUOUS
 10
4.5919600955
 20
6.6452768641
 30
0.0
 11
-0.0100508989
 21
0.0174086676
 31
0.0
 40
0.9949358851
 41
-0.5214031734
 42
0.5214031734
  0
ELLIPSE
  5
649
100
AcDbEntity
  8
0
100
AcDbEllipse
 62
7
  6
CONTINUOUS
 10
4.5025149114
 20
6.4903532609
 30
0.0
 11
0.0201017978
 21
0.0
 31
0.0
 40
0.9949358851
 41
2.6201894802
 42
3.6629958269
  0
ELLIPSE
  5
64A
100
AcDbEntity
  8
0
100
AcDbEllipse
 62
7
  6
CONTINUOUS
 10
4.5919600955
 20
6.3354296576
 30
0.0
 11
0.0100508989
 21
0.0174086676
 31
0.0
 40
0.9949358851
 41
-3.6629958269
 42
-2.6201894802
  0
ELLIPSE
  5
64B
100
AcDbEntity
  8
0
100
AcDbEllipse
 62
7
  6
CONTINUOUS
 10
4.7708504635
 20
6.3354296576
 30
0.0
 11
-0.0100508989
 21
0.0174086676
 31
0.0
 40
0.9949358851
 41
-3.6629958269
 42
-2.6201894802
  0
ELLIPSE
  5
64C
100
AcDbEntity
  8
0
100
AcDbEllipse
 62
7
  6
CONTINUOUS
 10
4.8602956476
 20
6.4903532609
 30
0.0
 11
0.0201017978
 21
-0.0
 31
0.0
 40
0.9949358851
 41
-0.5214031734
 42
0.5214031734
  0
ELLIPSE
  5
64D
100
AcDbEntity
  8
0
100
AcDbEllipse
 62
7
  6
CONTINUOUS
 10
4.0838504635
 20
2.2452768641
 30
0.0
 11
0.0100508989
 21
0.0174086676
 31
0.0
 40
0.9949358851
 41
-0.5214031734
 42
0.5214031734
  0
ELLIPSE
  5
64E
100
AcDbEntity
  8
0
100
AcDbEllipse
 62
7
  6
CONTINUOUS
 10
3.9049600955
 20
2.2452768641
 30
0.0
 11
-0.0100508989
 21
0.0174086676
 31
0.0
 40
0.9949358851
 41
-0.5214031734
 42
0.5214031734
  0
ELLIPSE
  5
64F
100
AcDbEntity
  8
0
100
AcDbEllipse
 62
7
  6
CONTINUOUS
 10
3.8155149114
 20
2.0903532609
 30
0.0
 11
0.0201017978
 21
0.0
 31
0.0
 40
0.9949358851
 41
2.6201894802
 42
3.6629958269
  0
ELLIPSE
  5
650
100
AcDbEntity
  8
0
100
AcDbEllipse
 62
7
  6
CONTINUOUS
 10
3.9049600955
 20
1.9354296576
 30
0.0
 11
0.0100508989
 21
0.0174086676
 31
0.0
 40
0.9949358851
 41
-3.6629958269
 42
-2.6201894802
  0
ELLIPSE
  5
651
100
AcDbEntity
  8
0
100
AcDbEllipse
 62
7
  6
CONTINUOUS
 10
4.0838504635
 20
1.9354296576
 30
0.0
 11
-0.0100508989
 21
0.0174086676
 31
0.0
 40
0.9949358851
 41
-3.6629958269
 42
-2.6201894802
  0
ELLIPSE
  5
652
100
AcDbEntity
  8
0
100
AcDbEllipse
 62
7
  6
CONTINUOUS
 10
4.1732956476
 20
2.0903532609
 30
0.0
 11
0.0201017978
 21
-0.0
 31
0.0
 40
0.9949358851
 41
-0.5214031734
 42
0.5214031734
  0
ELLIPSE
  5
653
100
AcDbEntity
  8
0
100
AcDbEllipse
 62
7
  6
CONTINUOUS
 10
4.0838504635
 20
2.7952768641
 30
0.0
 11
0.0100508989
 21
0.0174086676
 31
0.0
 40
0.9949358851
 41
-0.5214031734
 42
0.5214031734
  0
ELLIPSE
  5
654
100
AcDbEntity
  8
0
100
AcDbEllipse
 62
7
  6
CONTINUOUS
 10
3.9049600955
 20
2.7952768641
 30
0.0
 11
-0.0100508989
 21
0.0174086676
 31
0.0
 40
0.9949358851
 41
-0.5214031734
 42
0.5214031734
  0
ELLIPSE
  5
655
100
AcDbEntity
  8
0
100
AcDbEllipse
 62
7
  6
CONTINUOUS
 10
3.8155149114
 20
2.6403532609
 30
0.0
 11
0.0201017978
 21
0.0
 31
0.0
 40
0.9949358851
 41
2.6201894802
 42
3.6629958269
  0
ELLIPSE
  5
656
100
AcDbEntity
  8
0
100
AcDbEllipse
 62
7
  6
CONTINUOUS
 10
3.9049600955
 20
2.4854296576
 30
0.0
 11
0.0100508989
 21
0.0174086676
 31
0.0
 40
0.9949358851
 41
-3.6629958269
 42
-2.6201894802
  0
ELLIPSE
  5
657
100
AcDbEntity
  8
0
100
AcDbEllipse
 62
7
  6
CONTINUOUS
 10
4.0838504635
 20
2.4854296576
 30
0.0
 11
-0.0100508989
 21
0.0174086676
 31
0.0
 40
0.9949358851
 41
-3.6629958269
 42
-2.6201894802
  0
ELLIPSE
  5
658
100
AcDbEntity
  8
0
100
AcDbEllipse
 62
7
  6
CONTINUOUS
 10
4.1732956476
 20
2.6403532609
 30
0.0
 11
0.0201017978
 21
-0.0
 31
0.0
 40
0.9949358851
 41
-0.5214031734
 42
0.5214031734
  0
ELLIPSE
  5
659
100
AcDbEntity
  8
0
100
AcDbEllipse
 62
7
  6
CONTINUOUS
 10
4.0838504635
 20
3.3452768641
 30
0.0
 11
0.0100508989
 21
0.0174086676
 31
0.0
 40
0.9949358851
 41
-0.5214031734
 42
0.5214031734
  0
ELLIPSE
  5
65A
100
AcDbEntity
  8
0
100
AcDbEllipse
 62
7
  6
CONTINUOUS
 10
3.9049600955
 20
3.3452768641
 30
0.0
 11
-0.0100508989
 21
0.0174086676
 31
0.0
 40
0.9949358851
 41
-0.5214031734
 42
0.5214031734
  0
ELLIPSE
  5
65B
100
AcDbEntity
  8
0
100
AcDbEllipse
 62
7
  6
CONTINUOUS
 10
3.8155149114
 20
3.1903532609
 30
0.0
 11
0.0201017978
 21
0.0
 31
0.0
 40
0.9949358851
 41
2.6201894802
 42
3.6629958269
  0
ELLIPSE
  5
65C
100
AcDbEntity
  8
0
100
AcDbEllipse
 62
7
  6
CONTINUOUS
 10
3.9049600955
 20
3.0354296576
 30
0.0
 11
0.0100508989
 21
0.0174086676
 31
0.0
 40
0.9949358851
 41
-3.6629958269
 42
-2.6201894802
  0
ELLIPSE
  5
65D
100
AcDbEntity
  8
0
100
AcDbEllipse
 62
7
  6
CONTINUOUS
 10
4.0838504635
 20
3.0354296576
 30
0.0
 11
-0.0100508989
 21
0.0174086676
 31
0.0
 40
0.9949358851
 41
-3.6629958269
 42
-2.6201894802
  0
ELLIPSE
  5
65E
100
AcDbEntity
  8
0
100
AcDbEllipse
 62
7
  6
CONTINUOUS
 10
4.1732956476
 20
3.1903532609
 30
0.0
 11
0.0201017978
 21
-0.0
 31
0.0
 40
0.9949358851
 41
-0.5214031734
 42
0.5214031734
  0
ELLIPSE
  5
65F
100
AcDbEntity
  8
0
100
AcDbEllipse
 62
7
  6
CONTINUOUS
 10
4.0838504635
 20
3.8952768641
 30
0.0
 11
0.0100508989
 21
0.0174086676
 31
0.0
 40
0.9949358851
 41
-0.5214031734
 42
0.5214031734
  0
ELLIPSE
  5
660
100
AcDbEntity
  8
0
100
AcDbEllipse
 62
7
  6
CONTINUOUS
 10
3.9049600955
 20
3.8952768641
 30
0.0
 11
-0.0100508989
 21
0.0174086676
 31
0.0
 40
0.9949358851
 41
-0.5214031734
 42
0.5214031734
  0
ELLIPSE
  5
661
100
AcDbEntity
  8
0
100
AcDbEllipse
 62
7
  6
CONTINUOUS
 10
3.8155149114
 20
3.7403532609
 30
0.0
 11
0.0201017978
 21
0.0
 31
0.0
 40
0.9949358851
 41
2.6201894802
 42
3.6629958269
  0
ELLIPSE
  5
662
100
AcDbEntity
  8
0
100
AcDbEllipse
 62
7
  6
CONTINUOUS
 10
3.9049600955
 20
3.5854296576
 30
0.0
 11
0.0100508989
 21
0.0174086676
 31
0.0
 40
0.9949358851
 41
-3.6629958269
 42
-2.6201894802
  0
ELLIPSE
  5
663
100
AcDbEntity
  8
0
100
AcDbEllipse
 62
7
  6
CONTINUOUS
 10
4.0838504635
 20
3.5854296576
 30
0.0
 11
-0.0100508989
 21
0.0174086676
 31
0.0
 40
0.9949358851
 41
-3.6629958269
 42
-2.6201894802
  0
ELLIPSE
  5
664
100
AcDbEntity
  8
0
100
AcDbEllipse
 62
7
  6
CONTINUOUS
 10
4.1732956476
 20
3.7403532609
 30
0.0
 11
0.0201017978
 21
-0.0
 31
0.0
 40
0.9949358851
 41
-0.5214031734
 42
0.5214031734
  0
ELLIPSE
  5
665
100
AcDbEntity
  8
0
100
AcDbEllipse
 62
7
  6
CONTINUOUS
 10
4.0838504635
 20
4.4452768641
 30
0.0
 11
0.0100508989
 21
0.0174086676
 31
0.0
 40
0.9949358851
 41
-0.5214031734
 42
0.5214031734
  0
ELLIPSE
  5
666
100
AcDbEntity
  8
0
100
AcDbEllipse
 62
7
  6
CONTINUOUS
 10
3.9049600955
 20
4.4452768641
 30
0.0
 11
-0.0100508989
 21
0.0174086676
 31
0.0
 40
0.9949358851
 41
-0.5214031734
 42
0.5214031734
  0
ELLIPSE
  5
667
100
AcDbEntity
  8
0
100
AcDbEllipse
 62
7
  6
CONTINUOUS
 10
3.8155149114
 20
4.2903532609
 30
0.0
 11
0.0201017978
 21
0.0
 31
0.0
 40
0.9949358851
 41
2.6201894802
 42
3.6629958269
  0
ELLIPSE
  5
668
100
AcDbEntity
  8
0
100
AcDbEllipse
 62
7
  6
CONTINUOUS
 10
3.9049600955
 20
4.1354296576
 30
0.0
 11
0.0100508989
 21
0.0174086676
 31
0.0
 40
0.9949358851
 41
-3.6629958269
 42
-2.6201894802
  0
ELLIPSE
  5
669
100
AcDbEntity
  8
0
100
AcDbEllipse
 62
7
  6
CONTINUOUS
 10
4.0838504635
 20
4.1354296576
 30
0.0
 11
-0.0100508989
 21
0.0174086676
 31
0.0
 40
0.9949358851
 41
-3.6629958269
 42
-2.6201894802
  0
ELLIPSE
  5
66A
100
AcDbEntity
  8
0
100
AcDbEllipse
 62
7
  6
CONTINUOUS
 10
4.1732956476
 20
4.2903532609
 30
0.0
 11
0.0201017978
 21
-0.0
 31
0.0
 40
0.9949358851
 41
-0.5214031734
 42
0.5214031734
  0
ELLIPSE
  5
66B
100
AcDbEntity
  8
0
100
AcDbEllipse
 62
7
  6
CONTINUOUS
 10
4.0838504635
 20
4.9952768641
 30
0.0
 11
0.0100508989
 21
0.0174086676
 31
0.0
 40
0.9949358851
 41
-0.5214031734
 42
0.5214031734
  0
ELLIPSE
  5
66C
100
AcDbEntity
  8
0
100
AcDbEllipse
 62
7
  6
CONTINUOUS
 10
3.9049600955
 20
4.9952768641
 30
0.0
 11
-0.0100508989
 21
0.0174086676
 31
0.0
 40
0.9949358851
 41
-0.5214031734
 42
0.5214031734
  0
ELLIPSE
  5
66D
100
AcDbEntity
  8
0
100
AcDbEllipse
 62
7
  6
CONTINUOUS
 10
3.8155149114
 20
4.8403532609
 30
0.0
 11
0.0201017978
 21
0.0
 31
0.0
 40
0.9949358851
 41
2.6201894802
 42
3.6629958269
  0
ELLIPSE
  5
66E
100
AcDbEntity
  8
0
100
AcDbEllipse
 62
7
  6
CONTINUOUS
 10
3.9049600955
 20
4.6854296576
 30
0.0
 11
0.0100508989
 21
0.0174086676
 31
0.0
 40
0.9949358851
 41
-3.6629958269
 42
-2.6201894802
  0
ELLIPSE
  5
66F
100
AcDbEntity
  8
0
100
AcDbEllipse
 62
7
  6
CONTINUOUS
 10
4.0838504635
 20
4.6854296576
 30
0.0
 11
-0.0100508989
 21
0.0174086676
 31
0.0
 40
0.9949358851
 41
-3.6629958269
 42
-2.6201894802
  0
ELLIPSE
  5
670
100
AcDbEntity
  8
0
100
AcDbEllipse
 62
7
  6
CONTINUOUS
 10
4.1732956476
 20
4.8403532609
 30
0.0
 11
0.0201017978
 21
-0.0
 31
0.0
 40
0.9949358851
 41
-0.5214031734
 42
0.5214031734
  0
ELLIPSE
  5
671
100
AcDbEntity
  8
0
100
AcDbEllipse
 62
7
  6
CONTINUOUS
 10
4.0838504635
 20
5.5452768641
 30
0.0
 11
0.0100508989
 21
0.0174086676
 31
0.0
 40
0.9949358851
 41
-0.5214031734
 42
0.5214031734
  0
ELLIPSE
  5
672
100
AcDbEntity
  8
0
100
AcDbEllipse
 62
7
  6
CONTINUOUS
 10
3.9049600955
 20
5.5452768641
 30
0.0
 11
-0.0100508989
 21
0.0174086676
 31
0.0
 40
0.9949358851
 41
-0.5214031734
 42
0.5214031734
  0
ELLIPSE
  5
673
100
AcDbEntity
  8
0
100
AcDbEllipse
 62
7
  6
CONTINUOUS
 10
3.8155149114
 20
5.3903532609
 30
0.0
 11
0.0201017978
 21
-0.0
 31
0.0
 40
0.9949358851
 41
2.6201894802
 42
3.6629958269
  0
ELLIPSE
  5
674
100
AcDbEntity
  8
0
100
AcDbEllipse
 62
7
  6
CONTINUOUS
 10
3.9049600955
 20
5.2354296576
 30
0.0
 11
0.0100508989
 21
0.0174086676
 31
0.0
 40
0.9949358851
 41
-3.6629958269
 42
-2.6201894802
  0
ELLIPSE
  5
675
100
AcDbEntity
  8
0
100
AcDbEllipse
 62
7
  6
CONTINUOUS
 10
4.0838504635
 20
5.2354296576
 30
0.0
 11
-0.0100508989
 21
0.0174086676
 31
0.0
 40
0.9949358851
 41
-3.6629958269
 42
-2.6201894802
  0
ELLIPSE
  5
676
100
AcDbEntity
  8
0
100
AcDbEllipse
 62
7
  6
CONTINUOUS
 10
4.1732956476
 20
5.3903532609
 30
0.0
 11
0.0201017978
 21
-0.0
 31
0.0
 40
0.9949358851
 41
-0.5214031734
 42
0.5214031734
  0
ELLIPSE
  5
677
100
AcDbEntity
  8
0
100
AcDbEllipse
 62
7
  6
CONTINUOUS
 10
4.0838504635
 20
6.0952768641
 30
0.0
 11
0.0100508989
 21
0.0174086676
 31
0.0
 40
0.9949358851
 41
-0.5214031734
 42
0.5214031734
  0
ELLIPSE
  5
678
100
AcDbEntity
  8
0
100
AcDbEllipse
 62
7
  6
CONTINUOUS
 10
3.9049600955
 20
6.0952768641
 30
0.0
 11
-0.0100508989
 21
0.0174086676
 31
0.0
 40
0.9949358851
 41
-0.5214031734
 42
0.5214031734
  0
ELLIPSE
  5
679
100
AcDbEntity
  8
0
100
AcDbEllipse
 62
7
  6
CONTINUOUS
 10
3.8155149114
 20
5.9403532609
 30
0.0
 11
0.0201017978
 21
0.0
 31
0.0
 40
0.9949358851
 41
2.6201894802
 42
3.6629958269
  0
ELLIPSE
  5
67A
100
AcDbEntity
  8
0
100
AcDbEllipse
 62
7
  6
CONTINUOUS
 10
3.9049600955
 20
5.7854296576
 30
0.0
 11
0.0100508989
 21
0.0174086676
 31
0.0
 40
0.9949358851
 41
-3.6629958269
 42
-2.6201894802
  0
ELLIPSE
  5
67B
100
AcDbEntity
  8
0
100
AcDbEllipse
 62
7
  6
CONTINUOUS
 10
4.0838504635
 20
5.7854296576
 30
0.0
 11
-0.0100508989
 21
0.0174086676
 31
0.0
 40
0.9949358851
 41
-3.6629958269
 42
-2.6201894802
  0
ELLIPSE
  5
67C
100
AcDbEntity
  8
0
100
AcDbEllipse
 62
7
  6
CONTINUOUS
 10
4.1732956476
 20
5.9403532609
 30
0.0
 11
0.0201017978
 21
-0.0
 31
0.0
 40
0.9949358851
 41
-0.5214031734
 42
0.5214031734
  0
ELLIPSE
  5
67D
100
AcDbEntity
  8
0
100
AcDbEllipse
 62
7
  6
CONTINUOUS
 10
4.0838504635
 20
6.6452768641
 30
0.0
 11
0.0100508989
 21
0.0174086676
 31
0.0
 40
0.9949358851
 41
-0.5214031734
 42
0.5214031734
  0
ELLIPSE
  5
67E
100
AcDbEntity
  8
0
100
AcDbEllipse
 62
7
  6
CONTINUOUS
 10
3.9049600955
 20
6.6452768641
 30
0.0
 11
-0.0100508989
 21
0.0174086676
 31
0.0
 40
0.9949358851
 41
-0.5214031734
 42
0.5214031734
  0
ELLIPSE
  5
67F
100
AcDbEntity
  8
0
100
AcDbEllipse
 62
7
  6
CONTINUOUS
 10
3.8155149114
 20
6.4903532609
 30
0.0
 11
0.0201017978
 21
0.0
 31
0.0
 40
0.9949358851
 41
2.6201894802
 42
3.6629958269
  0
ELLIPSE
  5
680
100
AcDbEntity
  8
0
100
AcDbEllipse
 62
7
  6
CONTINUOUS
 10
3.9049600955
 20
6.3354296576
 30
0.0
 11
0.0100508989
 21
0.0174086676
 31
0.0
 40
0.9949358851
 41
-3.6629958269
 42
-2.6201894802
  0
ELLIPSE
  5
681
100
AcDbEntity
  8
0
100
AcDbEllipse
 62
7
  6
CONTINUOUS
 10
4.0838504635
 20
6.3354296576
 30
0.0
 11
-0.0100508989
 21
0.0174086676
 31
0.0
 40
0.9949358851
 41
-3.6629958269
 42
-2.6201894802
  0
ELLIPSE
  5
682
100
AcDbEntity
  8
0
100
AcDbEllipse
 62
7
  6
CONTINUOUS
 10
4.1732956476
 20
6.4903532609
 30
0.0
 11
0.0201017978
 21
-0.0
 31
0.0
 40
0.9949358851
 41
-0.5214031734
 42
0.5214031734
  0
ELLIPSE
  5
683
100
AcDbEntity
  8
0
100
AcDbEllipse
 62
7
  6
CONTINUOUS
 10
3.3968504635
 20
2.2452768641
 30
0.0
 11
0.0100508989
 21
0.0174086676
 31
0.0
 40
0.9949358851
 41
-0.5214031734
 42
0.5214031734
  0
ELLIPSE
  5
684
100
AcDbEntity
  8
0
100
AcDbEllipse
 62
7
  6
CONTINUOUS
 10
3.2179600955
 20
2.2452768641
 30
0.0
 11
-0.0100508989
 21
0.0174086676
 31
0.0
 40
0.9949358851
 41
-0.5214031734
 42
0.5214031734
  0
ELLIPSE
  5
685
100
AcDbEntity
  8
0
100
AcDbEllipse
 62
7
  6
CONTINUOUS
 10
3.1285149114
 20
2.0903532609
 30
0.0
 11
0.0201017978
 21
-0.0
 31
0.0
 40
0.9949358851
 41
2.6201894802
 42
3.6629958269
  0
ELLIPSE
  5
686
100
AcDbEntity
  8
0
100
AcDbEllipse
 62
7
  6
CONTINUOUS
 10
3.2179600955
 20
1.9354296576
 30
0.0
 11
0.0100508989
 21
0.0174086676
 31
0.0
 40
0.9949358851
 41
-3.6629958269
 42
-2.6201894802
  0
ELLIPSE
  5
687
100
AcDbEntity
  8
0
100
AcDbEllipse
 62
7
  6
CONTINUOUS
 10
3.3968504635
 20
1.9354296576
 30
0.0
 11
-0.0100508989
 21
0.0174086676
 31
0.0
 40
0.9949358851
 41
-3.6629958269
 42
-2.6201894802
  0
ELLIPSE
  5
688
100
AcDbEntity
  8
0
100
AcDbEllipse
 62
7
  6
CONTINUOUS
 10
3.4862956476
 20
2.0903532609
 30
0.0
 11
0.0201017978
 21
0.0
 31
0.0
 40
0.9949358851
 41
-0.5214031734
 42
0.5214031734
  0
ELLIPSE
  5
689
100
AcDbEntity
  8
0
100
AcDbEllipse
 62
7
  6
CONTINUOUS
 10
3.3968504635
 20
2.7952768641
 30
0.0
 11
0.0100508989
 21
0.0174086676
 31
0.0
 40
0.9949358851
 41
-0.5214031734
 42
0.5214031734
  0
ELLIPSE
  5
68A
100
AcDbEntity
  8
0
100
AcDbEllipse
 62
7
  6
CONTINUOUS
 10
3.2179600955
 20
2.7952768641
 30
0.0
 11
-0.0100508989
 21
0.0174086676
 31
0.0
 40
0.9949358851
 41
-0.5214031734
 42
0.5214031734
  0
ELLIPSE
  5
68B
100
AcDbEntity
  8
0
100
AcDbEllipse
 62
7
  6
CONTINUOUS
 10
3.1285149114
 20
2.6403532609
 30
0.0
 11
0.0201017978
 21
0.0
 31
0.0
 40
0.9949358851
 41
2.6201894802
 42
3.6629958269
  0
ELLIPSE
  5
68C
100
AcDbEntity
  8
0
100
AcDbEllipse
 62
7
  6
CONTINUOUS
 10
3.2179600955
 20
2.4854296576
 30
0.0
 11
0.0100508989
 21
0.0174086676
 31
0.0
 40
0.9949358851
 41
-3.6629958269
 42
-2.6201894802
  0
ELLIPSE
  5
68D
100
AcDbEntity
  8
0
100
AcDbEllipse
 62
7
  6
CONTINUOUS
 10
3.3968504635
 20
2.4854296576
 30
0.0
 11
-0.0100508989
 21
0.0174086676
 31
0.0
 40
0.9949358851
 41
-3.6629958269
 42
-2.6201894802
  0
ELLIPSE
  5
68E
100
AcDbEntity
  8
0
100
AcDbEllipse
 62
7
  6
CONTINUOUS
 10
3.4862956476
 20
2.6403532609
 30
0.0
 11
0.0201017978
 21
-0.0
 31
0.0
 40
0.9949358851
 41
-0.5214031734
 42
0.5214031734
  0
ELLIPSE
  5
68F
100
AcDbEntity
  8
0
100
AcDbEllipse
 62
7
  6
CONTINUOUS
 10
3.3968504635
 20
3.3452768641
 30
0.0
 11
0.0100508989
 21
0.0174086676
 31
0.0
 40
0.9949358851
 41
-0.5214031734
 42
0.5214031734
  0
ELLIPSE
  5
690
100
AcDbEntity
  8
0
100
AcDbEllipse
 62
7
  6
CONTINUOUS
 10
3.2179600955
 20
3.3452768641
 30
0.0
 11
-0.0100508989
 21
0.0174086676
 31
0.0
 40
0.9949358851
 41
-0.5214031734
 42
0.5214031734
  0
ELLIPSE
  5
691
100
AcDbEntity
  8
0
100
AcDbEllipse
 62
7
  6
CONTINUOUS
 10
3.1285149114
 20
3.1903532609
 30
0.0
 11
0.0201017978
 21
0.0
 31
0.0
 40
0.9949358851
 41
2.6201894802
 42
3.6629958269
  0
ELLIPSE
  5
692
100
AcDbEntity
  8
0
100
AcDbEllipse
 62
7
  6
CONTINUOUS
 10
3.2179600955
 20
3.0354296576
 30
0.0
 11
0.0100508989
 21
0.0174086676
 31
0.0
 40
0.9949358851
 41
-3.6629958269
 42
-2.6201894802
  0
ELLIPSE
  5
693
100
AcDbEntity
  8
0
100
AcDbEllipse
 62
7
  6
CONTINUOUS
 10
3.3968504635
 20
3.0354296576
 30
0.0
 11
-0.0100508989
 21
0.0174086676
 31
0.0
 40
0.9949358851
 41
-3.6629958269
 42
-2.6201894802
  0
ELLIPSE
  5
694
100
AcDbEntity
  8
0
100
AcDbEllipse
 62
7
  6
CONTINUOUS
 10
3.4862956476
 20
3.1903532609
 30
0.0
 11
0.0201017978
 21
-0.0
 31
0.0
 40
0.9949358851
 41
-0.5214031734
 42
0.5214031734
  0
ELLIPSE
  5
695
100
AcDbEntity
  8
0
100
AcDbEllipse
 62
7
  6
CONTINUOUS
 10
3.3968504635
 20
3.8952768641
 30
0.0
 11
0.0100508989
 21
0.0174086676
 31
0.0
 40
0.9949358851
 41
-0.5214031734
 42
0.5214031734
  0
ELLIPSE
  5
696
100
AcDbEntity
  8
0
100
AcDbEllipse
 62
7
  6
CONTINUOUS
 10
3.2179600955
 20
3.8952768641
 30
0.0
 11
-0.0100508989
 21
0.0174086676
 31
0.0
 40
0.9949358851
 41
-0.5214031734
 42
0.5214031734
  0
ELLIPSE
  5
697
100
AcDbEntity
  8
0
100
AcDbEllipse
 62
7
  6
CONTINUOUS
 10
3.1285149114
 20
3.7403532609
 30
0.0
 11
0.0201017978
 21
-0.0
 31
0.0
 40
0.9949358851
 41
2.6201894802
 42
3.6629958269
  0
ELLIPSE
  5
698
100
AcDbEntity
  8
0
100
AcDbEllipse
 62
7
  6
CONTINUOUS
 10
3.2179600955
 20
3.5854296576
 30
0.0
 11
0.0100508989
 21
0.0174086676
 31
0.0
 40
0.9949358851
 41
-3.6629958269
 42
-2.6201894802
  0
ELLIPSE
  5
699
100
AcDbEntity
  8
0
100
AcDbEllipse
 62
7
  6
CONTINUOUS
 10
3.3968504635
 20
3.5854296576
 30
0.0
 11
-0.0100508989
 21
0.0174086676
 31
0.0
 40
0.9949358851
 41
-3.6629958269
 42
-2.6201894802
  0
ELLIPSE
  5
69A
100
AcDbEntity
  8
0
100
AcDbEllipse
 62
7
  6
CONTINUOUS
 10
3.4862956476
 20
3.7403532609
 30
0.0
 11
0.0201017978
 21
0.0
 31
0.0
 40
0.9949358851
 41
-0.5214031734
 42
0.5214031734
  0
ELLIPSE
  5
69B
100
AcDbEntity
  8
0
100
AcDbEllipse
 62
7
  6
CONTINUOUS
 10
3.3968504635
 20
4.4452768641
 30
0.0
 11
0.0100508989
 21
0.0174086676
 31
0.0
 40
0.9949358851
 41
-0.5214031734
 42
0.5214031734
  0
ELLIPSE
  5
69C
100
AcDbEntity
  8
0
100
AcDbEllipse
 62
7
  6
CONTINUOUS
 10
3.2179600955
 20
4.4452768641
 30
0.0
 11
-0.0100508989
 21
0.0174086676
 31
0.0
 40
0.9949358851
 41
-0.5214031734
 42
0.5214031734
  0
ELLIPSE
  5
69D
100
AcDbEntity
  8
0
100
AcDbEllipse
 62
7
  6
CONTINUOUS
 10
3.1285149114
 20
4.2903532609
 30
0.0
 11
0.0201017978
 21
0.0
 31
0.0
 40
0.9949358851
 41
2.6201894802
 42
3.6629958269
  0
ELLIPSE
  5
69E
100
AcDbEntity
  8
0
100
AcDbEllipse
 62
7
  6
CONTINUOUS
 10
3.2179600955
 20
4.1354296576
 30
0.0
 11
0.0100508989
 21
0.0174086676
 31
0.0
 40
0.9949358851
 41
-3.6629958269
 42
-2.6201894802
  0
ELLIPSE
  5
69F
100
AcDbEntity
  8
0
100
AcDbEllipse
 62
7
  6
CONTINUOUS
 10
3.3968504635
 20
4.1354296576
 30
0.0
 11
-0.0100508989
 21
0.0174086676
 31
0.0
 40
0.9949358851
 41
-3.6629958269
 42
-2.6201894802
  0
ELLIPSE
  5
6A0
100
AcDbEntity
  8
0
100
AcDbEllipse
 62
7
  6
CONTINUOUS
 10
3.4862956476
 20
4.2903532609
 30
0.0
 11
0.0201017978
 21
-0.0
 31
0.0
 40
0.9949358851
 41
-0.5214031734
 42
0.5214031734
  0
ELLIPSE
  5
6A1
100
AcDbEntity
  8
0
100
AcDbEllipse
 62
7
  6
CONTINUOUS
 10
3.3968504635
 20
4.9952768641
 30
0.0
 11
0.0100508989
 21
0.0174086676
 31
0.0
 40
0.9949358851
 41
-0.5214031734
 42
0.5214031734
  0
ELLIPSE
  5
6A2
100
AcDbEntity
  8
0
100
AcDbEllipse
 62
7
  6
CONTINUOUS
 10
3.2179600955
 20
4.9952768641
 30
0.0
 11
-0.0100508989
 21
0.0174086676
 31
0.0
 40
0.9949358851
 41
-0.5214031734
 42
0.5214031734
  0
ELLIPSE
  5
6A3
100
AcDbEntity
  8
0
100
AcDbEllipse
 62
7
  6
CONTINUOUS
 10
3.1285149114
 20
4.8403532609
 30
0.0
 11
0.0201017978
 21
0.0
 31
0.0
 40
0.9949358851
 41
2.6201894802
 42
3.6629958269
  0
ELLIPSE
  5
6A4
100
AcDbEntity
  8
0
100
AcDbEllipse
 62
7
  6
CONTINUOUS
 10
3.2179600955
 20
4.6854296576
 30
0.0
 11
0.0100508989
 21
0.0174086676
 31
0.0
 40
0.9949358851
 41
-3.6629958269
 42
-2.6201894802
  0
ELLIPSE
  5
6A5
100
AcDbEntity
  8
0
100
AcDbEllipse
 62
7
  6
CONTINUOUS
 10
3.3968504635
 20
4.6854296576
 30
0.0
 11
-0.0100508989
 21
0.0174086676
 31
0.0
 40
0.9949358851
 41
-3.6629958269
 42
-2.6201894802
  0
ELLIPSE
  5
6A6
100
AcDbEntity
  8
0
100
AcDbEllipse
 62
7
  6
CONTINUOUS
 10
3.4862956476
 20
4.8403532609
 30
0.0
 11
0.0201017978
 21
-0.0
 31
0.0
 40
0.9949358851
 41
-0.5214031734
 42
0.5214031734
  0
ELLIPSE
  5
6A7
100
AcDbEntity
  8
0
100
AcDbEllipse
 62
7
  6
CONTINUOUS
 10
3.3968504635
 20
5.5452768641
 30
0.0
 11
0.0100508989
 21
0.0174086676
 31
0.0
 40
0.9949358851
 41
-0.5214031734
 42
0.5214031734
  0
ELLIPSE
  5
6A8
100
AcDbEntity
  8
0
100
AcDbEllipse
 62
7
  6
CONTINUOUS
 10
3.2179600955
 20
5.5452768641
 30
0.0
 11
-0.0100508989
 21
0.0174086676
 31
0.0
 40
0.9949358851
 41
-0.5214031734
 42
0.5214031734
  0
ELLIPSE
  5
6A9
100
AcDbEntity
  8
0
100
AcDbEllipse
 62
7
  6
CONTINUOUS
 10
3.1285149114
 20
5.3903532609
 30
0.0
 11
0.0201017978
 21
-0.0
 31
0.0
 40
0.9949358851
 41
2.6201894802
 42
3.6629958269
  0
ELLIPSE
  5
6AA
100
AcDbEntity
  8
0
100
AcDbEllipse
 62
7
  6
CONTINUOUS
 10
3.2179600955
 20
5.2354296576
 30
0.0
 11
0.0100508989
 21
0.0174086676
 31
0.0
 40
0.9949358851
 41
-3.6629958269
 42
-2.6201894802
  0
ELLIPSE
  5
6AB
100
AcDbEntity
  8
0
100
AcDbEllipse
 62
7
  6
CONTINUOUS
 10
3.3968504635
 20
5.2354296576
 30
0.0
 11
-0.0100508989
 21
0.0174086676
 31
0.0
 40
0.9949358851
 41
-3.6629958269
 42
-2.6201894802
  0
ELLIPSE
  5
6AC
100
AcDbEntity
  8
0
100
AcDbEllipse
 62
7
  6
CONTINUOUS
 10
3.4862956476
 20
5.3903532609
 30
0.0
 11
0.0201017978
 21
-0.0
 31
0.0
 40
0.9949358851
 41
-0.5214031734
 42
0.5214031734
  0
ELLIPSE
  5
6AD
100
AcDbEntity
  8
0
100
AcDbEllipse
 62
7
  6
CONTINUOUS
 10
3.3968504635
 20
6.0952768641
 30
0.0
 11
0.0100508989
 21
0.0174086676
 31
0.0
 40
0.9949358851
 41
-0.5214031734
 42
0.5214031734
  0
ELLIPSE
  5
6AE
100
AcDbEntity
  8
0
100
AcDbEllipse
 62
7
  6
CONTINUOUS
 10
3.2179600955
 20
6.0952768641
 30
0.0
 11
-0.0100508989
 21
0.0174086676
 31
0.0
 40
0.9949358851
 41
-0.5214031734
 42
0.5214031734
  0
ELLIPSE
  5
6AF
100
AcDbEntity
  8
0
100
AcDbEllipse
 62
7
  6
CONTINUOUS
 10
3.1285149114
 20
5.9403532609
 30
0.0
 11
0.0201017978
 21
-0.0
 31
0.0
 40
0.9949358851
 41
2.6201894802
 42
3.6629958269
  0
ELLIPSE
  5
6B0
100
AcDbEntity
  8
0
100
AcDbEllipse
 62
7
  6
CONTINUOUS
 10
3.2179600955
 20
5.7854296576
 30
0.0
 11
0.0100508989
 21
0.0174086676
 31
0.0
 40
0.9949358851
 41
-3.6629958269
 42
-2.6201894802
  0
ELLIPSE
  5
6B1
100
AcDbEntity
  8
0
100
AcDbEllipse
 62
7
  6
CONTINUOUS
 10
3.3968504635
 20
5.7854296576
 30
0.0
 11
-0.0100508989
 21
0.0174086676
 31
0.0
 40
0.9949358851
 41
-3.6629958269
 42
-2.6201894802
  0
ELLIPSE
  5
6B2
100
AcDbEntity
  8
0
100
AcDbEllipse
 62
7
  6
CONTINUOUS
 10
3.4862956476
 20
5.9403532609
 30
0.0
 11
0.0201017978
 21
0.0
 31
0.0
 40
0.9949358851
 41
-0.5214031734
 42
0.5214031734
  0
ELLIPSE
  5
6B3
100
AcDbEntity
  8
0
100
AcDbEllipse
 62
7
  6
CONTINUOUS
 10
3.3968504635
 20
6.6452768641
 30
0.0
 11
0.0100508989
 21
0.0174086676
 31
0.0
 40
0.9949358851
 41
-0.5214031734
 42
0.5214031734
  0
ELLIPSE
  5
6B4
100
AcDbEntity
  8
0
100
AcDbEllipse
 62
7
  6
CONTINUOUS
 10
3.2179600955
 20
6.6452768641
 30
0.0
 11
-0.0100508989
 21
0.0174086676
 31
0.0
 40
0.9949358851
 41
-0.5214031734
 42
0.5214031734
  0
ELLIPSE
  5
6B5
100
AcDbEntity
  8
0
100
AcDbEllipse
 62
7
  6
CONTINUOUS
 10
3.1285149114
 20
6.4903532609
 30
0.0
 11
0.0201017978
 21
-0.0
 31
0.0
 40
0.9949358851
 41
2.6201894802
 42
3.6629958269
  0
ELLIPSE
  5
6B6
100
AcDbEntity
  8
0
100
AcDbEllipse
 62
7
  6
CONTINUOUS
 10
3.2179600955
 20
6.3354296576
 30
0.0
 11
0.0100508989
 21
0.0174086676
 31
0.0
 40
0.9949358851
 41
-3.6629958269
 42
-2.6201894802
  0
ELLIPSE
  5
6B7
100
AcDbEntity
  8
0
100
AcDbEllipse
 62
7
  6
CONTINUOUS
 10
3.3968504635
 20
6.3354296576
 30
0.0
 11
-0.0100508989
 21
0.0174086676
 31
0.0
 40
0.9949358851
 41
-3.6629958269
 42
-2.6201894802
  0
ELLIPSE
  5
6B8
100
AcDbEntity
  8
0
100
AcDbEllipse
 62
7
  6
CONTINUOUS
 10
3.4862956476
 20
6.4903532609
 30
0.0
 11
0.0201017978
 21
0.0
 31
0.0
 40
0.9949358851
 41
-0.5214031734
 42
0.5214031734
  0
ELLIPSE
  5
6B9
100
AcDbEntity
  8
0
100
AcDbEllipse
 62
7
  6
CONTINUOUS
 10
2.7098504635
 20
2.2452768641
 30
0.0
 11
0.0100508989
 21
0.0174086676
 31
0.0
 40
0.9949358851
 41
-0.5214031734
 42
0.5214031734
  0
ELLIPSE
  5
6BA
100
AcDbEntity
  8
0
100
AcDbEllipse
 62
7
  6
CONTINUOUS
 10
2.5309600955
 20
2.2452768641
 30
0.0
 11
-0.0100508989
 21
0.0174086676
 31
0.0
 40
0.9949358851
 41
-0.5214031734
 42
0.5214031734
  0
ELLIPSE
  5
6BB
100
AcDbEntity
  8
0
100
AcDbEllipse
 62
7
  6
CONTINUOUS
 10
2.4415149114
 20
2.0903532609
 30
0.0
 11
0.0201017978
 21
0.0
 31
0.0
 40
0.9949358851
 41
2.6201894802
 42
3.6629958269
  0
ELLIPSE
  5
6BC
100
AcDbEntity
  8
0
100
AcDbEllipse
 62
7
  6
CONTINUOUS
 10
2.5309600955
 20
1.9354296576
 30
0.0
 11
0.0100508989
 21
0.0174086676
 31
0.0
 40
0.9949358851
 41
-3.6629958269
 42
-2.6201894802
  0
ELLIPSE
  5
6BD
100
AcDbEntity
  8
0
100
AcDbEllipse
 62
7
  6
CONTINUOUS
 10
2.7098504635
 20
1.9354296576
 30
0.0
 11
-0.0100508989
 21
0.0174086676
 31
0.0
 40
0.9949358851
 41
-3.6629958269
 42
-2.6201894802
  0
ELLIPSE
  5
6BE
100
AcDbEntity
  8
0
100
AcDbEllipse
 62
7
  6
CONTINUOUS
 10
2.7992956476
 20
2.0903532609
 30
0.0
 11
0.0201017978
 21
-0.0
 31
0.0
 40
0.9949358851
 41
-0.5214031734
 42
0.5214031734
  0
ELLIPSE
  5
6BF
100
AcDbEntity
  8
0
100
AcDbEllipse
 62
7
  6
CONTINUOUS
 10
2.7098504635
 20
2.7952768641
 30
0.0
 11
0.0100508989
 21
0.0174086676
 31
0.0
 40
0.9949358851
 41
-0.5214031734
 42
0.5214031734
  0
ELLIPSE
  5
6C0
100
AcDbEntity
  8
0
100
AcDbEllipse
 62
7
  6
CONTINUOUS
 10
2.5309600955
 20
2.7952768641
 30
0.0
 11
-0.0100508989
 21
0.0174086676
 31
0.0
 40
0.9949358851
 41
-0.5214031734
 42
0.5214031734
  0
ELLIPSE
  5
6C1
100
AcDbEntity
  8
0
100
AcDbEllipse
 62
7
  6
CONTINUOUS
 10
2.4415149114
 20
2.6403532609
 30
0.0
 11
0.0201017978
 21
0.0
 31
0.0
 40
0.9949358851
 41
2.6201894802
 42
3.6629958269
  0
ELLIPSE
  5
6C2
100
AcDbEntity
  8
0
100
AcDbEllipse
 62
7
  6
CONTINUOUS
 10
2.5309600955
 20
2.4854296576
 30
0.0
 11
0.0100508989
 21
0.0174086676
 31
0.0
 40
0.9949358851
 41
-3.6629958269
 42
-2.6201894802
  0
ELLIPSE
  5
6C3
100
AcDbEntity
  8
0
100
AcDbEllipse
 62
7
  6
CONTINUOUS
 10
2.7098504635
 20
2.4854296576
 30
0.0
 11
-0.0100508989
 21
0.0174086676
 31
0.0
 40
0.9949358851
 41
-3.6629958269
 42
-2.6201894802
  0
ELLIPSE
  5
6C4
100
AcDbEntity
  8
0
100
AcDbEllipse
 62
7
  6
CONTINUOUS
 10
2.7992956476
 20
2.6403532609
 30
0.0
 11
0.0201017978
 21
-0.0
 31
0.0
 40
0.9949358851
 41
-0.5214031734
 42
0.5214031734
  0
ELLIPSE
  5
6C5
100
AcDbEntity
  8
0
100
AcDbEllipse
 62
7
  6
CONTINUOUS
 10
2.7098504635
 20
3.3452768641
 30
0.0
 11
0.0100508989
 21
0.0174086676
 31
0.0
 40
0.9949358851
 41
-0.5214031734
 42
0.5214031734
  0
ELLIPSE
  5
6C6
100
AcDbEntity
  8
0
100
AcDbEllipse
 62
7
  6
CONTINUOUS
 10
2.5309600955
 20
3.3452768641
 30
0.0
 11
-0.0100508989
 21
0.0174086676
 31
0.0
 40
0.9949358851
 41
-0.5214031734
 42
0.5214031734
  0
ELLIPSE
  5
6C7
100
AcDbEntity
  8
0
100
AcDbEllipse
 62
7
  6
CONTINUOUS
 10
2.4415149114
 20
3.1903532609
 30
0.0
 11
0.0201017978
 21
-0.0
 31
0.0
 40
0.9949358851
 41
2.6201894802
 42
3.6629958269
  0
ELLIPSE
  5
6C8
100
AcDbEntity
  8
0
100
AcDbEllipse
 62
7
  6
CONTINUOUS
 10
2.5309600955
 20
3.0354296576
 30
0.0
 11
0.0100508989
 21
0.0174086676
 31
0.0
 40
0.9949358851
 41
-3.6629958269
 42
-2.6201894802
  0
ELLIPSE
  5
6C9
100
AcDbEntity
  8
0
100
AcDbEllipse
 62
7
  6
CONTINUOUS
 10
2.7098504635
 20
3.0354296576
 30
0.0
 11
-0.0100508989
 21
0.0174086676
 31
0.0
 40
0.9949358851
 41
-3.6629958269
 42
-2.6201894802
  0
ELLIPSE
  5
6CA
100
AcDbEntity
  8
0
100
AcDbEllipse
 62
7
  6
CONTINUOUS
 10
2.7992956476
 20
3.1903532609
 30
0.0
 11
0.0201017978
 21
-0.0
 31
0.0
 40
0.9949358851
 41
-0.5214031734
 42
0.5214031734
  0
ELLIPSE
  5
6CB
100
AcDbEntity
  8
0
100
AcDbEllipse
 62
7
  6
CONTINUOUS
 10
2.7098504635
 20
3.8952768641
 30
0.0
 11
0.0100508989
 21
0.0174086676
 31
0.0
 40
0.9949358851
 41
-0.5214031734
 42
0.5214031734
  0
ELLIPSE
  5
6CC
100
AcDbEntity
  8
0
100
AcDbEllipse
 62
7
  6
CONTINUOUS
 10
2.5309600955
 20
3.8952768641
 30
0.0
 11
-0.0100508989
 21
0.0174086676
 31
0.0
 40
0.9949358851
 41
-0.5214031734
 42
0.5214031734
  0
ELLIPSE
  5
6CD
100
AcDbEntity
  8
0
100
AcDbEllipse
 62
7
  6
CONTINUOUS
 10
2.4415149114
 20
3.7403532609
 30
0.0
 11
0.0201017978
 21
0.0
 31
0.0
 40
0.9949358851
 41
2.6201894802
 42
3.6629958269
  0
ELLIPSE
  5
6CE
100
AcDbEntity
  8
0
100
AcDbEllipse
 62
7
  6
CONTINUOUS
 10
2.5309600955
 20
3.5854296576
 30
0.0
 11
0.0100508989
 21
0.0174086676
 31
0.0
 40
0.9949358851
 41
-3.6629958269
 42
-2.6201894802
  0
ELLIPSE
  5
6CF
100
AcDbEntity
  8
0
100
AcDbEllipse
 62
7
  6
CONTINUOUS
 10
2.7098504635
 20
3.5854296576
 30
0.0
 11
-0.0100508989
 21
0.0174086676
 31
0.0
 40
0.9949358851
 41
-3.6629958269
 42
-2.6201894802
  0
ELLIPSE
  5
6D0
100
AcDbEntity
  8
0
100
AcDbEllipse
 62
7
  6
CONTINUOUS
 10
2.7992956476
 20
3.7403532609
 30
0.0
 11
0.0201017978
 21
0.0
 31
0.0
 40
0.9949358851
 41
-0.5214031734
 42
0.5214031734
  0
ELLIPSE
  5
6D1
100
AcDbEntity
  8
0
100
AcDbEllipse
 62
7
  6
CONTINUOUS
 10
2.7098504635
 20
4.4452768641
 30
0.0
 11
0.0100508989
 21
0.0174086676
 31
0.0
 40
0.9949358851
 41
-0.5214031734
 42
0.5214031734
  0
ELLIPSE
  5
6D2
100
AcDbEntity
  8
0
100
AcDbEllipse
 62
7
  6
CONTINUOUS
 10
2.5309600955
 20
4.4452768641
 30
0.0
 11
-0.0100508989
 21
0.0174086676
 31
0.0
 40
0.9949358851
 41
-0.5214031734
 42
0.5214031734
  0
ELLIPSE
  5
6D3
100
AcDbEntity
  8
0
100
AcDbEllipse
 62
7
  6
CONTINUOUS
 10
2.4415149114
 20
4.2903532609
 30
0.0
 11
0.0201017978
 21
0.0
 31
0.0
 40
0.9949358851
 41
2.6201894802
 42
3.6629958269
  0
ELLIPSE
  5
6D4
100
AcDbEntity
  8
0
100
AcDbEllipse
 62
7
  6
CONTINUOUS
 10
2.5309600955
 20
4.1354296576
 30
0.0
 11
0.0100508989
 21
0.0174086676
 31
0.0
 40
0.9949358851
 41
-3.6629958269
 42
-2.6201894802
  0
ELLIPSE
  5
6D5
100
AcDbEntity
  8
0
100
AcDbEllipse
 62
7
  6
CONTINUOUS
 10
2.7098504635
 20
4.1354296576
 30
0.0
 11
-0.0100508989
 21
0.0174086676
 31
0.0
 40
0.9949358851
 41
-3.6629958269
 42
-2.6201894802
  0
ELLIPSE
  5
6D6
100
AcDbEntity
  8
0
100
AcDbEllipse
 62
7
  6
CONTINUOUS
 10
2.7992956476
 20
4.2903532609
 30
0.0
 11
0.0201017978
 21
0.0
 31
0.0
 40
0.9949358851
 41
-0.5214031734
 42
0.5214031734
  0
ELLIPSE
  5
6D7
100
AcDbEntity
  8
0
100
AcDbEllipse
 62
7
  6
CONTINUOUS
 10
2.7098504635
 20
4.9952768641
 30
0.0
 11
0.0100508989
 21
0.0174086676
 31
0.0
 40
0.9949358851
 41
-0.5214031734
 42
0.5214031734
  0
ELLIPSE
  5
6D8
100
AcDbEntity
  8
0
100
AcDbEllipse
 62
7
  6
CONTINUOUS
 10
2.5309600955
 20
4.9952768641
 30
0.0
 11
-0.0100508989
 21
0.0174086676
 31
0.0
 40
0.9949358851
 41
-0.5214031734
 42
0.5214031734
  0
ELLIPSE
  5
6D9
100
AcDbEntity
  8
0
100
AcDbEllipse
 62
7
  6
CONTINUOUS
 10
2.4415149114
 20
4.8403532609
 30
0.0
 11
0.0201017978
 21
0.0
 31
0.0
 40
0.9949358851
 41
2.6201894802
 42
3.6629958269
  0
ELLIPSE
  5
6DA
100
AcDbEntity
  8
0
100
AcDbEllipse
 62
7
  6
CONTINUOUS
 10
2.5309600955
 20
4.6854296576
 30
0.0
 11
0.0100508989
 21
0.0174086676
 31
0.0
 40
0.9949358851
 41
-3.6629958269
 42
-2.6201894802
  0
ELLIPSE
  5
6DB
100
AcDbEntity
  8
0
100
AcDbEllipse
 62
7
  6
CONTINUOUS
 10
2.7098504635
 20
4.6854296576
 30
0.0
 11
-0.0100508989
 21
0.0174086676
 31
0.0
 40
0.9949358851
 41
-3.6629958269
 42
-2.6201894802
  0
ELLIPSE
  5
6DC
100
AcDbEntity
  8
0
100
AcDbEllipse
 62
7
  6
CONTINUOUS
 10
2.7992956476
 20
4.8403532609
 30
0.0
 11
0.0201017978
 21
-0.0
 31
0.0
 40
0.9949358851
 41
-0.5214031734
 42
0.5214031734
  0
ELLIPSE
  5
6DD
100
AcDbEntity
  8
0
100
AcDbEllipse
 62
7
  6
CONTINUOUS
 10
2.7098504635
 20
5.5452768641
 30
0.0
 11
0.0100508989
 21
0.0174086676
 31
0.0
 40
0.9949358851
 41
-0.5214031734
 42
0.5214031734
  0
ELLIPSE
  5
6DE
100
AcDbEntity
  8
0
100
AcDbEllipse
 62
7
  6
CONTINUOUS
 10
2.5309600955
 20
5.5452768641
 30
0.0
 11
-0.0100508989
 21
0.0174086676
 31
0.0
 40
0.9949358851
 41
-0.5214031734
 42
0.5214031734
  0
ELLIPSE
  5
6DF
100
AcDbEntity
  8
0
100
AcDbEllipse
 62
7
  6
CONTINUOUS
 10
2.4415149114
 20
5.3903532609
 30
0.0
 11
0.0201017978
 21
0.0
 31
0.0
 40
0.9949358851
 41
2.6201894802
 42
3.6629958269
  0
ELLIPSE
  5
6E0
100
AcDbEntity
  8
0
100
AcDbEllipse
 62
7
  6
CONTINUOUS
 10
2.5309600955
 20
5.2354296576
 30
0.0
 11
0.0100508989
 21
0.0174086676
 31
0.0
 40
0.9949358851
 41
-3.6629958269
 42
-2.6201894802
  0
ELLIPSE
  5
6E1
100
AcDbEntity
  8
0
100
AcDbEllipse
 62
7
  6
CONTINUOUS
 10
2.7098504635
 20
5.2354296576
 30
0.0
 11
-0.0100508989
 21
0.0174086676
 31
0.0
 40
0.9949358851
 41
-3.6629958269
 42
-2.6201894802
  0
ELLIPSE
  5
6E2
100
AcDbEntity
  8
0
100
AcDbEllipse
 62
7
  6
CONTINUOUS
 10
2.7992956476
 20
5.3903532609
 30
0.0
 11
0.0201017978
 21
0.0
 31
0.0
 40
0.9949358851
 41
-0.5214031734
 42
0.5214031734
  0
ELLIPSE
  5
6E3
100
AcDbEntity
  8
0
100
AcDbEllipse
 62
7
  6
CONTINUOUS
 10
2.7098504635
 20
6.0952768641
 30
0.0
 11
0.0100508989
 21
0.0174086676
 31
0.0
 40
0.9949358851
 41
-0.5214031734
 42
0.5214031734
  0
ELLIPSE
  5
6E4
100
AcDbEntity
  8
0
100
AcDbEllipse
 62
7
  6
CONTINUOUS
 10
2.5309600955
 20
6.0952768641
 30
0.0
 11
-0.0100508989
 21
0.0174086676
 31
0.0
 40
0.9949358851
 41
-0.5214031734
 42
0.5214031734
  0
ELLIPSE
  5
6E5
100
AcDbEntity
  8
0
100
AcDbEllipse
 62
7
  6
CONTINUOUS
 10
2.4415149114
 20
5.9403532609
 30
0.0
 11
0.0201017978
 21
-0.0
 31
0.0
 40
0.9949358851
 41
2.6201894802
 42
3.6629958269
  0
ELLIPSE
  5
6E6
100
AcDbEntity
  8
0
100
AcDbEllipse
 62
7
  6
CONTINUOUS
 10
2.5309600955
 20
5.7854296576
 30
0.0
 11
0.0100508989
 21
0.0174086676
 31
0.0
 40
0.9949358851
 41
-3.6629958269
 42
-2.6201894802
  0
ELLIPSE
  5
6E7
100
AcDbEntity
  8
0
100
AcDbEllipse
 62
7
  6
CONTINUOUS
 10
2.7098504635
 20
5.7854296576
 30
0.0
 11
-0.0100508989
 21
0.0174086676
 31
0.0
 40
0.9949358851
 41
-3.6629958269
 42
-2.6201894802
  0
ELLIPSE
  5
6E8
100
AcDbEntity
  8
0
100
AcDbEllipse
 62
7
  6
CONTINUOUS
 10
2.7992956476
 20
5.9403532609
 30
0.0
 11
0.0201017978
 21
0.0
 31
0.0
 40
0.9949358851
 41
-0.5214031734
 42
0.5214031734
  0
ELLIPSE
  5
6E9
100
AcDbEntity
  8
0
100
AcDbEllipse
 62
7
  6
CONTINUOUS
 10
2.7098504635
 20
6.6452768641
 30
0.0
 11
0.0100508989
 21
0.0174086676
 31
0.0
 40
0.9949358851
 41
-0.5214031734
 42
0.5214031734
  0
ELLIPSE
  5
6EA
100
AcDbEntity
  8
0
100
AcDbEllipse
 62
7
  6
CONTINUOUS
 10
2.5309600955
 20
6.6452768641
 30
0.0
 11
-0.0100508989
 21
0.0174086676
 31
0.0
 40
0.9949358851
 41
-0.5214031734
 42
0.5214031734
  0
ELLIPSE
  5
6EB
100
AcDbEntity
  8
0
100
AcDbEllipse
 62
7
  6
CONTINUOUS
 10
2.4415149114
 20
6.4903532609
 30
0.0
 11
0.0201017978
 21
0.0
 31
0.0
 40
0.9949358851
 41
2.6201894802
 42
3.6629958269
  0
ELLIPSE
  5
6EC
100
AcDbEntity
  8
0
100
AcDbEllipse
 62
7
  6
CONTINUOUS
 10
2.5309600955
 20
6.3354296576
 30
0.0
 11
0.0100508989
 21
0.0174086676
 31
0.0
 40
0.9949358851
 41
-3.6629958269
 42
-2.6201894802
  0
ELLIPSE
  5
6ED
100
AcDbEntity
  8
0
100
AcDbEllipse
 62
7
  6
CONTINUOUS
 10
2.7098504635
 20
6.3354296576
 30
0.0
 11
-0.0100508989
 21
0.0174086676
 31
0.0
 40
0.9949358851
 41
-3.6629958269
 42
-2.6201894802
  0
ELLIPSE
  5
6EE
100
AcDbEntity
  8
0
100
AcDbEllipse
 62
7
  6
CONTINUOUS
 10
2.7992956476
 20
6.4903532609
 30
0.0
 11
0.0201017978
 21
-0.0
 31
0.0
 40
0.9949358851
 41
-0.5214031734
 42
0.5214031734
  0
ELLIPSE
  5
6EF
100
AcDbEntity
  8
0
100
AcDbEllipse
 62
7
  6
CONTINUOUS
 10
6.9070149114
 20
1.8153532609
 30
0.0
 11
0.0201017978
 21
-0.0
 31
0.0
 40
0.9949358851
 41
2.6201894802
 42
3.6629958269
  0
ELLIPSE
  5
6F0
100
AcDbEntity
  8
0
100
AcDbEllipse
 62
7
  6
CONTINUOUS
 10
6.9964600955
 20
1.6604296576
 30
0.0
 11
0.0100508989
 21
0.0174086676
 31
0.0
 40
0.9949358851
 41
-3.6629958269
 42
-2.6201894802
  0
ELLIPSE
  5
6F1
100
AcDbEntity
  8
0
100
AcDbEllipse
 62
7
  6
CONTINUOUS
 10
7.1753504635
 20
1.6604296576
 30
0.0
 11
-0.0100508989
 21
0.0174086676
 31
0.0
 40
0.9949358851
 41
-3.6629958269
 42
-2.6201894802
  0
ELLIPSE
  5
6F2
100
AcDbEntity
  8
0
100
AcDbEllipse
 62
7
  6
CONTINUOUS
 10
7.2647956476
 20
1.8153532609
 30
0.0
 11
0.0201017978
 21
0.0
 31
0.0
 40
0.9949358851
 41
-0.5214031734
 42
0.5214031734
  0
ELLIPSE
  5
6F3
100
AcDbEntity
  8
0
100
AcDbEllipse
 62
7
  6
CONTINUOUS
 10
7.1753504635
 20
1.9702768641
 30
0.0
 11
0.0100508989
 21
0.0174086676
 31
0.0
 40
0.9949358851
 41
-0.5214031734
 42
0.5214031734
  0
ELLIPSE
  5
6F4
100
AcDbEntity
  8
0
100
AcDbEllipse
 62
7
  6
CONTINUOUS
 10
6.9964600955
 20
1.9702768641
 30
0.0
 11
-0.0100508989
 21
0.0174086676
 31
0.0
 40
0.9949358851
 41
-0.5214031734
 42
0.5214031734
  0
ELLIPSE
  5
6F5
100
AcDbEntity
  8
0
100
AcDbEllipse
 62
7
  6
CONTINUOUS
 10
6.9070149114
 20
2.3653532609
 30
0.0
 11
0.0201017978
 21
0.0
 31
0.0
 40
0.9949358851
 41
2.6201894802
 42
3.6629958269
  0
ELLIPSE
  5
6F6
100
AcDbEntity
  8
0
100
AcDbEllipse
 62
7
  6
CONTINUOUS
 10
6.9964600955
 20
2.2104296576
 30
0.0
 11
0.0100508989
 21
0.0174086676
 31
0.0
 40
0.9949358851
 41
-3.6629958269
 42
-2.6201894802
  0
ELLIPSE
  5
6F7
100
AcDbEntity
  8
0
100
AcDbEllipse
 62
7
  6
CONTINUOUS
 10
7.1753504635
 20
2.2104296576
 30
0.0
 11
-0.0100508989
 21
0.0174086676
 31
0.0
 40
0.9949358851
 41
-3.6629958269
 42
-2.6201894802
  0
ELLIPSE
  5
6F8
100
AcDbEntity
  8
0
100
AcDbEllipse
 62
7
  6
CONTINUOUS
 10
7.2647956476
 20
2.3653532609
 30
0.0
 11
0.0201017978
 21
-0.0
 31
0.0
 40
0.9949358851
 41
-0.5214031734
 42
0.5214031734
  0
ELLIPSE
  5
6F9
100
AcDbEntity
  8
0
100
AcDbEllipse
 62
7
  6
CONTINUOUS
 10
7.1753504635
 20
2.5202768641
 30
0.0
 11
0.0100508989
 21
0.0174086676
 31
0.0
 40
0.9949358851
 41
-0.5214031734
 42
0.5214031734
  0
ELLIPSE
  5
6FA
100
AcDbEntity
  8
0
100
AcDbEllipse
 62
7
  6
CONTINUOUS
 10
6.9964600955
 20
2.5202768641
 30
0.0
 11
-0.0100508989
 21
0.0174086676
 31
0.0
 40
0.9949358851
 41
-0.5214031734
 42
0.5214031734
  0
ELLIPSE
  5
6FB
100
AcDbEntity
  8
0
100
AcDbEllipse
 62
7
  6
CONTINUOUS
 10
6.9070149114
 20
2.9153532609
 30
0.0
 11
0.0201017978
 21
0.0
 31
0.0
 40
0.9949358851
 41
2.6201894802
 42
3.6629958269
  0
ELLIPSE
  5
6FC
100
AcDbEntity
  8
0
100
AcDbEllipse
 62
7
  6
CONTINUOUS
 10
6.9964600955
 20
2.7604296576
 30
0.0
 11
0.0100508989
 21
0.0174086676
 31
0.0
 40
0.9949358851
 41
-3.6629958269
 42
-2.6201894802
  0
ELLIPSE
  5
6FD
100
AcDbEntity
  8
0
100
AcDbEllipse
 62
7
  6
CONTINUOUS
 10
7.1753504635
 20
2.7604296576
 30
0.0
 11
-0.0100508989
 21
0.0174086676
 31
0.0
 40
0.9949358851
 41
-3.6629958269
 42
-2.6201894802
  0
ELLIPSE
  5
6FE
100
AcDbEntity
  8
0
100
AcDbEllipse
 62
7
  6
CONTINUOUS
 10
7.2647956476
 20
2.9153532609
 30
0.0
 11
0.0201017978
 21
0.0
 31
0.0
 40
0.9949358851
 41
-0.5214031734
 42
0.5214031734
  0
ELLIPSE
  5
6FF
100
AcDbEntity
  8
0
100
AcDbEllipse
 62
7
  6
CONTINUOUS
 10
7.1753504635
 20
3.0702768641
 30
0.0
 11
0.0100508989
 21
0.0174086676
 31
0.0
 40
0.9949358851
 41
-0.5214031734
 42
0.5214031734
  0
ELLIPSE
  5
700
100
AcDbEntity
  8
0
100
AcDbEllipse
 62
7
  6
CONTINUOUS
 10
6.9964600955
 20
3.0702768641
 30
0.0
 11
-0.0100508989
 21
0.0174086676
 31
0.0
 40
0.9949358851
 41
-0.5214031734
 42
0.5214031734
  0
ELLIPSE
  5
701
100
AcDbEntity
  8
0
100
AcDbEllipse
 62
7
  6
CONTINUOUS
 10
6.9070149114
 20
3.4653532609
 30
0.0
 11
0.0201017978
 21
-0.0
 31
0.0
 40
0.9949358851
 41
2.6201894802
 42
3.6629958269
  0
ELLIPSE
  5
702
100
AcDbEntity
  8
0
100
AcDbEllipse
 62
7
  6
CONTINUOUS
 10
6.9964600955
 20
3.3104296576
 30
0.0
 11
0.0100508989
 21
0.0174086676
 31
0.0
 40
0.9949358851
 41
-3.6629958269
 42
-2.6201894802
  0
ELLIPSE
  5
703
100
AcDbEntity
  8
0
100
AcDbEllipse
 62
7
  6
CONTINUOUS
 10
7.1753504635
 20
3.3104296576
 30
0.0
 11
-0.0100508989
 21
0.0174086676
 31
0.0
 40
0.9949358851
 41
-3.6629958269
 42
-2.6201894802
  0
ELLIPSE
  5
704
100
AcDbEntity
  8
0
100
AcDbEllipse
 62
7
  6
CONTINUOUS
 10
7.2647956476
 20
3.4653532609
 30
0.0
 11
0.0201017978
 21
0.0
 31
0.0
 40
0.9949358851
 41
-0.5214031734
 42
0.5214031734
  0
ELLIPSE
  5
705
100
AcDbEntity
  8
0
100
AcDbEllipse
 62
7
  6
CONTINUOUS
 10
7.1753504635
 20
3.6202768641
 30
0.0
 11
0.0100508989
 21
0.0174086676
 31
0.0
 40
0.9949358851
 41
-0.5214031734
 42
0.5214031734
  0
ELLIPSE
  5
706
100
AcDbEntity
  8
0
100
AcDbEllipse
 62
7
  6
CONTINUOUS
 10
6.9964600955
 20
3.6202768641
 30
0.0
 11
-0.0100508989
 21
0.0174086676
 31
0.0
 40
0.9949358851
 41
-0.5214031734
 42
0.5214031734
  0
ELLIPSE
  5
707
100
AcDbEntity
  8
0
100
AcDbEllipse
 62
7
  6
CONTINUOUS
 10
6.9070149114
 20
4.0153532609
 30
0.0
 11
0.0201017978
 21
0.0
 31
0.0
 40
0.9949358851
 41
2.6201894802
 42
3.6629958269
  0
ELLIPSE
  5
708
100
AcDbEntity
  8
0
100
AcDbEllipse
 62
7
  6
CONTINUOUS
 10
6.9964600955
 20
3.8604296576
 30
0.0
 11
0.0100508989
 21
0.0174086676
 31
0.0
 40
0.9949358851
 41
-3.6629958269
 42
-2.6201894802
  0
ELLIPSE
  5
709
100
AcDbEntity
  8
0
100
AcDbEllipse
 62
7
  6
CONTINUOUS
 10
7.1753504635
 20
3.8604296576
 30
0.0
 11
-0.0100508989
 21
0.0174086676
 31
0.0
 40
0.9949358851
 41
-3.6629958269
 42
-2.6201894802
  0
ELLIPSE
  5
70A
100
AcDbEntity
  8
0
100
AcDbEllipse
 62
7
  6
CONTINUOUS
 10
7.2647956476
 20
4.0153532609
 30
0.0
 11
0.0201017978
 21
-0.0
 31
0.0
 40
0.9949358851
 41
-0.5214031734
 42
0.5214031734
  0
ELLIPSE
  5
70B
100
AcDbEntity
  8
0
100
AcDbEllipse
 62
7
  6
CONTINUOUS
 10
7.1753504635
 20
4.1702768641
 30
0.0
 11
0.0100508989
 21
0.0174086676
 31
0.0
 40
0.9949358851
 41
-0.5214031734
 42
0.5214031734
  0
ELLIPSE
  5
70C
100
AcDbEntity
  8
0
100
AcDbEllipse
 62
7
  6
CONTINUOUS
 10
6.9964600955
 20
4.1702768641
 30
0.0
 11
-0.0100508989
 21
0.0174086676
 31
0.0
 40
0.9949358851
 41
-0.5214031734
 42
0.5214031734
  0
ELLIPSE
  5
70D
100
AcDbEntity
  8
0
100
AcDbEllipse
 62
7
  6
CONTINUOUS
 10
6.9070149114
 20
4.5653532609
 30
0.0
 11
0.0201017978
 21
0.0
 31
0.0
 40
0.9949358851
 41
2.6201894802
 42
3.6629958269
  0
ELLIPSE
  5
70E
100
AcDbEntity
  8
0
100
AcDbEllipse
 62
7
  6
CONTINUOUS
 10
6.9964600955
 20
4.4104296576
 30
0.0
 11
0.0100508989
 21
0.0174086676
 31
0.0
 40
0.9949358851
 41
-3.6629958269
 42
-2.6201894802
  0
ELLIPSE
  5
70F
100
AcDbEntity
  8
0
100
AcDbEllipse
 62
7
  6
CONTINUOUS
 10
7.1753504635
 20
4.4104296576
 30
0.0
 11
-0.0100508989
 21
0.0174086676
 31
0.0
 40
0.9949358851
 41
-3.6629958269
 42
-2.6201894802
  0
ELLIPSE
  5
710
100
AcDbEntity
  8
0
100
AcDbEllipse
 62
7
  6
CONTINUOUS
 10
7.2647956476
 20
4.5653532609
 30
0.0
 11
0.0201017978
 21
-0.0
 31
0.0
 40
0.9949358851
 41
-0.5214031734
 42
0.5214031734
  0
ELLIPSE
  5
711
100
AcDbEntity
  8
0
100
AcDbEllipse
 62
7
  6
CONTINUOUS
 10
7.1753504635
 20
4.7202768641
 30
0.0
 11
0.0100508989
 21
0.0174086676
 31
0.0
 40
0.9949358851
 41
-0.5214031734
 42
0.5214031734
  0
ELLIPSE
  5
712
100
AcDbEntity
  8
0
100
AcDbEllipse
 62
7
  6
CONTINUOUS
 10
6.9964600955
 20
4.7202768641
 30
0.0
 11
-0.0100508989
 21
0.0174086676
 31
0.0
 40
0.9949358851
 41
-0.5214031734
 42
0.5214031734
  0
ELLIPSE
  5
713
100
AcDbEntity
  8
0
100
AcDbEllipse
 62
7
  6
CONTINUOUS
 10
6.9070149114
 20
5.1153532609
 30
0.0
 11
0.0201017978
 21
-0.0
 31
0.0
 40
0.9949358851
 41
2.6201894802
 42
3.6629958269
  0
ELLIPSE
  5
714
100
AcDbEntity
  8
0
100
AcDbEllipse
 62
7
  6
CONTINUOUS
 10
6.9964600955
 20
4.9604296576
 30
0.0
 11
0.0100508989
 21
0.0174086676
 31
0.0
 40
0.9949358851
 41
-3.6629958269
 42
-2.6201894802
  0
ELLIPSE
  5
715
100
AcDbEntity
  8
0
100
AcDbEllipse
 62
7
  6
CONTINUOUS
 10
7.1753504635
 20
4.9604296576
 30
0.0
 11
-0.0100508989
 21
0.0174086676
 31
0.0
 40
0.9949358851
 41
-3.6629958269
 42
-2.6201894802
  0
ELLIPSE
  5
716
100
AcDbEntity
  8
0
100
AcDbEllipse
 62
7
  6
CONTINUOUS
 10
7.2647956476
 20
5.1153532609
 30
0.0
 11
0.0201017978
 21
0.0
 31
0.0
 40
0.9949358851
 41
-0.5214031734
 42
0.5214031734
  0
ELLIPSE
  5
717
100
AcDbEntity
  8
0
100
AcDbEllipse
 62
7
  6
CONTINUOUS
 10
7.1753504635
 20
5.2702768641
 30
0.0
 11
0.0100508989
 21
0.0174086676
 31
0.0
 40
0.9949358851
 41
-0.5214031734
 42
0.5214031734
  0
ELLIPSE
  5
718
100
AcDbEntity
  8
0
100
AcDbEllipse
 62
7
  6
CONTINUOUS
 10
6.9964600955
 20
5.2702768641
 30
0.0
 11
-0.0100508989
 21
0.0174086676
 31
0.0
 40
0.9949358851
 41
-0.5214031734
 42
0.5214031734
  0
ELLIPSE
  5
719
100
AcDbEntity
  8
0
100
AcDbEllipse
 62
7
  6
CONTINUOUS
 10
6.9070149114
 20
5.6653532609
 30
0.0
 11
0.0201017978
 21
-0.0
 31
0.0
 40
0.9949358851
 41
2.6201894802
 42
3.6629958269
  0
ELLIPSE
  5
71A
100
AcDbEntity
  8
0
100
AcDbEllipse
 62
7
  6
CONTINUOUS
 10
6.9964600955
 20
5.5104296576
 30
0.0
 11
0.0100508989
 21
0.0174086676
 31
0.0
 40
0.9949358851
 41
-3.6629958269
 42
-2.6201894802
  0
ELLIPSE
  5
71B
100
AcDbEntity
  8
0
100
AcDbEllipse
 62
7
  6
CONTINUOUS
 10
7.1753504635
 20
5.5104296576
 30
0.0
 11
-0.0100508989
 21
0.0174086676
 31
0.0
 40
0.9949358851
 41
-3.6629958269
 42
-2.6201894802
  0
ELLIPSE
  5
71C
100
AcDbEntity
  8
0
100
AcDbEllipse
 62
7
  6
CONTINUOUS
 10
7.2647956476
 20
5.6653532609
 30
0.0
 11
0.0201017978
 21
0.0
 31
0.0
 40
0.9949358851
 41
-0.5214031734
 42
0.5214031734
  0
ELLIPSE
  5
71D
100
AcDbEntity
  8
0
100
AcDbEllipse
 62
7
  6
CONTINUOUS
 10
7.1753504635
 20
5.8202768641
 30
0.0
 11
0.0100508989
 21
0.0174086676
 31
0.0
 40
0.9949358851
 41
-0.5214031734
 42
0.5214031734
  0
ELLIPSE
  5
71E
100
AcDbEntity
  8
0
100
AcDbEllipse
 62
7
  6
CONTINUOUS
 10
6.9964600955
 20
5.8202768641
 30
0.0
 11
-0.0100508989
 21
0.0174086676
 31
0.0
 40
0.9949358851
 41
-0.5214031734
 42
0.5214031734
  0
ELLIPSE
  5
71F
100
AcDbEntity
  8
0
100
AcDbEllipse
 62
7
  6
CONTINUOUS
 10
6.9070149114
 20
6.2153532609
 30
0.0
 11
0.0201017978
 21
0.0
 31
0.0
 40
0.9949358851
 41
2.6201894802
 42
3.6629958269
  0
ELLIPSE
  5
720
100
AcDbEntity
  8
0
100
AcDbEllipse
 62
7
  6
CONTINUOUS
 10
6.9964600955
 20
6.0604296576
 30
0.0
 11
0.0100508989
 21
0.0174086676
 31
0.0
 40
0.9949358851
 41
-3.6629958269
 42
-2.6201894802
  0
ELLIPSE
  5
721
100
AcDbEntity
  8
0
100
AcDbEllipse
 62
7
  6
CONTINUOUS
 10
7.1753504635
 20
6.0604296576
 30
0.0
 11
-0.0100508989
 21
0.0174086676
 31
0.0
 40
0.9949358851
 41
-3.6629958269
 42
-2.6201894802
  0
ELLIPSE
  5
722
100
AcDbEntity
  8
0
100
AcDbEllipse
 62
7
  6
CONTINUOUS
 10
7.2647956476
 20
6.2153532609
 30
0.0
 11
0.0201017978
 21
-0.0
 31
0.0
 40
0.9949358851
 41
-0.5214031734
 42
0.5214031734
  0
ELLIPSE
  5
723
100
AcDbEntity
  8
0
100
AcDbEllipse
 62
7
  6
CONTINUOUS
 10
7.1753504635
 20
6.3702768641
 30
0.0
 11
0.0100508989
 21
0.0174086676
 31
0.0
 40
0.9949358851
 41
-0.5214031734
 42
0.5214031734
  0
ELLIPSE
  5
724
100
AcDbEntity
  8
0
100
AcDbEllipse
 62
7
  6
CONTINUOUS
 10
6.9964600955
 20
6.3702768641
 30
0.0
 11
-0.0100508989
 21
0.0174086676
 31
0.0
 40
0.9949358851
 41
-0.5214031734
 42
0.5214031734
  0
ELLIPSE
  5
725
100
AcDbEntity
  8
0
100
AcDbEllipse
 62
7
  6
CONTINUOUS
 10
6.9070149114
 20
6.7653532609
 30
0.0
 11
0.0201017978
 21
0.0
 31
0.0
 40
0.9949358851
 41
2.6201894802
 42
3.6629958269
  0
ELLIPSE
  5
726
100
AcDbEntity
  8
0
100
AcDbEllipse
 62
7
  6
CONTINUOUS
 10
6.9964600955
 20
6.6104296576
 30
0.0
 11
0.0100508989
 21
0.0174086676
 31
0.0
 40
0.9949358851
 41
-3.6629958269
 42
-2.6201894802
  0
ELLIPSE
  5
727
100
AcDbEntity
  8
0
100
AcDbEllipse
 62
7
  6
CONTINUOUS
 10
7.1753504635
 20
6.6104296576
 30
0.0
 11
-0.0100508989
 21
0.0174086676
 31
0.0
 40
0.9949358851
 41
-3.6629958269
 42
-2.6201894802
  0
ELLIPSE
  5
728
100
AcDbEntity
  8
0
100
AcDbEllipse
 62
7
  6
CONTINUOUS
 10
7.2647956476
 20
6.7653532609
 30
0.0
 11
0.0201017978
 21
-0.0
 31
0.0
 40
0.9949358851
 41
-0.5214031734
 42
0.5214031734
  0
ELLIPSE
  5
729
100
AcDbEntity
  8
0
100
AcDbEllipse
 62
7
  6
CONTINUOUS
 10
7.1753504635
 20
6.9202768641
 30
0.0
 11
0.0100508989
 21
0.0174086676
 31
0.0
 40
0.9949358851
 41
-0.5214031734
 42
0.5214031734
  0
ELLIPSE
  5
72A
100
AcDbEntity
  8
0
100
AcDbEllipse
 62
7
  6
CONTINUOUS
 10
6.9964600955
 20
6.9202768641
 30
0.0
 11
-0.0100508989
 21
0.0174086676
 31
0.0
 40
0.9949358851
 41
-0.5214031734
 42
0.5214031734
  0
ELLIPSE
  5
72B
100
AcDbEntity
  8
0
100
AcDbEllipse
 62
7
  6
CONTINUOUS
 10
6.2200149114
 20
1.8153532609
 30
0.0
 11
0.0201017978
 21
-0.0
 31
0.0
 40
0.9949358851
 41
2.6201894802
 42
3.6629958269
  0
ELLIPSE
  5
72C
100
AcDbEntity
  8
0
100
AcDbEllipse
 62
7
  6
CONTINUOUS
 10
6.3094600955
 20
1.6604296576
 30
0.0
 11
0.0100508989
 21
0.0174086676
 31
0.0
 40
0.9949358851
 41
-3.6629958269
 42
-2.6201894802
  0
ELLIPSE
  5
72D
100
AcDbEntity
  8
0
100
AcDbEllipse
 62
7
  6
CONTINUOUS
 10
6.4883504635
 20
1.6604296576
 30
0.0
 11
-0.0100508989
 21
0.0174086676
 31
0.0
 40
0.9949358851
 41
-3.6629958269
 42
-2.6201894802
  0
ELLIPSE
  5
72E
100
AcDbEntity
  8
0
100
AcDbEllipse
 62
7
  6
CONTINUOUS
 10
6.5777956476
 20
1.8153532609
 30
0.0
 11
0.0201017978
 21
-0.0
 31
0.0
 40
0.9949358851
 41
-0.5214031734
 42
0.5214031734
  0
ELLIPSE
  5
72F
100
AcDbEntity
  8
0
100
AcDbEllipse
 62
7
  6
CONTINUOUS
 10
6.4883504635
 20
1.9702768641
 30
0.0
 11
0.0100508989
 21
0.0174086676
 31
0.0
 40
0.9949358851
 41
-0.5214031734
 42
0.5214031734
  0
ELLIPSE
  5
730
100
AcDbEntity
  8
0
100
AcDbEllipse
 62
7
  6
CONTINUOUS
 10
6.3094600955
 20
1.9702768641
 30
0.0
 11
-0.0100508989
 21
0.0174086676
 31
0.0
 40
0.9949358851
 41
-0.5214031734
 42
0.5214031734
  0
ELLIPSE
  5
731
100
AcDbEntity
  8
0
100
AcDbEllipse
 62
7
  6
CONTINUOUS
 10
6.2200149114
 20
2.3653532609
 30
0.0
 11
0.0201017978
 21
0.0
 31
0.0
 40
0.9949358851
 41
2.6201894802
 42
3.6629958269
  0
ELLIPSE
  5
732
100
AcDbEntity
  8
0
100
AcDbEllipse
 62
7
  6
CONTINUOUS
 10
6.3094600955
 20
2.2104296576
 30
0.0
 11
0.0100508989
 21
0.0174086676
 31
0.0
 40
0.9949358851
 41
-3.6629958269
 42
-2.6201894802
  0
ELLIPSE
  5
733
100
AcDbEntity
  8
0
100
AcDbEllipse
 62
7
  6
CONTINUOUS
 10
6.4883504635
 20
2.2104296576
 30
0.0
 11
-0.0100508989
 21
0.0174086676
 31
0.0
 40
0.9949358851
 41
-3.6629958269
 42
-2.6201894802
  0
ELLIPSE
  5
734
100
AcDbEntity
  8
0
100
AcDbEllipse
 62
7
  6
CONTINUOUS
 10
6.5777956476
 20
2.3653532609
 30
0.0
 11
0.0201017978
 21
-0.0
 31
0.0
 40
0.9949358851
 41
-0.5214031734
 42
0.5214031734
  0
ELLIPSE
  5
735
100
AcDbEntity
  8
0
100
AcDbEllipse
 62
7
  6
CONTINUOUS
 10
6.4883504635
 20
2.5202768641
 30
0.0
 11
0.0100508989
 21
0.0174086676
 31
0.0
 40
0.9949358851
 41
-0.5214031734
 42
0.5214031734
  0
ELLIPSE
  5
736
100
AcDbEntity
  8
0
100
AcDbEllipse
 62
7
  6
CONTINUOUS
 10
6.3094600955
 20
2.5202768641
 30
0.0
 11
-0.0100508989
 21
0.0174086676
 31
0.0
 40
0.9949358851
 41
-0.5214031734
 42
0.5214031734
  0
ELLIPSE
  5
737
100
AcDbEntity
  8
0
100
AcDbEllipse
 62
7
  6
CONTINUOUS
 10
6.2200149114
 20
2.9153532609
 30
0.0
 11
0.0201017978
 21
-0.0
 31
0.0
 40
0.9949358851
 41
2.6201894802
 42
3.6629958269
  0
ELLIPSE
  5
738
100
AcDbEntity
  8
0
100
AcDbEllipse
 62
7
  6
CONTINUOUS
 10
6.3094600955
 20
2.7604296576
 30
0.0
 11
0.0100508989
 21
0.0174086676
 31
0.0
 40
0.9949358851
 41
-3.6629958269
 42
-2.6201894802
  0
ELLIPSE
  5
739
100
AcDbEntity
  8
0
100
AcDbEllipse
 62
7
  6
CONTINUOUS
 10
6.4883504635
 20
2.7604296576
 30
0.0
 11
-0.0100508989
 21
0.0174086676
 31
0.0
 40
0.9949358851
 41
-3.6629958269
 42
-2.6201894802
  0
ELLIPSE
  5
73A
100
AcDbEntity
  8
0
100
AcDbEllipse
 62
7
  6
CONTINUOUS
 10
6.5777956476
 20
2.9153532609
 30
0.0
 11
0.0201017978
 21
0.0
 31
0.0
 40
0.9949358851
 41
-0.5214031734
 42
0.5214031734
  0
ELLIPSE
  5
73B
100
AcDbEntity
  8
0
100
AcDbEllipse
 62
7
  6
CONTINUOUS
 10
6.4883504635
 20
3.0702768641
 30
0.0
 11
0.0100508989
 21
0.0174086676
 31
0.0
 40
0.9949358851
 41
-0.5214031734
 42
0.5214031734
  0
ELLIPSE
  5
73C
100
AcDbEntity
  8
0
100
AcDbEllipse
 62
7
  6
CONTINUOUS
 10
6.3094600955
 20
3.0702768641
 30
0.0
 11
-0.0100508989
 21
0.0174086676
 31
0.0
 40
0.9949358851
 41
-0.5214031734
 42
0.5214031734
  0
ELLIPSE
  5
73D
100
AcDbEntity
  8
0
100
AcDbEllipse
 62
7
  6
CONTINUOUS
 10
6.2200149114
 20
3.4653532609
 30
0.0
 11
0.0201017978
 21
0.0
 31
0.0
 40
0.9949358851
 41
2.6201894802
 42
3.6629958269
  0
ELLIPSE
  5
73E
100
AcDbEntity
  8
0
100
AcDbEllipse
 62
7
  6
CONTINUOUS
 10
6.3094600955
 20
3.3104296576
 30
0.0
 11
0.0100508989
 21
0.0174086676
 31
0.0
 40
0.9949358851
 41
-3.6629958269
 42
-2.6201894802
  0
ELLIPSE
  5
73F
100
AcDbEntity
  8
0
100
AcDbEllipse
 62
7
  6
CONTINUOUS
 10
6.4883504635
 20
3.3104296576
 30
0.0
 11
-0.0100508989
 21
0.0174086676
 31
0.0
 40
0.9949358851
 41
-3.6629958269
 42
-2.6201894802
  0
ELLIPSE
  5
740
100
AcDbEntity
  8
0
100
AcDbEllipse
 62
7
  6
CONTINUOUS
 10
6.5777956476
 20
3.4653532609
 30
0.0
 11
0.0201017978
 21
-0.0
 31
0.0
 40
0.9949358851
 41
-0.5214031734
 42
0.5214031734
  0
ELLIPSE
  5
741
100
AcDbEntity
  8
0
100
AcDbEllipse
 62
7
  6
CONTINUOUS
 10
6.4883504635
 20
3.6202768641
 30
0.0
 11
0.0100508989
 21
0.0174086676
 31
0.0
 40
0.9949358851
 41
-0.5214031734
 42
0.5214031734
  0
ELLIPSE
  5
742
100
AcDbEntity
  8
0
100
AcDbEllipse
 62
7
  6
CONTINUOUS
 10
6.3094600955
 20
3.6202768641
 30
0.0
 11
-0.0100508989
 21
0.0174086676
 31
0.0
 40
0.9949358851
 41
-0.5214031734
 42
0.5214031734
  0
ELLIPSE
  5
743
100
AcDbEntity
  8
0
100
AcDbEllipse
 62
7
  6
CONTINUOUS
 10
6.2200149114
 20
4.0153532609
 30
0.0
 11
0.0201017978
 21
-0.0
 31
0.0
 40
0.9949358851
 41
2.6201894802
 42
3.6629958269
  0
ELLIPSE
  5
744
100
AcDbEntity
  8
0
100
AcDbEllipse
 62
7
  6
CONTINUOUS
 10
6.3094600955
 20
3.8604296576
 30
0.0
 11
0.0100508989
 21
0.0174086676
 31
0.0
 40
0.9949358851
 41
-3.6629958269
 42
-2.6201894802
  0
ELLIPSE
  5
745
100
AcDbEntity
  8
0
100
AcDbEllipse
 62
7
  6
CONTINUOUS
 10
6.4883504635
 20
3.8604296576
 30
0.0
 11
-0.0100508989
 21
0.0174086676
 31
0.0
 40
0.9949358851
 41
-3.6629958269
 42
-2.6201894802
  0
ELLIPSE
  5
746
100
AcDbEntity
  8
0
100
AcDbEllipse
 62
7
  6
CONTINUOUS
 10
6.5777956476
 20
4.0153532609
 30
0.0
 11
0.0201017978
 21
-0.0
 31
0.0
 40
0.9949358851
 41
-0.5214031734
 42
0.5214031734
  0
ELLIPSE
  5
747
100
AcDbEntity
  8
0
100
AcDbEllipse
 62
7
  6
CONTINUOUS
 10
6.4883504635
 20
4.1702768641
 30
0.0
 11
0.0100508989
 21
0.0174086676
 31
0.0
 40
0.9949358851
 41
-0.5214031734
 42
0.5214031734
  0
ELLIPSE
  5
748
100
AcDbEntity
  8
0
100
AcDbEllipse
 62
7
  6
CONTINUOUS
 10
6.3094600955
 20
4.1702768641
 30
0.0
 11
-0.0100508989
 21
0.0174086676
 31
0.0
 40
0.9949358851
 41
-0.5214031734
 42
0.5214031734
  0
ELLIPSE
  5
749
100
AcDbEntity
  8
0
100
AcDbEllipse
 62
7
  6
CONTINUOUS
 10
6.2200149114
 20
4.5653532609
 30
0.0
 11
0.0201017978
 21
0.0
 31
0.0
 40
0.9949358851
 41
2.6201894802
 42
3.6629958269
  0
ELLIPSE
  5
74A
100
AcDbEntity
  8
0
100
AcDbEllipse
 62
7
  6
CONTINUOUS
 10
6.3094600955
 20
4.4104296576
 30
0.0
 11
0.0100508989
 21
0.0174086676
 31
0.0
 40
0.9949358851
 41
-3.6629958269
 42
-2.6201894802
  0
ELLIPSE
  5
74B
100
AcDbEntity
  8
0
100
AcDbEllipse
 62
7
  6
CONTINUOUS
 10
6.4883504635
 20
4.4104296576
 30
0.0
 11
-0.0100508989
 21
0.0174086676
 31
0.0
 40
0.9949358851
 41
-3.6629958269
 42
-2.6201894802
  0
ELLIPSE
  5
74C
100
AcDbEntity
  8
0
100
AcDbEllipse
 62
7
  6
CONTINUOUS
 10
6.5777956476
 20
4.5653532609
 30
0.0
 11
0.0201017978
 21
-0.0
 31
0.0
 40
0.9949358851
 41
-0.5214031734
 42
0.5214031734
  0
ELLIPSE
  5
74D
100
AcDbEntity
  8
0
100
AcDbEllipse
 62
7
  6
CONTINUOUS
 10
6.4883504635
 20
4.7202768641
 30
0.0
 11
0.0100508989
 21
0.0174086676
 31
0.0
 40
0.9949358851
 41
-0.5214031734
 42
0.5214031734
  0
ELLIPSE
  5
74E
100
AcDbEntity
  8
0
100
AcDbEllipse
 62
7
  6
CONTINUOUS
 10
6.3094600955
 20
4.7202768641
 30
0.0
 11
-0.0100508989
 21
0.0174086676
 31
0.0
 40
0.9949358851
 41
-0.5214031734
 42
0.5214031734
  0
ELLIPSE
  5
74F
100
AcDbEntity
  8
0
100
AcDbEllipse
 62
7
  6
CONTINUOUS
 10
6.2200149114
 20
5.1153532609
 30
0.0
 11
0.0201017978
 21
0.0
 31
0.0
 40
0.9949358851
 41
2.6201894802
 42
3.6629958269
  0
ELLIPSE
  5
750
100
AcDbEntity
  8
0
100
AcDbEllipse
 62
7
  6
CONTINUOUS
 10
6.3094600955
 20
4.9604296576
 30
0.0
 11
0.0100508989
 21
0.0174086676
 31
0.0
 40
0.9949358851
 41
-3.6629958269
 42
-2.6201894802
  0
ELLIPSE
  5
751
100
AcDbEntity
  8
0
100
AcDbEllipse
 62
7
  6
CONTINUOUS
 10
6.4883504635
 20
4.9604296576
 30
0.0
 11
-0.0100508989
 21
0.0174086676
 31
0.0
 40
0.9949358851
 41
-3.6629958269
 42
-2.6201894802
  0
ELLIPSE
  5
752
100
AcDbEntity
  8
0
100
AcDbEllipse
 62
7
  6
CONTINUOUS
 10
6.5777956476
 20
5.1153532609
 30
0.0
 11
0.0201017978
 21
0.0
 31
0.0
 40
0.9949358851
 41
-0.5214031734
 42
0.5214031734
  0
ELLIPSE
  5
753
100
AcDbEntity
  8
0
100
AcDbEllipse
 62
7
  6
CONTINUOUS
 10
6.4883504635
 20
5.2702768641
 30
0.0
 11
0.0100508989
 21
0.0174086676
 31
0.0
 40
0.9949358851
 41
-0.5214031734
 42
0.5214031734
  0
ELLIPSE
  5
754
100
AcDbEntity
  8
0
100
AcDbEllipse
 62
7
  6
CONTINUOUS
 10
6.3094600955
 20
5.2702768641
 30
0.0
 11
-0.0100508989
 21
0.0174086676
 31
0.0
 40
0.9949358851
 41
-0.5214031734
 42
0.5214031734
  0
ELLIPSE
  5
755
100
AcDbEntity
  8
0
100
AcDbEllipse
 62
7
  6
CONTINUOUS
 10
6.2200149114
 20
5.6653532609
 30
0.0
 11
0.0201017978
 21
0.0
 31
0.0
 40
0.9949358851
 41
2.6201894802
 42
3.6629958269
  0
ELLIPSE
  5
756
100
AcDbEntity
  8
0
100
AcDbEllipse
 62
7
  6
CONTINUOUS
 10
6.3094600955
 20
5.5104296576
 30
0.0
 11
0.0100508989
 21
0.0174086676
 31
0.0
 40
0.9949358851
 41
-3.6629958269
 42
-2.6201894802
  0
ELLIPSE
  5
757
100
AcDbEntity
  8
0
100
AcDbEllipse
 62
7
  6
CONTINUOUS
 10
6.4883504635
 20
5.5104296576
 30
0.0
 11
-0.0100508989
 21
0.0174086676
 31
0.0
 40
0.9949358851
 41
-3.6629958269
 42
-2.6201894802
  0
ELLIPSE
  5
758
100
AcDbEntity
  8
0
100
AcDbEllipse
 62
7
  6
CONTINUOUS
 10
6.5777956476
 20
5.6653532609
 30
0.0
 11
0.0201017978
 21
-0.0
 31
0.0
 40
0.9949358851
 41
-0.5214031734
 42
0.5214031734
  0
ELLIPSE
  5
759
100
AcDbEntity
  8
0
100
AcDbEllipse
 62
7
  6
CONTINUOUS
 10
6.4883504635
 20
5.8202768641
 30
0.0
 11
0.0100508989
 21
0.0174086676
 31
0.0
 40
0.9949358851
 41
-0.5214031734
 42
0.5214031734
  0
ELLIPSE
  5
75A
100
AcDbEntity
  8
0
100
AcDbEllipse
 62
7
  6
CONTINUOUS
 10
6.3094600955
 20
5.8202768641
 30
0.0
 11
-0.0100508989
 21
0.0174086676
 31
0.0
 40
0.9949358851
 41
-0.5214031734
 42
0.5214031734
  0
ELLIPSE
  5
75B
100
AcDbEntity
  8
0
100
AcDbEllipse
 62
7
  6
CONTINUOUS
 10
6.2200149114
 20
6.2153532609
 30
0.0
 11
0.0201017978
 21
-0.0
 31
0.0
 40
0.9949358851
 41
2.6201894802
 42
3.6629958269
  0
ELLIPSE
  5
75C
100
AcDbEntity
  8
0
100
AcDbEllipse
 62
7
  6
CONTINUOUS
 10
6.3094600955
 20
6.0604296576
 30
0.0
 11
0.0100508989
 21
0.0174086676
 31
0.0
 40
0.9949358851
 41
-3.6629958269
 42
-2.6201894802
  0
ELLIPSE
  5
75D
100
AcDbEntity
  8
0
100
AcDbEllipse
 62
7
  6
CONTINUOUS
 10
6.4883504635
 20
6.0604296576
 30
0.0
 11
-0.0100508989
 21
0.0174086676
 31
0.0
 40
0.9949358851
 41
-3.6629958269
 42
-2.6201894802
  0
ELLIPSE
  5
75E
100
AcDbEntity
  8
0
100
AcDbEllipse
 62
7
  6
CONTINUOUS
 10
6.5777956476
 20
6.2153532609
 30
0.0
 11
0.0201017978
 21
-0.0
 31
0.0
 40
0.9949358851
 41
-0.5214031734
 42
0.5214031734
  0
ELLIPSE
  5
75F
100
AcDbEntity
  8
0
100
AcDbEllipse
 62
7
  6
CONTINUOUS
 10
6.4883504635
 20
6.3702768641
 30
0.0
 11
0.0100508989
 21
0.0174086676
 31
0.0
 40
0.9949358851
 41
-0.5214031734
 42
0.5214031734
  0
ELLIPSE
  5
760
100
AcDbEntity
  8
0
100
AcDbEllipse
 62
7
  6
CONTINUOUS
 10
6.3094600955
 20
6.3702768641
 30
0.0
 11
-0.0100508989
 21
0.0174086676
 31
0.0
 40
0.9949358851
 41
-0.5214031734
 42
0.5214031734
  0
ELLIPSE
  5
761
100
AcDbEntity
  8
0
100
AcDbEllipse
 62
7
  6
CONTINUOUS
 10
6.2200149114
 20
6.7653532609
 30
0.0
 11
0.0201017978
 21
0.0
 31
0.0
 40
0.9949358851
 41
2.6201894802
 42
3.6629958269
  0
ELLIPSE
  5
762
100
AcDbEntity
  8
0
100
AcDbEllipse
 62
7
  6
CONTINUOUS
 10
6.3094600955
 20
6.6104296576
 30
0.0
 11
0.0100508989
 21
0.0174086676
 31
0.0
 40
0.9949358851
 41
-3.6629958269
 42
-2.6201894802
  0
ELLIPSE
  5
763
100
AcDbEntity
  8
0
100
AcDbEllipse
 62
7
  6
CONTINUOUS
 10
6.4883504635
 20
6.6104296576
 30
0.0
 11
-0.0100508989
 21
0.0174086676
 31
0.0
 40
0.9949358851
 41
-3.6629958269
 42
-2.6201894802
  0
ELLIPSE
  5
764
100
AcDbEntity
  8
0
100
AcDbEllipse
 62
7
  6
CONTINUOUS
 10
6.5777956476
 20
6.7653532609
 30
0.0
 11
0.0201017978
 21
0.0
 31
0.0
 40
0.9949358851
 41
-0.5214031734
 42
0.5214031734
  0
ELLIPSE
  5
765
100
AcDbEntity
  8
0
100
AcDbEllipse
 62
7
  6
CONTINUOUS
 10
6.4883504635
 20
6.9202768641
 30
0.0
 11
0.0100508989
 21
0.0174086676
 31
0.0
 40
0.9949358851
 41
-0.5214031734
 42
0.5214031734
  0
ELLIPSE
  5
766
100
AcDbEntity
  8
0
100
AcDbEllipse
 62
7
  6
CONTINUOUS
 10
6.3094600955
 20
6.9202768641
 30
0.0
 11
-0.0100508989
 21
0.0174086676
 31
0.0
 40
0.9949358851
 41
-0.5214031734
 42
0.5214031734
  0
ELLIPSE
  5
767
100
AcDbEntity
  8
0
100
AcDbEllipse
 62
7
  6
CONTINUOUS
 10
5.5330149114
 20
1.8153532609
 30
0.0
 11
0.0201017978
 21
-0.0
 31
0.0
 40
0.9949358851
 41
2.6201894802
 42
3.6629958269
  0
ELLIPSE
  5
768
100
AcDbEntity
  8
0
100
AcDbEllipse
 62
7
  6
CONTINUOUS
 10
5.6224600955
 20
1.6604296576
 30
0.0
 11
0.0100508989
 21
0.0174086676
 31
0.0
 40
0.9949358851
 41
-3.6629958269
 42
-2.6201894802
  0
ELLIPSE
  5
769
100
AcDbEntity
  8
0
100
AcDbEllipse
 62
7
  6
CONTINUOUS
 10
5.8013504635
 20
1.6604296576
 30
0.0
 11
-0.0100508989
 21
0.0174086676
 31
0.0
 40
0.9949358851
 41
-3.6629958269
 42
-2.6201894802
  0
ELLIPSE
  5
76A
100
AcDbEntity
  8
0
100
AcDbEllipse
 62
7
  6
CONTINUOUS
 10
5.8907956476
 20
1.8153532609
 30
0.0
 11
0.0201017978
 21
0.0
 31
0.0
 40
0.9949358851
 41
-0.5214031734
 42
0.5214031734
  0
ELLIPSE
  5
76B
100
AcDbEntity
  8
0
100
AcDbEllipse
 62
7
  6
CONTINUOUS
 10
5.8013504635
 20
1.9702768641
 30
0.0
 11
0.0100508989
 21
0.0174086676
 31
0.0
 40
0.9949358851
 41
-0.5214031734
 42
0.5214031734
  0
ELLIPSE
  5
76C
100
AcDbEntity
  8
0
100
AcDbEllipse
 62
7
  6
CONTINUOUS
 10
5.6224600955
 20
1.9702768641
 30
0.0
 11
-0.0100508989
 21
0.0174086676
 31
0.0
 40
0.9949358851
 41
-0.5214031734
 42
0.5214031734
  0
ELLIPSE
  5
76D
100
AcDbEntity
  8
0
100
AcDbEllipse
 62
7
  6
CONTINUOUS
 10
5.5330149114
 20
2.3653532609
 30
0.0
 11
0.0201017978
 21
0.0
 31
0.0
 40
0.9949358851
 41
2.6201894802
 42
3.6629958269
  0
ELLIPSE
  5
76E
100
AcDbEntity
  8
0
100
AcDbEllipse
 62
7
  6
CONTINUOUS
 10
5.6224600955
 20
2.2104296576
 30
0.0
 11
0.0100508989
 21
0.0174086676
 31
0.0
 40
0.9949358851
 41
-3.6629958269
 42
-2.6201894802
  0
ELLIPSE
  5
76F
100
AcDbEntity
  8
0
100
AcDbEllipse
 62
7
  6
CONTINUOUS
 10
5.8013504635
 20
2.2104296576
 30
0.0
 11
-0.0100508989
 21
0.0174086676
 31
0.0
 40
0.9949358851
 41
-3.6629958269
 42
-2.6201894802
  0
ELLIPSE
  5
770
100
AcDbEntity
  8
0
100
AcDbEllipse
 62
7
  6
CONTINUOUS
 10
5.8907956476
 20
2.3653532609
 30
0.0
 11
0.0201017978
 21
-0.0
 31
0.0
 40
0.9949358851
 41
-0.5214031734
 42
0.5214031734
  0
ELLIPSE
  5
771
100
AcDbEntity
  8
0
100
AcDbEllipse
 62
7
  6
CONTINUOUS
 10
5.8013504635
 20
2.5202768641
 30
0.0
 11
0.0100508989
 21
0.0174086676
 31
0.0
 40
0.9949358851
 41
-0.5214031734
 42
0.5214031734
  0
ELLIPSE
  5
772
100
AcDbEntity
  8
0
100
AcDbEllipse
 62
7
  6
CONTINUOUS
 10
5.6224600955
 20
2.5202768641
 30
0.0
 11
-0.0100508989
 21
0.0174086676
 31
0.0
 40
0.9949358851
 41
-0.5214031734
 42
0.5214031734
  0
ELLIPSE
  5
773
100
AcDbEntity
  8
0
100
AcDbEllipse
 62
7
  6
CONTINUOUS
 10
5.5330149114
 20
2.9153532609
 30
0.0
 11
0.0201017978
 21
0.0
 31
0.0
 40
0.9949358851
 41
2.6201894802
 42
3.6629958269
  0
ELLIPSE
  5
774
100
AcDbEntity
  8
0
100
AcDbEllipse
 62
7
  6
CONTINUOUS
 10
5.6224600955
 20
2.7604296576
 30
0.0
 11
0.0100508989
 21
0.0174086676
 31
0.0
 40
0.9949358851
 41
-3.6629958269
 42
-2.6201894802
  0
ELLIPSE
  5
775
100
AcDbEntity
  8
0
100
AcDbEllipse
 62
7
  6
CONTINUOUS
 10
5.8013504635
 20
2.7604296576
 30
0.0
 11
-0.0100508989
 21
0.0174086676
 31
0.0
 40
0.9949358851
 41
-3.6629958269
 42
-2.6201894802
  0
ELLIPSE
  5
776
100
AcDbEntity
  8
0
100
AcDbEllipse
 62
7
  6
CONTINUOUS
 10
5.8907956476
 20
2.9153532609
 30
0.0
 11
0.0201017978
 21
0.0
 31
0.0
 40
0.9949358851
 41
-0.5214031734
 42
0.5214031734
  0
ELLIPSE
  5
777
100
AcDbEntity
  8
0
100
AcDbEllipse
 62
7
  6
CONTINUOUS
 10
5.8013504635
 20
3.0702768641
 30
0.0
 11
0.0100508989
 21
0.0174086676
 31
0.0
 40
0.9949358851
 41
-0.5214031734
 42
0.5214031734
  0
ELLIPSE
  5
778
100
AcDbEntity
  8
0
100
AcDbEllipse
 62
7
  6
CONTINUOUS
 10
5.6224600955
 20
3.0702768641
 30
0.0
 11
-0.0100508989
 21
0.0174086676
 31
0.0
 40
0.9949358851
 41
-0.5214031734
 42
0.5214031734
  0
ELLIPSE
  5
779
100
AcDbEntity
  8
0
100
AcDbEllipse
 62
7
  6
CONTINUOUS
 10
5.5330149114
 20
3.4653532609
 30
0.0
 11
0.0201017978
 21
-0.0
 31
0.0
 40
0.9949358851
 41
2.6201894802
 42
3.6629958269
  0
ELLIPSE
  5
77A
100
AcDbEntity
  8
0
100
AcDbEllipse
 62
7
  6
CONTINUOUS
 10
5.6224600955
 20
3.3104296576
 30
0.0
 11
0.0100508989
 21
0.0174086676
 31
0.0
 40
0.9949358851
 41
-3.6629958269
 42
-2.6201894802
  0
ELLIPSE
  5
77B
100
AcDbEntity
  8
0
100
AcDbEllipse
 62
7
  6
CONTINUOUS
 10
5.8013504635
 20
3.3104296576
 30
0.0
 11
-0.0100508989
 21
0.0174086676
 31
0.0
 40
0.9949358851
 41
-3.6629958269
 42
-2.6201894802
  0
ELLIPSE
  5
77C
100
AcDbEntity
  8
0
100
AcDbEllipse
 62
7
  6
CONTINUOUS
 10
5.8907956476
 20
3.4653532609
 30
0.0
 11
0.0201017978
 21
0.0
 31
0.0
 40
0.9949358851
 41
-0.5214031734
 42
0.5214031734
  0
ELLIPSE
  5
77D
100
AcDbEntity
  8
0
100
AcDbEllipse
 62
7
  6
CONTINUOUS
 10
5.8013504635
 20
3.6202768641
 30
0.0
 11
0.0100508989
 21
0.0174086676
 31
0.0
 40
0.9949358851
 41
-0.5214031734
 42
0.5214031734
  0
ELLIPSE
  5
77E
100
AcDbEntity
  8
0
100
AcDbEllipse
 62
7
  6
CONTINUOUS
 10
5.6224600955
 20
3.6202768641
 30
0.0
 11
-0.0100508989
 21
0.0174086676
 31
0.0
 40
0.9949358851
 41
-0.5214031734
 42
0.5214031734
  0
ELLIPSE
  5
77F
100
AcDbEntity
  8
0
100
AcDbEllipse
 62
7
  6
CONTINUOUS
 10
5.5330149114
 20
4.0153532609
 30
0.0
 11
0.0201017978
 21
0.0
 31
0.0
 40
0.9949358851
 41
2.6201894802
 42
3.6629958269
  0
ELLIPSE
  5
780
100
AcDbEntity
  8
0
100
AcDbEllipse
 62
7
  6
CONTINUOUS
 10
5.6224600955
 20
3.8604296576
 30
0.0
 11
0.0100508989
 21
0.0174086676
 31
0.0
 40
0.9949358851
 41
-3.6629958269
 42
-2.6201894802
  0
ELLIPSE
  5
781
100
AcDbEntity
  8
0
100
AcDbEllipse
 62
7
  6
CONTINUOUS
 10
5.8013504635
 20
3.8604296576
 30
0.0
 11
-0.0100508989
 21
0.0174086676
 31
0.0
 40
0.9949358851
 41
-3.6629958269
 42
-2.6201894802
  0
ELLIPSE
  5
782
100
AcDbEntity
  8
0
100
AcDbEllipse
 62
7
  6
CONTINUOUS
 10
5.8907956476
 20
4.0153532609
 30
0.0
 11
0.0201017978
 21
-0.0
 31
0.0
 40
0.9949358851
 41
-0.5214031734
 42
0.5214031734
  0
ELLIPSE
  5
783
100
AcDbEntity
  8
0
100
AcDbEllipse
 62
7
  6
CONTINUOUS
 10
5.8013504635
 20
4.1702768641
 30
0.0
 11
0.0100508989
 21
0.0174086676
 31
0.0
 40
0.9949358851
 41
-0.5214031734
 42
0.5214031734
  0
ELLIPSE
  5
784
100
AcDbEntity
  8
0
100
AcDbEllipse
 62
7
  6
CONTINUOUS
 10
5.6224600955
 20
4.1702768641
 30
0.0
 11
-0.0100508989
 21
0.0174086676
 31
0.0
 40
0.9949358851
 41
-0.5214031734
 42
0.5214031734
  0
ELLIPSE
  5
785
100
AcDbEntity
  8
0
100
AcDbEllipse
 62
7
  6
CONTINUOUS
 10
5.5330149114
 20
4.5653532609
 30
0.0
 11
0.0201017978
 21
0.0
 31
0.0
 40
0.9949358851
 41
2.6201894802
 42
3.6629958269
  0
ELLIPSE
  5
786
100
AcDbEntity
  8
0
100
AcDbEllipse
 62
7
  6
CONTINUOUS
 10
5.6224600955
 20
4.4104296576
 30
0.0
 11
0.0100508989
 21
0.0174086676
 31
0.0
 40
0.9949358851
 41
-3.6629958269
 42
-2.6201894802
  0
ELLIPSE
  5
787
100
AcDbEntity
  8
0
100
AcDbEllipse
 62
7
  6
CONTINUOUS
 10
5.8013504635
 20
4.4104296576
 30
0.0
 11
-0.0100508989
 21
0.0174086676
 31
0.0
 40
0.9949358851
 41
-3.6629958269
 42
-2.6201894802
  0
ELLIPSE
  5
788
100
AcDbEntity
  8
0
100
AcDbEllipse
 62
7
  6
CONTINUOUS
 10
5.8907956476
 20
4.5653532609
 30
0.0
 11
0.0201017978
 21
-0.0
 31
0.0
 40
0.9949358851
 41
-0.5214031734
 42
0.5214031734
  0
ELLIPSE
  5
789
100
AcDbEntity
  8
0
100
AcDbEllipse
 62
7
  6
CONTINUOUS
 10
5.8013504635
 20
4.7202768641
 30
0.0
 11
0.0100508989
 21
0.0174086676
 31
0.0
 40
0.9949358851
 41
-0.5214031734
 42
0.5214031734
  0
ELLIPSE
  5
78A
100
AcDbEntity
  8
0
100
AcDbEllipse
 62
7
  6
CONTINUOUS
 10
5.6224600955
 20
4.7202768641
 30
0.0
 11
-0.0100508989
 21
0.0174086676
 31
0.0
 40
0.9949358851
 41
-0.5214031734
 42
0.5214031734
  0
ELLIPSE
  5
78B
100
AcDbEntity
  8
0
100
AcDbEllipse
 62
7
  6
CONTINUOUS
 10
5.5330149114
 20
5.1153532609
 30
0.0
 11
0.0201017978
 21
0.0
 31
0.0
 40
0.9949358851
 41
2.6201894802
 42
3.6629958269
  0
ELLIPSE
  5
78C
100
AcDbEntity
  8
0
100
AcDbEllipse
 62
7
  6
CONTINUOUS
 10
5.6224600955
 20
4.9604296576
 30
0.0
 11
0.0100508989
 21
0.0174086676
 31
0.0
 40
0.9949358851
 41
-3.6629958269
 42
-2.6201894802
  0
ELLIPSE
  5
78D
100
AcDbEntity
  8
0
100
AcDbEllipse
 62
7
  6
CONTINUOUS
 10
5.8013504635
 20
4.9604296576
 30
0.0
 11
-0.0100508989
 21
0.0174086676
 31
0.0
 40
0.9949358851
 41
-3.6629958269
 42
-2.6201894802
  0
ELLIPSE
  5
78E
100
AcDbEntity
  8
0
100
AcDbEllipse
 62
7
  6
CONTINUOUS
 10
5.8907956476
 20
5.1153532609
 30
0.0
 11
0.0201017978
 21
-0.0
 31
0.0
 40
0.9949358851
 41
-0.5214031734
 42
0.5214031734
  0
ELLIPSE
  5
78F
100
AcDbEntity
  8
0
100
AcDbEllipse
 62
7
  6
CONTINUOUS
 10
5.8013504635
 20
5.2702768641
 30
0.0
 11
0.0100508989
 21
0.0174086676
 31
0.0
 40
0.9949358851
 41
-0.5214031734
 42
0.5214031734
  0
ELLIPSE
  5
790
100
AcDbEntity
  8
0
100
AcDbEllipse
 62
7
  6
CONTINUOUS
 10
5.6224600955
 20
5.2702768641
 30
0.0
 11
-0.0100508989
 21
0.0174086676
 31
0.0
 40
0.9949358851
 41
-0.5214031734
 42
0.5214031734
  0
ELLIPSE
  5
791
100
AcDbEntity
  8
0
100
AcDbEllipse
 62
7
  6
CONTINUOUS
 10
5.5330149114
 20
5.6653532609
 30
0.0
 11
0.0201017978
 21
0.0
 31
0.0
 40
0.9949358851
 41
2.6201894802
 42
3.6629958269
  0
ELLIPSE
  5
792
100
AcDbEntity
  8
0
100
AcDbEllipse
 62
7
  6
CONTINUOUS
 10
5.6224600955
 20
5.5104296576
 30
0.0
 11
0.0100508989
 21
0.0174086676
 31
0.0
 40
0.9949358851
 41
-3.6629958269
 42
-2.6201894802
  0
ELLIPSE
  5
793
100
AcDbEntity
  8
0
100
AcDbEllipse
 62
7
  6
CONTINUOUS
 10
5.8013504635
 20
5.5104296576
 30
0.0
 11
-0.0100508989
 21
0.0174086676
 31
0.0
 40
0.9949358851
 41
-3.6629958269
 42
-2.6201894802
  0
ELLIPSE
  5
794
100
AcDbEntity
  8
0
100
AcDbEllipse
 62
7
  6
CONTINUOUS
 10
5.8907956476
 20
5.6653532609
 30
0.0
 11
0.0201017978
 21
-0.0
 31
0.0
 40
0.9949358851
 41
-0.5214031734
 42
0.5214031734
  0
ELLIPSE
  5
795
100
AcDbEntity
  8
0
100
AcDbEllipse
 62
7
  6
CONTINUOUS
 10
5.8013504635
 20
5.8202768641
 30
0.0
 11
0.0100508989
 21
0.0174086676
 31
0.0
 40
0.9949358851
 41
-0.5214031734
 42
0.5214031734
  0
ELLIPSE
  5
796
100
AcDbEntity
  8
0
100
AcDbEllipse
 62
7
  6
CONTINUOUS
 10
5.6224600955
 20
5.8202768641
 30
0.0
 11
-0.0100508989
 21
0.0174086676
 31
0.0
 40
0.9949358851
 41
-0.5214031734
 42
0.5214031734
  0
ELLIPSE
  5
797
100
AcDbEntity
  8
0
100
AcDbEllipse
 62
7
  6
CONTINUOUS
 10
5.5330149114
 20
6.2153532609
 30
0.0
 11
0.0201017978
 21
-0.0
 31
0.0
 40
0.9949358851
 41
2.6201894802
 42
3.6629958269
  0
ELLIPSE
  5
798
100
AcDbEntity
  8
0
100
AcDbEllipse
 62
7
  6
CONTINUOUS
 10
5.6224600955
 20
6.0604296576
 30
0.0
 11
0.0100508989
 21
0.0174086676
 31
0.0
 40
0.9949358851
 41
-3.6629958269
 42
-2.6201894802
  0
ELLIPSE
  5
799
100
AcDbEntity
  8
0
100
AcDbEllipse
 62
7
  6
CONTINUOUS
 10
5.8013504635
 20
6.0604296576
 30
0.0
 11
-0.0100508989
 21
0.0174086676
 31
0.0
 40
0.9949358851
 41
-3.6629958269
 42
-2.6201894802
  0
ELLIPSE
  5
79A
100
AcDbEntity
  8
0
100
AcDbEllipse
 62
7
  6
CONTINUOUS
 10
5.8907956476
 20
6.2153532609
 30
0.0
 11
0.0201017978
 21
0.0
 31
0.0
 40
0.9949358851
 41
-0.5214031734
 42
0.5214031734
  0
ELLIPSE
  5
79B
100
AcDbEntity
  8
0
100
AcDbEllipse
 62
7
  6
CONTINUOUS
 10
5.8013504635
 20
6.3702768641
 30
0.0
 11
0.0100508989
 21
0.0174086676
 31
0.0
 40
0.9949358851
 41
-0.5214031734
 42
0.5214031734
  0
ELLIPSE
  5
79C
100
AcDbEntity
  8
0
100
AcDbEllipse
 62
7
  6
CONTINUOUS
 10
5.6224600955
 20
6.3702768641
 30
0.0
 11
-0.0100508989
 21
0.0174086676
 31
0.0
 40
0.9949358851
 41
-0.5214031734
 42
0.5214031734
  0
ELLIPSE
  5
79D
100
AcDbEntity
  8
0
100
AcDbEllipse
 62
7
  6
CONTINUOUS
 10
5.5330149114
 20
6.7653532609
 30
0.0
 11
0.0201017978
 21
-0.0
 31
0.0
 40
0.9949358851
 41
2.6201894802
 42
3.6629958269
  0
ELLIPSE
  5
79E
100
AcDbEntity
  8
0
100
AcDbEllipse
 62
7
  6
CONTINUOUS
 10
5.6224600955
 20
6.6104296576
 30
0.0
 11
0.0100508989
 21
0.0174086676
 31
0.0
 40
0.9949358851
 41
-3.6629958269
 42
-2.6201894802
  0
ELLIPSE
  5
79F
100
AcDbEntity
  8
0
100
AcDbEllipse
 62
7
  6
CONTINUOUS
 10
5.8013504635
 20
6.6104296576
 30
0.0
 11
-0.0100508989
 21
0.0174086676
 31
0.0
 40
0.9949358851
 41
-3.6629958269
 42
-2.6201894802
  0
ELLIPSE
  5
7A0
100
AcDbEntity
  8
0
100
AcDbEllipse
 62
7
  6
CONTINUOUS
 10
5.8907956476
 20
6.7653532609
 30
0.0
 11
0.0201017978
 21
-0.0
 31
0.0
 40
0.9949358851
 41
-0.5214031734
 42
0.5214031734
  0
ELLIPSE
  5
7A1
100
AcDbEntity
  8
0
100
AcDbEllipse
 62
7
  6
CONTINUOUS
 10
5.8013504635
 20
6.9202768641
 30
0.0
 11
0.0100508989
 21
0.0174086676
 31
0.0
 40
0.9949358851
 41
-0.5214031734
 42
0.5214031734
  0
ELLIPSE
  5
7A2
100
AcDbEntity
  8
0
100
AcDbEllipse
 62
7
  6
CONTINUOUS
 10
5.6224600955
 20
6.9202768641
 30
0.0
 11
-0.0100508989
 21
0.0174086676
 31
0.0
 40
0.9949358851
 41
-0.5214031734
 42
0.5214031734
  0
ELLIPSE
  5
7A3
100
AcDbEntity
  8
0
100
AcDbEllipse
 62
7
  6
CONTINUOUS
 10
4.8460149114
 20
1.8153532609
 30
0.0
 11
0.0201017978
 21
-0.0
 31
0.0
 40
0.9949358851
 41
2.6201894802
 42
3.6629958269
  0
ELLIPSE
  5
7A4
100
AcDbEntity
  8
0
100
AcDbEllipse
 62
7
  6
CONTINUOUS
 10
4.9354600955
 20
1.6604296576
 30
0.0
 11
0.0100508989
 21
0.0174086676
 31
0.0
 40
0.9949358851
 41
-3.6629958269
 42
-2.6201894802
  0
ELLIPSE
  5
7A5
100
AcDbEntity
  8
0
100
AcDbEllipse
 62
7
  6
CONTINUOUS
 10
5.1143504635
 20
1.6604296576
 30
0.0
 11
-0.0100508989
 21
0.0174086676
 31
0.0
 40
0.9949358851
 41
-3.6629958269
 42
-2.6201894802
  0
ELLIPSE
  5
7A6
100
AcDbEntity
  8
0
100
AcDbEllipse
 62
7
  6
CONTINUOUS
 10
5.2037956476
 20
1.8153532609
 30
0.0
 11
0.0201017978
 21
-0.0
 31
0.0
 40
0.9949358851
 41
-0.5214031734
 42
0.5214031734
  0
ELLIPSE
  5
7A7
100
AcDbEntity
  8
0
100
AcDbEllipse
 62
7
  6
CONTINUOUS
 10
5.1143504635
 20
1.9702768641
 30
0.0
 11
0.0100508989
 21
0.0174086676
 31
0.0
 40
0.9949358851
 41
-0.5214031734
 42
0.5214031734
  0
ELLIPSE
  5
7A8
100
AcDbEntity
  8
0
100
AcDbEllipse
 62
7
  6
CONTINUOUS
 10
4.9354600955
 20
1.9702768641
 30
0.0
 11
-0.0100508989
 21
0.0174086676
 31
0.0
 40
0.9949358851
 41
-0.5214031734
 42
0.5214031734
  0
ELLIPSE
  5
7A9
100
AcDbEntity
  8
0
100
AcDbEllipse
 62
7
  6
CONTINUOUS
 10
4.8460149114
 20
2.3653532609
 30
0.0
 11
0.0201017978
 21
-0.0
 31
0.0
 40
0.9949358851
 41
2.6201894802
 42
3.6629958269
  0
ELLIPSE
  5
7AA
100
AcDbEntity
  8
0
100
AcDbEllipse
 62
7
  6
CONTINUOUS
 10
4.9354600955
 20
2.2104296576
 30
0.0
 11
0.0100508989
 21
0.0174086676
 31
0.0
 40
0.9949358851
 41
-3.6629958269
 42
-2.6201894802
  0
ELLIPSE
  5
7AB
100
AcDbEntity
  8
0
100
AcDbEllipse
 62
7
  6
CONTINUOUS
 10
5.1143504635
 20
2.2104296576
 30
0.0
 11
-0.0100508989
 21
0.0174086676
 31
0.0
 40
0.9949358851
 41
-3.6629958269
 42
-2.6201894802
  0
ELLIPSE
  5
7AC
100
AcDbEntity
  8
0
100
AcDbEllipse
 62
7
  6
CONTINUOUS
 10
5.2037956476
 20
2.3653532609
 30
0.0
 11
0.0201017978
 21
0.0
 31
0.0
 40
0.9949358851
 41
-0.5214031734
 42
0.5214031734
  0
ELLIPSE
  5
7AD
100
AcDbEntity
  8
0
100
AcDbEllipse
 62
7
  6
CONTINUOUS
 10
5.1143504635
 20
2.5202768641
 30
0.0
 11
0.0100508989
 21
0.0174086676
 31
0.0
 40
0.9949358851
 41
-0.5214031734
 42
0.5214031734
  0
ELLIPSE
  5
7AE
100
AcDbEntity
  8
0
100
AcDbEllipse
 62
7
  6
CONTINUOUS
 10
4.9354600955
 20
2.5202768641
 30
0.0
 11
-0.0100508989
 21
0.0174086676
 31
0.0
 40
0.9949358851
 41
-0.5214031734
 42
0.5214031734
  0
ELLIPSE
  5
7AF
100
AcDbEntity
  8
0
100
AcDbEllipse
 62
7
  6
CONTINUOUS
 10
4.8460149114
 20
2.9153532609
 30
0.0
 11
0.0201017978
 21
-0.0
 31
0.0
 40
0.9949358851
 41
2.6201894802
 42
3.6629958269
  0
ELLIPSE
  5
7B0
100
AcDbEntity
  8
0
100
AcDbEllipse
 62
7
  6
CONTINUOUS
 10
4.9354600955
 20
2.7604296576
 30
0.0
 11
0.0100508989
 21
0.0174086676
 31
0.0
 40
0.9949358851
 41
-3.6629958269
 42
-2.6201894802
  0
ELLIPSE
  5
7B1
100
AcDbEntity
  8
0
100
AcDbEllipse
 62
7
  6
CONTINUOUS
 10
5.1143504635
 20
2.7604296576
 30
0.0
 11
-0.0100508989
 21
0.0174086676
 31
0.0
 40
0.9949358851
 41
-3.6629958269
 42
-2.6201894802
  0
ELLIPSE
  5
7B2
100
AcDbEntity
  8
0
100
AcDbEllipse
 62
7
  6
CONTINUOUS
 10
5.2037956476
 20
2.9153532609
 30
0.0
 11
0.0201017978
 21
0.0
 31
0.0
 40
0.9949358851
 41
-0.5214031734
 42
0.5214031734
  0
ELLIPSE
  5
7B3
100
AcDbEntity
  8
0
100
AcDbEllipse
 62
7
  6
CONTINUOUS
 10
5.1143504635
 20
3.0702768641
 30
0.0
 11
0.0100508989
 21
0.0174086676
 31
0.0
 40
0.9949358851
 41
-0.5214031734
 42
0.5214031734
  0
ELLIPSE
  5
7B4
100
AcDbEntity
  8
0
100
AcDbEllipse
 62
7
  6
CONTINUOUS
 10
4.9354600955
 20
3.0702768641
 30
0.0
 11
-0.0100508989
 21
0.0174086676
 31
0.0
 40
0.9949358851
 41
-0.5214031734
 42
0.5214031734
  0
ELLIPSE
  5
7B5
100
AcDbEntity
  8
0
100
AcDbEllipse
 62
7
  6
CONTINUOUS
 10
4.8460149114
 20
3.4653532609
 30
0.0
 11
0.0201017978
 21
-0.0
 31
0.0
 40
0.9949358851
 41
2.6201894802
 42
3.6629958269
  0
ELLIPSE
  5
7B6
100
AcDbEntity
  8
0
100
AcDbEllipse
 62
7
  6
CONTINUOUS
 10
4.9354600955
 20
3.3104296576
 30
0.0
 11
0.0100508989
 21
0.0174086676
 31
0.0
 40
0.9949358851
 41
-3.6629958269
 42
-2.6201894802
  0
ELLIPSE
  5
7B7
100
AcDbEntity
  8
0
100
AcDbEllipse
 62
7
  6
CONTINUOUS
 10
5.1143504635
 20
3.3104296576
 30
0.0
 11
-0.0100508989
 21
0.0174086676
 31
0.0
 40
0.9949358851
 41
-3.6629958269
 42
-2.6201894802
  0
ELLIPSE
  5
7B8
100
AcDbEntity
  8
0
100
AcDbEllipse
 62
7
  6
CONTINUOUS
 10
5.2037956476
 20
3.4653532609
 30
0.0
 11
0.0201017978
 21
0.0
 31
0.0
 40
0.9949358851
 41
-0.5214031734
 42
0.5214031734
  0
ELLIPSE
  5
7B9
100
AcDbEntity
  8
0
100
AcDbEllipse
 62
7
  6
CONTINUOUS
 10
5.1143504635
 20
3.6202768641
 30
0.0
 11
0.0100508989
 21
0.0174086676
 31
0.0
 40
0.9949358851
 41
-0.5214031734
 42
0.5214031734
  0
ELLIPSE
  5
7BA
100
AcDbEntity
  8
0
100
AcDbEllipse
 62
7
  6
CONTINUOUS
 10
4.9354600955
 20
3.6202768641
 30
0.0
 11
-0.0100508989
 21
0.0174086676
 31
0.0
 40
0.9949358851
 41
-0.5214031734
 42
0.5214031734
  0
ELLIPSE
  5
7BB
100
AcDbEntity
  8
0
100
AcDbEllipse
 62
7
  6
CONTINUOUS
 10
4.8460149114
 20
4.0153532609
 30
0.0
 11
0.0201017978
 21
-0.0
 31
0.0
 40
0.9949358851
 41
2.6201894802
 42
3.6629958269
  0
ELLIPSE
  5
7BC
100
AcDbEntity
  8
0
100
AcDbEllipse
 62
7
  6
CONTINUOUS
 10
4.9354600955
 20
3.8604296576
 30
0.0
 11
0.0100508989
 21
0.0174086676
 31
0.0
 40
0.9949358851
 41
-3.6629958269
 42
-2.6201894802
  0
ELLIPSE
  5
7BD
100
AcDbEntity
  8
0
100
AcDbEllipse
 62
7
  6
CONTINUOUS
 10
5.1143504635
 20
3.8604296576
 30
0.0
 11
-0.0100508989
 21
0.0174086676
 31
0.0
 40
0.9949358851
 41
-3.6629958269
 42
-2.6201894802
  0
ELLIPSE
  5
7BE
100
AcDbEntity
  8
0
100
AcDbEllipse
 62
7
  6
CONTINUOUS
 10
5.2037956476
 20
4.0153532609
 30
0.0
 11
0.0201017978
 21
0.0
 31
0.0
 40
0.9949358851
 41
-0.5214031734
 42
0.5214031734
  0
ELLIPSE
  5
7BF
100
AcDbEntity
  8
0
100
AcDbEllipse
 62
7
  6
CONTINUOUS
 10
5.1143504635
 20
4.1702768641
 30
0.0
 11
0.0100508989
 21
0.0174086676
 31
0.0
 40
0.9949358851
 41
-0.5214031734
 42
0.5214031734
  0
ELLIPSE
  5
7C0
100
AcDbEntity
  8
0
100
AcDbEllipse
 62
7
  6
CONTINUOUS
 10
4.9354600955
 20
4.1702768641
 30
0.0
 11
-0.0100508989
 21
0.0174086676
 31
0.0
 40
0.9949358851
 41
-0.5214031734
 42
0.5214031734
  0
ELLIPSE
  5
7C1
100
AcDbEntity
  8
0
100
AcDbEllipse
 62
7
  6
CONTINUOUS
 10
4.8460149114
 20
4.5653532609
 30
0.0
 11
0.0201017978
 21
-0.0
 31
0.0
 40
0.9949358851
 41
2.6201894802
 42
3.6629958269
  0
ELLIPSE
  5
7C2
100
AcDbEntity
  8
0
100
AcDbEllipse
 62
7
  6
CONTINUOUS
 10
4.9354600955
 20
4.4104296576
 30
0.0
 11
0.0100508989
 21
0.0174086676
 31
0.0
 40
0.9949358851
 41
-3.6629958269
 42
-2.6201894802
  0
ELLIPSE
  5
7C3
100
AcDbEntity
  8
0
100
AcDbEllipse
 62
7
  6
CONTINUOUS
 10
5.1143504635
 20
4.4104296576
 30
0.0
 11
-0.0100508989
 21
0.0174086676
 31
0.0
 40
0.9949358851
 41
-3.6629958269
 42
-2.6201894802
  0
ELLIPSE
  5
7C4
100
AcDbEntity
  8
0
100
AcDbEllipse
 62
7
  6
CONTINUOUS
 10
5.2037956476
 20
4.5653532609
 30
0.0
 11
0.0201017978
 21
0.0
 31
0.0
 40
0.9949358851
 41
-0.5214031734
 42
0.5214031734
  0
ELLIPSE
  5
7C5
100
AcDbEntity
  8
0
100
AcDbEllipse
 62
7
  6
CONTINUOUS
 10
5.1143504635
 20
4.7202768641
 30
0.0
 11
0.0100508989
 21
0.0174086676
 31
0.0
 40
0.9949358851
 41
-0.5214031734
 42
0.5214031734
  0
ELLIPSE
  5
7C6
100
AcDbEntity
  8
0
100
AcDbEllipse
 62
7
  6
CONTINUOUS
 10
4.9354600955
 20
4.7202768641
 30
0.0
 11
-0.0100508989
 21
0.0174086676
 31
0.0
 40
0.9949358851
 41
-0.5214031734
 42
0.5214031734
  0
ELLIPSE
  5
7C7
100
AcDbEntity
  8
0
100
AcDbEllipse
 62
7
  6
CONTINUOUS
 10
4.8460149114
 20
5.1153532609
 30
0.0
 11
0.0201017978
 21
-0.0
 31
0.0
 40
0.9949358851
 41
2.6201894802
 42
3.6629958269
  0
ELLIPSE
  5
7C8
100
AcDbEntity
  8
0
100
AcDbEllipse
 62
7
  6
CONTINUOUS
 10
4.9354600955
 20
4.9604296576
 30
0.0
 11
0.0100508989
 21
0.0174086676
 31
0.0
 40
0.9949358851
 41
-3.6629958269
 42
-2.6201894802
  0
ELLIPSE
  5
7C9
100
AcDbEntity
  8
0
100
AcDbEllipse
 62
7
  6
CONTINUOUS
 10
5.1143504635
 20
4.9604296576
 30
0.0
 11
-0.0100508989
 21
0.0174086676
 31
0.0
 40
0.9949358851
 41
-3.6629958269
 42
-2.6201894802
  0
ELLIPSE
  5
7CA
100
AcDbEntity
  8
0
100
AcDbEllipse
 62
7
  6
CONTINUOUS
 10
5.2037956476
 20
5.1153532609
 30
0.0
 11
0.0201017978
 21
0.0
 31
0.0
 40
0.9949358851
 41
-0.5214031734
 42
0.5214031734
  0
ELLIPSE
  5
7CB
100
AcDbEntity
  8
0
100
AcDbEllipse
 62
7
  6
CONTINUOUS
 10
5.1143504635
 20
5.2702768641
 30
0.0
 11
0.0100508989
 21
0.0174086676
 31
0.0
 40
0.9949358851
 41
-0.5214031734
 42
0.5214031734
  0
ELLIPSE
  5
7CC
100
AcDbEntity
  8
0
100
AcDbEllipse
 62
7
  6
CONTINUOUS
 10
4.9354600955
 20
5.2702768641
 30
0.0
 11
-0.0100508989
 21
0.0174086676
 31
0.0
 40
0.9949358851
 41
-0.5214031734
 42
0.5214031734
  0
ELLIPSE
  5
7CD
100
AcDbEntity
  8
0
100
AcDbEllipse
 62
7
  6
CONTINUOUS
 10
4.8460149114
 20
5.6653532609
 30
0.0
 11
0.0201017978
 21
-0.0
 31
0.0
 40
0.9949358851
 41
2.6201894802
 42
3.6629958269
  0
ELLIPSE
  5
7CE
100
AcDbEntity
  8
0
100
AcDbEllipse
 62
7
  6
CONTINUOUS
 10
4.9354600955
 20
5.5104296576
 30
0.0
 11
0.0100508989
 21
0.0174086676
 31
0.0
 40
0.9949358851
 41
-3.6629958269
 42
-2.6201894802
  0
ELLIPSE
  5
7CF
100
AcDbEntity
  8
0
100
AcDbEllipse
 62
7
  6
CONTINUOUS
 10
5.1143504635
 20
5.5104296576
 30
0.0
 11
-0.0100508989
 21
0.0174086676
 31
0.0
 40
0.9949358851
 41
-3.6629958269
 42
-2.6201894802
  0
ELLIPSE
  5
7D0
100
AcDbEntity
  8
0
100
AcDbEllipse
 62
7
  6
CONTINUOUS
 10
5.2037956476
 20
5.6653532609
 30
0.0
 11
0.0201017978
 21
0.0
 31
0.0
 40
0.9949358851
 41
-0.5214031734
 42
0.5214031734
  0
ELLIPSE
  5
7D1
100
AcDbEntity
  8
0
100
AcDbEllipse
 62
7
  6
CONTINUOUS
 10
5.1143504635
 20
5.8202768641
 30
0.0
 11
0.0100508989
 21
0.0174086676
 31
0.0
 40
0.9949358851
 41
-0.5214031734
 42
0.5214031734
  0
ELLIPSE
  5
7D2
100
AcDbEntity
  8
0
100
AcDbEllipse
 62
7
  6
CONTINUOUS
 10
4.9354600955
 20
5.8202768641
 30
0.0
 11
-0.0100508989
 21
0.0174086676
 31
0.0
 40
0.9949358851
 41
-0.5214031734
 42
0.5214031734
  0
ELLIPSE
  5
7D3
100
AcDbEntity
  8
0
100
AcDbEllipse
 62
7
  6
CONTINUOUS
 10
4.8460149114
 20
6.2153532609
 30
0.0
 11
0.0201017978
 21
-0.0
 31
0.0
 40
0.9949358851
 41
2.6201894802
 42
3.6629958269
  0
ELLIPSE
  5
7D4
100
AcDbEntity
  8
0
100
AcDbEllipse
 62
7
  6
CONTINUOUS
 10
4.9354600955
 20
6.0604296576
 30
0.0
 11
0.0100508989
 21
0.0174086676
 31
0.0
 40
0.9949358851
 41
-3.6629958269
 42
-2.6201894802
  0
ELLIPSE
  5
7D5
100
AcDbEntity
  8
0
100
AcDbEllipse
 62
7
  6
CONTINUOUS
 10
5.1143504635
 20
6.0604296576
 30
0.0
 11
-0.0100508989
 21
0.0174086676
 31
0.0
 40
0.9949358851
 41
-3.6629958269
 42
-2.6201894802
  0
ELLIPSE
  5
7D6
100
AcDbEntity
  8
0
100
AcDbEllipse
 62
7
  6
CONTINUOUS
 10
5.2037956476
 20
6.2153532609
 30
0.0
 11
0.0201017978
 21
0.0
 31
0.0
 40
0.9949358851
 41
-0.5214031734
 42
0.5214031734
  0
ELLIPSE
  5
7D7
100
AcDbEntity
  8
0
100
AcDbEllipse
 62
7
  6
CONTINUOUS
 10
5.1143504635
 20
6.3702768641
 30
0.0
 11
0.0100508989
 21
0.0174086676
 31
0.0
 40
0.9949358851
 41
-0.5214031734
 42
0.5214031734
  0
ELLIPSE
  5
7D8
100
AcDbEntity
  8
0
100
AcDbEllipse
 62
7
  6
CONTINUOUS
 10
4.9354600955
 20
6.3702768641
 30
0.0
 11
-0.0100508989
 21
0.0174086676
 31
0.0
 40
0.9949358851
 41
-0.5214031734
 42
0.5214031734
  0
ELLIPSE
  5
7D9
100
AcDbEntity
  8
0
100
AcDbEllipse
 62
7
  6
CONTINUOUS
 10
4.8460149114
 20
6.7653532609
 30
0.0
 11
0.0201017978
 21
-0.0
 31
0.0
 40
0.9949358851
 41
2.6201894802
 42
3.6629958269
  0
ELLIPSE
  5
7DA
100
AcDbEntity
  8
0
100
AcDbEllipse
 62
7
  6
CONTINUOUS
 10
4.9354600955
 20
6.6104296576
 30
0.0
 11
0.0100508989
 21
0.0174086676
 31
0.0
 40
0.9949358851
 41
-3.6629958269
 42
-2.6201894802
  0
ELLIPSE
  5
7DB
100
AcDbEntity
  8
0
100
AcDbEllipse
 62
7
  6
CONTINUOUS
 10
5.1143504635
 20
6.6104296576
 30
0.0
 11
-0.0100508989
 21
0.0174086676
 31
0.0
 40
0.9949358851
 41
-3.6629958269
 42
-2.6201894802
  0
ELLIPSE
  5
7DC
100
AcDbEntity
  8
0
100
AcDbEllipse
 62
7
  6
CONTINUOUS
 10
5.2037956476
 20
6.7653532609
 30
0.0
 11
0.0201017978
 21
0.0
 31
0.0
 40
0.9949358851
 41
-0.5214031734
 42
0.5214031734
  0
ELLIPSE
  5
7DD
100
AcDbEntity
  8
0
100
AcDbEllipse
 62
7
  6
CONTINUOUS
 10
5.1143504635
 20
6.9202768641
 30
0.0
 11
0.0100508989
 21
0.0174086676
 31
0.0
 40
0.9949358851
 41
-0.5214031734
 42
0.5214031734
  0
ELLIPSE
  5
7DE
100
AcDbEntity
  8
0
100
AcDbEllipse
 62
7
  6
CONTINUOUS
 10
4.9354600955
 20
6.9202768641
 30
0.0
 11
-0.0100508989
 21
0.0174086676
 31
0.0
 40
0.9949358851
 41
-0.5214031734
 42
0.5214031734
  0
ELLIPSE
  5
7DF
100
AcDbEntity
  8
0
100
AcDbEllipse
 62
7
  6
CONTINUOUS
 10
4.1590149114
 20
1.8153532609
 30
0.0
 11
0.0201017978
 21
-0.0
 31
0.0
 40
0.9949358851
 41
2.6201894802
 42
3.6629958269
  0
ELLIPSE
  5
7E0
100
AcDbEntity
  8
0
100
AcDbEllipse
 62
7
  6
CONTINUOUS
 10
4.2484600955
 20
1.6604296576
 30
0.0
 11
0.0100508989
 21
0.0174086676
 31
0.0
 40
0.9949358851
 41
-3.6629958269
 42
-2.6201894802
  0
ELLIPSE
  5
7E1
100
AcDbEntity
  8
0
100
AcDbEllipse
 62
7
  6
CONTINUOUS
 10
4.4273504635
 20
1.6604296576
 30
0.0
 11
-0.0100508989
 21
0.0174086676
 31
0.0
 40
0.9949358851
 41
-3.6629958269
 42
-2.6201894802
  0
ELLIPSE
  5
7E2
100
AcDbEntity
  8
0
100
AcDbEllipse
 62
7
  6
CONTINUOUS
 10
4.5167956476
 20
1.8153532609
 30
0.0
 11
0.0201017978
 21
0.0
 31
0.0
 40
0.9949358851
 41
-0.5214031734
 42
0.5214031734
  0
ELLIPSE
  5
7E3
100
AcDbEntity
  8
0
100
AcDbEllipse
 62
7
  6
CONTINUOUS
 10
4.4273504635
 20
1.9702768641
 30
0.0
 11
0.0100508989
 21
0.0174086676
 31
0.0
 40
0.9949358851
 41
-0.5214031734
 42
0.5214031734
  0
ELLIPSE
  5
7E4
100
AcDbEntity
  8
0
100
AcDbEllipse
 62
7
  6
CONTINUOUS
 10
4.2484600955
 20
1.9702768641
 30
0.0
 11
-0.0100508989
 21
0.0174086676
 31
0.0
 40
0.9949358851
 41
-0.5214031734
 42
0.5214031734
  0
ELLIPSE
  5
7E5
100
AcDbEntity
  8
0
100
AcDbEllipse
 62
7
  6
CONTINUOUS
 10
4.1590149114
 20
2.3653532609
 30
0.0
 11
0.0201017978
 21
0.0
 31
0.0
 40
0.9949358851
 41
2.6201894802
 42
3.6629958269
  0
ELLIPSE
  5
7E6
100
AcDbEntity
  8
0
100
AcDbEllipse
 62
7
  6
CONTINUOUS
 10
4.2484600955
 20
2.2104296576
 30
0.0
 11
0.0100508989
 21
0.0174086676
 31
0.0
 40
0.9949358851
 41
-3.6629958269
 42
-2.6201894802
  0
ELLIPSE
  5
7E7
100
AcDbEntity
  8
0
100
AcDbEllipse
 62
7
  6
CONTINUOUS
 10
4.4273504635
 20
2.2104296576
 30
0.0
 11
-0.0100508989
 21
0.0174086676
 31
0.0
 40
0.9949358851
 41
-3.6629958269
 42
-2.6201894802
  0
ELLIPSE
  5
7E8
100
AcDbEntity
  8
0
100
AcDbEllipse
 62
7
  6
CONTINUOUS
 10
4.5167956476
 20
2.3653532609
 30
0.0
 11
0.0201017978
 21
0.0
 31
0.0
 40
0.9949358851
 41
-0.5214031734
 42
0.5214031734
  0
ELLIPSE
  5
7E9
100
AcDbEntity
  8
0
100
AcDbEllipse
 62
7
  6
CONTINUOUS
 10
4.4273504635
 20
2.5202768641
 30
0.0
 11
0.0100508989
 21
0.0174086676
 31
0.0
 40
0.9949358851
 41
-0.5214031734
 42
0.5214031734
  0
ELLIPSE
  5
7EA
100
AcDbEntity
  8
0
100
AcDbEllipse
 62
7
  6
CONTINUOUS
 10
4.2484600955
 20
2.5202768641
 30
0.0
 11
-0.0100508989
 21
0.0174086676
 31
0.0
 40
0.9949358851
 41
-0.5214031734
 42
0.5214031734
  0
ELLIPSE
  5
7EB
100
AcDbEntity
  8
0
100
AcDbEllipse
 62
7
  6
CONTINUOUS
 10
4.1590149114
 20
2.9153532609
 30
0.0
 11
0.0201017978
 21
0.0
 31
0.0
 40
0.9949358851
 41
2.6201894802
 42
3.6629958269
  0
ELLIPSE
  5
7EC
100
AcDbEntity
  8
0
100
AcDbEllipse
 62
7
  6
CONTINUOUS
 10
4.2484600955
 20
2.7604296576
 30
0.0
 11
0.0100508989
 21
0.0174086676
 31
0.0
 40
0.9949358851
 41
-3.6629958269
 42
-2.6201894802
  0
ELLIPSE
  5
7ED
100
AcDbEntity
  8
0
100
AcDbEllipse
 62
7
  6
CONTINUOUS
 10
4.4273504635
 20
2.7604296576
 30
0.0
 11
-0.0100508989
 21
0.0174086676
 31
0.0
 40
0.9949358851
 41
-3.6629958269
 42
-2.6201894802
  0
ELLIPSE
  5
7EE
100
AcDbEntity
  8
0
100
AcDbEllipse
 62
7
  6
CONTINUOUS
 10
4.5167956476
 20
2.9153532609
 30
0.0
 11
0.0201017978
 21
0.0
 31
0.0
 40
0.9949358851
 41
-0.5214031734
 42
0.5214031734
  0
ELLIPSE
  5
7EF
100
AcDbEntity
  8
0
100
AcDbEllipse
 62
7
  6
CONTINUOUS
 10
4.4273504635
 20
3.0702768641
 30
0.0
 11
0.0100508989
 21
0.0174086676
 31
0.0
 40
0.9949358851
 41
-0.5214031734
 42
0.5214031734
  0
ELLIPSE
  5
7F0
100
AcDbEntity
  8
0
100
AcDbEllipse
 62
7
  6
CONTINUOUS
 10
4.2484600955
 20
3.0702768641
 30
0.0
 11
-0.0100508989
 21
0.0174086676
 31
0.0
 40
0.9949358851
 41
-0.5214031734
 42
0.5214031734
  0
ELLIPSE
  5
7F1
100
AcDbEntity
  8
0
100
AcDbEllipse
 62
7
  6
CONTINUOUS
 10
4.1590149114
 20
3.4653532609
 30
0.0
 11
0.0201017978
 21
0.0
 31
0.0
 40
0.9949358851
 41
2.6201894802
 42
3.6629958269
  0
ELLIPSE
  5
7F2
100
AcDbEntity
  8
0
100
AcDbEllipse
 62
7
  6
CONTINUOUS
 10
4.2484600955
 20
3.3104296576
 30
0.0
 11
0.0100508989
 21
0.0174086676
 31
0.0
 40
0.9949358851
 41
-3.6629958269
 42
-2.6201894802
  0
ELLIPSE
  5
7F3
100
AcDbEntity
  8
0
100
AcDbEllipse
 62
7
  6
CONTINUOUS
 10
4.4273504635
 20
3.3104296576
 30
0.0
 11
-0.0100508989
 21
0.0174086676
 31
0.0
 40
0.9949358851
 41
-3.6629958269
 42
-2.6201894802
  0
ELLIPSE
  5
7F4
100
AcDbEntity
  8
0
100
AcDbEllipse
 62
7
  6
CONTINUOUS
 10
4.5167956476
 20
3.4653532609
 30
0.0
 11
0.0201017978
 21
0.0
 31
0.0
 40
0.9949358851
 41
-0.5214031734
 42
0.5214031734
  0
ELLIPSE
  5
7F5
100
AcDbEntity
  8
0
100
AcDbEllipse
 62
7
  6
CONTINUOUS
 10
4.4273504635
 20
3.6202768641
 30
0.0
 11
0.0100508989
 21
0.0174086676
 31
0.0
 40
0.9949358851
 41
-0.5214031734
 42
0.5214031734
  0
ELLIPSE
  5
7F6
100
AcDbEntity
  8
0
100
AcDbEllipse
 62
7
  6
CONTINUOUS
 10
4.2484600955
 20
3.6202768641
 30
0.0
 11
-0.0100508989
 21
0.0174086676
 31
0.0
 40
0.9949358851
 41
-0.5214031734
 42
0.5214031734
  0
ELLIPSE
  5
7F7
100
AcDbEntity
  8
0
100
AcDbEllipse
 62
7
  6
CONTINUOUS
 10
4.1590149114
 20
4.0153532609
 30
0.0
 11
0.0201017978
 21
0.0
 31
0.0
 40
0.9949358851
 41
2.6201894802
 42
3.6629958269
  0
ELLIPSE
  5
7F8
100
AcDbEntity
  8
0
100
AcDbEllipse
 62
7
  6
CONTINUOUS
 10
4.2484600955
 20
3.8604296576
 30
0.0
 11
0.0100508989
 21
0.0174086676
 31
0.0
 40
0.9949358851
 41
-3.6629958269
 42
-2.6201894802
  0
ELLIPSE
  5
7F9
100
AcDbEntity
  8
0
100
AcDbEllipse
 62
7
  6
CONTINUOUS
 10
4.4273504635
 20
3.8604296576
 30
0.0
 11
-0.0100508989
 21
0.0174086676
 31
0.0
 40
0.9949358851
 41
-3.6629958269
 42
-2.6201894802
  0
ELLIPSE
  5
7FA
100
AcDbEntity
  8
0
100
AcDbEllipse
 62
7
  6
CONTINUOUS
 10
4.5167956476
 20
4.0153532609
 30
0.0
 11
0.0201017978
 21
0.0
 31
0.0
 40
0.9949358851
 41
-0.5214031734
 42
0.5214031734
  0
ELLIPSE
  5
7FB
100
AcDbEntity
  8
0
100
AcDbEllipse
 62
7
  6
CONTINUOUS
 10
4.4273504635
 20
4.1702768641
 30
0.0
 11
0.0100508989
 21
0.0174086676
 31
0.0
 40
0.9949358851
 41
-0.5214031734
 42
0.5214031734
  0
ELLIPSE
  5
7FC
100
AcDbEntity
  8
0
100
AcDbEllipse
 62
7
  6
CONTINUOUS
 10
4.2484600955
 20
4.1702768641
 30
0.0
 11
-0.0100508989
 21
0.0174086676
 31
0.0
 40
0.9949358851
 41
-0.5214031734
 42
0.5214031734
  0
ELLIPSE
  5
7FD
100
AcDbEntity
  8
0
100
AcDbEllipse
 62
7
  6
CONTINUOUS
 10
4.1590149114
 20
4.5653532609
 30
0.0
 11
0.0201017978
 21
0.0
 31
0.0
 40
0.9949358851
 41
2.6201894802
 42
3.6629958269
  0
ELLIPSE
  5
7FE
100
AcDbEntity
  8
0
100
AcDbEllipse
 62
7
  6
CONTINUOUS
 10
4.2484600955
 20
4.4104296576
 30
0.0
 11
0.0100508989
 21
0.0174086676
 31
0.0
 40
0.9949358851
 41
-3.6629958269
 42
-2.6201894802
  0
ELLIPSE
  5
7FF
100
AcDbEntity
  8
0
100
AcDbEllipse
 62
7
  6
CONTINUOUS
 10
4.4273504635
 20
4.4104296576
 30
0.0
 11
-0.0100508989
 21
0.0174086676
 31
0.0
 40
0.9949358851
 41
-3.6629958269
 42
-2.6201894802
  0
ELLIPSE
  5
800
100
AcDbEntity
  8
0
100
AcDbEllipse
 62
7
  6
CONTINUOUS
 10
4.5167956476
 20
4.5653532609
 30
0.0
 11
0.0201017978
 21
0.0
 31
0.0
 40
0.9949358851
 41
-0.5214031734
 42
0.5214031734
  0
ELLIPSE
  5
801
100
AcDbEntity
  8
0
100
AcDbEllipse
 62
7
  6
CONTINUOUS
 10
4.4273504635
 20
4.7202768641
 30
0.0
 11
0.0100508989
 21
0.0174086676
 31
0.0
 40
0.9949358851
 41
-0.5214031734
 42
0.5214031734
  0
ELLIPSE
  5
802
100
AcDbEntity
  8
0
100
AcDbEllipse
 62
7
  6
CONTINUOUS
 10
4.2484600955
 20
4.7202768641
 30
0.0
 11
-0.0100508989
 21
0.0174086676
 31
0.0
 40
0.9949358851
 41
-0.5214031734
 42
0.5214031734
  0
ELLIPSE
  5
803
100
AcDbEntity
  8
0
100
AcDbEllipse
 62
7
  6
CONTINUOUS
 10
4.1590149114
 20
5.1153532609
 30
0.0
 11
0.0201017978
 21
-0.0
 31
0.0
 40
0.9949358851
 41
2.6201894802
 42
3.6629958269
  0
ELLIPSE
  5
804
100
AcDbEntity
  8
0
100
AcDbEllipse
 62
7
  6
CONTINUOUS
 10
4.2484600955
 20
4.9604296576
 30
0.0
 11
0.0100508989
 21
0.0174086676
 31
0.0
 40
0.9949358851
 41
-3.6629958269
 42
-2.6201894802
  0
ELLIPSE
  5
805
100
AcDbEntity
  8
0
100
AcDbEllipse
 62
7
  6
CONTINUOUS
 10
4.4273504635
 20
4.9604296576
 30
0.0
 11
-0.0100508989
 21
0.0174086676
 31
0.0
 40
0.9949358851
 41
-3.6629958269
 42
-2.6201894802
  0
ELLIPSE
  5
806
100
AcDbEntity
  8
0
100
AcDbEllipse
 62
7
  6
CONTINUOUS
 10
4.5167956476
 20
5.1153532609
 30
0.0
 11
0.0201017978
 21
-0.0
 31
0.0
 40
0.9949358851
 41
-0.5214031734
 42
0.5214031734
  0
ELLIPSE
  5
807
100
AcDbEntity
  8
0
100
AcDbEllipse
 62
7
  6
CONTINUOUS
 10
4.4273504635
 20
5.2702768641
 30
0.0
 11
0.0100508989
 21
0.0174086676
 31
0.0
 40
0.9949358851
 41
-0.5214031734
 42
0.5214031734
  0
ELLIPSE
  5
808
100
AcDbEntity
  8
0
100
AcDbEllipse
 62
7
  6
CONTINUOUS
 10
4.2484600955
 20
5.2702768641
 30
0.0
 11
-0.0100508989
 21
0.0174086676
 31
0.0
 40
0.9949358851
 41
-0.5214031734
 42
0.5214031734
  0
ELLIPSE
  5
809
100
AcDbEntity
  8
0
100
AcDbEllipse
 62
7
  6
CONTINUOUS
 10
4.1590149114
 20
5.6653532609
 30
0.0
 11
0.0201017978
 21
0.0
 31
0.0
 40
0.9949358851
 41
2.6201894802
 42
3.6629958269
  0
ELLIPSE
  5
80A
100
AcDbEntity
  8
0
100
AcDbEllipse
 62
7
  6
CONTINUOUS
 10
4.2484600955
 20
5.5104296576
 30
0.0
 11
0.0100508989
 21
0.0174086676
 31
0.0
 40
0.9949358851
 41
-3.6629958269
 42
-2.6201894802
  0
ELLIPSE
  5
80B
100
AcDbEntity
  8
0
100
AcDbEllipse
 62
7
  6
CONTINUOUS
 10
4.4273504635
 20
5.5104296576
 30
0.0
 11
-0.0100508989
 21
0.0174086676
 31
0.0
 40
0.9949358851
 41
-3.6629958269
 42
-2.6201894802
  0
ELLIPSE
  5
80C
100
AcDbEntity
  8
0
100
AcDbEllipse
 62
7
  6
CONTINUOUS
 10
4.5167956476
 20
5.6653532609
 30
0.0
 11
0.0201017978
 21
0.0
 31
0.0
 40
0.9949358851
 41
-0.5214031734
 42
0.5214031734
  0
ELLIPSE
  5
80D
100
AcDbEntity
  8
0
100
AcDbEllipse
 62
7
  6
CONTINUOUS
 10
4.4273504635
 20
5.8202768641
 30
0.0
 11
0.0100508989
 21
0.0174086676
 31
0.0
 40
0.9949358851
 41
-0.5214031734
 42
0.5214031734
  0
ELLIPSE
  5
80E
100
AcDbEntity
  8
0
100
AcDbEllipse
 62
7
  6
CONTINUOUS
 10
4.2484600955
 20
5.8202768641
 30
0.0
 11
-0.0100508989
 21
0.0174086676
 31
0.0
 40
0.9949358851
 41
-0.5214031734
 42
0.5214031734
  0
ELLIPSE
  5
80F
100
AcDbEntity
  8
0
100
AcDbEllipse
 62
7
  6
CONTINUOUS
 10
4.1590149114
 20
6.2153532609
 30
0.0
 11
0.0201017978
 21
0.0
 31
0.0
 40
0.9949358851
 41
2.6201894802
 42
3.6629958269
  0
ELLIPSE
  5
810
100
AcDbEntity
  8
0
100
AcDbEllipse
 62
7
  6
CONTINUOUS
 10
4.2484600955
 20
6.0604296576
 30
0.0
 11
0.0100508989
 21
0.0174086676
 31
0.0
 40
0.9949358851
 41
-3.6629958269
 42
-2.6201894802
  0
ELLIPSE
  5
811
100
AcDbEntity
  8
0
100
AcDbEllipse
 62
7
  6
CONTINUOUS
 10
4.4273504635
 20
6.0604296576
 30
0.0
 11
-0.0100508989
 21
0.0174086676
 31
0.0
 40
0.9949358851
 41
-3.6629958269
 42
-2.6201894802
  0
ELLIPSE
  5
812
100
AcDbEntity
  8
0
100
AcDbEllipse
 62
7
  6
CONTINUOUS
 10
4.5167956476
 20
6.2153532609
 30
0.0
 11
0.0201017978
 21
-0.0
 31
0.0
 40
0.9949358851
 41
-0.5214031734
 42
0.5214031734
  0
ELLIPSE
  5
813
100
AcDbEntity
  8
0
100
AcDbEllipse
 62
7
  6
CONTINUOUS
 10
4.4273504635
 20
6.3702768641
 30
0.0
 11
0.0100508989
 21
0.0174086676
 31
0.0
 40
0.9949358851
 41
-0.5214031734
 42
0.5214031734
  0
ELLIPSE
  5
814
100
AcDbEntity
  8
0
100
AcDbEllipse
 62
7
  6
CONTINUOUS
 10
4.2484600955
 20
6.3702768641
 30
0.0
 11
-0.0100508989
 21
0.0174086676
 31
0.0
 40
0.9949358851
 41
-0.5214031734
 42
0.5214031734
  0
ELLIPSE
  5
815
100
AcDbEntity
  8
0
100
AcDbEllipse
 62
7
  6
CONTINUOUS
 10
4.1590149114
 20
6.7653532609
 30
0.0
 11
0.0201017978
 21
0.0
 31
0.0
 40
0.9949358851
 41
2.6201894802
 42
3.6629958269
  0
ELLIPSE
  5
816
100
AcDbEntity
  8
0
100
AcDbEllipse
 62
7
  6
CONTINUOUS
 10
4.2484600955
 20
6.6104296576
 30
0.0
 11
0.0100508989
 21
0.0174086676
 31
0.0
 40
0.9949358851
 41
-3.6629958269
 42
-2.6201894802
  0
ELLIPSE
  5
817
100
AcDbEntity
  8
0
100
AcDbEllipse
 62
7
  6
CONTINUOUS
 10
4.4273504635
 20
6.6104296576
 30
0.0
 11
-0.0100508989
 21
0.0174086676
 31
0.0
 40
0.9949358851
 41
-3.6629958269
 42
-2.6201894802
  0
ELLIPSE
  5
818
100
AcDbEntity
  8
0
100
AcDbEllipse
 62
7
  6
CONTINUOUS
 10
4.5167956476
 20
6.7653532609
 30
0.0
 11
0.0201017978
 21
-0.0
 31
0.0
 40
0.9949358851
 41
-0.5214031734
 42
0.5214031734
  0
ELLIPSE
  5
819
100
AcDbEntity
  8
0
100
AcDbEllipse
 62
7
  6
CONTINUOUS
 10
4.4273504635
 20
6.9202768641
 30
0.0
 11
0.0100508989
 21
0.0174086676
 31
0.0
 40
0.9949358851
 41
-0.5214031734
 42
0.5214031734
  0
ELLIPSE
  5
81A
100
AcDbEntity
  8
0
100
AcDbEllipse
 62
7
  6
CONTINUOUS
 10
4.2484600955
 20
6.9202768641
 30
0.0
 11
-0.0100508989
 21
0.0174086676
 31
0.0
 40
0.9949358851
 41
-0.5214031734
 42
0.5214031734
  0
ELLIPSE
  5
81B
100
AcDbEntity
  8
0
100
AcDbEllipse
 62
7
  6
CONTINUOUS
 10
3.4720149114
 20
1.8153532609
 30
0.0
 11
0.0201017978
 21
0.0
 31
0.0
 40
0.9949358851
 41
2.6201894802
 42
3.6629958269
  0
ELLIPSE
  5
81C
100
AcDbEntity
  8
0
100
AcDbEllipse
 62
7
  6
CONTINUOUS
 10
3.5614600955
 20
1.6604296576
 30
0.0
 11
0.0100508989
 21
0.0174086676
 31
0.0
 40
0.9949358851
 41
-3.6629958269
 42
-2.6201894802
  0
ELLIPSE
  5
81D
100
AcDbEntity
  8
0
100
AcDbEllipse
 62
7
  6
CONTINUOUS
 10
3.7403504635
 20
1.6604296576
 30
0.0
 11
-0.0100508989
 21
0.0174086676
 31
0.0
 40
0.9949358851
 41
-3.6629958269
 42
-2.6201894802
  0
ELLIPSE
  5
81E
100
AcDbEntity
  8
0
100
AcDbEllipse
 62
7
  6
CONTINUOUS
 10
3.8297956476
 20
1.8153532609
 30
0.0
 11
0.0201017978
 21
-0.0
 31
0.0
 40
0.9949358851
 41
-0.5214031734
 42
0.5214031734
  0
ELLIPSE
  5
81F
100
AcDbEntity
  8
0
100
AcDbEllipse
 62
7
  6
CONTINUOUS
 10
3.7403504635
 20
1.9702768641
 30
0.0
 11
0.0100508989
 21
0.0174086676
 31
0.0
 40
0.9949358851
 41
-0.5214031734
 42
0.5214031734
  0
ELLIPSE
  5
820
100
AcDbEntity
  8
0
100
AcDbEllipse
 62
7
  6
CONTINUOUS
 10
3.5614600955
 20
1.9702768641
 30
0.0
 11
-0.0100508989
 21
0.0174086676
 31
0.0
 40
0.9949358851
 41
-0.5214031734
 42
0.5214031734
  0
ELLIPSE
  5
821
100
AcDbEntity
  8
0
100
AcDbEllipse
 62
7
  6
CONTINUOUS
 10
3.4720149114
 20
2.3653532609
 30
0.0
 11
0.0201017978
 21
-0.0
 31
0.0
 40
0.9949358851
 41
2.6201894802
 42
3.6629958269
  0
ELLIPSE
  5
822
100
AcDbEntity
  8
0
100
AcDbEllipse
 62
7
  6
CONTINUOUS
 10
3.5614600955
 20
2.2104296576
 30
0.0
 11
0.0100508989
 21
0.0174086676
 31
0.0
 40
0.9949358851
 41
-3.6629958269
 42
-2.6201894802
  0
ELLIPSE
  5
823
100
AcDbEntity
  8
0
100
AcDbEllipse
 62
7
  6
CONTINUOUS
 10
3.7403504635
 20
2.2104296576
 30
0.0
 11
-0.0100508989
 21
0.0174086676
 31
0.0
 40
0.9949358851
 41
-3.6629958269
 42
-2.6201894802
  0
ELLIPSE
  5
824
100
AcDbEntity
  8
0
100
AcDbEllipse
 62
7
  6
CONTINUOUS
 10
3.8297956476
 20
2.3653532609
 30
0.0
 11
0.0201017978
 21
0.0
 31
0.0
 40
0.9949358851
 41
-0.5214031734
 42
0.5214031734
  0
ELLIPSE
  5
825
100
AcDbEntity
  8
0
100
AcDbEllipse
 62
7
  6
CONTINUOUS
 10
3.7403504635
 20
2.5202768641
 30
0.0
 11
0.0100508989
 21
0.0174086676
 31
0.0
 40
0.9949358851
 41
-0.5214031734
 42
0.5214031734
  0
ELLIPSE
  5
826
100
AcDbEntity
  8
0
100
AcDbEllipse
 62
7
  6
CONTINUOUS
 10
3.5614600955
 20
2.5202768641
 30
0.0
 11
-0.0100508989
 21
0.0174086676
 31
0.0
 40
0.9949358851
 41
-0.5214031734
 42
0.5214031734
  0
ELLIPSE
  5
827
100
AcDbEntity
  8
0
100
AcDbEllipse
 62
7
  6
CONTINUOUS
 10
3.4720149114
 20
2.9153532609
 30
0.0
 11
0.0201017978
 21
0.0
 31
0.0
 40
0.9949358851
 41
2.6201894802
 42
3.6629958269
  0
ELLIPSE
  5
828
100
AcDbEntity
  8
0
100
AcDbEllipse
 62
7
  6
CONTINUOUS
 10
3.5614600955
 20
2.7604296576
 30
0.0
 11
0.0100508989
 21
0.0174086676
 31
0.0
 40
0.9949358851
 41
-3.6629958269
 42
-2.6201894802
  0
ELLIPSE
  5
829
100
AcDbEntity
  8
0
100
AcDbEllipse
 62
7
  6
CONTINUOUS
 10
3.7403504635
 20
2.7604296576
 30
0.0
 11
-0.0100508989
 21
0.0174086676
 31
0.0
 40
0.9949358851
 41
-3.6629958269
 42
-2.6201894802
  0
ELLIPSE
  5
82A
100
AcDbEntity
  8
0
100
AcDbEllipse
 62
7
  6
CONTINUOUS
 10
3.8297956476
 20
2.9153532609
 30
0.0
 11
0.0201017978
 21
0.0
 31
0.0
 40
0.9949358851
 41
-0.5214031734
 42
0.5214031734
  0
ELLIPSE
  5
82B
100
AcDbEntity
  8
0
100
AcDbEllipse
 62
7
  6
CONTINUOUS
 10
3.7403504635
 20
3.0702768641
 30
0.0
 11
0.0100508989
 21
0.0174086676
 31
0.0
 40
0.9949358851
 41
-0.5214031734
 42
0.5214031734
  0
ELLIPSE
  5
82C
100
AcDbEntity
  8
0
100
AcDbEllipse
 62
7
  6
CONTINUOUS
 10
3.5614600955
 20
3.0702768641
 30
0.0
 11
-0.0100508989
 21
0.0174086676
 31
0.0
 40
0.9949358851
 41
-0.5214031734
 42
0.5214031734
  0
ELLIPSE
  5
82D
100
AcDbEntity
  8
0
100
AcDbEllipse
 62
7
  6
CONTINUOUS
 10
3.4720149114
 20
3.4653532609
 30
0.0
 11
0.0201017978
 21
-0.0
 31
0.0
 40
0.9949358851
 41
2.6201894802
 42
3.6629958269
  0
ELLIPSE
  5
82E
100
AcDbEntity
  8
0
100
AcDbEllipse
 62
7
  6
CONTINUOUS
 10
3.5614600955
 20
3.3104296576
 30
0.0
 11
0.0100508989
 21
0.0174086676
 31
0.0
 40
0.9949358851
 41
-3.6629958269
 42
-2.6201894802
  0
ELLIPSE
  5
82F
100
AcDbEntity
  8
0
100
AcDbEllipse
 62
7
  6
CONTINUOUS
 10
3.7403504635
 20
3.3104296576
 30
0.0
 11
-0.0100508989
 21
0.0174086676
 31
0.0
 40
0.9949358851
 41
-3.6629958269
 42
-2.6201894802
  0
ELLIPSE
  5
830
100
AcDbEntity
  8
0
100
AcDbEllipse
 62
7
  6
CONTINUOUS
 10
3.8297956476
 20
3.4653532609
 30
0.0
 11
0.0201017978
 21
0.0
 31
0.0
 40
0.9949358851
 41
-0.5214031734
 42
0.5214031734
  0
ELLIPSE
  5
831
100
AcDbEntity
  8
0
100
AcDbEllipse
 62
7
  6
CONTINUOUS
 10
3.7403504635
 20
3.6202768641
 30
0.0
 11
0.0100508989
 21
0.0174086676
 31
0.0
 40
0.9949358851
 41
-0.5214031734
 42
0.5214031734
  0
ELLIPSE
  5
832
100
AcDbEntity
  8
0
100
AcDbEllipse
 62
7
  6
CONTINUOUS
 10
3.5614600955
 20
3.6202768641
 30
0.0
 11
-0.0100508989
 21
0.0174086676
 31
0.0
 40
0.9949358851
 41
-0.5214031734
 42
0.5214031734
  0
ELLIPSE
  5
833
100
AcDbEntity
  8
0
100
AcDbEllipse
 62
7
  6
CONTINUOUS
 10
3.4720149114
 20
4.0153532609
 30
0.0
 11
0.0201017978
 21
0.0
 31
0.0
 40
0.9949358851
 41
2.6201894802
 42
3.6629958269
  0
ELLIPSE
  5
834
100
AcDbEntity
  8
0
100
AcDbEllipse
 62
7
  6
CONTINUOUS
 10
3.5614600955
 20
3.8604296576
 30
0.0
 11
0.0100508989
 21
0.0174086676
 31
0.0
 40
0.9949358851
 41
-3.6629958269
 42
-2.6201894802
  0
ELLIPSE
  5
835
100
AcDbEntity
  8
0
100
AcDbEllipse
 62
7
  6
CONTINUOUS
 10
3.7403504635
 20
3.8604296576
 30
0.0
 11
-0.0100508989
 21
0.0174086676
 31
0.0
 40
0.9949358851
 41
-3.6629958269
 42
-2.6201894802
  0
ELLIPSE
  5
836
100
AcDbEntity
  8
0
100
AcDbEllipse
 62
7
  6
CONTINUOUS
 10
3.8297956476
 20
4.0153532609
 30
0.0
 11
0.0201017978
 21
0.0
 31
0.0
 40
0.9949358851
 41
-0.5214031734
 42
0.5214031734
  0
ELLIPSE
  5
837
100
AcDbEntity
  8
0
100
AcDbEllipse
 62
7
  6
CONTINUOUS
 10
3.7403504635
 20
4.1702768641
 30
0.0
 11
0.0100508989
 21
0.0174086676
 31
0.0
 40
0.9949358851
 41
-0.5214031734
 42
0.5214031734
  0
ELLIPSE
  5
838
100
AcDbEntity
  8
0
100
AcDbEllipse
 62
7
  6
CONTINUOUS
 10
3.5614600955
 20
4.1702768641
 30
0.0
 11
-0.0100508989
 21
0.0174086676
 31
0.0
 40
0.9949358851
 41
-0.5214031734
 42
0.5214031734
  0
ELLIPSE
  5
839
100
AcDbEntity
  8
0
100
AcDbEllipse
 62
7
  6
CONTINUOUS
 10
3.4720149114
 20
4.5653532609
 30
0.0
 11
0.0201017978
 21
0.0
 31
0.0
 40
0.9949358851
 41
2.6201894802
 42
3.6629958269
  0
ELLIPSE
  5
83A
100
AcDbEntity
  8
0
100
AcDbEllipse
 62
7
  6
CONTINUOUS
 10
3.5614600955
 20
4.4104296576
 30
0.0
 11
0.0100508989
 21
0.0174086676
 31
0.0
 40
0.9949358851
 41
-3.6629958269
 42
-2.6201894802
  0
ELLIPSE
  5
83B
100
AcDbEntity
  8
0
100
AcDbEllipse
 62
7
  6
CONTINUOUS
 10
3.7403504635
 20
4.4104296576
 30
0.0
 11
-0.0100508989
 21
0.0174086676
 31
0.0
 40
0.9949358851
 41
-3.6629958269
 42
-2.6201894802
  0
ELLIPSE
  5
83C
100
AcDbEntity
  8
0
100
AcDbEllipse
 62
7
  6
CONTINUOUS
 10
3.8297956476
 20
4.5653532609
 30
0.0
 11
0.0201017978
 21
0.0
 31
0.0
 40
0.9949358851
 41
-0.5214031734
 42
0.5214031734
  0
ELLIPSE
  5
83D
100
AcDbEntity
  8
0
100
AcDbEllipse
 62
7
  6
CONTINUOUS
 10
3.7403504635
 20
4.7202768641
 30
0.0
 11
0.0100508989
 21
0.0174086676
 31
0.0
 40
0.9949358851
 41
-0.5214031734
 42
0.5214031734
  0
ELLIPSE
  5
83E
100
AcDbEntity
  8
0
100
AcDbEllipse
 62
7
  6
CONTINUOUS
 10
3.5614600955
 20
4.7202768641
 30
0.0
 11
-0.0100508989
 21
0.0174086676
 31
0.0
 40
0.9949358851
 41
-0.5214031734
 42
0.5214031734
  0
ELLIPSE
  5
83F
100
AcDbEntity
  8
0
100
AcDbEllipse
 62
7
  6
CONTINUOUS
 10
3.4720149114
 20
5.1153532609
 30
0.0
 11
0.0201017978
 21
-0.0
 31
0.0
 40
0.9949358851
 41
2.6201894802
 42
3.6629958269
  0
ELLIPSE
  5
840
100
AcDbEntity
  8
0
100
AcDbEllipse
 62
7
  6
CONTINUOUS
 10
3.5614600955
 20
4.9604296576
 30
0.0
 11
0.0100508989
 21
0.0174086676
 31
0.0
 40
0.9949358851
 41
-3.6629958269
 42
-2.6201894802
  0
ELLIPSE
  5
841
100
AcDbEntity
  8
0
100
AcDbEllipse
 62
7
  6
CONTINUOUS
 10
3.7403504635
 20
4.9604296576
 30
0.0
 11
-0.0100508989
 21
0.0174086676
 31
0.0
 40
0.9949358851
 41
-3.6629958269
 42
-2.6201894802
  0
ELLIPSE
  5
842
100
AcDbEntity
  8
0
100
AcDbEllipse
 62
7
  6
CONTINUOUS
 10
3.8297956476
 20
5.1153532609
 30
0.0
 11
0.0201017978
 21
-0.0
 31
0.0
 40
0.9949358851
 41
-0.5214031734
 42
0.5214031734
  0
ELLIPSE
  5
843
100
AcDbEntity
  8
0
100
AcDbEllipse
 62
7
  6
CONTINUOUS
 10
3.7403504635
 20
5.2702768641
 30
0.0
 11
0.0100508989
 21
0.0174086676
 31
0.0
 40
0.9949358851
 41
-0.5214031734
 42
0.5214031734
  0
ELLIPSE
  5
844
100
AcDbEntity
  8
0
100
AcDbEllipse
 62
7
  6
CONTINUOUS
 10
3.5614600955
 20
5.2702768641
 30
0.0
 11
-0.0100508989
 21
0.0174086676
 31
0.0
 40
0.9949358851
 41
-0.5214031734
 42
0.5214031734
  0
ELLIPSE
  5
845
100
AcDbEntity
  8
0
100
AcDbEllipse
 62
7
  6
CONTINUOUS
 10
3.4720149114
 20
5.6653532609
 30
0.0
 11
0.0201017978
 21
0.0
 31
0.0
 40
0.9949358851
 41
2.6201894802
 42
3.6629958269
  0
ELLIPSE
  5
846
100
AcDbEntity
  8
0
100
AcDbEllipse
 62
7
  6
CONTINUOUS
 10
3.5614600955
 20
5.5104296576
 30
0.0
 11
0.0100508989
 21
0.0174086676
 31
0.0
 40
0.9949358851
 41
-3.6629958269
 42
-2.6201894802
  0
ELLIPSE
  5
847
100
AcDbEntity
  8
0
100
AcDbEllipse
 62
7
  6
CONTINUOUS
 10
3.7403504635
 20
5.5104296576
 30
0.0
 11
-0.0100508989
 21
0.0174086676
 31
0.0
 40
0.9949358851
 41
-3.6629958269
 42
-2.6201894802
  0
ELLIPSE
  5
848
100
AcDbEntity
  8
0
100
AcDbEllipse
 62
7
  6
CONTINUOUS
 10
3.8297956476
 20
5.6653532609
 30
0.0
 11
0.0201017978
 21
0.0
 31
0.0
 40
0.9949358851
 41
-0.5214031734
 42
0.5214031734
  0
ELLIPSE
  5
849
100
AcDbEntity
  8
0
100
AcDbEllipse
 62
7
  6
CONTINUOUS
 10
3.7403504635
 20
5.8202768641
 30
0.0
 11
0.0100508989
 21
0.0174086676
 31
0.0
 40
0.9949358851
 41
-0.5214031734
 42
0.5214031734
  0
ELLIPSE
  5
84A
100
AcDbEntity
  8
0
100
AcDbEllipse
 62
7
  6
CONTINUOUS
 10
3.5614600955
 20
5.8202768641
 30
0.0
 11
-0.0100508989
 21
0.0174086676
 31
0.0
 40
0.9949358851
 41
-0.5214031734
 42
0.5214031734
  0
ELLIPSE
  5
84B
100
AcDbEntity
  8
0
100
AcDbEllipse
 62
7
  6
CONTINUOUS
 10
3.4720149114
 20
6.2153532609
 30
0.0
 11
0.0201017978
 21
0.0
 31
0.0
 40
0.9949358851
 41
2.6201894802
 42
3.6629958269
  0
ELLIPSE
  5
84C
100
AcDbEntity
  8
0
100
AcDbEllipse
 62
7
  6
CONTINUOUS
 10
3.5614600955
 20
6.0604296576
 30
0.0
 11
0.0100508989
 21
0.0174086676
 31
0.0
 40
0.9949358851
 41
-3.6629958269
 42
-2.6201894802
  0
ELLIPSE
  5
84D
100
AcDbEntity
  8
0
100
AcDbEllipse
 62
7
  6
CONTINUOUS
 10
3.7403504635
 20
6.0604296576
 30
0.0
 11
-0.0100508989
 21
0.0174086676
 31
0.0
 40
0.9949358851
 41
-3.6629958269
 42
-2.6201894802
  0
ELLIPSE
  5
84E
100
AcDbEntity
  8
0
100
AcDbEllipse
 62
7
  6
CONTINUOUS
 10
3.8297956476
 20
6.2153532609
 30
0.0
 11
0.0201017978
 21
-0.0
 31
0.0
 40
0.9949358851
 41
-0.5214031734
 42
0.5214031734
  0
ELLIPSE
  5
84F
100
AcDbEntity
  8
0
100
AcDbEllipse
 62
7
  6
CONTINUOUS
 10
3.7403504635
 20
6.3702768641
 30
0.0
 11
0.0100508989
 21
0.0174086676
 31
0.0
 40
0.9949358851
 41
-0.5214031734
 42
0.5214031734
  0
ELLIPSE
  5
850
100
AcDbEntity
  8
0
100
AcDbEllipse
 62
7
  6
CONTINUOUS
 10
3.5614600955
 20
6.3702768641
 30
0.0
 11
-0.0100508989
 21
0.0174086676
 31
0.0
 40
0.9949358851
 41
-0.5214031734
 42
0.5214031734
  0
ELLIPSE
  5
851
100
AcDbEntity
  8
0
100
AcDbEllipse
 62
7
  6
CONTINUOUS
 10
3.4720149114
 20
6.7653532609
 30
0.0
 11
0.0201017978
 21
0.0
 31
0.0
 40
0.9949358851
 41
2.6201894802
 42
3.6629958269
  0
ELLIPSE
  5
852
100
AcDbEntity
  8
0
100
AcDbEllipse
 62
7
  6
CONTINUOUS
 10
3.5614600955
 20
6.6104296576
 30
0.0
 11
0.0100508989
 21
0.0174086676
 31
0.0
 40
0.9949358851
 41
-3.6629958269
 42
-2.6201894802
  0
ELLIPSE
  5
853
100
AcDbEntity
  8
0
100
AcDbEllipse
 62
7
  6
CONTINUOUS
 10
3.7403504635
 20
6.6104296576
 30
0.0
 11
-0.0100508989
 21
0.0174086676
 31
0.0
 40
0.9949358851
 41
-3.6629958269
 42
-2.6201894802
  0
ELLIPSE
  5
854
100
AcDbEntity
  8
0
100
AcDbEllipse
 62
7
  6
CONTINUOUS
 10
3.8297956476
 20
6.7653532609
 30
0.0
 11
0.0201017978
 21
-0.0
 31
0.0
 40
0.9949358851
 41
-0.5214031734
 42
0.5214031734
  0
ELLIPSE
  5
855
100
AcDbEntity
  8
0
100
AcDbEllipse
 62
7
  6
CONTINUOUS
 10
3.7403504635
 20
6.9202768641
 30
0.0
 11
0.0100508989
 21
0.0174086676
 31
0.0
 40
0.9949358851
 41
-0.5214031734
 42
0.5214031734
  0
ELLIPSE
  5
856
100
AcDbEntity
  8
0
100
AcDbEllipse
 62
7
  6
CONTINUOUS
 10
3.5614600955
 20
6.9202768641
 30
0.0
 11
-0.0100508989
 21
0.0174086676
 31
0.0
 40
0.9949358851
 41
-0.5214031734
 42
0.5214031734
  0
ELLIPSE
  5
857
100
AcDbEntity
  8
0
100
AcDbEllipse
 62
7
  6
CONTINUOUS
 10
2.7850149114
 20
1.8153532609
 30
0.0
 11
0.0201017978
 21
-0.0
 31
0.0
 40
0.9949358851
 41
2.6201894802
 42
3.6629958269
  0
ELLIPSE
  5
858
100
AcDbEntity
  8
0
100
AcDbEllipse
 62
7
  6
CONTINUOUS
 10
2.8744600955
 20
1.6604296576
 30
0.0
 11
0.0100508989
 21
0.0174086676
 31
0.0
 40
0.9949358851
 41
-3.6629958269
 42
-2.6201894802
  0
ELLIPSE
  5
859
100
AcDbEntity
  8
0
100
AcDbEllipse
 62
7
  6
CONTINUOUS
 10
3.0533504635
 20
1.6604296576
 30
0.0
 11
-0.0100508989
 21
0.0174086676
 31
0.0
 40
0.9949358851
 41
-3.6629958269
 42
-2.6201894802
  0
ELLIPSE
  5
85A
100
AcDbEntity
  8
0
100
AcDbEllipse
 62
7
  6
CONTINUOUS
 10
3.1427956476
 20
1.8153532609
 30
0.0
 11
0.0201017978
 21
-0.0
 31
0.0
 40
0.9949358851
 41
-0.5214031734
 42
0.5214031734
  0
ELLIPSE
  5
85B
100
AcDbEntity
  8
0
100
AcDbEllipse
 62
7
  6
CONTINUOUS
 10
3.0533504635
 20
1.9702768641
 30
0.0
 11
0.0100508989
 21
0.0174086676
 31
0.0
 40
0.9949358851
 41
-0.5214031734
 42
0.5214031734
  0
ELLIPSE
  5
85C
100
AcDbEntity
  8
0
100
AcDbEllipse
 62
7
  6
CONTINUOUS
 10
2.8744600955
 20
1.9702768641
 30
0.0
 11
-0.0100508989
 21
0.0174086676
 31
0.0
 40
0.9949358851
 41
-0.5214031734
 42
0.5214031734
  0
ELLIPSE
  5
85D
100
AcDbEntity
  8
0
100
AcDbEllipse
 62
7
  6
CONTINUOUS
 10
2.7850149114
 20
2.3653532609
 30
0.0
 11
0.0201017978
 21
0.0
 31
0.0
 40
0.9949358851
 41
2.6201894802
 42
3.6629958269
  0
ELLIPSE
  5
85E
100
AcDbEntity
  8
0
100
AcDbEllipse
 62
7
  6
CONTINUOUS
 10
2.8744600955
 20
2.2104296576
 30
0.0
 11
0.0100508989
 21
0.0174086676
 31
0.0
 40
0.9949358851
 41
-3.6629958269
 42
-2.6201894802
  0
ELLIPSE
  5
85F
100
AcDbEntity
  8
0
100
AcDbEllipse
 62
7
  6
CONTINUOUS
 10
3.0533504635
 20
2.2104296576
 30
0.0
 11
-0.0100508989
 21
0.0174086676
 31
0.0
 40
0.9949358851
 41
-3.6629958269
 42
-2.6201894802
  0
ELLIPSE
  5
860
100
AcDbEntity
  8
0
100
AcDbEllipse
 62
7
  6
CONTINUOUS
 10
3.1427956476
 20
2.3653532609
 30
0.0
 11
0.0201017978
 21
-0.0
 31
0.0
 40
0.9949358851
 41
-0.5214031734
 42
0.5214031734
  0
ELLIPSE
  5
861
100
AcDbEntity
  8
0
100
AcDbEllipse
 62
7
  6
CONTINUOUS
 10
3.0533504635
 20
2.5202768641
 30
0.0
 11
0.0100508989
 21
0.0174086676
 31
0.0
 40
0.9949358851
 41
-0.5214031734
 42
0.5214031734
  0
ELLIPSE
  5
862
100
AcDbEntity
  8
0
100
AcDbEllipse
 62
7
  6
CONTINUOUS
 10
2.8744600955
 20
2.5202768641
 30
0.0
 11
-0.0100508989
 21
0.0174086676
 31
0.0
 40
0.9949358851
 41
-0.5214031734
 42
0.5214031734
  0
ELLIPSE
  5
863
100
AcDbEntity
  8
0
100
AcDbEllipse
 62
7
  6
CONTINUOUS
 10
2.7850149114
 20
2.9153532609
 30
0.0
 11
0.0201017978
 21
0.0
 31
0.0
 40
0.9949358851
 41
2.6201894802
 42
3.6629958269
  0
ELLIPSE
  5
864
100
AcDbEntity
  8
0
100
AcDbEllipse
 62
7
  6
CONTINUOUS
 10
2.8744600955
 20
2.7604296576
 30
0.0
 11
0.0100508989
 21
0.0174086676
 31
0.0
 40
0.9949358851
 41
-3.6629958269
 42
-2.6201894802
  0
ELLIPSE
  5
865
100
AcDbEntity
  8
0
100
AcDbEllipse
 62
7
  6
CONTINUOUS
 10
3.0533504635
 20
2.7604296576
 30
0.0
 11
-0.0100508989
 21
0.0174086676
 31
0.0
 40
0.9949358851
 41
-3.6629958269
 42
-2.6201894802
  0
ELLIPSE
  5
866
100
AcDbEntity
  8
0
100
AcDbEllipse
 62
7
  6
CONTINUOUS
 10
3.1427956476
 20
2.9153532609
 30
0.0
 11
0.0201017978
 21
0.0
 31
0.0
 40
0.9949358851
 41
-0.5214031734
 42
0.5214031734
  0
ELLIPSE
  5
867
100
AcDbEntity
  8
0
100
AcDbEllipse
 62
7
  6
CONTINUOUS
 10
3.0533504635
 20
3.0702768641
 30
0.0
 11
0.0100508989
 21
0.0174086676
 31
0.0
 40
0.9949358851
 41
-0.5214031734
 42
0.5214031734
  0
ELLIPSE
  5
868
100
AcDbEntity
  8
0
100
AcDbEllipse
 62
7
  6
CONTINUOUS
 10
2.8744600955
 20
3.0702768641
 30
0.0
 11
-0.0100508989
 21
0.0174086676
 31
0.0
 40
0.9949358851
 41
-0.5214031734
 42
0.5214031734
  0
ELLIPSE
  5
869
100
AcDbEntity
  8
0
100
AcDbEllipse
 62
7
  6
CONTINUOUS
 10
2.7850149114
 20
3.4653532609
 30
0.0
 11
0.0201017978
 21
0.0
 31
0.0
 40
0.9949358851
 41
2.6201894802
 42
3.6629958269
  0
ELLIPSE
  5
86A
100
AcDbEntity
  8
0
100
AcDbEllipse
 62
7
  6
CONTINUOUS
 10
2.8744600955
 20
3.3104296576
 30
0.0
 11
0.0100508989
 21
0.0174086676
 31
0.0
 40
0.9949358851
 41
-3.6629958269
 42
-2.6201894802
  0
ELLIPSE
  5
86B
100
AcDbEntity
  8
0
100
AcDbEllipse
 62
7
  6
CONTINUOUS
 10
3.0533504635
 20
3.3104296576
 30
0.0
 11
-0.0100508989
 21
0.0174086676
 31
0.0
 40
0.9949358851
 41
-3.6629958269
 42
-2.6201894802
  0
ELLIPSE
  5
86C
100
AcDbEntity
  8
0
100
AcDbEllipse
 62
7
  6
CONTINUOUS
 10
3.1427956476
 20
3.4653532609
 30
0.0
 11
0.0201017978
 21
0.0
 31
0.0
 40
0.9949358851
 41
-0.5214031734
 42
0.5214031734
  0
ELLIPSE
  5
86D
100
AcDbEntity
  8
0
100
AcDbEllipse
 62
7
  6
CONTINUOUS
 10
3.0533504635
 20
3.6202768641
 30
0.0
 11
0.0100508989
 21
0.0174086676
 31
0.0
 40
0.9949358851
 41
-0.5214031734
 42
0.5214031734
  0
ELLIPSE
  5
86E
100
AcDbEntity
  8
0
100
AcDbEllipse
 62
7
  6
CONTINUOUS
 10
2.8744600955
 20
3.6202768641
 30
0.0
 11
-0.0100508989
 21
0.0174086676
 31
0.0
 40
0.9949358851
 41
-0.5214031734
 42
0.5214031734
  0
ELLIPSE
  5
86F
100
AcDbEntity
  8
0
100
AcDbEllipse
 62
7
  6
CONTINUOUS
 10
2.7850149114
 20
4.0153532609
 30
0.0
 11
0.0201017978
 21
0.0
 31
0.0
 40
0.9949358851
 41
2.6201894802
 42
3.6629958269
  0
ELLIPSE
  5
870
100
AcDbEntity
  8
0
100
AcDbEllipse
 62
7
  6
CONTINUOUS
 10
2.8744600955
 20
3.8604296576
 30
0.0
 11
0.0100508989
 21
0.0174086676
 31
0.0
 40
0.9949358851
 41
-3.6629958269
 42
-2.6201894802
  0
ELLIPSE
  5
871
100
AcDbEntity
  8
0
100
AcDbEllipse
 62
7
  6
CONTINUOUS
 10
3.0533504635
 20
3.8604296576
 30
0.0
 11
-0.0100508989
 21
0.0174086676
 31
0.0
 40
0.9949358851
 41
-3.6629958269
 42
-2.6201894802
  0
ELLIPSE
  5
872
100
AcDbEntity
  8
0
100
AcDbEllipse
 62
7
  6
CONTINUOUS
 10
3.1427956476
 20
4.0153532609
 30
0.0
 11
0.0201017978
 21
0.0
 31
0.0
 40
0.9949358851
 41
-0.5214031734
 42
0.5214031734
  0
ELLIPSE
  5
873
100
AcDbEntity
  8
0
100
AcDbEllipse
 62
7
  6
CONTINUOUS
 10
3.0533504635
 20
4.1702768641
 30
0.0
 11
0.0100508989
 21
0.0174086676
 31
0.0
 40
0.9949358851
 41
-0.5214031734
 42
0.5214031734
  0
ELLIPSE
  5
874
100
AcDbEntity
  8
0
100
AcDbEllipse
 62
7
  6
CONTINUOUS
 10
2.8744600955
 20
4.1702768641
 30
0.0
 11
-0.0100508989
 21
0.0174086676
 31
0.0
 40
0.9949358851
 41
-0.5214031734
 42
0.5214031734
  0
ELLIPSE
  5
875
100
AcDbEntity
  8
0
100
AcDbEllipse
 62
7
  6
CONTINUOUS
 10
2.7850149114
 20
4.5653532609
 30
0.0
 11
0.0201017978
 21
0.0
 31
0.0
 40
0.9949358851
 41
2.6201894802
 42
3.6629958269
  0
ELLIPSE
  5
876
100
AcDbEntity
  8
0
100
AcDbEllipse
 62
7
  6
CONTINUOUS
 10
2.8744600955
 20
4.4104296576
 30
0.0
 11
0.0100508989
 21
0.0174086676
 31
0.0
 40
0.9949358851
 41
-3.6629958269
 42
-2.6201894802
  0
ELLIPSE
  5
877
100
AcDbEntity
  8
0
100
AcDbEllipse
 62
7
  6
CONTINUOUS
 10
3.0533504635
 20
4.4104296576
 30
0.0
 11
-0.0100508989
 21
0.0174086676
 31
0.0
 40
0.9949358851
 41
-3.6629958269
 42
-2.6201894802
  0
ELLIPSE
  5
878
100
AcDbEntity
  8
0
100
AcDbEllipse
 62
7
  6
CONTINUOUS
 10
3.1427956476
 20
4.5653532609
 30
0.0
 11
0.0201017978
 21
0.0
 31
0.0
 40
0.9949358851
 41
-0.5214031734
 42
0.5214031734
  0
ELLIPSE
  5
879
100
AcDbEntity
  8
0
100
AcDbEllipse
 62
7
  6
CONTINUOUS
 10
3.0533504635
 20
4.7202768641
 30
0.0
 11
0.0100508989
 21
0.0174086676
 31
0.0
 40
0.9949358851
 41
-0.5214031734
 42
0.5214031734
  0
ELLIPSE
  5
87A
100
AcDbEntity
  8
0
100
AcDbEllipse
 62
7
  6
CONTINUOUS
 10
2.8744600955
 20
4.7202768641
 30
0.0
 11
-0.0100508989
 21
0.0174086676
 31
0.0
 40
0.9949358851
 41
-0.5214031734
 42
0.5214031734
  0
ELLIPSE
  5
87B
100
AcDbEntity
  8
0
100
AcDbEllipse
 62
7
  6
CONTINUOUS
 10
2.7850149114
 20
5.1153532609
 30
0.0
 11
0.0201017978
 21
0.0
 31
0.0
 40
0.9949358851
 41
2.6201894802
 42
3.6629958269
  0
ELLIPSE
  5
87C
100
AcDbEntity
  8
0
100
AcDbEllipse
 62
7
  6
CONTINUOUS
 10
2.8744600955
 20
4.9604296576
 30
0.0
 11
0.0100508989
 21
0.0174086676
 31
0.0
 40
0.9949358851
 41
-3.6629958269
 42
-2.6201894802
  0
ELLIPSE
  5
87D
100
AcDbEntity
  8
0
100
AcDbEllipse
 62
7
  6
CONTINUOUS
 10
3.0533504635
 20
4.9604296576
 30
0.0
 11
-0.0100508989
 21
0.0174086676
 31
0.0
 40
0.9949358851
 41
-3.6629958269
 42
-2.6201894802
  0
ELLIPSE
  5
87E
100
AcDbEntity
  8
0
100
AcDbEllipse
 62
7
  6
CONTINUOUS
 10
3.1427956476
 20
5.1153532609
 30
0.0
 11
0.0201017978
 21
0.0
 31
0.0
 40
0.9949358851
 41
-0.5214031734
 42
0.5214031734
  0
ELLIPSE
  5
87F
100
AcDbEntity
  8
0
100
AcDbEllipse
 62
7
  6
CONTINUOUS
 10
3.0533504635
 20
5.2702768641
 30
0.0
 11
0.0100508989
 21
0.0174086676
 31
0.0
 40
0.9949358851
 41
-0.5214031734
 42
0.5214031734
  0
ELLIPSE
  5
880
100
AcDbEntity
  8
0
100
AcDbEllipse
 62
7
  6
CONTINUOUS
 10
2.8744600955
 20
5.2702768641
 30
0.0
 11
-0.0100508989
 21
0.0174086676
 31
0.0
 40
0.9949358851
 41
-0.5214031734
 42
0.5214031734
  0
ELLIPSE
  5
881
100
AcDbEntity
  8
0
100
AcDbEllipse
 62
7
  6
CONTINUOUS
 10
2.7850149114
 20
5.6653532609
 30
0.0
 11
0.0201017978
 21
0.0
 31
0.0
 40
0.9949358851
 41
2.6201894802
 42
3.6629958269
  0
ELLIPSE
  5
882
100
AcDbEntity
  8
0
100
AcDbEllipse
 62
7
  6
CONTINUOUS
 10
2.8744600955
 20
5.5104296576
 30
0.0
 11
0.0100508989
 21
0.0174086676
 31
0.0
 40
0.9949358851
 41
-3.6629958269
 42
-2.6201894802
  0
ELLIPSE
  5
883
100
AcDbEntity
  8
0
100
AcDbEllipse
 62
7
  6
CONTINUOUS
 10
3.0533504635
 20
5.5104296576
 30
0.0
 11
-0.0100508989
 21
0.0174086676
 31
0.0
 40
0.9949358851
 41
-3.6629958269
 42
-2.6201894802
  0
ELLIPSE
  5
884
100
AcDbEntity
  8
0
100
AcDbEllipse
 62
7
  6
CONTINUOUS
 10
3.1427956476
 20
5.6653532609
 30
0.0
 11
0.0201017978
 21
-0.0
 31
0.0
 40
0.9949358851
 41
-0.5214031734
 42
0.5214031734
  0
ELLIPSE
  5
885
100
AcDbEntity
  8
0
100
AcDbEllipse
 62
7
  6
CONTINUOUS
 10
3.0533504635
 20
5.8202768641
 30
0.0
 11
0.0100508989
 21
0.0174086676
 31
0.0
 40
0.9949358851
 41
-0.5214031734
 42
0.5214031734
  0
ELLIPSE
  5
886
100
AcDbEntity
  8
0
100
AcDbEllipse
 62
7
  6
CONTINUOUS
 10
2.8744600955
 20
5.8202768641
 30
0.0
 11
-0.0100508989
 21
0.0174086676
 31
0.0
 40
0.9949358851
 41
-0.5214031734
 42
0.5214031734
  0
ELLIPSE
  5
887
100
AcDbEntity
  8
0
100
AcDbEllipse
 62
7
  6
CONTINUOUS
 10
2.7850149114
 20
6.2153532609
 30
0.0
 11
0.0201017978
 21
-0.0
 31
0.0
 40
0.9949358851
 41
2.6201894802
 42
3.6629958269
  0
ELLIPSE
  5
888
100
AcDbEntity
  8
0
100
AcDbEllipse
 62
7
  6
CONTINUOUS
 10
2.8744600955
 20
6.0604296576
 30
0.0
 11
0.0100508989
 21
0.0174086676
 31
0.0
 40
0.9949358851
 41
-3.6629958269
 42
-2.6201894802
  0
ELLIPSE
  5
889
100
AcDbEntity
  8
0
100
AcDbEllipse
 62
7
  6
CONTINUOUS
 10
3.0533504635
 20
6.0604296576
 30
0.0
 11
-0.0100508989
 21
0.0174086676
 31
0.0
 40
0.9949358851
 41
-3.6629958269
 42
-2.6201894802
  0
ELLIPSE
  5
88A
100
AcDbEntity
  8
0
100
AcDbEllipse
 62
7
  6
CONTINUOUS
 10
3.1427956476
 20
6.2153532609
 30
0.0
 11
0.0201017978
 21
-0.0
 31
0.0
 40
0.9949358851
 41
-0.5214031734
 42
0.5214031734
  0
ELLIPSE
  5
88B
100
AcDbEntity
  8
0
100
AcDbEllipse
 62
7
  6
CONTINUOUS
 10
3.0533504635
 20
6.3702768641
 30
0.0
 11
0.0100508989
 21
0.0174086676
 31
0.0
 40
0.9949358851
 41
-0.5214031734
 42
0.5214031734
  0
ELLIPSE
  5
88C
100
AcDbEntity
  8
0
100
AcDbEllipse
 62
7
  6
CONTINUOUS
 10
2.8744600955
 20
6.3702768641
 30
0.0
 11
-0.0100508989
 21
0.0174086676
 31
0.0
 40
0.9949358851
 41
-0.5214031734
 42
0.5214031734
  0
ELLIPSE
  5
88D
100
AcDbEntity
  8
0
100
AcDbEllipse
 62
7
  6
CONTINUOUS
 10
2.7850149114
 20
6.7653532609
 30
0.0
 11
0.0201017978
 21
-0.0
 31
0.0
 40
0.9949358851
 41
2.6201894802
 42
3.6629958269
  0
ELLIPSE
  5
88E
100
AcDbEntity
  8
0
100
AcDbEllipse
 62
7
  6
CONTINUOUS
 10
2.8744600955
 20
6.6104296576
 30
0.0
 11
0.0100508989
 21
0.0174086676
 31
0.0
 40
0.9949358851
 41
-3.6629958269
 42
-2.6201894802
  0
ELLIPSE
  5
88F
100
AcDbEntity
  8
0
100
AcDbEllipse
 62
7
  6
CONTINUOUS
 10
3.0533504635
 20
6.6104296576
 30
0.0
 11
-0.0100508989
 21
0.0174086676
 31
0.0
 40
0.9949358851
 41
-3.6629958269
 42
-2.6201894802
  0
ELLIPSE
  5
890
100
AcDbEntity
  8
0
100
AcDbEllipse
 62
7
  6
CONTINUOUS
 10
3.1427956476
 20
6.7653532609
 30
0.0
 11
0.0201017978
 21
-0.0
 31
0.0
 40
0.9949358851
 41
-0.5214031734
 42
0.5214031734
  0
ELLIPSE
  5
891
100
AcDbEntity
  8
0
100
AcDbEllipse
 62
7
  6
CONTINUOUS
 10
3.0533504635
 20
6.9202768641
 30
0.0
 11
0.0100508989
 21
0.0174086676
 31
0.0
 40
0.9949358851
 41
-0.5214031734
 42
0.5214031734
  0
ELLIPSE
  5
892
100
AcDbEntity
  8
0
100
AcDbEllipse
 62
7
  6
CONTINUOUS
 10
2.8744600955
 20
6.9202768641
 30
0.0
 11
-0.0100508989
 21
0.0174086676
 31
0.0
 40
0.9949358851
 41
-0.5214031734
 42
0.5214031734
  0
ELLIPSE
  5
893
100
AcDbEntity
  8
0
100
AcDbEllipse
 62
7
  6
CONTINUOUS
 10
2.0980149114
 20
1.8153532609
 30
0.0
 11
0.0201017978
 21
0.0
 31
0.0
 40
0.9949358851
 41
2.6201894802
 42
3.6629958269
  0
ELLIPSE
  5
894
100
AcDbEntity
  8
0
100
AcDbEllipse
 62
7
  6
CONTINUOUS
 10
2.1874600955
 20
1.6604296576
 30
0.0
 11
0.0100508989
 21
0.0174086676
 31
0.0
 40
0.9949358851
 41
-3.6629958269
 42
-2.6201894802
  0
ELLIPSE
  5
895
100
AcDbEntity
  8
0
100
AcDbEllipse
 62
7
  6
CONTINUOUS
 10
2.3663504635
 20
1.6604296576
 30
0.0
 11
-0.0100508989
 21
0.0174086676
 31
0.0
 40
0.9949358851
 41
-3.6629958269
 42
-2.6201894802
  0
ELLIPSE
  5
896
100
AcDbEntity
  8
0
100
AcDbEllipse
 62
7
  6
CONTINUOUS
 10
2.4557956476
 20
1.8153532609
 30
0.0
 11
0.0201017978
 21
0.0
 31
0.0
 40
0.9949358851
 41
-0.5214031734
 42
0.5214031734
  0
ELLIPSE
  5
897
100
AcDbEntity
  8
0
100
AcDbEllipse
 62
7
  6
CONTINUOUS
 10
2.3663504635
 20
1.9702768641
 30
0.0
 11
0.0100508989
 21
0.0174086676
 31
0.0
 40
0.9949358851
 41
-0.5214031734
 42
0.5214031734
  0
ELLIPSE
  5
898
100
AcDbEntity
  8
0
100
AcDbEllipse
 62
7
  6
CONTINUOUS
 10
2.1874600955
 20
1.9702768641
 30
0.0
 11
-0.0100508989
 21
0.0174086676
 31
0.0
 40
0.9949358851
 41
-0.5214031734
 42
0.5214031734
  0
ELLIPSE
  5
899
100
AcDbEntity
  8
0
100
AcDbEllipse
 62
7
  6
CONTINUOUS
 10
2.0980149114
 20
2.3653532609
 30
0.0
 11
0.0201017978
 21
0.0
 31
0.0
 40
0.9949358851
 41
2.6201894802
 42
3.6629958269
  0
ELLIPSE
  5
89A
100
AcDbEntity
  8
0
100
AcDbEllipse
 62
7
  6
CONTINUOUS
 10
2.1874600955
 20
2.2104296576
 30
0.0
 11
0.0100508989
 21
0.0174086676
 31
0.0
 40
0.9949358851
 41
-3.6629958269
 42
-2.6201894802
  0
ELLIPSE
  5
89B
100
AcDbEntity
  8
0
100
AcDbEllipse
 62
7
  6
CONTINUOUS
 10
2.3663504635
 20
2.2104296576
 30
0.0
 11
-0.0100508989
 21
0.0174086676
 31
0.0
 40
0.9949358851
 41
-3.6629958269
 42
-2.6201894802
  0
ELLIPSE
  5
89C
100
AcDbEntity
  8
0
100
AcDbEllipse
 62
7
  6
CONTINUOUS
 10
2.4557956476
 20
2.3653532609
 30
0.0
 11
0.0201017978
 21
-0.0
 31
0.0
 40
0.9949358851
 41
-0.5214031734
 42
0.5214031734
  0
ELLIPSE
  5
89D
100
AcDbEntity
  8
0
100
AcDbEllipse
 62
7
  6
CONTINUOUS
 10
2.3663504635
 20
2.5202768641
 30
0.0
 11
0.0100508989
 21
0.0174086676
 31
0.0
 40
0.9949358851
 41
-0.5214031734
 42
0.5214031734
  0
ELLIPSE
  5
89E
100
AcDbEntity
  8
0
100
AcDbEllipse
 62
7
  6
CONTINUOUS
 10
2.1874600955
 20
2.5202768641
 30
0.0
 11
-0.0100508989
 21
0.0174086676
 31
0.0
 40
0.9949358851
 41
-0.5214031734
 42
0.5214031734
  0
ELLIPSE
  5
89F
100
AcDbEntity
  8
0
100
AcDbEllipse
 62
7
  6
CONTINUOUS
 10
2.0980149114
 20
2.9153532609
 30
0.0
 11
0.0201017978
 21
-0.0
 31
0.0
 40
0.9949358851
 41
2.6201894802
 42
3.6629958269
  0
ELLIPSE
  5
8A0
100
AcDbEntity
  8
0
100
AcDbEllipse
 62
7
  6
CONTINUOUS
 10
2.1874600955
 20
2.7604296576
 30
0.0
 11
0.0100508989
 21
0.0174086676
 31
0.0
 40
0.9949358851
 41
-3.6629958269
 42
-2.6201894802
  0
ELLIPSE
  5
8A1
100
AcDbEntity
  8
0
100
AcDbEllipse
 62
7
  6
CONTINUOUS
 10
2.3663504635
 20
2.7604296576
 30
0.0
 11
-0.0100508989
 21
0.0174086676
 31
0.0
 40
0.9949358851
 41
-3.6629958269
 42
-2.6201894802
  0
ELLIPSE
  5
8A2
100
AcDbEntity
  8
0
100
AcDbEllipse
 62
7
  6
CONTINUOUS
 10
2.4557956476
 20
2.9153532609
 30
0.0
 11
0.0201017978
 21
0.0
 31
0.0
 40
0.9949358851
 41
-0.5214031734
 42
0.5214031734
  0
ELLIPSE
  5
8A3
100
AcDbEntity
  8
0
100
AcDbEllipse
 62
7
  6
CONTINUOUS
 10
2.3663504635
 20
3.0702768641
 30
0.0
 11
0.0100508989
 21
0.0174086676
 31
0.0
 40
0.9949358851
 41
-0.5214031734
 42
0.5214031734
  0
ELLIPSE
  5
8A4
100
AcDbEntity
  8
0
100
AcDbEllipse
 62
7
  6
CONTINUOUS
 10
2.1874600955
 20
3.0702768641
 30
0.0
 11
-0.0100508989
 21
0.0174086676
 31
0.0
 40
0.9949358851
 41
-0.5214031734
 42
0.5214031734
  0
ELLIPSE
  5
8A5
100
AcDbEntity
  8
0
100
AcDbEllipse
 62
7
  6
CONTINUOUS
 10
2.0980149114
 20
3.4653532609
 30
0.0
 11
0.0201017978
 21
0.0
 31
0.0
 40
0.9949358851
 41
2.6201894802
 42
3.6629958269
  0
ELLIPSE
  5
8A6
100
AcDbEntity
  8
0
100
AcDbEllipse
 62
7
  6
CONTINUOUS
 10
2.1874600955
 20
3.3104296576
 30
0.0
 11
0.0100508989
 21
0.0174086676
 31
0.0
 40
0.9949358851
 41
-3.6629958269
 42
-2.6201894802
  0
ELLIPSE
  5
8A7
100
AcDbEntity
  8
0
100
AcDbEllipse
 62
7
  6
CONTINUOUS
 10
2.3663504635
 20
3.3104296576
 30
0.0
 11
-0.0100508989
 21
0.0174086676
 31
0.0
 40
0.9949358851
 41
-3.6629958269
 42
-2.6201894802
  0
ELLIPSE
  5
8A8
100
AcDbEntity
  8
0
100
AcDbEllipse
 62
7
  6
CONTINUOUS
 10
2.4557956476
 20
3.4653532609
 30
0.0
 11
0.0201017978
 21
0.0
 31
0.0
 40
0.9949358851
 41
-0.5214031734
 42
0.5214031734
  0
ELLIPSE
  5
8A9
100
AcDbEntity
  8
0
100
AcDbEllipse
 62
7
  6
CONTINUOUS
 10
2.3663504635
 20
3.6202768641
 30
0.0
 11
0.0100508989
 21
0.0174086676
 31
0.0
 40
0.9949358851
 41
-0.5214031734
 42
0.5214031734
  0
ELLIPSE
  5
8AA
100
AcDbEntity
  8
0
100
AcDbEllipse
 62
7
  6
CONTINUOUS
 10
2.1874600955
 20
3.6202768641
 30
0.0
 11
-0.0100508989
 21
0.0174086676
 31
0.0
 40
0.9949358851
 41
-0.5214031734
 42
0.5214031734
  0
ELLIPSE
  5
8AB
100
AcDbEntity
  8
0
100
AcDbEllipse
 62
7
  6
CONTINUOUS
 10
2.0980149114
 20
4.0153532609
 30
0.0
 11
0.0201017978
 21
-0.0
 31
0.0
 40
0.9949358851
 41
2.6201894802
 42
3.6629958269
  0
ELLIPSE
  5
8AC
100
AcDbEntity
  8
0
100
AcDbEllipse
 62
7
  6
CONTINUOUS
 10
2.1874600955
 20
3.8604296576
 30
0.0
 11
0.0100508989
 21
0.0174086676
 31
0.0
 40
0.9949358851
 41
-3.6629958269
 42
-2.6201894802
  0
ELLIPSE
  5
8AD
100
AcDbEntity
  8
0
100
AcDbEllipse
 62
7
  6
CONTINUOUS
 10
2.3663504635
 20
3.8604296576
 30
0.0
 11
-0.0100508989
 21
0.0174086676
 31
0.0
 40
0.9949358851
 41
-3.6629958269
 42
-2.6201894802
  0
ELLIPSE
  5
8AE
100
AcDbEntity
  8
0
100
AcDbEllipse
 62
7
  6
CONTINUOUS
 10
2.4557956476
 20
4.0153532609
 30
0.0
 11
0.0201017978
 21
-0.0
 31
0.0
 40
0.9949358851
 41
-0.5214031734
 42
0.5214031734
  0
ELLIPSE
  5
8AF
100
AcDbEntity
  8
0
100
AcDbEllipse
 62
7
  6
CONTINUOUS
 10
2.3663504635
 20
4.1702768641
 30
0.0
 11
0.0100508989
 21
0.0174086676
 31
0.0
 40
0.9949358851
 41
-0.5214031734
 42
0.5214031734
  0
ELLIPSE
  5
8B0
100
AcDbEntity
  8
0
100
AcDbEllipse
 62
7
  6
CONTINUOUS
 10
2.1874600955
 20
4.1702768641
 30
0.0
 11
-0.0100508989
 21
0.0174086676
 31
0.0
 40
0.9949358851
 41
-0.5214031734
 42
0.5214031734
  0
ELLIPSE
  5
8B1
100
AcDbEntity
  8
0
100
AcDbEllipse
 62
7
  6
CONTINUOUS
 10
2.0980149114
 20
4.5653532609
 30
0.0
 11
0.0201017978
 21
-0.0
 31
0.0
 40
0.9949358851
 41
2.6201894802
 42
3.6629958269
  0
ELLIPSE
  5
8B2
100
AcDbEntity
  8
0
100
AcDbEllipse
 62
7
  6
CONTINUOUS
 10
2.1874600955
 20
4.4104296576
 30
0.0
 11
0.0100508989
 21
0.0174086676
 31
0.0
 40
0.9949358851
 41
-3.6629958269
 42
-2.6201894802
  0
ELLIPSE
  5
8B3
100
AcDbEntity
  8
0
100
AcDbEllipse
 62
7
  6
CONTINUOUS
 10
2.3663504635
 20
4.4104296576
 30
0.0
 11
-0.0100508989
 21
0.0174086676
 31
0.0
 40
0.9949358851
 41
-3.6629958269
 42
-2.6201894802
  0
ELLIPSE
  5
8B4
100
AcDbEntity
  8
0
100
AcDbEllipse
 62
7
  6
CONTINUOUS
 10
2.4557956476
 20
4.5653532609
 30
0.0
 11
0.0201017978
 21
0.0
 31
0.0
 40
0.9949358851
 41
-0.5214031734
 42
0.5214031734
  0
ELLIPSE
  5
8B5
100
AcDbEntity
  8
0
100
AcDbEllipse
 62
7
  6
CONTINUOUS
 10
2.3663504635
 20
4.7202768641
 30
0.0
 11
0.0100508989
 21
0.0174086676
 31
0.0
 40
0.9949358851
 41
-0.5214031734
 42
0.5214031734
  0
ELLIPSE
  5
8B6
100
AcDbEntity
  8
0
100
AcDbEllipse
 62
7
  6
CONTINUOUS
 10
2.1874600955
 20
4.7202768641
 30
0.0
 11
-0.0100508989
 21
0.0174086676
 31
0.0
 40
0.9949358851
 41
-0.5214031734
 42
0.5214031734
  0
ELLIPSE
  5
8B7
100
AcDbEntity
  8
0
100
AcDbEllipse
 62
7
  6
CONTINUOUS
 10
2.0980149114
 20
5.1153532609
 30
0.0
 11
0.0201017978
 21
-0.0
 31
0.0
 40
0.9949358851
 41
2.6201894802
 42
3.6629958269
  0
ELLIPSE
  5
8B8
100
AcDbEntity
  8
0
100
AcDbEllipse
 62
7
  6
CONTINUOUS
 10
2.1874600955
 20
4.9604296576
 30
0.0
 11
0.0100508989
 21
0.0174086676
 31
0.0
 40
0.9949358851
 41
-3.6629958269
 42
-2.6201894802
  0
ELLIPSE
  5
8B9
100
AcDbEntity
  8
0
100
AcDbEllipse
 62
7
  6
CONTINUOUS
 10
2.3663504635
 20
4.9604296576
 30
0.0
 11
-0.0100508989
 21
0.0174086676
 31
0.0
 40
0.9949358851
 41
-3.6629958269
 42
-2.6201894802
  0
ELLIPSE
  5
8BA
100
AcDbEntity
  8
0
100
AcDbEllipse
 62
7
  6
CONTINUOUS
 10
2.4557956476
 20
5.1153532609
 30
0.0
 11
0.0201017978
 21
0.0
 31
0.0
 40
0.9949358851
 41
-0.5214031734
 42
0.5214031734
  0
ELLIPSE
  5
8BB
100
AcDbEntity
  8
0
100
AcDbEllipse
 62
7
  6
CONTINUOUS
 10
2.3663504635
 20
5.2702768641
 30
0.0
 11
0.0100508989
 21
0.0174086676
 31
0.0
 40
0.9949358851
 41
-0.5214031734
 42
0.5214031734
  0
ELLIPSE
  5
8BC
100
AcDbEntity
  8
0
100
AcDbEllipse
 62
7
  6
CONTINUOUS
 10
2.1874600955
 20
5.2702768641
 30
0.0
 11
-0.0100508989
 21
0.0174086676
 31
0.0
 40
0.9949358851
 41
-0.5214031734
 42
0.5214031734
  0
ELLIPSE
  5
8BD
100
AcDbEntity
  8
0
100
AcDbEllipse
 62
7
  6
CONTINUOUS
 10
2.0980149114
 20
5.6653532609
 30
0.0
 11
0.0201017978
 21
-0.0
 31
0.0
 40
0.9949358851
 41
2.6201894802
 42
3.6629958269
  0
ELLIPSE
  5
8BE
100
AcDbEntity
  8
0
100
AcDbEllipse
 62
7
  6
CONTINUOUS
 10
2.1874600955
 20
5.5104296576
 30
0.0
 11
0.0100508989
 21
0.0174086676
 31
0.0
 40
0.9949358851
 41
-3.6629958269
 42
-2.6201894802
  0
ELLIPSE
  5
8BF
100
AcDbEntity
  8
0
100
AcDbEllipse
 62
7
  6
CONTINUOUS
 10
2.3663504635
 20
5.5104296576
 30
0.0
 11
-0.0100508989
 21
0.0174086676
 31
0.0
 40
0.9949358851
 41
-3.6629958269
 42
-2.6201894802
  0
ELLIPSE
  5
8C0
100
AcDbEntity
  8
0
100
AcDbEllipse
 62
7
  6
CONTINUOUS
 10
2.4557956476
 20
5.6653532609
 30
0.0
 11
0.0201017978
 21
0.0
 31
0.0
 40
0.9949358851
 41
-0.5214031734
 42
0.5214031734
  0
ELLIPSE
  5
8C1
100
AcDbEntity
  8
0
100
AcDbEllipse
 62
7
  6
CONTINUOUS
 10
2.3663504635
 20
5.8202768641
 30
0.0
 11
0.0100508989
 21
0.0174086676
 31
0.0
 40
0.9949358851
 41
-0.5214031734
 42
0.5214031734
  0
ELLIPSE
  5
8C2
100
AcDbEntity
  8
0
100
AcDbEllipse
 62
7
  6
CONTINUOUS
 10
2.1874600955
 20
5.8202768641
 30
0.0
 11
-0.0100508989
 21
0.0174086676
 31
0.0
 40
0.9949358851
 41
-0.5214031734
 42
0.5214031734
  0
ELLIPSE
  5
8C3
100
AcDbEntity
  8
0
100
AcDbEllipse
 62
7
  6
CONTINUOUS
 10
2.0980149114
 20
6.2153532609
 30
0.0
 11
0.0201017978
 21
0.0
 31
0.0
 40
0.9949358851
 41
2.6201894802
 42
3.6629958269
  0
ELLIPSE
  5
8C4
100
AcDbEntity
  8
0
100
AcDbEllipse
 62
7
  6
CONTINUOUS
 10
2.1874600955
 20
6.0604296576
 30
0.0
 11
0.0100508989
 21
0.0174086676
 31
0.0
 40
0.9949358851
 41
-3.6629958269
 42
-2.6201894802
  0
ELLIPSE
  5
8C5
100
AcDbEntity
  8
0
100
AcDbEllipse
 62
7
  6
CONTINUOUS
 10
2.3663504635
 20
6.0604296576
 30
0.0
 11
-0.0100508989
 21
0.0174086676
 31
0.0
 40
0.9949358851
 41
-3.6629958269
 42
-2.6201894802
  0
ELLIPSE
  5
8C6
100
AcDbEntity
  8
0
100
AcDbEllipse
 62
7
  6
CONTINUOUS
 10
2.4557956476
 20
6.2153532609
 30
0.0
 11
0.0201017978
 21
-0.0
 31
0.0
 40
0.9949358851
 41
-0.5214031734
 42
0.5214031734
  0
ELLIPSE
  5
8C7
100
AcDbEntity
  8
0
100
AcDbEllipse
 62
7
  6
CONTINUOUS
 10
2.3663504635
 20
6.3702768641
 30
0.0
 11
0.0100508989
 21
0.0174086676
 31
0.0
 40
0.9949358851
 41
-0.5214031734
 42
0.5214031734
  0
ELLIPSE
  5
8C8
100
AcDbEntity
  8
0
100
AcDbEllipse
 62
7
  6
CONTINUOUS
 10
2.1874600955
 20
6.3702768641
 30
0.0
 11
-0.0100508989
 21
0.0174086676
 31
0.0
 40
0.9949358851
 41
-0.5214031734
 42
0.5214031734
  0
ELLIPSE
  5
8C9
100
AcDbEntity
  8
0
100
AcDbEllipse
 62
7
  6
CONTINUOUS
 10
2.0980149114
 20
6.7653532609
 30
0.0
 11
0.0201017978
 21
0.0
 31
0.0
 40
0.9949358851
 41
2.6201894802
 42
3.6629958269
  0
ELLIPSE
  5
8CA
100
AcDbEntity
  8
0
100
AcDbEllipse
 62
7
  6
CONTINUOUS
 10
2.1874600955
 20
6.6104296576
 30
0.0
 11
0.0100508989
 21
0.0174086676
 31
0.0
 40
0.9949358851
 41
-3.6629958269
 42
-2.6201894802
  0
ELLIPSE
  5
8CB
100
AcDbEntity
  8
0
100
AcDbEllipse
 62
7
  6
CONTINUOUS
 10
2.3663504635
 20
6.6104296576
 30
0.0
 11
-0.0100508989
 21
0.0174086676
 31
0.0
 40
0.9949358851
 41
-3.6629958269
 42
-2.6201894802
  0
ELLIPSE
  5
8CC
100
AcDbEntity
  8
0
100
AcDbEllipse
 62
7
  6
CONTINUOUS
 10
2.4557956476
 20
6.7653532609
 30
0.0
 11
0.0201017978
 21
0.0
 31
0.0
 40
0.9949358851
 41
-0.5214031734
 42
0.5214031734
  0
ELLIPSE
  5
8CD
100
AcDbEntity
  8
0
100
AcDbEllipse
 62
7
  6
CONTINUOUS
 10
2.3663504635
 20
6.9202768641
 30
0.0
 11
0.0100508989
 21
0.0174086676
 31
0.0
 40
0.9949358851
 41
-0.5214031734
 42
0.5214031734
  0
ELLIPSE
  5
8CE
100
AcDbEntity
  8
0
100
AcDbEllipse
 62
7
  6
CONTINUOUS
 10
2.1874600955
 20
6.9202768641
 30
0.0
 11
-0.0100508989
 21
0.0174086676
 31
0.0
 40
0.9949358851
 41
-0.5214031734
 42
0.5214031734
  0
ENDSEC
  0
SECTION
  2
OBJECTS
  0
DICTIONARY
  5
C
100
AcDbDictionary
280
0
281
1
  3
ACAD_GROUP
350
D
  3
ACAD_MLINESTYLE
350
17
  3
ACAD_LAYOUT
350
1A
  3
ACAD_PLOTSETTINGS
350
19
  3
ACAD_PLOTSTYLENAME
350
E
  0
DICTIONARY
  5
D
102
{ACAD_REACTORS
330
C
102
}
100
AcDbDictionary
280
0
281
1
  0
ACDBDICTIONARYWDFLT
  5
E
102
{ACAD_REACTORS
330
C
102
}
100
AcDbDictionary
281
1
  3
Normal
350
F
100
AcDbDictionaryWithDefault
340
F
  0
DICTIONARY
  5
17
102
{ACAD_REACTORS
330
C
102
}
100
AcDbDictionary
280
0
281
1
  3
Standard
350
18
  0
DICTIONARY
  5
19
102
{ACAD_REACTORS
330
C
102
}
100
AcDbDictionary
281
1
  0
DICTIONARY
  5
1A
102
{ACAD_REACTORS
330
C
102
}
100
AcDbDictionary
281
1
  3
Model
350
8CF
  3
Layout1
350
8D0
  0
ACDBPLACEHOLDER
  5
F
102
{ACAD_REACTORS
330
E
102
}
  0
MLINESTYLE
  5
18
102
{ACAD_REACTORS
330
17
102
}
100
AcDbMlineStyle
  2
STANDARD
 70
0
  3

 62
256
 51
90.0
 52
90.0
 71
2
 49
0.5
 62
256
  6
BYLAYER
 49
-0.5
 62
256
  6
BYLAYER
  0
LAYOUT
  5
8CF
102
{ACAD_REACTORS
330
1A
102
}
100
AcDbPlotSettings
  1

  2
none_device
  4
ANSI_A_(11.00_x_8.50_Inches)
  6

 40
0.0
 41
0.0
 42
0.0
 43
0.0
 44
279.4
 45
215.9
 46
0.0
 47
0.0
 48
0.0
 49
0.0
140
0.0
141
0.0
142
1.0
143
1.0
 70
1024
 72
0
 73
0
 74
0
  7

 75
0
147
1.0
148
0.0
149
0.0
100
AcDbLayout
  1
Model
 70
0
 71
0
 10
0.0
 20
0.0
 11
11.0
 21
8.5
 12
0.0
 22
0.0
 32
0.0
 14
0.0
 24
0.0
 34
0.0
 15
0.0
 25
0.0
 35
0.0
146
0.0
 13
0.0
 23
0.0
 33
0.0
 16
1.0
 26
0.0
 36
0.0
 17
0.0
 27
1.0
 37
0.0
 76
0
330
207
345
0
346
0
  0
LAYOUT
  5
8D0
102
{ACAD_REACTORS
330
1A
102
}
100
AcDbPlotSettings
  1

  2
none_device
  4
ANSI_A_(11.00_x_8.50_Inches)
  6

 40
0.0
 41
0.0
 42
0.0
 43
0.0
 44
279.4
 45
215.9
 46
0.0
 47
0.0
 48
0.0
 49
0.0
140
0.0
141
0.0
142
1.0
143
1.0
 70
0
 72
0
 73
0
 74
0
  7

 75
0
147
1.0
148
0.0
149
0.0
100
AcDbLayout
  1
Layout1
 70
0
 71
1
 10
0.0
 20
0.0
 11
11.0
 21
8.5
 12
0.0
 22
0.0
 32
0.0
 14
0.0
 24
0.0
 34
0.0
 15
0.0
 25
0.0
 35
0.0
146
0.0
 13
0.0
 23
0.0
 33
0.0
 16
1.0
 26
0.0
 36
0.0
 17
0.0
 27
1.0
 37
0.0
 76
0
330
208
345
0
346
0
  0
ENDSEC
  0
EOF
