999
DXF file: 238_RIGHT.dxf
999
Pro/ENGINEER 2018400 by Parametric Technology Corporation
  0
SECTION
  2
HEADER
  9
$ACADVER
  1
AC1027
  9
$DWGCODEPAGE
  3
ANSI_1252
  9
$EXTMAX
 10
11.0
 20
8.5
 30
0.0
  9
$EXTMIN
 10
0.0
 20
0.0
 30
0.0
  9
$LIMMIN
 10
0.0
 20
0.0
  9
$LIMMAX
 10
11.0
 20
8.5
  9
$VIEWCTR
 10
5.5
 20
4.25
  9
$VIEWSIZE
 40
8.5
  9
$CLAYER
  8
0
  9
$LTSCALE
 40
0.605
  9
$CELTYPE
  6
BYLAYER
  9
$DIMSCALE
 40
1.0
  9
$DIMASZ
 40
0.1
  9
$DIMEXO
 40
0.0625
  9
$DIMDLI
 40
0.418
  9
$DIMEXE
 40
0.125
  9
$DIMCEN
 40
0.099
  9
$DIMLFAC
 40
1.0
  9
$DIMBLK
  1
_FILLED
  9
$DIMALT
 70
1
  9
$DIMALTD
 70
1
  9
$DIMALTTD
 70
2
  9
$DIMALTF
 40
25.4
  9
$DIMTXT
 40
0.08
  9
$DIMTOL
 70
1
  9
$DIMLIM
 70
0
  9
$DIMTFAC
 40
1.0
  9
$DIMTP
 40
0.01
  9
$DIMTM
 40
0.01
  9
$DIMGAP
 40
0.09
  9
$DIMDSEP
 70
46
  9
$AUNITS
 70
0
  9
$PDMODE
 70
3
  9
$PDSIZE
 40
0.3125
  9
$HANDSEED
  5
364
  9
$TILEMODE
 70
1
  9
$MEASUREMENT
 70
0
  9
$INSUNITS
 70
1
  0
ENDSEC
  0
SECTION
  2
CLASSES
  0
CLASS
  1
ACDBDICTIONARYWDFLT
  2
AcDbDictionaryWithDefault
  3
AutoCAD 2000
 90
0
 91
1
280
0
281
0
  0
CLASS
  1
ACDBPLACEHOLDER
  2
AcDbPlaceHolder
  3
AutoCAD 2000
 90
0
 91
1
280
0
281
0
  0
CLASS
  1
LAYOUT
  2
AcDbLayout
  3
AutoCAD 2000
 90
0
 91
0
280
0
281
0
  0
ENDSEC
  0
SECTION
  2
TABLES
  0
TABLE
  2
VPORT
  5
8
100
AcDbSymbolTable
 70
2
  0
VPORT
  5
1F4
100
AcDbSymbolTableRecord
100
AcDbViewportTableRecord
  2
*ACTIVE
 70
0
 10
0.0
 20
0.0
 11
1.0
 21
1.0
 12
5.5
 22
4.25
 13
0.0
 23
0.0
 14
1.0
 24
1.0
 15
0.0
 25
0.0
 16
0.0
 26
0.0
 36
1.0
 17
0.0
 27
0.0
 37
0.0
 40
8.5
 41
1.2941176471
 42
50.0
 43
0.0
 44
0.0
 50
0.0
 51
0.0
 71
0
 72
100
 73
1
 74
1
 75
0
 76
0
 77
0
 78
0
  0
ENDTAB
  0
TABLE
  2
LTYPE
  5
5
100
AcDbSymbolTable
 70
6
  0
LTYPE
  5
14
100
AcDbSymbolTableRecord
100
AcDbLinetypeTableRecord
  2
BYBLOCK
 70
0
  3

 72
65
 73
0
 40
0.0
  0
LTYPE
  5
15
100
AcDbSymbolTableRecord
100
AcDbLinetypeTableRecord
  2
BYLAYER
 70
0
  3

 72
65
 73
0
 40
0.0
  0
LTYPE
  5
16
100
AcDbSymbolTableRecord
100
AcDbLinetypeTableRecord
  2
CONTINUOUS
 70
64
  3
Solid line
 72
65
 73
0
 40
0.0
  0
LTYPE
  5
1F5
100
AcDbSymbolTableRecord
100
AcDbLinetypeTableRecord
  2
CENTER
 70
64
  3
____ _ ____ _ ____ _ ____ _ ____ _ ____ _ ____
 72
65
 73
4
 40
0.6
 49
0.375
 74
0
 49
-0.075
 74
0
 49
0.075
 74
0
 49
-0.075
 74
0
  0
LTYPE
  5
1F6
100
AcDbSymbolTableRecord
100
AcDbLinetypeTableRecord
  2
HIDDEN
 70
64
  3
- - - - - - - - - - - - - - - - - - - -
 72
65
 73
2
 40
0.2
 49
0.1
 74
0
 49
-0.1
 74
0
  0
LTYPE
  5
1F7
100
AcDbSymbolTableRecord
100
AcDbLinetypeTableRecord
  2
PHANTOM
 70
64
  3
_____ _ _ _____ _ _ _____ _ _ _____
 72
65
 73
6
 40
0.8
 49
0.45
 74
0
 49
-0.05
 74
0
 49
0.1
 74
0
 49
-0.05
 74
0
 49
0.1
 74
0
 49
-0.05
 74
0
  0
LTYPE
  5
1F8
100
AcDbSymbolTableRecord
100
AcDbLinetypeTableRecord
  2
DOT
 70
64
  3
. . . . . . . . . . . . . . . . . . . .
 72
65
 73
2
 40
0.2
 49
0.1
 74
0
 49
-0.1
 74
0
  0
LTYPE
  5
1F9
100
AcDbSymbolTableRecord
100
AcDbLinetypeTableRecord
  2
DASHED
 70
64
  3
- - - - - - - - - - - - - - - - - - - -
 72
65
 73
2
 40
0.2
 49
0.1
 74
0
 49
-0.1
 74
0
  0
ENDTAB
  0
TABLE
  2
LAYER
  5
2
100
AcDbSymbolTable
 70
36
  0
LAYER
  5
10
100
AcDbSymbolTableRecord
100
AcDbLayerTableRecord
  2
0
 70
0
 62
7
  6
CONTINUOUS
370
-3
390
F
  0
LAYER
  5
1FA
100
AcDbSymbolTableRecord
100
AcDbLayerTableRecord
  2
DEFAULT_1
 70
0
 62
7
  6
CENTER
370
-3
390
F
  0
LAYER
  5
1FB
100
AcDbSymbolTableRecord
100
AcDbLayerTableRecord
  2
DEFAULT_2
 70
0
 62
8
  6
HIDDEN
370
-3
390
F
  0
LAYER
  5
1FC
100
AcDbSymbolTableRecord
100
AcDbLayerTableRecord
  2
DEFAULT_3
 70
0
 62
7
  6
PHANTOM
370
-3
390
F
  0
LAYER
  5
1FD
100
AcDbSymbolTableRecord
100
AcDbLayerTableRecord
  2
ALL_FEATURES
 70
0
 62
7
  6
CONTINUOUS
370
-3
390
F
  0
LAYER
  5
1FE
100
AcDbSymbolTableRecord
100
AcDbLayerTableRecord
  2
AXES_FEATURES
 70
0
 62
7
  6
CONTINUOUS
370
-3
390
F
  0
LAYER
  5
1FF
100
AcDbSymbolTableRecord
100
AcDbLayerTableRecord
  2
CHAMFER_FEATURES
 70
0
 62
7
  6
CONTINUOUS
370
-3
390
F
  0
LAYER
  5
200
100
AcDbSymbolTableRecord
100
AcDbLayerTableRecord
  2
CUT_FEATURES
 70
0
 62
7
  6
CONTINUOUS
370
-3
390
F
  0
LAYER
  5
201
100
AcDbSymbolTableRecord
100
AcDbLayerTableRecord
  2
DEFAULT_COORDINATE_SYSTEM
 70
0
 62
7
  6
CONTINUOUS
370
-3
390
F
  0
LAYER
  5
202
100
AcDbSymbolTableRecord
100
AcDbLayerTableRecord
  2
DEFAULT_DATUM_AXES
 70
0
 62
7
  6
CONTINUOUS
370
-3
390
F
  0
LAYER
  5
203
100
AcDbSymbolTableRecord
100
AcDbLayerTableRecord
  2
DEFAULT_DATUM_PLANES
 70
0
 62
7
  6
CONTINUOUS
370
-3
390
F
  0
LAYER
  5
204
100
AcDbSymbolTableRecord
100
AcDbLayerTableRecord
  2
DIMENSIONS
 70
0
 62
7
  6
CONTINUOUS
370
-3
390
F
  0
LAYER
  5
205
100
AcDbSymbolTableRecord
100
AcDbLayerTableRecord
  2
PROTRUSION_FEATURES
 70
0
 62
7
  6
CONTINUOUS
370
-3
390
F
  0
ENDTAB
  0
TABLE
  2
STYLE
  5
3
100
AcDbSymbolTable
 70
1
  0
STYLE
  5
11
100
AcDbSymbolTableRecord
100
AcDbTextStyleTableRecord
  2
STANDARD
 70
0
 40
0.0
 41
0.8
 50
0.0
 71
0
 42
0.2
  3
txt
  4

  0
STYLE
  5
206
100
AcDbSymbolTableRecord
100
AcDbTextStyleTableRecord
  2
TEXTSTYLE_1
 70
0
 40
0.0
 41
0.8
 50
0.0
 71
0
 42
0.2
  3
gdt
  4

  0
ENDTAB
  0
TABLE
  2
VIEW
  5
6
100
AcDbSymbolTable
 70
0
  0
ENDTAB
  0
TABLE
  2
UCS
  5
7
100
AcDbSymbolTable
 70
0
  0
ENDTAB
  0
TABLE
  2
APPID
  5
9
100
AcDbSymbolTable
 70
1
  0
APPID
  5
207
100
AcDbSymbolTableRecord
100
AcDbRegAppTableRecord
  2
ACAD
 70
0
  0
ENDTAB
  0
TABLE
  2
BLOCK_RECORD
  5
1
100
AcDbSymbolTable
 70
0
  0
BLOCK_RECORD
  5
208
100
AcDbSymbolTableRecord
100
AcDbBlockTableRecord
  2
*Model_Space
  0
BLOCK_RECORD
  5
209
100
AcDbSymbolTableRecord
100
AcDbBlockTableRecord
  2
*Paper_Space
  0
BLOCK_RECORD
  5
20A
100
AcDbSymbolTableRecord
100
AcDbBlockTableRecord
  2
_FILLED
  0
ENDTAB
  0
TABLE
  2
DIMSTYLE
  5
A
100
AcDbSymbolTable
 70
1
100
AcDbDimStyleTable
 71
0
  0
DIMSTYLE
105
20B
100
AcDbSymbolTableRecord
100
AcDbDimStyleTableRecord
  2
STANDARD
 70
0
  3

  4

 40
1.0
 41
0.1
 42
0.0625
 43
0.38
 44
0.125
 45
0.0
 46
0.0
 47
0.01
 48
0.01
140
0.08
141
0.09
142
0.0
143
25.4
144
1.0
145
0.0
146
1.0
147
0.09
 71
1.0
 72
0.0
 73
1
 74
1
 75
0
 76
0
 77
0
 78
4
 79
1
170
1
171
1
172
0
173
0
174
0
175
0
176
0
177
0
178
0
270
2
179
2
271
2
272
2
273
2
274
2
275
0
280
0
281
0
282
0
283
1
284
4
285
0
286
0
287
3
288
0
340
11
278
46
341
20A
342
20A
343
20A
344
20A
  0
ENDTAB
  0
ENDSEC
  0
SECTION
  2
BLOCKS
  0
BLOCK
  5
20
100
AcDbEntity
  8
0
100
AcDbBlockBegin
  2
*Model_Space
 70
0
 10
0.0
 20
0.0
 30
0.0
  3
*Model_Space
  1

  0
ENDBLK
  5
21
100
AcDbEntity
  8
0
100
AcDbBlockEnd
  0
BLOCK
  5
1C
100
AcDbEntity
  8
0
100
AcDbBlockBegin
  2
*Paper_Space
 70
0
 10
0.0
 20
0.0
 30
0.0
  3
*Paper_Space
  1

  0
ENDBLK
  5
1D
100
AcDbEntity
  8
0
100
AcDbBlockEnd
  0
BLOCK
  5
20C
100
AcDbEntity
  8
0
100
AcDbBlockBegin
  2
_FILLED
 70
64
 10
0.0
 20
0.0
  3
_FILLED
  1

  0
SOLID
  5
20D
100
AcDbEntity
  8
0
  6
BYBLOCK
 62
0
100
AcDbTrace
 10
0.0
 20
0.0
 11
-1.0
 21
0.2
 12
-1.0
 22
-0.2
 13
-1.0
 23
-0.2
  0
ENDBLK
  5
20E
100
AcDbEntity
  8
0
  6
BYBLOCK
 62
0
100
AcDbBlockEnd
  0
ENDSEC
  0
SECTION
  2
ENTITIES
  0
MTEXT
  5
20F
100
AcDbEntity
  8
0
100
AcDbMText
 62
2
  6
CONTINUOUS
  7
STANDARD
 71
3
 72
1
 10
5.6383540373
 20
2.0983823584
 30
0.0
 11
1.0
 21
0.0
 31
0.0
 73
2
 44
0.9
  1
SCALE  1.000
 40
0.08
 41
0.768
  0
LINE
  5
210
100
AcDbEntity
  8
0
100
AcDbLine
 62
7
  6
CONTINUOUS
 10
0.0
 20
0.0
 11
0.0
 21
8.5
  0
LINE
  5
211
100
AcDbEntity
  8
0
100
AcDbLine
 62
7
  6
CONTINUOUS
 10
0.0
 20
0.0
 11
11.0
 21
0.0
  0
LINE
  5
212
100
AcDbEntity
  8
0
100
AcDbLine
 62
7
  6
CONTINUOUS
 10
0.0
 20
8.5
 11
11.0
 21
8.5
  0
LINE
  5
213
100
AcDbEntity
  8
0
100
AcDbLine
 62
7
  6
CONTINUOUS
 10
11.0
 20
0.0
 11
11.0
 21
8.5
  0
LINE
  5
214
100
AcDbEntity
  8
0
100
AcDbLine
 62
7
  6
CONTINUOUS
 10
3.2388509317
 20
3.8108334801
 11
3.2388509317
 21
3.8508334801
  0
LINE
  5
215
100
AcDbEntity
  8
ALL_FEATURES
100
AcDbLine
 62
7
  6
CONTINUOUS
 10
3.4703509317
 20
3.3262611566
 11
3.4703509317
 21
3.3252146565
  0
LINE
  5
216
100
AcDbEntity
  8
ALL_FEATURES
100
AcDbLine
 62
7
  6
CONTINUOUS
 10
3.4703509317
 20
3.3627196543
 11
3.4703509317
 21
3.3679311761
  0
LINE
  5
217
100
AcDbEntity
  8
ALL_FEATURES
100
AcDbLine
 62
7
  6
CONTINUOUS
 10
3.4703509317
 20
3.4043896738
 11
3.4703509317
 21
3.4096011466
  0
LINE
  5
218
100
AcDbEntity
  8
ALL_FEATURES
100
AcDbLine
 62
7
  6
CONTINUOUS
 10
3.4703509317
 20
3.4460596438
 11
3.4703509317
 21
3.4512711519
  0
LINE
  5
219
100
AcDbEntity
  8
ALL_FEATURES
100
AcDbLine
 62
7
  6
CONTINUOUS
 10
3.4703509317
 20
3.4877296495
 11
3.4703509317
 21
3.4929411751
  0
LINE
  5
21A
100
AcDbEntity
  8
ALL_FEATURES
100
AcDbLine
 62
7
  6
CONTINUOUS
 10
3.4703509317
 20
3.5293996728
 11
3.4703509317
 21
3.5346111527
  0
LINE
  5
21B
100
AcDbEntity
  8
ALL_FEATURES
100
AcDbLine
 62
7
  6
CONTINUOUS
 10
3.4703509317
 20
3.5710696498
 11
3.4703509317
 21
3.5762811477
  0
LINE
  5
21C
100
AcDbEntity
  8
ALL_FEATURES
100
AcDbLine
 62
7
  6
CONTINUOUS
 10
3.4703509317
 20
3.6127396452
 11
3.4703509317
 21
3.6179511725
  0
LINE
  5
21D
100
AcDbEntity
  8
ALL_FEATURES
100
AcDbLine
 62
7
  6
CONTINUOUS
 10
3.4929009321
 20
3.6413904214
 11
3.4929009321
 21
3.6314908781
  0
LINE
  5
21E
100
AcDbEntity
  8
ALL_FEATURES
100
AcDbLine
 62
7
  6
CONTINUOUS
 10
3.4929009319
 20
3.5997203965
 11
3.4929009319
 21
3.5898208532
  0
LINE
  5
21F
100
AcDbEntity
  8
ALL_FEATURES
100
AcDbLine
 62
7
  6
CONTINUOUS
 10
3.4929009317
 20
3.5580504012
 11
3.4929009317
 21
3.5481508565
  0
LINE
  5
220
100
AcDbEntity
  8
ALL_FEATURES
100
AcDbLine
 62
7
  6
CONTINUOUS
 10
3.4929009321
 20
3.5163804239
 11
3.4929009321
 21
3.5064808804
  0
LINE
  5
221
100
AcDbEntity
  8
ALL_FEATURES
100
AcDbLine
 62
7
  6
CONTINUOUS
 10
3.492900932
 20
3.4747104007
 11
3.492900932
 21
3.4648108576
  0
LINE
  5
222
100
AcDbEntity
  8
ALL_FEATURES
100
AcDbLine
 62
7
  6
CONTINUOUS
 10
3.4929009317
 20
3.4330403952
 11
3.4929009317
 21
3.4231408509
  0
LINE
  5
223
100
AcDbEntity
  8
ALL_FEATURES
100
AcDbLine
 62
7
  6
CONTINUOUS
 10
3.4929009321
 20
3.3913704249
 11
3.4929009321
 21
3.3814708812
  0
LINE
  5
224
100
AcDbEntity
  8
ALL_FEATURES
100
AcDbLine
 62
7
  6
CONTINUOUS
 10
3.492900932
 20
3.3497004055
 11
3.492900932
 21
3.3398008624
  0
LINE
  5
225
100
AcDbEntity
  8
ALL_FEATURES
100
AcDbLine
 62
7
  6
CONTINUOUS
 10
3.4929009317
 20
3.3080303919
 11
3.4929009317
 21
3.3026646565
  0
LINE
  5
226
100
AcDbEntity
  8
ALL_FEATURES
100
AcDbLine
 62
7
  6
CONTINUOUS
 10
3.4953509317
 20
3.6752146565
 11
3.4953509317
 21
3.7094259738
  0
LINE
  5
227
100
AcDbEntity
  8
ALL_FEATURES
100
AcDbLine
 62
7
  6
CONTINUOUS
 10
3.6353509317
 20
3.6752146565
 11
3.6353509317
 21
3.7094259738
  0
LINE
  5
228
100
AcDbEntity
  8
ALL_FEATURES
100
AcDbLine
 62
7
  6
CONTINUOUS
 10
3.6378009315
 20
3.3184453938
 11
3.6378009315
 21
3.3283449446
  0
LINE
  5
229
100
AcDbEntity
  8
ALL_FEATURES
100
AcDbLine
 62
7
  6
CONTINUOUS
 10
3.6378009313
 20
3.3601154186
 11
3.6378009313
 21
3.3700149692
  0
LINE
  5
22A
100
AcDbEntity
  8
ALL_FEATURES
100
AcDbLine
 62
7
  6
CONTINUOUS
 10
3.6378009315
 20
3.4017854163
 11
3.6378009315
 21
3.4116849684
  0
LINE
  5
22B
100
AcDbEntity
  8
ALL_FEATURES
100
AcDbLine
 62
7
  6
CONTINUOUS
 10
3.6378009315
 20
3.4434553916
 11
3.6378009315
 21
3.4533549426
  0
LINE
  5
22C
100
AcDbEntity
  8
ALL_FEATURES
100
AcDbLine
 62
7
  6
CONTINUOUS
 10
3.6378009313
 20
3.4851254142
 11
3.6378009313
 21
3.4950249647
  0
LINE
  5
22D
100
AcDbEntity
  8
ALL_FEATURES
100
AcDbLine
 62
7
  6
CONTINUOUS
 10
3.6378009314
 20
3.5267954217
 11
3.6378009314
 21
3.5366949733
  0
LINE
  5
22E
100
AcDbEntity
  8
ALL_FEATURES
100
AcDbLine
 62
7
  6
CONTINUOUS
 10
3.6378009316
 20
3.568465391
 11
3.6378009316
 21
3.5783649422
  0
LINE
  5
22F
100
AcDbEntity
  8
ALL_FEATURES
100
AcDbLine
 62
7
  6
CONTINUOUS
 10
3.6378009313
 20
3.6101354093
 11
3.6378009313
 21
3.6200349598
  0
LINE
  5
230
100
AcDbEntity
  8
ALL_FEATURES
100
AcDbLine
 62
7
  6
CONTINUOUS
 10
3.6378009313
 20
3.6518054244
 11
3.6378009313
 21
3.6617049757
  0
LINE
  5
231
100
AcDbEntity
  8
ALL_FEATURES
100
AcDbLine
 62
7
  6
CONTINUOUS
 10
3.6603509317
 20
3.6387861756
 11
3.6603509317
 21
3.6335746582
  0
LINE
  5
232
100
AcDbEntity
  8
ALL_FEATURES
100
AcDbLine
 62
7
  6
CONTINUOUS
 10
3.6603509317
 20
3.3418846426
 11
3.6603509317
 21
3.3470961697
  0
LINE
  5
233
100
AcDbEntity
  8
ALL_FEATURES
100
AcDbLine
 62
7
  6
CONTINUOUS
 10
3.6603509317
 20
3.3835546675
 11
3.6603509317
 21
3.3887661677
  0
LINE
  5
234
100
AcDbEntity
  8
ALL_FEATURES
100
AcDbLine
 62
7
  6
CONTINUOUS
 10
3.6603509317
 20
3.425224665
 11
3.6603509317
 21
3.4304361429
  0
LINE
  5
235
100
AcDbEntity
  8
ALL_FEATURES
100
AcDbLine
 62
7
  6
CONTINUOUS
 10
3.6603509317
 20
3.4668946403
 11
3.6603509317
 21
3.4721061653
  0
LINE
  5
236
100
AcDbEntity
  8
ALL_FEATURES
100
AcDbLine
 62
7
  6
CONTINUOUS
 10
3.6603509317
 20
3.5085646631
 11
3.6603509317
 21
3.5137761729
  0
LINE
  5
237
100
AcDbEntity
  8
ALL_FEATURES
100
AcDbLine
 62
7
  6
CONTINUOUS
 10
3.6603509317
 20
3.5502346705
 11
3.6603509317
 21
3.5554461424
  0
LINE
  5
238
100
AcDbEntity
  8
ALL_FEATURES
100
AcDbLine
 62
7
  6
CONTINUOUS
 10
3.6603509317
 20
3.5919046397
 11
3.6603509317
 21
3.5971161605
  0
LINE
  5
239
100
AcDbEntity
  8
ALL_FEATURES
100
AcDbLine
 62
7
  6
CONTINUOUS
 10
3.4703509317
 20
3.3252146565
 11
3.4802054653
 21
3.3153601229
  0
LINE
  5
23A
100
AcDbEntity
  8
ALL_FEATURES
100
AcDbLine
 62
7
  6
CONTINUOUS
 10
3.4929009317
 20
3.3026646565
 11
3.4953509317
 21
3.3002146565
  0
LINE
  5
23B
100
AcDbEntity
  8
ALL_FEATURES
100
AcDbLine
 62
7
  6
CONTINUOUS
 10
3.6353509317
 20
3.7094259738
 11
3.6800387952
 21
3.7608334801
  0
LINE
  5
23C
100
AcDbEntity
  8
0
100
AcDbLine
 62
7
  6
CONTINUOUS
 10
3.7330393149
 20
3.7608334801
 11
3.7615544855
 21
3.7936364316
  0
LINE
  5
23D
100
AcDbEntity
  8
ALL_FEATURES
100
AcDbLine
 62
7
  6
CONTINUOUS
 10
3.4953509317
 20
3.6752146565
 11
3.4929009317
 21
3.6727646566
  0
LINE
  5
23E
100
AcDbEntity
  8
ALL_FEATURES
100
AcDbLine
 62
7
  6
CONTINUOUS
 10
3.4926069616
 20
3.6724706864
 11
3.4730104638
 21
3.6528741887
  0
LINE
  5
23F
100
AcDbEntity
  8
0
100
AcDbLine
 62
7
  6
CONTINUOUS
 10
3.3976625485
 20
3.7608334801
 11
3.3691473778
 21
3.7936364316
  0
LINE
  5
240
100
AcDbEntity
  8
ALL_FEATURES
100
AcDbLine
 62
7
  6
CONTINUOUS
 10
3.4953509317
 20
3.7094259738
 11
3.4506630682
 21
3.7608334801
  0
LINE
  5
241
100
AcDbEntity
  8
ALL_FEATURES
100
AcDbLine
 62
7
  6
CONTINUOUS
 10
3.4831475345
 20
3.313201829
 11
3.4929009317
 21
3.3075099434
  0
LINE
  5
242
100
AcDbEntity
  8
ALL_FEATURES
100
AcDbLine
 62
7
  6
CONTINUOUS
 10
3.4710378655
 20
3.3619216291
 11
3.492900932
 21
3.3491799559
  0
LINE
  5
243
100
AcDbEntity
  8
ALL_FEATURES
100
AcDbLine
 62
7
  6
CONTINUOUS
 10
3.6353509317
 20
3.6752146565
 11
3.644482537
 21
3.6660830512
  0
LINE
  5
244
100
AcDbEntity
  8
ALL_FEATURES
100
AcDbLine
 62
7
  6
CONTINUOUS
 10
3.6478055182
 20
3.312669243
 11
3.6353509317
 21
3.3002146565
  0
LINE
  5
245
100
AcDbEntity
  8
ALL_FEATURES
100
AcDbLine
 62
7
  6
CONTINUOUS
 10
3.4937947178
 20
3.6320132281
 11
3.4710378643
 21
3.6187491968
  0
LINE
  5
246
100
AcDbEntity
  8
ALL_FEATURES
100
AcDbLine
 62
7
  6
CONTINUOUS
 10
3.4710378647
 20
3.4035916496
 11
3.4929009321
 21
3.390849976
  0
LINE
  5
247
100
AcDbEntity
  8
ALL_FEATURES
100
AcDbLine
 62
7
  6
CONTINUOUS
 10
3.64760016
 20
3.3132472446
 11
3.6378009315
 21
3.3189658505
  0
LINE
  5
248
100
AcDbEntity
  8
ALL_FEATURES
100
AcDbLine
 62
7
  6
CONTINUOUS
 10
3.4710378637
 20
3.4452616207
 11
3.4929009317
 21
3.432519947
  0
LINE
  5
249
100
AcDbEntity
  8
ALL_FEATURES
100
AcDbLine
 62
7
  6
CONTINUOUS
 10
3.6596639989
 20
3.3478941942
 11
3.6378009313
 21
3.3606358754
  0
LINE
  5
24A
100
AcDbEntity
  8
ALL_FEATURES
100
AcDbLine
 62
7
  6
CONTINUOUS
 10
3.4710378654
 20
3.4869316243
 11
3.492900932
 21
3.4741899512
  0
LINE
  5
24B
100
AcDbEntity
  8
ALL_FEATURES
100
AcDbLine
 62
7
  6
CONTINUOUS
 10
3.6596640009
 20
3.3895641898
 11
3.6378009315
 21
3.4023058716
  0
LINE
  5
24C
100
AcDbEntity
  8
ALL_FEATURES
100
AcDbLine
 62
7
  6
CONTINUOUS
 10
3.471037865
 20
3.5286016483
 11
3.4929009321
 21
3.5158599748
  0
LINE
  5
24D
100
AcDbEntity
  8
ALL_FEATURES
100
AcDbLine
 62
7
  6
CONTINUOUS
 10
3.6369071479
 20
3.6611826197
 11
3.6442693412
 21
3.6654814558
  0
LINE
  5
24E
100
AcDbEntity
  8
ALL_FEATURES
100
AcDbLine
 62
7
  6
CONTINUOUS
 10
3.4937947178
 20
3.5903432034
 11
3.4710378644
 21
3.5770791722
  0
LINE
  5
24F
100
AcDbEntity
  8
ALL_FEATURES
100
AcDbLine
 62
7
  6
CONTINUOUS
 10
3.493794715
 20
3.5486732051
 11
3.4710378625
 21
3.5354091748
  0
LINE
  5
250
100
AcDbEntity
  8
ALL_FEATURES
100
AcDbLine
 62
7
  6
CONTINUOUS
 10
3.6369071464
 20
3.6195126028
 11
3.6596639978
 21
3.632776633
  0
LINE
  5
251
100
AcDbEntity
  8
ALL_FEATURES
100
AcDbLine
 62
7
  6
CONTINUOUS
 10
3.4937947174
 20
3.5070032302
 11
3.4710378641
 21
3.4937391991
  0
LINE
  5
252
100
AcDbEntity
  8
ALL_FEATURES
100
AcDbLine
 62
7
  6
CONTINUOUS
 10
3.636907148
 20
3.5778425861
 11
3.6596639988
 21
3.5911066156
  0
LINE
  5
253
100
AcDbEntity
  8
ALL_FEATURES
100
AcDbLine
 62
7
  6
CONTINUOUS
 10
3.6596639993
 20
3.4312341669
 11
3.6378009315
 21
3.4439758481
  0
LINE
  5
254
100
AcDbEntity
  8
ALL_FEATURES
100
AcDbLine
 62
7
  6
CONTINUOUS
 10
3.4710378632
 20
3.5702716273
 11
3.4929009317
 21
3.5575299534
  0
LINE
  5
255
100
AcDbEntity
  8
ALL_FEATURES
100
AcDbLine
 62
7
  6
CONTINUOUS
 10
3.6596639988
 20
3.47290419
 11
3.6378009313
 21
3.4856458711
  0
LINE
  5
256
100
AcDbEntity
  8
ALL_FEATURES
100
AcDbLine
 62
7
  6
CONTINUOUS
 10
3.4710378653
 20
3.6119416203
 11
3.4929009319
 21
3.5991999471
  0
LINE
  5
257
100
AcDbEntity
  8
ALL_FEATURES
100
AcDbLine
 62
7
  6
CONTINUOUS
 10
3.6596640004
 20
3.5145741957
 11
3.6378009314
 21
3.5273158774
  0
LINE
  5
258
100
AcDbEntity
  8
ALL_FEATURES
100
AcDbLine
 62
7
  6
CONTINUOUS
 10
3.4731953972
 20
3.6523567123
 11
3.4929009321
 21
3.6408699721
  0
LINE
  5
259
100
AcDbEntity
  8
ALL_FEATURES
100
AcDbLine
 62
7
  6
CONTINUOUS
 10
3.6596639996
 20
3.556244166
 11
3.6378009316
 21
3.5689858472
  0
LINE
  5
25A
100
AcDbEntity
  8
ALL_FEATURES
100
AcDbLine
 62
7
  6
CONTINUOUS
 10
3.493794718
 20
3.4653332078
 11
3.4710378646
 21
3.4520691765
  0
LINE
  5
25B
100
AcDbEntity
  8
ALL_FEATURES
100
AcDbLine
 62
7
  6
CONTINUOUS
 10
3.6369071485
 20
3.5361726176
 11
3.6596639994
 21
3.5494366471
  0
LINE
  5
25C
100
AcDbEntity
  8
ALL_FEATURES
100
AcDbLine
 62
7
  6
CONTINUOUS
 10
3.4937947157
 20
3.4236631999
 11
3.471037863
 21
3.4103991694
  0
LINE
  5
25D
100
AcDbEntity
  8
ALL_FEATURES
100
AcDbLine
 62
7
  6
CONTINUOUS
 10
3.6369071464
 20
3.4945026078
 11
3.6596639979
 21
3.5077666379
  0
LINE
  5
25E
100
AcDbEntity
  8
ALL_FEATURES
100
AcDbLine
 62
7
  6
CONTINUOUS
 10
3.493794717
 20
3.3819932307
 11
3.4710378637
 21
3.3687291997
  0
LINE
  5
25F
100
AcDbEntity
  8
ALL_FEATURES
100
AcDbLine
 62
7
  6
CONTINUOUS
 10
3.6369071475
 20
3.4528325862
 11
3.6596639985
 21
3.4660966158
  0
LINE
  5
260
100
AcDbEntity
  8
ALL_FEATURES
100
AcDbLine
 62
7
  6
CONTINUOUS
 10
3.4937947182
 20
3.3403232127
 11
3.4710378646
 21
3.3270591813
  0
LINE
  5
261
100
AcDbEntity
  8
ALL_FEATURES
100
AcDbLine
 62
7
  6
CONTINUOUS
 10
3.6369071493
 20
3.411162613
 11
3.6596639999
 21
3.4244266423
  0
LINE
  5
262
100
AcDbEntity
  8
ALL_FEATURES
100
AcDbLine
 62
7
  6
CONTINUOUS
 10
3.6596639987
 20
3.5979141852
 11
3.6378009313
 21
3.6106558663
  0
LINE
  5
263
100
AcDbEntity
  8
ALL_FEATURES
100
AcDbLine
 62
7
  6
CONTINUOUS
 10
3.6596639999
 20
3.6395841989
 11
3.6378009313
 21
3.6523258804
  0
LINE
  5
264
100
AcDbEntity
  8
ALL_FEATURES
100
AcDbLine
 62
7
  6
CONTINUOUS
 10
3.6369071466
 20
3.3694926124
 11
3.659663998
 21
3.3827566424
  0
LINE
  5
265
100
AcDbEntity
  8
ALL_FEATURES
100
AcDbLine
 62
7
  6
CONTINUOUS
 10
3.6369071471
 20
3.327822588
 11
3.6596639982
 21
3.3410866178
  0
LINE
  5
266
100
AcDbEntity
  8
ALL_FEATURES
100
AcDbLine
 62
7
  6
CONTINUOUS
 10
6.9973509317
 20
3.3002146565
 11
6.8573509317
 21
3.3002146565
  0
LINE
  5
267
100
AcDbEntity
  8
ALL_FEATURES
100
AcDbLine
 62
7
  6
CONTINUOUS
 10
3.6353509317
 20
3.3002146565
 11
3.4953509317
 21
3.3002146565
  0
LINE
  5
268
100
AcDbEntity
  8
ALL_FEATURES
100
AcDbLine
 62
7
  6
CONTINUOUS
 10
6.8749417093
 20
3.3026646564
 11
6.8549009317
 21
3.3026646565
  0
LINE
  5
269
100
AcDbEntity
  8
ALL_FEATURES
100
AcDbLine
 62
7
  6
CONTINUOUS
 10
3.5129417093
 20
3.3026646564
 11
3.4929009317
 21
3.3026646565
  0
LINE
  5
26A
100
AcDbEntity
  8
ALL_FEATURES
100
AcDbLine
 62
7
  6
CONTINUOUS
 10
3.4703509317
 20
3.3252146565
 11
3.4884776222
 21
3.3252146565
  0
LINE
  5
26B
100
AcDbEntity
  8
ALL_FEATURES
100
AcDbLine
 62
7
  6
CONTINUOUS
 10
6.8323509317
 20
3.3252146565
 11
6.8504776222
 21
3.3252146565
  0
LINE
  5
26C
100
AcDbEntity
  8
ALL_FEATURES
100
AcDbLine
 62
7
  6
CONTINUOUS
 10
3.4929097609
 20
3.6727646566
 11
3.4929136456
 21
3.6727646566
  0
LINE
  5
26D
100
AcDbEntity
  8
ALL_FEATURES
100
AcDbLine
 62
7
  6
CONTINUOUS
 10
6.8549097609
 20
3.6727646566
 11
6.8549136456
 21
3.6727646566
  0
LINE
  5
26E
100
AcDbEntity
  8
ALL_FEATURES
100
AcDbLine
 62
7
  6
CONTINUOUS
 10
6.9973509317
 20
3.6752146565
 11
6.8573509317
 21
3.6752146565
  0
LINE
  5
26F
100
AcDbEntity
  8
ALL_FEATURES
100
AcDbLine
 62
7
  6
CONTINUOUS
 10
3.6353509317
 20
3.6752146565
 11
3.4953509317
 21
3.6752146565
  0
LINE
  5
270
100
AcDbEntity
  8
ALL_FEATURES
100
AcDbLine
 62
7
  6
CONTINUOUS
 10
6.9973509317
 20
3.7094259738
 11
6.8573509317
 21
3.7094259738
  0
LINE
  5
271
100
AcDbEntity
  8
ALL_FEATURES
100
AcDbLine
 62
7
  6
CONTINUOUS
 10
3.6353509317
 20
3.7094259738
 11
3.4953509317
 21
3.7094259738
  0
LINE
  5
272
100
AcDbEntity
  8
0
100
AcDbLine
 62
7
  6
CONTINUOUS
 10
7.0950393149
 20
3.7608334801
 11
6.7596625485
 21
3.7608334801
  0
LINE
  5
273
100
AcDbEntity
  8
0
100
AcDbLine
 62
7
  6
CONTINUOUS
 10
3.3976625485
 20
3.7608334801
 11
3.7330393149
 21
3.7608334801
  0
LINE
  5
274
100
AcDbEntity
  8
0
100
AcDbLine
 62
7
  6
CONTINUOUS
 10
7.1235544855
 20
3.7936364316
 11
6.7311473778
 21
3.7936364316
  0
LINE
  5
275
100
AcDbEntity
  8
0
100
AcDbLine
 62
7
  6
CONTINUOUS
 10
3.7615544855
 20
3.7936364316
 11
3.3691473778
 21
3.7936364316
  0
LINE
  5
276
100
AcDbEntity
  8
0
100
AcDbLine
 62
7
  6
CONTINUOUS
 10
3.2388509317
 20
3.8108334801
 11
7.2538509317
 21
3.8108334801
  0
LINE
  5
277
100
AcDbEntity
  8
0
100
AcDbLine
 62
7
  6
CONTINUOUS
 10
3.2388509317
 20
3.8508334801
 11
7.2538509317
 21
3.8508334801
  0
LINE
  5
278
100
AcDbEntity
  8
ALL_FEATURES
100
AcDbLine
 62
7
  6
CONTINUOUS
 10
6.8451475345
 20
3.313201829
 11
6.8549009317
 21
3.3075099434
  0
LINE
  5
279
100
AcDbEntity
  8
ALL_FEATURES
100
AcDbLine
 62
7
  6
CONTINUOUS
 10
6.8330378655
 20
3.3619216291
 11
6.854900932
 21
3.3491799559
  0
LINE
  5
27A
100
AcDbEntity
  8
ALL_FEATURES
100
AcDbLine
 62
7
  6
CONTINUOUS
 10
6.8330378647
 20
3.4035916496
 11
6.8549009321
 21
3.390849976
  0
LINE
  5
27B
100
AcDbEntity
  8
ALL_FEATURES
100
AcDbLine
 62
7
  6
CONTINUOUS
 10
7.00960016
 20
3.3132472446
 11
6.9998009315
 21
3.3189658505
  0
LINE
  5
27C
100
AcDbEntity
  8
ALL_FEATURES
100
AcDbLine
 62
7
  6
CONTINUOUS
 10
6.8330378637
 20
3.4452616207
 11
6.8549009317
 21
3.432519947
  0
LINE
  5
27D
100
AcDbEntity
  8
ALL_FEATURES
100
AcDbLine
 62
7
  6
CONTINUOUS
 10
6.9989071479
 20
3.6611826197
 11
7.0062693412
 21
3.6654814558
  0
LINE
  5
27E
100
AcDbEntity
  8
ALL_FEATURES
100
AcDbLine
 62
7
  6
CONTINUOUS
 10
6.8557947178
 20
3.6320132281
 11
6.8330378643
 21
3.6187491968
  0
LINE
  5
27F
100
AcDbEntity
  8
ALL_FEATURES
100
AcDbLine
 62
7
  6
CONTINUOUS
 10
6.8557947178
 20
3.5903432034
 11
6.8330378644
 21
3.5770791722
  0
LINE
  5
280
100
AcDbEntity
  8
ALL_FEATURES
100
AcDbLine
 62
7
  6
CONTINUOUS
 10
7.0216639989
 20
3.3478941942
 11
6.9998009313
 21
3.3606358754
  0
LINE
  5
281
100
AcDbEntity
  8
ALL_FEATURES
100
AcDbLine
 62
7
  6
CONTINUOUS
 10
6.8330378654
 20
3.4869316243
 11
6.854900932
 21
3.4741899512
  0
LINE
  5
282
100
AcDbEntity
  8
ALL_FEATURES
100
AcDbLine
 62
7
  6
CONTINUOUS
 10
7.0216640009
 20
3.3895641898
 11
6.9998009315
 21
3.4023058716
  0
LINE
  5
283
100
AcDbEntity
  8
ALL_FEATURES
100
AcDbLine
 62
7
  6
CONTINUOUS
 10
6.833037865
 20
3.5286016483
 11
6.8549009321
 21
3.5158599748
  0
LINE
  5
284
100
AcDbEntity
  8
ALL_FEATURES
100
AcDbLine
 62
7
  6
CONTINUOUS
 10
7.0216639993
 20
3.4312341669
 11
6.9998009315
 21
3.4439758481
  0
LINE
  5
285
100
AcDbEntity
  8
ALL_FEATURES
100
AcDbLine
 62
7
  6
CONTINUOUS
 10
6.8330378632
 20
3.5702716273
 11
6.8549009317
 21
3.5575299534
  0
LINE
  5
286
100
AcDbEntity
  8
ALL_FEATURES
100
AcDbLine
 62
7
  6
CONTINUOUS
 10
7.0216639988
 20
3.47290419
 11
6.9998009313
 21
3.4856458711
  0
LINE
  5
287
100
AcDbEntity
  8
ALL_FEATURES
100
AcDbLine
 62
7
  6
CONTINUOUS
 10
6.855794715
 20
3.5486732051
 11
6.8330378625
 21
3.5354091748
  0
LINE
  5
288
100
AcDbEntity
  8
ALL_FEATURES
100
AcDbLine
 62
7
  6
CONTINUOUS
 10
6.9989071464
 20
3.6195126028
 11
7.0216639978
 21
3.632776633
  0
LINE
  5
289
100
AcDbEntity
  8
ALL_FEATURES
100
AcDbLine
 62
7
  6
CONTINUOUS
 10
6.8557947174
 20
3.5070032302
 11
6.8330378641
 21
3.4937391991
  0
LINE
  5
28A
100
AcDbEntity
  8
ALL_FEATURES
100
AcDbLine
 62
7
  6
CONTINUOUS
 10
6.998907148
 20
3.5778425861
 11
7.0216639988
 21
3.5911066156
  0
LINE
  5
28B
100
AcDbEntity
  8
ALL_FEATURES
100
AcDbLine
 62
7
  6
CONTINUOUS
 10
6.855794718
 20
3.4653332078
 11
6.8330378646
 21
3.4520691765
  0
LINE
  5
28C
100
AcDbEntity
  8
ALL_FEATURES
100
AcDbLine
 62
7
  6
CONTINUOUS
 10
6.9989071485
 20
3.5361726176
 11
7.0216639994
 21
3.5494366471
  0
LINE
  5
28D
100
AcDbEntity
  8
ALL_FEATURES
100
AcDbLine
 62
7
  6
CONTINUOUS
 10
6.8557947157
 20
3.4236631999
 11
6.833037863
 21
3.4103991694
  0
LINE
  5
28E
100
AcDbEntity
  8
ALL_FEATURES
100
AcDbLine
 62
7
  6
CONTINUOUS
 10
6.9989071464
 20
3.4945026078
 11
7.0216639979
 21
3.5077666379
  0
LINE
  5
28F
100
AcDbEntity
  8
ALL_FEATURES
100
AcDbLine
 62
7
  6
CONTINUOUS
 10
6.8330378653
 20
3.6119416203
 11
6.8549009319
 21
3.5991999471
  0
LINE
  5
290
100
AcDbEntity
  8
ALL_FEATURES
100
AcDbLine
 62
7
  6
CONTINUOUS
 10
7.0216640004
 20
3.5145741957
 11
6.9998009314
 21
3.5273158774
  0
LINE
  5
291
100
AcDbEntity
  8
ALL_FEATURES
100
AcDbLine
 62
7
  6
CONTINUOUS
 10
6.8351953972
 20
3.6523567123
 11
6.8549009321
 21
3.6408699721
  0
LINE
  5
292
100
AcDbEntity
  8
ALL_FEATURES
100
AcDbLine
 62
7
  6
CONTINUOUS
 10
7.0216639996
 20
3.556244166
 11
6.9998009316
 21
3.5689858472
  0
LINE
  5
293
100
AcDbEntity
  8
ALL_FEATURES
100
AcDbLine
 62
7
  6
CONTINUOUS
 10
7.0216639987
 20
3.5979141852
 11
6.9998009313
 21
3.6106558663
  0
LINE
  5
294
100
AcDbEntity
  8
ALL_FEATURES
100
AcDbLine
 62
7
  6
CONTINUOUS
 10
7.0216639999
 20
3.6395841989
 11
6.9998009313
 21
3.6523258804
  0
LINE
  5
295
100
AcDbEntity
  8
ALL_FEATURES
100
AcDbLine
 62
7
  6
CONTINUOUS
 10
6.8323509317
 20
3.3252146565
 11
6.8422054653
 21
3.3153601229
  0
LINE
  5
296
100
AcDbEntity
  8
ALL_FEATURES
100
AcDbLine
 62
7
  6
CONTINUOUS
 10
6.8549009317
 20
3.3026646565
 11
6.8573509317
 21
3.3002146565
  0
LINE
  5
297
100
AcDbEntity
  8
ALL_FEATURES
100
AcDbLine
 62
7
  6
CONTINUOUS
 10
6.8573509317
 20
3.6752146565
 11
6.8549009317
 21
3.6727646566
  0
LINE
  5
298
100
AcDbEntity
  8
ALL_FEATURES
100
AcDbLine
 62
7
  6
CONTINUOUS
 10
6.8546069616
 20
3.6724706864
 11
6.8350104638
 21
3.6528741887
  0
LINE
  5
299
100
AcDbEntity
  8
ALL_FEATURES
100
AcDbLine
 62
7
  6
CONTINUOUS
 10
6.855794717
 20
3.3819932307
 11
6.8330378637
 21
3.3687291997
  0
LINE
  5
29A
100
AcDbEntity
  8
ALL_FEATURES
100
AcDbLine
 62
7
  6
CONTINUOUS
 10
6.9989071475
 20
3.4528325862
 11
7.0216639985
 21
3.4660966158
  0
LINE
  5
29B
100
AcDbEntity
  8
ALL_FEATURES
100
AcDbLine
 62
7
  6
CONTINUOUS
 10
6.8557947182
 20
3.3403232127
 11
6.8330378646
 21
3.3270591813
  0
LINE
  5
29C
100
AcDbEntity
  8
ALL_FEATURES
100
AcDbLine
 62
7
  6
CONTINUOUS
 10
6.9989071493
 20
3.411162613
 11
7.0216639999
 21
3.4244266423
  0
LINE
  5
29D
100
AcDbEntity
  8
ALL_FEATURES
100
AcDbLine
 62
7
  6
CONTINUOUS
 10
6.9989071466
 20
3.3694926124
 11
7.021663998
 21
3.3827566424
  0
LINE
  5
29E
100
AcDbEntity
  8
ALL_FEATURES
100
AcDbLine
 62
7
  6
CONTINUOUS
 10
6.9989071471
 20
3.327822588
 11
7.0216639982
 21
3.3410866178
  0
LINE
  5
29F
100
AcDbEntity
  8
ALL_FEATURES
100
AcDbLine
 62
7
  6
CONTINUOUS
 10
6.9973509317
 20
3.7094259738
 11
7.0420387952
 21
3.7608334801
  0
LINE
  5
2A0
100
AcDbEntity
  8
0
100
AcDbLine
 62
7
  6
CONTINUOUS
 10
7.0950393149
 20
3.7608334801
 11
7.1235544855
 21
3.7936364316
  0
LINE
  5
2A1
100
AcDbEntity
  8
ALL_FEATURES
100
AcDbLine
 62
7
  6
CONTINUOUS
 10
6.9973509317
 20
3.6752146565
 11
7.006482537
 21
3.6660830512
  0
LINE
  5
2A2
100
AcDbEntity
  8
0
100
AcDbLine
 62
7
  6
CONTINUOUS
 10
6.7596625485
 20
3.7608334801
 11
6.7311473778
 21
3.7936364316
  0
LINE
  5
2A3
100
AcDbEntity
  8
ALL_FEATURES
100
AcDbLine
 62
7
  6
CONTINUOUS
 10
6.8573509317
 20
3.7094259738
 11
6.8126630682
 21
3.7608334801
  0
LINE
  5
2A4
100
AcDbEntity
  8
ALL_FEATURES
100
AcDbLine
 62
7
  6
CONTINUOUS
 10
7.0098055182
 20
3.312669243
 11
6.9973509317
 21
3.3002146565
  0
LINE
  5
2A5
100
AcDbEntity
  8
ALL_FEATURES
100
AcDbLine
 62
7
  6
CONTINUOUS
 10
6.8323509317
 20
3.3262611566
 11
6.8323509317
 21
3.3252146565
  0
LINE
  5
2A6
100
AcDbEntity
  8
ALL_FEATURES
100
AcDbLine
 62
7
  6
CONTINUOUS
 10
6.8323509317
 20
3.3627196543
 11
6.8323509317
 21
3.3679311761
  0
LINE
  5
2A7
100
AcDbEntity
  8
ALL_FEATURES
100
AcDbLine
 62
7
  6
CONTINUOUS
 10
6.8323509317
 20
3.4043896738
 11
6.8323509317
 21
3.4096011466
  0
LINE
  5
2A8
100
AcDbEntity
  8
ALL_FEATURES
100
AcDbLine
 62
7
  6
CONTINUOUS
 10
6.8323509317
 20
3.4460596438
 11
6.8323509317
 21
3.4512711519
  0
LINE
  5
2A9
100
AcDbEntity
  8
ALL_FEATURES
100
AcDbLine
 62
7
  6
CONTINUOUS
 10
6.8323509317
 20
3.4877296495
 11
6.8323509317
 21
3.4929411751
  0
LINE
  5
2AA
100
AcDbEntity
  8
ALL_FEATURES
100
AcDbLine
 62
7
  6
CONTINUOUS
 10
6.8323509317
 20
3.5293996728
 11
6.8323509317
 21
3.5346111527
  0
LINE
  5
2AB
100
AcDbEntity
  8
ALL_FEATURES
100
AcDbLine
 62
7
  6
CONTINUOUS
 10
6.8323509317
 20
3.5710696498
 11
6.8323509317
 21
3.5762811477
  0
LINE
  5
2AC
100
AcDbEntity
  8
ALL_FEATURES
100
AcDbLine
 62
7
  6
CONTINUOUS
 10
6.8323509317
 20
3.6127396452
 11
6.8323509317
 21
3.6179511725
  0
LINE
  5
2AD
100
AcDbEntity
  8
ALL_FEATURES
100
AcDbLine
 62
7
  6
CONTINUOUS
 10
6.8549009321
 20
3.6413904214
 11
6.8549009321
 21
3.6314908781
  0
LINE
  5
2AE
100
AcDbEntity
  8
ALL_FEATURES
100
AcDbLine
 62
7
  6
CONTINUOUS
 10
6.8549009319
 20
3.5997203965
 11
6.8549009319
 21
3.5898208532
  0
LINE
  5
2AF
100
AcDbEntity
  8
ALL_FEATURES
100
AcDbLine
 62
7
  6
CONTINUOUS
 10
6.8549009317
 20
3.5580504012
 11
6.8549009317
 21
3.5481508565
  0
LINE
  5
2B0
100
AcDbEntity
  8
ALL_FEATURES
100
AcDbLine
 62
7
  6
CONTINUOUS
 10
6.8549009321
 20
3.5163804239
 11
6.8549009321
 21
3.5064808804
  0
LINE
  5
2B1
100
AcDbEntity
  8
ALL_FEATURES
100
AcDbLine
 62
7
  6
CONTINUOUS
 10
6.854900932
 20
3.4747104007
 11
6.854900932
 21
3.4648108576
  0
LINE
  5
2B2
100
AcDbEntity
  8
ALL_FEATURES
100
AcDbLine
 62
7
  6
CONTINUOUS
 10
6.8549009317
 20
3.4330403952
 11
6.8549009317
 21
3.4231408509
  0
LINE
  5
2B3
100
AcDbEntity
  8
ALL_FEATURES
100
AcDbLine
 62
7
  6
CONTINUOUS
 10
6.8549009321
 20
3.3913704249
 11
6.8549009321
 21
3.3814708812
  0
LINE
  5
2B4
100
AcDbEntity
  8
ALL_FEATURES
100
AcDbLine
 62
7
  6
CONTINUOUS
 10
6.854900932
 20
3.3497004055
 11
6.854900932
 21
3.3398008624
  0
LINE
  5
2B5
100
AcDbEntity
  8
ALL_FEATURES
100
AcDbLine
 62
7
  6
CONTINUOUS
 10
6.8549009317
 20
3.3080303919
 11
6.8549009317
 21
3.3026646565
  0
LINE
  5
2B6
100
AcDbEntity
  8
ALL_FEATURES
100
AcDbLine
 62
7
  6
CONTINUOUS
 10
6.8573509317
 20
3.6752146565
 11
6.8573509317
 21
3.7094259738
  0
LINE
  5
2B7
100
AcDbEntity
  8
ALL_FEATURES
100
AcDbLine
 62
7
  6
CONTINUOUS
 10
6.9973509317
 20
3.6752146565
 11
6.9973509317
 21
3.7094259738
  0
LINE
  5
2B8
100
AcDbEntity
  8
ALL_FEATURES
100
AcDbLine
 62
7
  6
CONTINUOUS
 10
6.9998009315
 20
3.3184453938
 11
6.9998009315
 21
3.3283449446
  0
LINE
  5
2B9
100
AcDbEntity
  8
ALL_FEATURES
100
AcDbLine
 62
7
  6
CONTINUOUS
 10
6.9998009313
 20
3.3601154186
 11
6.9998009313
 21
3.3700149692
  0
LINE
  5
2BA
100
AcDbEntity
  8
ALL_FEATURES
100
AcDbLine
 62
7
  6
CONTINUOUS
 10
6.9998009315
 20
3.4017854163
 11
6.9998009315
 21
3.4116849684
  0
LINE
  5
2BB
100
AcDbEntity
  8
ALL_FEATURES
100
AcDbLine
 62
7
  6
CONTINUOUS
 10
6.9998009315
 20
3.4434553916
 11
6.9998009315
 21
3.4533549426
  0
LINE
  5
2BC
100
AcDbEntity
  8
ALL_FEATURES
100
AcDbLine
 62
7
  6
CONTINUOUS
 10
6.9998009313
 20
3.4851254142
 11
6.9998009313
 21
3.4950249647
  0
LINE
  5
2BD
100
AcDbEntity
  8
ALL_FEATURES
100
AcDbLine
 62
7
  6
CONTINUOUS
 10
6.9998009314
 20
3.5267954217
 11
6.9998009314
 21
3.5366949733
  0
LINE
  5
2BE
100
AcDbEntity
  8
ALL_FEATURES
100
AcDbLine
 62
7
  6
CONTINUOUS
 10
6.9998009316
 20
3.568465391
 11
6.9998009316
 21
3.5783649422
  0
LINE
  5
2BF
100
AcDbEntity
  8
ALL_FEATURES
100
AcDbLine
 62
7
  6
CONTINUOUS
 10
6.9998009313
 20
3.6101354093
 11
6.9998009313
 21
3.6200349598
  0
LINE
  5
2C0
100
AcDbEntity
  8
ALL_FEATURES
100
AcDbLine
 62
7
  6
CONTINUOUS
 10
6.9998009313
 20
3.6518054244
 11
6.9998009313
 21
3.6617049757
  0
LINE
  5
2C1
100
AcDbEntity
  8
ALL_FEATURES
100
AcDbLine
 62
7
  6
CONTINUOUS
 10
7.0223509317
 20
3.6387861756
 11
7.0223509317
 21
3.6335746582
  0
LINE
  5
2C2
100
AcDbEntity
  8
ALL_FEATURES
100
AcDbLine
 62
7
  6
CONTINUOUS
 10
7.0223509317
 20
3.3418846426
 11
7.0223509317
 21
3.3470961697
  0
LINE
  5
2C3
100
AcDbEntity
  8
ALL_FEATURES
100
AcDbLine
 62
7
  6
CONTINUOUS
 10
7.0223509317
 20
3.3835546675
 11
7.0223509317
 21
3.3887661677
  0
LINE
  5
2C4
100
AcDbEntity
  8
ALL_FEATURES
100
AcDbLine
 62
7
  6
CONTINUOUS
 10
7.0223509317
 20
3.425224665
 11
7.0223509317
 21
3.4304361429
  0
LINE
  5
2C5
100
AcDbEntity
  8
ALL_FEATURES
100
AcDbLine
 62
7
  6
CONTINUOUS
 10
7.0223509317
 20
3.4668946403
 11
7.0223509317
 21
3.4721061653
  0
LINE
  5
2C6
100
AcDbEntity
  8
ALL_FEATURES
100
AcDbLine
 62
7
  6
CONTINUOUS
 10
7.0223509317
 20
3.5085646631
 11
7.0223509317
 21
3.5137761729
  0
LINE
  5
2C7
100
AcDbEntity
  8
ALL_FEATURES
100
AcDbLine
 62
7
  6
CONTINUOUS
 10
7.0223509317
 20
3.5502346705
 11
7.0223509317
 21
3.5554461424
  0
LINE
  5
2C8
100
AcDbEntity
  8
ALL_FEATURES
100
AcDbLine
 62
7
  6
CONTINUOUS
 10
7.0223509317
 20
3.5919046397
 11
7.0223509317
 21
3.5971161605
  0
LINE
  5
2C9
100
AcDbEntity
  8
0
100
AcDbLine
 62
7
  6
CONTINUOUS
 10
7.2538509317
 20
3.8108334801
 11
7.2538509317
 21
3.8508334801
  0
ARC
  5
2CA
100
AcDbEntity
  8
0
100
AcDbCircle
 62
7
  6
CONTINUOUS
 10
3.7992899646
 20
3.7608334801
 40
0.05
100
AcDbArc
 50
90.0000000407
 51
138.9999999269
  0
ARC
  5
2CB
100
AcDbEntity
  8
0
100
AcDbCircle
 62
7
  6
CONTINUOUS
 10
3.3314118988
 20
3.7608334801
 40
0.05
100
AcDbArc
 50
41.0000000731
 51
89.9999999593
  0
ARC
  5
2CC
100
AcDbEntity
  8
0
100
AcDbCircle
 62
7
  6
CONTINUOUS
 10
6.6934118988
 20
3.7608334801
 40
0.05
100
AcDbArc
 50
41.0000000327
 51
89.9999999831
  0
ARC
  5
2CD
100
AcDbEntity
  8
0
100
AcDbCircle
 62
7
  6
CONTINUOUS
 10
7.1612899646
 20
3.7608334801
 40
0.05
100
AcDbArc
 50
90.0000000169
 51
138.9999999673
  0
ARC
  5
2CE
100
AcDbEntity
  8
ALL_FEATURES
100
AcDbCircle
 62
7
  6
CONTINUOUS
 10
3.5002039053
 20
3.6648445522
 40
0.0107645687
100
AcDbArc
 50
132.628798651
 51
133.1445129245
  0
ARC
  5
2CF
100
AcDbEntity
  8
ALL_FEATURES
100
AcDbCircle
 62
7
  6
CONTINUOUS
 10
6.8622039053
 20
3.6648445522
 40
0.0107645687
100
AcDbArc
 50
132.6287986493
 51
133.1445129246
  0
ARC
  5
2D0
100
AcDbEntity
  8
ALL_FEATURES
100
AcDbCircle
 62
7
  6
CONTINUOUS
 10
6.8616628314
 20
3.6654156392
 40
0.0099778783
100
AcDbArc
 50
133.1200979064
 51
135.0030993024
  0
ARC
  5
2D1
100
AcDbEntity
  8
ALL_FEATURES
100
AcDbCircle
 62
7
  6
CONTINUOUS
 10
3.4996628314
 20
3.6654156392
 40
0.0099778783
100
AcDbArc
 50
133.1200979063
 51
135.0030993021
  0
SPLINE
  5
2D2
100
AcDbEntity
  8
ALL_FEATURES
100
AcDbSpline
 62
7
  6
CONTINUOUS
 70
0
 71
3
 72
14
 73
10
 74
0
 42
0.0000001
 43
0.0000001
 44
0.0000000001
 40
0.0
 40
0.0
 40
0.0
 40
0.0
 40
0.0913343208
 40
0.186818112
 40
0.2900581551
 40
0.4039133491
 40
0.5305136852
 40
0.6714016721
 40
1.0
 40
1.0
 40
1.0
 40
1.0
 10
6.8323509317
 20
3.6179511725
 30
0.0
 10
6.8323509317
 20
3.6179845876
 30
0.0
 10
6.8323585173
 20
3.6180531432
 30
0.0
 10
6.832392092
 20
3.6181544967
 30
0.0
 10
6.8324474148
 20
3.6182551962
 30
0.0
 10
6.8325241041
 20
3.6183553245
 30
0.0
 10
6.8326219932
 20
3.6184551307
 30
0.0
 10
6.8327894769
 20
3.6185951993
 30
0.0
 10
6.8329343763
 20
3.618688732
 30
0.0
 10
6.8330382849
 20
3.6187491943
 30
0.0
  0
SPLINE
  5
2D3
100
AcDbEntity
  8
ALL_FEATURES
100
AcDbSpline
 62
7
  6
CONTINUOUS
 70
0
 71
3
 72
14
 73
10
 74
0
 42
0.0000001
 43
0.0000001
 44
0.0000000001
 40
0.0
 40
0.0
 40
0.0
 40
0.0
 40
0.3286011459
 40
0.4694893901
 40
0.59608946
 40
0.7099440505
 40
0.8131833325
 40
0.9086663584
 40
1.0
 40
1.0
 40
1.0
 40
1.0
 10
6.8330382898
 20
3.6119416228
 30
0.0
 10
6.8329343798
 20
3.6120020856
 30
0.0
 10
6.8327894785
 20
3.6120956188
 30
0.0
 10
6.832621993
 20
3.6122356881
 30
0.0
 10
6.8325241035
 20
3.6123354943
 30
0.0
 10
6.8324474141
 20
3.6124356225
 30
0.0
 10
6.8323920916
 20
3.6125363217
 30
0.0
 10
6.8323585172
 20
3.6126376748
 30
0.0
 10
6.8323509317
 20
3.6127062302
 30
0.0
 10
6.8323509317
 20
3.6127396452
 30
0.0
  0
SPLINE
  5
2D4
100
AcDbEntity
  8
ALL_FEATURES
100
AcDbSpline
 62
7
  6
CONTINUOUS
 70
0
 71
3
 72
14
 73
10
 74
0
 42
0.0000001
 43
0.0000001
 44
0.0000000001
 40
0.0
 40
0.0
 40
0.0
 40
0.0
 40
0.3286001701
 40
0.4694888793
 40
0.5960896234
 40
0.70994479
 40
0.8131842949
 40
0.9086670526
 40
1.0
 40
1.0
 40
1.0
 40
1.0
 10
6.8330382998
 20
3.5702716296
 30
0.0
 10
6.8329343897
 20
3.5703320925
 30
0.0
 10
6.832789488
 20
3.5704256257
 30
0.0
 10
6.8326220008
 20
3.5705656943
 30
0.0
 10
6.8325241095
 20
3.5706655002
 30
0.0
 10
6.832447418
 20
3.570765628
 30
0.0
 10
6.8323920936
 20
3.5708663268
 30
0.0
 10
6.8323585176
 20
3.5709676797
 30
0.0
 10
6.8323509317
 20
3.5710362349
 30
0.0
 10
6.8323509317
 20
3.5710696498
 30
0.0
  0
SPLINE
  5
2D5
100
AcDbEntity
  8
ALL_FEATURES
100
AcDbSpline
 62
7
  6
CONTINUOUS
 70
0
 71
3
 72
14
 73
10
 74
0
 42
0.0000001
 43
0.0000001
 44
0.0000000001
 40
0.0
 40
0.0
 40
0.0
 40
0.0
 40
0.3286011914
 40
0.4694894643
 40
0.5960895561
 40
0.7099441541
 40
0.8131834231
 40
0.9086664131
 40
1.0
 40
1.0
 40
1.0
 40
1.0
 10
7.0216635737
 20
3.5911066182
 30
0.0
 10
7.0217674837
 20
3.5911670809
 30
0.0
 10
7.0219123849
 20
3.591260614
 30
0.0
 10
7.0220798704
 20
3.5914006832
 30
0.0
 10
7.0221777598
 20
3.5915004893
 30
0.0
 10
7.0222544492
 20
3.5916006173
 30
0.0
 10
7.0223097717
 20
3.5917013164
 30
0.0
 10
7.0223433462
 20
3.5918026694
 30
0.0
 10
7.0223509317
 20
3.5918712247
 30
0.0
 10
7.0223509317
 20
3.5919046397
 30
0.0
  0
SPLINE
  5
2D6
100
AcDbEntity
  8
ALL_FEATURES
100
AcDbSpline
 62
7
  6
CONTINUOUS
 70
0
 71
3
 72
14
 73
10
 74
0
 42
0.0000001
 43
0.0000001
 44
0.0000000001
 40
0.0
 40
0.0
 40
0.0
 40
0.0
 40
0.328597131
 40
0.4694845088
 40
0.5960844193
 40
0.7099395099
 40
0.8131798819
 40
0.9086644762
 40
1.0
 40
1.0
 40
1.0
 40
1.0
 10
6.8330382735
 20
3.5770791698
 30
0.0
 10
6.832934366
 20
3.577018708
 30
0.0
 10
6.8327894682
 20
3.5769251759
 30
0.0
 10
6.8326219871
 20
3.5767851075
 30
0.0
 10
6.8325240998
 20
3.5766853014
 30
0.0
 10
6.8324474121
 20
3.5765851729
 30
0.0
 10
6.8323920907
 20
3.576484473
 30
0.0
 10
6.832358517
 20
3.576383119
 30
0.0
 10
6.8323509317
 20
3.5763145631
 30
0.0
 10
6.8323509317
 20
3.5762811477
 30
0.0
  0
SPLINE
  5
2D7
100
AcDbEntity
  8
ALL_FEATURES
100
AcDbSpline
 62
7
  6
CONTINUOUS
 70
0
 71
3
 72
15
 73
11
 74
0
 42
0.0000001
 43
0.0000001
 44
0.0000000001
 40
0.0
 40
0.0
 40
0.0
 40
0.0
 40
0.1265411284
 40
0.2349476441
 40
0.333312009
 40
0.4321744459
 40
0.5418880905
 40
0.6701685699
 40
0.8218940273
 40
1.0
 40
1.0
 40
1.0
 40
1.0
 10
7.006482537
 20
3.6660830512
 30
0.0
 10
7.0065056276
 20
3.6660599607
 30
0.0
 10
7.006545437
 20
3.6660136478
 30
0.0
 10
7.0065853386
 20
3.6659362542
 30
0.0
 10
7.0065981644
 20
3.6658568522
 30
0.0
 10
7.0065824835
 20
3.6657776591
 30
0.0
 10
7.0065400432
 20
3.665700627
 30
0.0
 10
7.0064726457
 20
3.6656251975
 30
0.0
 10
7.0063806013
 20
3.6655504671
 30
0.0
 10
7.006308695
 20
3.6655046355
 30
0.0
 10
7.0062690055
 20
3.6654814574
 30
0.0
  0
SPLINE
  5
2D8
100
AcDbEntity
  8
ALL_FEATURES
100
AcDbSpline
 62
7
  6
CONTINUOUS
 70
0
 71
3
 72
14
 73
10
 74
0
 42
0.0000001
 43
0.0000001
 44
0.0000000001
 40
0.0
 40
0.0
 40
0.0
 40
0.0
 40
0.3285976297
 40
0.4694848818
 40
0.5960845617
 40
0.7099394248
 40
0.8131796669
 40
0.9086642901
 40
1.0
 40
1.0
 40
1.0
 40
1.0
 10
6.8330382687
 20
3.5354091724
 30
0.0
 10
6.8329343614
 20
3.5353487109
 30
0.0
 10
6.8327894641
 20
3.535255179
 30
0.0
 10
6.8326219839
 20
3.535115111
 30
0.0
 10
6.8325240975
 20
3.5350153051
 30
0.0
 10
6.8324474106
 20
3.5349151769
 30
0.0
 10
6.83239209
 20
3.5348144774
 30
0.0
 10
6.8323585168
 20
3.5347131237
 30
0.0
 10
6.8323509317
 20
3.5346445679
 30
0.0
 10
6.8323509317
 20
3.5346111527
 30
0.0
  0
SPLINE
  5
2D9
100
AcDbEntity
  8
ALL_FEATURES
100
AcDbSpline
 62
7
  6
CONTINUOUS
 70
0
 71
3
 72
14
 73
10
 74
0
 42
0.0000001
 43
0.0000001
 44
0.0000000001
 40
0.0
 40
0.0
 40
0.0
 40
0.0
 40
0.328597081
 40
0.4694845616
 40
0.5960845918
 40
0.7099397691
 40
0.8131801521
 40
0.9086646573
 40
1.0
 40
1.0
 40
1.0
 40
1.0
 10
7.0216635875
 20
3.5979141828
 30
0.0
 10
7.0217674952
 20
3.5978537209
 30
0.0
 10
7.0219123932
 20
3.5977601887
 30
0.0
 10
7.0220798748
 20
3.5976201203
 30
0.0
 10
7.0221777624
 20
3.5975203141
 30
0.0
 10
7.0222544506
 20
3.5974201856
 30
0.0
 10
7.0223097723
 20
3.5973194857
 30
0.0
 10
7.0223433463
 20
3.5972181317
 30
0.0
 10
7.0223509317
 20
3.5971495758
 30
0.0
 10
7.0223509317
 20
3.5971161605
 30
0.0
  0
SPLINE
  5
2DA
100
AcDbEntity
  8
ALL_FEATURES
100
AcDbSpline
 62
7
  6
CONTINUOUS
 70
0
 71
3
 72
14
 73
10
 74
0
 42
0.0000001
 43
0.0000001
 44
0.0000000001
 40
0.0
 40
0.0
 40
0.0
 40
0.0
 40
0.3285973396
 40
0.4694846556
 40
0.5960844598
 40
0.7099394487
 40
0.8131797665
 40
0.9086643817
 40
1.0
 40
1.0
 40
1.0
 40
1.0
 10
7.0216635919
 20
3.5562441636
 30
0.0
 10
7.0217674994
 20
3.5561837019
 30
0.0
 10
7.0219123969
 20
3.5560901699
 30
0.0
 10
7.0220798777
 20
3.5559501017
 30
0.0
 10
7.0221777646
 20
3.5558502956
 30
0.0
 10
7.022254452
 20
3.5557501672
 30
0.0
 10
7.022309773
 20
3.5556494675
 30
0.0
 10
7.0223433464
 20
3.5555481136
 30
0.0
 10
7.0223509317
 20
3.5554795577
 30
0.0
 10
7.0223509317
 20
3.5554461424
 30
0.0
  0
SPLINE
  5
2DB
100
AcDbEntity
  8
ALL_FEATURES
100
AcDbSpline
 62
7
  6
CONTINUOUS
 70
0
 71
3
 72
14
 73
10
 74
0
 42
0.0000001
 43
0.0000001
 44
0.0000000001
 40
0.0
 40
0.0
 40
0.0
 40
0.0
 40
0.3286012364
 40
0.4694895382
 40
0.5960896524
 40
0.7099442582
 40
0.8131835145
 40
0.9086664684
 40
1.0
 40
1.0
 40
1.0
 40
1.0
 10
6.8330382907
 20
3.5286016508
 30
0.0
 10
6.8329343805
 20
3.5286621136
 30
0.0
 10
6.8327894792
 20
3.5287556468
 30
0.0
 10
6.8326219935
 20
3.5288957161
 30
0.0
 10
6.8325241039
 20
3.5289955223
 30
0.0
 10
6.8324474143
 20
3.5290956503
 30
0.0
 10
6.8323920917
 20
3.5291963494
 30
0.0
 10
6.8323585172
 20
3.5292977025
 30
0.0
 10
6.8323509317
 20
3.5293662579
 30
0.0
 10
6.8323509317
 20
3.5293996728
 30
0.0
  0
SPLINE
  5
2DC
100
AcDbEntity
  8
ALL_FEATURES
100
AcDbSpline
 62
7
  6
CONTINUOUS
 70
0
 71
3
 72
14
 73
10
 74
0
 42
0.0000001
 43
0.0000001
 44
0.0000000001
 40
0.0
 40
0.0
 40
0.0
 40
0.0
 40
0.3286012619
 40
0.4694895849
 40
0.5960897168
 40
0.7099443303
 40
0.813183579
 40
0.9086665079
 40
1.0
 40
1.0
 40
1.0
 40
1.0
 10
6.8330382916
 20
3.4869316269
 30
0.0
 10
6.8329343814
 20
3.4869920898
 30
0.0
 10
6.8327894799
 20
3.487085623
 30
0.0
 10
6.8326219939
 20
3.4872256924
 30
0.0
 10
6.8325241042
 20
3.4873254987
 30
0.0
 10
6.8324474145
 20
3.4874256268
 30
0.0
 10
6.8323920918
 20
3.487526326
 30
0.0
 10
6.8323585172
 20
3.4876276791
 30
0.0
 10
6.8323509317
 20
3.4876962345
 30
0.0
 10
6.8323509317
 20
3.4877296495
 30
0.0
  0
SPLINE
  5
2DD
100
AcDbEntity
  8
ALL_FEATURES
100
AcDbSpline
 62
7
  6
CONTINUOUS
 70
0
 71
3
 72
14
 73
10
 74
0
 42
0.0000001
 43
0.0000001
 44
0.0000000001
 40
0.0
 40
0.0
 40
0.0
 40
0.0
 40
0.328592726
 40
0.4694760785
 40
0.5960725206
 40
0.7099259898
 40
0.813167639
 40
0.9086569006
 40
1.0
 40
1.0
 40
1.0
 40
1.0
 10
6.8330381938
 20
3.4452616227
 30
0.0
 10
6.8329342921
 20
3.4453220808
 30
0.0
 10
6.8327894042
 20
3.4454156091
 30
0.0
 10
6.83262194
 20
3.445555676
 30
0.0
 10
6.8325240658
 20
3.4456554818
 30
0.0
 10
6.8324473906
 20
3.4457556112
 30
0.0
 10
6.8323920803
 20
3.4458563131
 30
0.0
 10
6.8323585146
 20
3.4459576698
 30
0.0
 10
6.8323509317
 20
3.4460262272
 30
0.0
 10
6.8323509317
 20
3.4460596438
 30
0.0
  0
SPLINE
  5
2DE
100
AcDbEntity
  8
ALL_FEATURES
100
AcDbSpline
 62
7
  6
CONTINUOUS
 70
0
 71
3
 72
14
 73
10
 74
0
 42
0.0000001
 43
0.0000001
 44
0.0000000001
 40
0.0
 40
0.0
 40
0.0
 40
0.0
 40
0.3286012085
 40
0.4694894902
 40
0.5960895883
 40
0.7099441878
 40
0.8131834521
 40
0.9086664305
 40
1.0
 40
1.0
 40
1.0
 40
1.0
 10
7.0216635741
 20
3.5494366497
 30
0.0
 10
7.0217674841
 20
3.5494971123
 30
0.0
 10
7.0219123851
 20
3.5495906454
 30
0.0
 10
7.0220798705
 20
3.5497307144
 30
0.0
 10
7.0221777599
 20
3.5498305205
 30
0.0
 10
7.0222544493
 20
3.5499306484
 30
0.0
 10
7.0223097718
 20
3.5500313474
 30
0.0
 10
7.0223433462
 20
3.5501327003
 30
0.0
 10
7.0223509317
 20
3.5502012555
 30
0.0
 10
7.0223509317
 20
3.5502346705
 30
0.0
  0
SPLINE
  5
2DF
100
AcDbEntity
  8
ALL_FEATURES
100
AcDbSpline
 62
7
  6
CONTINUOUS
 70
0
 71
3
 72
14
 73
10
 74
0
 42
0.0000001
 43
0.0000001
 44
0.0000000001
 40
0.0
 40
0.0
 40
0.0
 40
0.0
 40
0.0914326298
 40
0.1869796914
 40
0.2902467566
 40
0.4040973032
 40
0.5306686593
 40
0.6715113363
 40
1.0
 40
1.0
 40
1.0
 40
1.0
 10
7.0223509114
 20
3.638786176
 30
0.0
 10
7.0223508982
 20
3.6388196211
 30
0.0
 10
7.0223433015
 20
3.6388882204
 30
0.0
 10
7.022309737
 20
3.638989629
 30
0.0
 10
7.0222544444
 20
3.6390903574
 30
0.0
 10
7.0221778008
 20
3.6391904899
 30
0.0
 10
7.0220799698
 20
3.6392902783
 30
0.0
 10
7.0219125813
 20
3.6394302959
 30
0.0
 10
7.0217677502
 20
3.6395237755
 30
0.0
 10
7.0216638897
 20
3.639584198
 30
0.0
  0
SPLINE
  5
2E0
100
AcDbEntity
  8
ALL_FEATURES
100
AcDbSpline
 62
7
  6
CONTINUOUS
 70
0
 71
3
 72
14
 73
10
 74
0
 42
0.0000001
 43
0.0000001
 44
0.0000000001
 40
0.0
 40
0.0
 40
0.0
 40
0.0
 40
0.0914426336
 40
0.1869957773
 40
0.2902611926
 40
0.4041031925
 40
0.5306630091
 40
0.6714966872
 40
1.0
 40
1.0
 40
1.0
 40
1.0
 10
7.0223508264
 20
3.6335746573
 30
0.0
 10
7.0223508051
 20
3.6335412117
 30
0.0
 10
7.0223432024
 20
3.6334726153
 30
0.0
 10
7.0223096529
 20
3.633371208
 30
0.0
 10
7.0222543896
 20
3.6332704782
 30
0.0
 10
7.0221777819
 20
3.6331703432
 30
0.0
 10
7.0220799873
 20
3.6330705524
 30
0.0
 10
7.0219126352
 20
3.6329305267
 30
0.0
 10
7.0217678175
 20
3.6328370506
 30
0.0
 10
7.0216639608
 20
3.6327766336
 30
0.0
  0
SPLINE
  5
2E1
100
AcDbEntity
  8
ALL_FEATURES
100
AcDbSpline
 62
7
  6
CONTINUOUS
 70
0
 71
3
 72
14
 73
10
 74
0
 42
0.0000001
 43
0.0000001
 44
0.0000000001
 40
0.0
 40
0.0
 40
0.0
 40
0.0
 40
0.0914387457
 40
0.1869691643
 40
0.2902179909
 40
0.4040597409
 40
0.5306343195
 40
0.6714890594
 40
1.0
 40
1.0
 40
1.0
 40
1.0
 10
6.8323510442
 20
3.3262611555
 30
0.0
 10
6.8323510017
 20
3.3262946041
 30
0.0
 10
6.8323584831
 20
3.3263632173
 30
0.0
 10
6.8323919504
 20
3.3264646566
 30
0.0
 10
6.8324472002
 20
3.3265653984
 30
0.0
 10
6.8325238389
 20
3.3266655317
 30
0.0
 10
6.8326216901
 20
3.326765312
 30
0.0
 10
6.8327891254
 20
3.3269053087
 30
0.0
 10
6.8329339911
 20
3.3269987691
 30
0.0
 10
6.8330378714
 20
3.327059183
 30
0.0
  0
SPLINE
  5
2E2
100
AcDbEntity
  8
ALL_FEATURES
100
AcDbSpline
 62
7
  6
CONTINUOUS
 70
0
 71
3
 72
11
 73
7
 74
0
 42
0.0000001
 43
0.0000001
 44
0.0000000001
 40
0.0
 40
0.0
 40
0.0
 40
0.0
 40
0.2164285365
 40
0.4545432676
 40
0.7154782165
 40
1.0
 40
1.0
 40
1.0
 40
1.0
 10
6.8422056725
 20
3.3153601466
 30
0.0
 10
6.8423922648
 20
3.3151735405
 30
0.0
 10
6.842803029
 20
3.3148003152
 30
0.0
 10
6.8434913666
 20
3.3142633744
 30
0.0
 10
6.8442801924
 20
3.3137234298
 30
0.0
 10
6.8448479611
 20
3.3133765298
 30
0.0
 10
6.845147693
 20
3.3132018523
 30
0.0
  0
SPLINE
  5
2E3
100
AcDbEntity
  8
ALL_FEATURES
100
AcDbSpline
 62
7
  6
CONTINUOUS
 70
0
 71
3
 72
15
 73
11
 74
0
 42
0.0000001
 43
0.0000001
 44
0.0000000001
 40
0.0
 40
0.0
 40
0.0
 40
0.0
 40
0.1264004651
 40
0.234682314
 40
0.3329117849
 40
0.4316434559
 40
0.541280839
 40
0.6695965554
 40
0.8215183412
 40
1.0
 40
1.0
 40
1.0
 40
1.0
 10
6.8350106542
 20
3.6528741874
 30
0.0
 10
6.8349907925
 20
3.6528543184
 30
0.0
 10
6.8349565452
 20
3.6528144763
 30
0.0
 10
6.8349221975
 20
3.6527479116
 30
0.0
 10
6.8349111494
 20
3.65267961
 30
0.0
 10
6.8349246835
 20
3.6526114797
 30
0.0
 10
6.8349613204
 20
3.6525452184
 30
0.0
 10
6.8350195209
 20
3.6524803403
 30
0.0
 10
6.8350990414
 20
3.6524160624
 30
0.0
 10
6.8351611626
 20
3.6523766505
 30
0.0
 10
6.835195457
 20
3.6523567114
 30
0.0
  0
SPLINE
  5
2E4
100
AcDbEntity
  8
ALL_FEATURES
100
AcDbSpline
 62
7
  6
CONTINUOUS
 70
0
 71
3
 72
15
 73
11
 74
0
 42
0.0000001
 43
0.0000001
 44
0.0000000001
 40
0.0
 40
0.0
 40
0.0
 40
0.0
 40
0.1782046399
 40
0.3299973932
 40
0.4583142741
 40
0.5680331409
 40
0.6668707139
 40
0.76518625
 40
0.8735296521
 40
1.0
 40
1.0
 40
1.0
 40
1.0
 10
7.0095998528
 20
3.3132472433
 30
0.0
 10
7.0096380282
 20
3.3132249693
 30
0.0
 10
7.0097071909
 20
3.3131809282
 30
0.0
 10
7.0097957309
 20
3.3131091193
 30
0.0
 10
7.0098605697
 20
3.3130366448
 30
0.0
 10
7.0099014143
 20
3.3129626354
 30
0.0
 10
7.0099165357
 20
3.3128865494
 30
0.0
 10
7.0099042505
 20
3.312810262
 30
0.0
 10
7.009865936
 20
3.3127359105
 30
0.0
 10
7.0098276981
 20
3.312691423
 30
0.0
 10
7.0098055182
 20
3.312669243
 30
0.0
  0
SPLINE
  5
2E5
100
AcDbEntity
  8
ALL_FEATURES
100
AcDbSpline
 62
7
  6
CONTINUOUS
 70
0
 71
3
 72
14
 73
10
 74
0
 42
0.0000001
 43
0.0000001
 44
0.0000000001
 40
0.0
 40
0.0
 40
0.0
 40
0.0
 40
0.3286012543
 40
0.4694895698
 40
0.5960896953
 40
0.7099443058
 40
0.8131835568
 40
0.9086664943
 40
1.0
 40
1.0
 40
1.0
 40
1.0
 10
7.0216635719
 20
3.5077666405
 30
0.0
 10
7.0217674821
 20
3.5078271033
 30
0.0
 10
7.0219123836
 20
3.5079206366
 30
0.0
 10
7.0220798695
 20
3.508060706
 30
0.0
 10
7.0221777592
 20
3.5081605122
 30
0.0
 10
7.0222544489
 20
3.5082606404
 30
0.0
 10
7.0223097716
 20
3.5083613396
 30
0.0
 10
7.0223433461
 20
3.5084626927
 30
0.0
 10
7.0223509317
 20
3.5085312481
 30
0.0
 10
7.0223509317
 20
3.5085646631
 30
0.0
  0
SPLINE
  5
2E6
100
AcDbEntity
  8
ALL_FEATURES
100
AcDbSpline
 62
7
  6
CONTINUOUS
 70
0
 71
3
 72
14
 73
10
 74
0
 42
0.0000001
 43
0.0000001
 44
0.0000000001
 40
0.0
 40
0.0
 40
0.0
 40
0.0
 40
0.3285995293
 40
0.4694868942
 40
0.5960863314
 40
0.709940748
 40
0.8131804821
 40
0.9086646477
 40
1.0
 40
1.0
 40
1.0
 40
1.0
 10
7.0216635913
 20
3.3478941917
 30
0.0
 10
7.0217674998
 20
3.3478337298
 30
0.0
 10
7.0219123984
 20
3.3477401974
 30
0.0
 10
7.02207988
 20
3.3476001286
 30
0.0
 10
7.0221777666
 20
3.3475003224
 30
0.0
 10
7.0222544535
 20
3.3474001941
 30
0.0
 10
7.0223097738
 20
3.3472994945
 30
0.0
 10
7.0223433466
 20
3.3471981407
 30
0.0
 10
7.0223509317
 20
3.347129585
 30
0.0
 10
7.0223509317
 20
3.3470961697
 30
0.0
  0
SPLINE
  5
2E7
100
AcDbEntity
  8
ALL_FEATURES
100
AcDbSpline
 62
7
  6
CONTINUOUS
 70
0
 71
3
 72
14
 73
10
 74
0
 42
0.0000001
 43
0.0000001
 44
0.0000000001
 40
0.0
 40
0.0
 40
0.0
 40
0.0
 40
0.3285855735
 40
0.4694647149
 40
0.5960580097
 40
0.7099104755
 40
0.8131541249
 40
0.9086487363
 40
1.0
 40
1.0
 40
1.0
 40
1.0
 10
7.0216637468
 20
3.3895641883
 30
0.0
 10
7.021767642
 20
3.3895037344
 30
0.0
 10
7.0219125196
 20
3.3894102107
 30
0.0
 10
7.0220799669
 20
3.3892701461
 30
0.0
 10
7.0221778286
 20
3.3891703405
 30
0.0
 10
7.0222544921
 20
3.3890702099
 30
0.0
 10
7.0223097925
 20
3.3889695055
 30
0.0
 10
7.0223433509
 20
3.3888681452
 30
0.0
 10
7.0223509317
 20
3.3887995859
 30
0.0
 10
7.0223509317
 20
3.3887661677
 30
0.0
  0
SPLINE
  5
2E8
100
AcDbEntity
  8
ALL_FEATURES
100
AcDbSpline
 62
7
  6
CONTINUOUS
 70
0
 71
3
 72
14
 73
10
 74
0
 42
0.0000001
 43
0.0000001
 44
0.0000000001
 40
0.0
 40
0.0
 40
0.0
 40
0.0
 40
0.3286012593
 40
0.4694895833
 40
0.5960897168
 40
0.7099443317
 40
0.813183581
 40
0.9086665094
 40
1.0
 40
1.0
 40
1.0
 40
1.0
 10
7.0216635723
 20
3.4660966184
 30
0.0
 10
7.0217674825
 20
3.4661570812
 30
0.0
 10
7.0219123838
 20
3.4662506144
 30
0.0
 10
7.0220798696
 20
3.4663906837
 30
0.0
 10
7.0221777593
 20
3.4664904898
 30
0.0
 10
7.0222544489
 20
3.4665906179
 30
0.0
 10
7.0223097716
 20
3.466691317
 30
0.0
 10
7.0223433461
 20
3.46679267
 30
0.0
 10
7.0223509317
 20
3.4668612253
 30
0.0
 10
7.0223509317
 20
3.4668946403
 30
0.0
  0
SPLINE
  5
2E9
100
AcDbEntity
  8
ALL_FEATURES
100
AcDbSpline
 62
7
  6
CONTINUOUS
 70
0
 71
3
 72
14
 73
10
 74
0
 42
0.0000001
 43
0.0000001
 44
0.0000000001
 40
0.0
 40
0.0
 40
0.0
 40
0.0
 40
0.3285991755
 40
0.4694864305
 40
0.5960858177
 40
0.7099402547
 40
0.8131800856
 40
0.9086644215
 40
1.0
 40
1.0
 40
1.0
 40
1.0
 10
6.8330382692
 20
3.3687291973
 30
0.0
 10
6.8329343612
 20
3.3686687355
 30
0.0
 10
6.832789463
 20
3.3685752034
 30
0.0
 10
6.8326219821
 20
3.3684351348
 30
0.0
 10
6.8325240959
 20
3.3683353287
 30
0.0
 10
6.8324474094
 20
3.3682352004
 30
0.0
 10
6.8323920893
 20
3.3681345008
 30
0.0
 10
6.8323585167
 20
3.3680331471
 30
0.0
 10
6.8323509317
 20
3.3679645914
 30
0.0
 10
6.8323509317
 20
3.3679311761
 30
0.0
  0
SPLINE
  5
2EA
100
AcDbEntity
  8
ALL_FEATURES
100
AcDbSpline
 62
7
  6
CONTINUOUS
 70
0
 71
3
 72
14
 73
10
 74
0
 42
0.0000001
 43
0.0000001
 44
0.0000000001
 40
0.0
 40
0.0
 40
0.0
 40
0.0
 40
0.3285931266
 40
0.4694767247
 40
0.5960733532
 40
0.709926885
 40
0.8131684216
 40
0.9086573743
 40
1.0
 40
1.0
 40
1.0
 40
1.0
 10
7.0216636636
 20
3.3410866199
 30
0.0
 10
7.0217675658
 20
3.3411470784
 30
0.0
 10
7.0219124546
 20
3.3412406071
 30
0.0
 10
7.0220799202
 20
3.3413806743
 30
0.0
 10
7.0221777953
 20
3.3414804804
 30
0.0
 10
7.0222544714
 20
3.3415806099
 30
0.0
 10
7.0223097824
 20
3.3416813118
 30
0.0
 10
7.0223433486
 20
3.3417826686
 30
0.0
 10
7.0223509317
 20
3.341851226
 30
0.0
 10
7.0223509317
 20
3.3418846426
 30
0.0
  0
SPLINE
  5
2EB
100
AcDbEntity
  8
ALL_FEATURES
100
AcDbSpline
 62
7
  6
CONTINUOUS
 70
0
 71
3
 72
14
 73
10
 74
0
 42
0.0000001
 43
0.0000001
 44
0.0000000001
 40
0.0
 40
0.0
 40
0.0
 40
0.0
 40
0.3285977143
 40
0.4694849427
 40
0.5960845811
 40
0.709939404
 40
0.8131796241
 40
0.9086642543
 40
1.0
 40
1.0
 40
1.0
 40
1.0
 10
6.8330382698
 20
3.4937391967
 30
0.0
 10
6.8329343622
 20
3.493678735
 30
0.0
 10
6.8327894647
 20
3.493585203
 30
0.0
 10
6.8326219841
 20
3.4934451346
 30
0.0
 10
6.8325240975
 20
3.4933453285
 30
0.0
 10
6.8324474106
 20
3.4932452001
 30
0.0
 10
6.83239209
 20
3.4931445003
 30
0.0
 10
6.8323585168
 20
3.4930431463
 30
0.0
 10
6.8323509317
 20
3.4929745904
 30
0.0
 10
6.8323509317
 20
3.4929411751
 30
0.0
  0
SPLINE
  5
2EC
100
AcDbEntity
  8
ALL_FEATURES
100
AcDbSpline
 62
7
  6
CONTINUOUS
 70
0
 71
3
 72
14
 73
10
 74
0
 42
0.0000001
 43
0.0000001
 44
0.0000000001
 40
0.0
 40
0.0
 40
0.0
 40
0.0
 40
0.3286012162
 40
0.4694895197
 40
0.5960896394
 40
0.7099442517
 40
0.8131835129
 40
0.908666469
 40
1.0
 40
1.0
 40
1.0
 40
1.0
 10
7.0216635722
 20
3.382756645
 30
0.0
 10
7.0217674824
 20
3.3828171078
 30
0.0
 10
7.0219123838
 20
3.3829106411
 30
0.0
 10
7.0220798696
 20
3.3830507104
 30
0.0
 10
7.0221777593
 20
3.3831505167
 30
0.0
 10
7.0222544489
 20
3.3832506448
 30
0.0
 10
7.0223097716
 20
3.383351344
 30
0.0
 10
7.0223433461
 20
3.3834526971
 30
0.0
 10
7.0223509317
 20
3.3835212525
 30
0.0
 10
7.0223509317
 20
3.3835546675
 30
0.0
  0
SPLINE
  5
2ED
100
AcDbEntity
  8
ALL_FEATURES
100
AcDbSpline
 62
7
  6
CONTINUOUS
 70
0
 71
3
 72
14
 73
10
 74
0
 42
0.0000001
 43
0.0000001
 44
0.0000000001
 40
0.0
 40
0.0
 40
0.0
 40
0.0
 40
0.328601264
 40
0.4694895892
 40
0.596089723
 40
0.7099443375
 40
0.8131835855
 40
0.908666512
 40
1.0
 40
1.0
 40
1.0
 40
1.0
 10
7.0216635737
 20
3.4244266448
 30
0.0
 10
7.0217674837
 20
3.4244871075
 30
0.0
 10
7.0219123847
 20
3.4245806405
 30
0.0
 10
7.0220798702
 20
3.4247207095
 30
0.0
 10
7.0221777597
 20
3.4248205154
 30
0.0
 10
7.0222544491
 20
3.4249206433
 30
0.0
 10
7.0223097717
 20
3.4250213421
 30
0.0
 10
7.0223433462
 20
3.425122695
 30
0.0
 10
7.0223509317
 20
3.4251912501
 30
0.0
 10
7.0223509317
 20
3.425224665
 30
0.0
  0
SPLINE
  5
2EE
100
AcDbEntity
  8
ALL_FEATURES
100
AcDbSpline
 62
7
  6
CONTINUOUS
 70
0
 71
3
 72
14
 73
10
 74
0
 42
0.0000001
 43
0.0000001
 44
0.0000000001
 40
0.0
 40
0.0
 40
0.0
 40
0.0
 40
0.3285983878
 40
0.4694855405
 40
0.5960849689
 40
0.7099395518
 40
0.8131795947
 40
0.9086641736
 40
1.0
 40
1.0
 40
1.0
 40
1.0
 10
6.8330382684
 20
3.4520691741
 30
0.0
 10
6.8329343606
 20
3.4520087124
 30
0.0
 10
6.8327894628
 20
3.4519151803
 30
0.0
 10
6.8326219823
 20
3.4517751117
 30
0.0
 10
6.8325240961
 20
3.4516753055
 30
0.0
 10
6.8324474096
 20
3.451575177
 30
0.0
 10
6.8323920894
 20
3.4514744772
 30
0.0
 10
6.8323585167
 20
3.4513731232
 30
0.0
 10
6.8323509317
 20
3.4513045673
 30
0.0
 10
6.8323509317
 20
3.4512711519
 30
0.0
  0
SPLINE
  5
2EF
100
AcDbEntity
  8
ALL_FEATURES
100
AcDbSpline
 62
7
  6
CONTINUOUS
 70
0
 71
3
 72
14
 73
10
 74
0
 42
0.0000001
 43
0.0000001
 44
0.0000000001
 40
0.0
 40
0.0
 40
0.0
 40
0.0
 40
0.3286011771
 40
0.4694894602
 40
0.5960895657
 40
0.7099441745
 40
0.8131834466
 40
0.9086664293
 40
1.0
 40
1.0
 40
1.0
 40
1.0
 10
6.8330382909
 20
3.3619216317
 30
0.0
 10
6.8329343807
 20
3.3619820945
 30
0.0
 10
6.8327894794
 20
3.3620756277
 30
0.0
 10
6.8326219936
 20
3.3622156971
 30
0.0
 10
6.8325241039
 20
3.3623155033
 30
0.0
 10
6.8324474143
 20
3.3624156315
 30
0.0
 10
6.8323920917
 20
3.3625163307
 30
0.0
 10
6.8323585172
 20
3.3626176839
 30
0.0
 10
6.8323509317
 20
3.3626862393
 30
0.0
 10
6.8323509317
 20
3.3627196543
 30
0.0
  0
SPLINE
  5
2F0
100
AcDbEntity
  8
ALL_FEATURES
100
AcDbSpline
 62
7
  6
CONTINUOUS
 70
0
 71
3
 72
14
 73
10
 74
0
 42
0.0000001
 43
0.0000001
 44
0.0000000001
 40
0.0
 40
0.0
 40
0.0
 40
0.0
 40
0.3286012452
 40
0.4694895626
 40
0.5960896918
 40
0.709944306
 40
0.8131835592
 40
0.9086664965
 40
1.0
 40
1.0
 40
1.0
 40
1.0
 10
6.8330382907
 20
3.4035916522
 30
0.0
 10
6.8329343806
 20
3.4036521149
 30
0.0
 10
6.8327894793
 20
3.4037456481
 30
0.0
 10
6.8326219936
 20
3.4038857173
 30
0.0
 10
6.832524104
 20
3.4039855234
 30
0.0
 10
6.8324474144
 20
3.4040856515
 30
0.0
 10
6.8323920917
 20
3.4041863505
 30
0.0
 10
6.8323585172
 20
3.4042877036
 30
0.0
 10
6.8323509317
 20
3.4043562589
 30
0.0
 10
6.8323509317
 20
3.4043896738
 30
0.0
  0
SPLINE
  5
2F1
100
AcDbEntity
  8
ALL_FEATURES
100
AcDbSpline
 62
7
  6
CONTINUOUS
 70
0
 71
3
 72
14
 73
10
 74
0
 42
0.0000001
 43
0.0000001
 44
0.0000000001
 40
0.0
 40
0.0
 40
0.0
 40
0.0
 40
0.3285987326
 40
0.4694859058
 40
0.5960852901
 40
0.709939792
 40
0.8131797428
 40
0.9086642386
 40
1.0
 40
1.0
 40
1.0
 40
1.0
 10
7.0216635953
 20
3.4312341645
 30
0.0
 10
7.0217675031
 20
3.4311737028
 30
0.0
 10
7.021912401
 20
3.4310801707
 30
0.0
 10
7.0220798815
 20
3.4309401021
 30
0.0
 10
7.0221777676
 20
3.4308402961
 30
0.0
 10
7.022254454
 20
3.4307401677
 30
0.0
 10
7.022309774
 20
3.430639468
 30
0.0
 10
7.0223433467
 20
3.4305381141
 30
0.0
 10
7.0223509317
 20
3.4304695583
 30
0.0
 10
7.0223509317
 20
3.4304361429
 30
0.0
  0
SPLINE
  5
2F2
100
AcDbEntity
  8
ALL_FEATURES
100
AcDbSpline
 62
7
  6
CONTINUOUS
 70
0
 71
3
 72
14
 73
10
 74
0
 42
0.0000001
 43
0.0000001
 44
0.0000000001
 40
0.0
 40
0.0
 40
0.0
 40
0.0
 40
0.3285990823
 40
0.4694863151
 40
0.5960856964
 40
0.7099401435
 40
0.8131799999
 40
0.9086643742
 40
1.0
 40
1.0
 40
1.0
 40
1.0
 10
6.833038268
 20
3.4103991669
 30
0.0
 10
6.8329343602
 20
3.4103387052
 30
0.0
 10
6.8327894623
 20
3.4102451733
 30
0.0
 10
6.8326219817
 20
3.4101051048
 30
0.0
 10
6.8325240956
 20
3.4100052989
 30
0.0
 10
6.8324474092
 20
3.4099051707
 30
0.0
 10
6.8323920893
 20
3.4098044712
 30
0.0
 10
6.8323585167
 20
3.4097031175
 30
0.0
 10
6.8323509317
 20
3.4096345619
 30
0.0
 10
6.8323509317
 20
3.4096011466
 30
0.0
  0
SPLINE
  5
2F3
100
AcDbEntity
  8
ALL_FEATURES
100
AcDbSpline
 62
7
  6
CONTINUOUS
 70
0
 71
3
 72
14
 73
10
 74
0
 42
0.0000001
 43
0.0000001
 44
0.0000000001
 40
0.0
 40
0.0
 40
0.0
 40
0.0
 40
0.3285980482
 40
0.4694852194
 40
0.5960847325
 40
0.7099394225
 40
0.8131795552
 40
0.9086641789
 40
1.0
 40
1.0
 40
1.0
 40
1.0
 10
7.0216635944
 20
3.4729041876
 30
0.0
 10
7.0217675021
 20
3.4728437258
 30
0.0
 10
7.0219123998
 20
3.4727501938
 30
0.0
 10
7.0220798803
 20
3.4726101252
 30
0.0
 10
7.0221777667
 20
3.4725103191
 30
0.0
 10
7.0222544534
 20
3.4724101905
 30
0.0
 10
7.0223097737
 20
3.4723094907
 30
0.0
 10
7.0223433466
 20
3.4722081366
 30
0.0
 10
7.0223509317
 20
3.4721395807
 30
0.0
 10
7.0223509317
 20
3.4721061653
 30
0.0
  0
SPLINE
  5
2F4
100
AcDbEntity
  8
ALL_FEATURES
100
AcDbSpline
 62
7
  6
CONTINUOUS
 70
0
 71
3
 72
14
 73
10
 74
0
 42
0.0000001
 43
0.0000001
 44
0.0000000001
 40
0.0
 40
0.0
 40
0.0
 40
0.0
 40
0.3285973419
 40
0.4694845953
 40
0.5960843318
 40
0.7099392755
 40
0.8131795942
 40
0.908664269
 40
1.0
 40
1.0
 40
1.0
 40
1.0
 10
7.0216635939
 20
3.5145741933
 30
0.0
 10
7.0217675012
 20
3.5145137318
 30
0.0
 10
7.0219123985
 20
3.5144201999
 30
0.0
 10
7.0220798788
 20
3.5142801318
 30
0.0
 10
7.0221777654
 20
3.5141803259
 30
0.0
 10
7.0222544525
 20
3.5140801975
 30
0.0
 10
7.0223097732
 20
3.5139794979
 30
0.0
 10
7.0223433465
 20
3.513878144
 30
0.0
 10
7.0223509317
 20
3.5138095882
 30
0.0
 10
7.0223509317
 20
3.5137761729
 30
0.0
  0
SPLINE
  5
2F5
100
AcDbEntity
  8
ALL_FEATURES
100
AcDbSpline
 62
7
  6
CONTINUOUS
 70
0
 71
3
 72
60
 73
56
 74
0
 42
0.0000001
 43
0.0000001
 44
0.0000000001
 40
0.0
 40
0.0
 40
0.0
 40
0.0
 40
0.0017501034
 40
0.0037465671
 40
0.0059951672
 40
0.0084994924
 40
0.0112611872
 40
0.0142809019
 40
0.0210939169
 40
0.0289350997
 40
0.0377959219
 40
0.0476602185
 40
0.0585083861
 40
0.0703199367
 40
0.0830717166
 40
0.0967352445
 40
0.1112810252
 40
0.1428963189
 40
0.1776407285
 40
0.2152124405
 40
0.2552781748
 40
0.2974867969
 40
0.341463096
 40
0.386819459
 40
0.4331529916
 40
0.5271059425
 40
0.6199983114
 40
0.6650157743
 40
0.708544842
 40
0.7502021718
 40
0.7896175072
 40
0.8264455192
 40
0.8603602584
 40
0.891066952
 40
0.9051319361
 40
0.9182984933
 40
0.9305379439
 40
0.9418234203
 40
0.9521337451
 40
0.9614496212
 40
0.9697529143
 40
0.9770304945
 40
0.980282903
 40
0.9832772356
 40
0.9860136948
 40
0.9884930957
 40
0.9907171599
 40
0.9926893507
 40
0.9944157665
 40
0.9959059072
 40
0.9971749604
 40
0.9982479846
 40
0.9991667421
 40
0.9995892038
 40
1.0
 40
1.0
 40
1.0
 40
1.0
 10
6.8330378714
 20
3.327059183
 30
0.0
 10
6.8331341922
 20
3.3271152005
 30
0.0
 10
6.8333457569
 20
3.327225944
 30
0.0
 10
6.8336945145
 20
3.3273814694
 30
0.0
 10
6.8340952034
 20
3.3275371308
 30
0.0
 10
6.8345476784
 20
3.3276928917
 30
0.0
 10
6.8350517326
 20
3.3278487779
 30
0.0
 10
6.835823808
 20
3.3280655674
 30
0.0
 10
6.8369171023
 20
3.3283331549
 30
0.0
 10
6.8383818978
 20
3.3286435033
 30
0.0
 10
6.8400446604
 20
3.3289542719
 30
0.0
 10
6.8419017195
 20
3.3292654782
 30
0.0
 10
6.8439489525
 20
3.3295770141
 30
0.0
 10
6.8461819172
 20
3.3298887804
 30
0.0
 10
6.8485957101
 20
3.3302006828
 30
0.0
 10
6.8511849056
 20
3.3305127643
 30
0.0
 10
6.8549696893
 20
3.3309410347
 30
0.0
 10
6.8600935075
 20
3.331471467
 30
0.0
 10
6.8666814428
 20
3.3320927091
 30
0.0
 10
6.8738095417
 20
3.3327145249
 30
0.0
 10
6.8814144956
 20
3.3333369287
 30
0.0
 10
6.8894284772
 20
3.3339596345
 30
0.0
 10
6.8977802459
 20
3.33458265
 30
0.0
 10
6.9063953306
 20
3.3352058217
 30
0.0
 10
6.9181853088
 20
3.3360407293
 30
0.0
 10
6.9329955582
 20
3.3370706762
 30
0.0
 10
6.9477214463
 20
3.3381060502
 30
0.0
 10
6.9592427473
 20
3.3389456398
 30
0.0
 10
6.9675091315
 20
3.3395686032
 30
0.0
 10
6.9754178187
 20
3.340191217
 30
0.0
 10
6.9828985066
 20
3.3408134965
 30
0.0
 10
6.989884495
 20
3.3414351477
 30
0.0
 10
6.9963137211
 20
3.3420561504
 30
0.0
 10
7.0012954526
 20
3.3425869895
 30
0.0
 10
7.0049592797
 20
3.3430158404
 30
0.0
 10
7.0074529054
 20
3.343327841
 30
0.0
 10
7.0097681144
 20
3.3436396562
 30
0.0
 10
7.0118997267
 20
3.3439513251
 30
0.0
 10
7.0138430933
 20
3.344262716
 30
0.0
 10
7.0155940171
 20
3.3445736886
 30
0.0
 10
7.0171485677
 20
3.3448842035
 30
0.0
 10
7.0183177257
 20
3.3451514874
 30
0.0
 10
7.0191512578
 20
3.3453677227
 30
0.0
 10
7.019701581
 20
3.3455236926
 30
0.0
 10
7.0202006004
 20
3.3456795748
 30
0.0
 10
7.0206480394
 20
3.3458353641
 30
0.0
 10
7.0210436697
 20
3.3459910618
 30
0.0
 10
7.0213873666
 20
3.3461466731
 30
0.0
 10
7.0216791612
 20
3.3463021965
 30
0.0
 10
7.0219192286
 20
3.3464577122
 30
0.0
 10
7.0221078554
 20
3.34661367
 30
0.0
 10
7.0222453201
 20
3.3467707861
 30
0.0
 10
7.0223184087
 20
3.3469084115
 30
0.0
 10
7.0223463555
 20
3.3470168587
 30
0.0
 10
7.0223509317
 20
3.3470700151
 30
0.0
 10
7.0223509317
 20
3.3470961697
 30
0.0
  0
SPLINE
  5
2F6
100
AcDbEntity
  8
ALL_FEATURES
100
AcDbSpline
 62
7
  6
CONTINUOUS
 70
0
 71
3
 72
57
 73
53
 74
0
 42
0.0000001
 43
0.0000001
 44
0.0000000001
 40
0.0
 40
0.0
 40
0.0
 40
0.0
 40
0.0022140349
 40
0.0046640621
 40
0.0073542843
 40
0.0102875208
 40
0.016889219
 40
0.0244764088
 40
0.0286382034
 40
0.0330436178
 40
0.0425788412
 40
0.053068397
 40
0.0644961002
 40
0.0768394739
 40
0.0900730833
 40
0.1191058989
 40
0.151358783
 40
0.1865592654
 40
0.2244114974
 40
0.2645904375
 40
0.3067542887
 40
0.3505390437
 40
0.4414578929
 40
0.5342219689
 40
0.5802981889
 40
0.6256403966
 40
0.6698575053
 40
0.7125702708
 40
0.7534100685
 40
0.7920291966
 40
0.8280950123
 40
0.8613046944
 40
0.8913749258
 40
0.905155986
 40
0.918061715
 40
0.9300654582
 40
0.9411461453
 40
0.9512842077
 40
0.9604612839
 40
0.9686629427
 40
0.9758830845
 40
0.9821210237
 40
0.9848739382
 40
0.9873851293
 40
0.9896582809
 40
0.9916995782
 40
0.9935179789
 40
0.9951264698
 40
0.9965441602
 40
0.997799293
 40
0.9989327618
 40
1.0
 40
1.0
 40
1.0
 40
1.0
 10
6.8557948384
 20
3.381993232
 30
0.0
 10
6.8558879062
 20
3.3820476181
 30
0.0
 10
6.8560878043
 20
3.3821556598
 30
0.0
 10
6.856411161
 20
3.3823096838
 30
0.0
 10
6.8567728742
 20
3.3824637798
 30
0.0
 10
6.8573283536
 20
3.382677835
 30
0.0
 10
6.8581193483
 20
3.3829422564
 30
0.0
 10
6.858978068
 20
3.3831895289
 30
0.0
 10
6.8597388078
 20
3.3833892658
 30
0.0
 10
6.8605944424
 20
3.3836007044
 30
0.0
 10
6.86175461
 20
3.3838634044
 30
0.0
 10
6.8632547524
 20
3.3841711888
 30
0.0
 10
6.8648941801
 20
3.3844791186
 30
0.0
 10
6.8666693132
 20
3.3847872427
 30
0.0
 10
6.8692940532
 20
3.385211512
 30
0.0
 10
6.8728841667
 20
3.3857364271
 30
0.0
 10
6.8775416585
 20
3.3863495931
 30
0.0
 10
6.8826318042
 20
3.3869635821
 30
0.0
 10
6.8881103473
 20
3.3875781132
 30
0.0
 10
6.8939298473
 20
3.3881931236
 30
0.0
 10
6.9000396733
 20
3.3888084081
 30
0.0
 10
6.9086105427
 20
3.3896395475
 30
0.0
 10
6.9196376471
 20
3.3906645042
 30
0.0
 10
6.9307776243
 20
3.3916800032
 30
0.0
 10
6.939706994
 20
3.3925028875
 30
0.0
 10
6.946281852
 20
3.3931186015
 30
0.0
 10
6.9526922366
 20
3.3937341958
 30
0.0
 10
6.9588824012
 20
3.3943495518
 30
0.0
 10
6.9647986492
 20
3.3949646759
 30
0.0
 10
6.9703894994
 20
3.3955793454
 30
0.0
 10
6.9756065498
 20
3.396193561
 30
0.0
 10
6.9804043846
 20
3.3968069731
 30
0.0
 10
6.9841195418
 20
3.3973314874
 30
0.0
 10
6.986850235
 20
3.3977550121
 30
0.0
 10
6.9887085979
 20
3.3980632222
 30
0.0
 10
6.9904335877
 20
3.3983713205
 30
0.0
 10
6.9920215708
 20
3.3986792173
 30
0.0
 10
6.9934692098
 20
3.3989868432
 30
0.0
 10
6.9947733184
 20
3.399294148
 30
0.0
 10
6.995931158
 20
3.3996011139
 30
0.0
 10
6.9969404379
 20
3.3999075782
 30
0.0
 10
6.9976845257
 20
3.4001722049
 30
0.0
 10
6.9982019433
 20
3.400386695
 30
0.0
 10
6.9985351388
 20
3.4005407383
 30
0.0
 10
6.9988297916
 20
3.4006947491
 30
0.0
 10
6.9990858543
 20
3.4008487529
 30
0.0
 10
6.9993033504
 20
3.4010028222
 30
0.0
 10
6.9994823294
 20
3.4011571356
 30
0.0
 10
6.9996228044
 20
3.4013120252
 30
0.0
 10
6.9997245575
 20
3.4014681101
 30
0.0
 10
6.9997867507
 20
3.4016258819
 30
0.0
 10
6.9998009333
 20
3.4017334563
 30
0.0
 10
6.9998009314
 20
3.4017854164
 30
0.0
  0
SPLINE
  5
2F7
100
AcDbEntity
  8
ALL_FEATURES
100
AcDbSpline
 62
7
  6
CONTINUOUS
 70
0
 71
3
 72
60
 73
56
 74
0
 42
0.0000001
 43
0.0000001
 44
0.0000000001
 40
0.0
 40
0.0
 40
0.0
 40
0.0
 40
0.0017503431
 40
0.0037471853
 40
0.005996352
 40
0.0085010775
 40
0.0112629724
 40
0.0142827799
 40
0.0210960262
 40
0.0289380975
 40
0.0377997416
 40
0.0476641885
 40
0.0585125678
 40
0.0703249746
 40
0.0830771436
 40
0.0967406889
 40
0.1112867648
 40
0.1429028891
 40
0.1776476057
 40
0.2152196448
 40
0.2552856381
 40
0.2974941926
 40
0.3414705702
 40
0.3868266361
 40
0.4331600053
 40
0.5271121616
 40
0.6200035233
 40
0.6650204141
 40
0.7085489503
 40
0.7502055403
 40
0.7896205085
 40
0.8264476319
 40
0.8603622106
 40
0.891067958
 40
0.9051329649
 40
0.918299517
 40
0.9305383719
 40
0.9418235651
 40
0.9521340456
 40
0.9614498535
 40
0.9697525388
 40
0.9770301629
 40
0.9802827225
 40
0.9832771664
 40
0.9860136026
 40
0.9884927513
 40
0.9907163867
 40
0.9926883173
 40
0.994414616
 40
0.9959047275
 40
0.9971738116
 40
0.9982469498
 40
0.9991660145
 40
0.9995887707
 40
1.0
 40
1.0
 40
1.0
 40
1.0
 10
6.8330382849
 20
3.6187491943
 30
0.0
 10
6.8331346059
 20
3.6188052415
 30
0.0
 10
6.8333461797
 20
3.6189160523
 30
0.0
 10
6.8336949814
 20
3.619071665
 30
0.0
 10
6.8340957446
 20
3.6192273716
 30
0.0
 10
6.8345482859
 20
3.6193831666
 30
0.0
 10
6.8350523816
 20
3.6195390659
 30
0.0
 10
6.8358244925
 20
3.6197558489
 30
0.0
 10
6.8369178727
 20
3.6200234069
 30
0.0
 10
6.8383828075
 20
3.6203336844
 30
0.0
 10
6.8400456925
 20
3.6206444282
 30
0.0
 10
6.8419028226
 20
3.6209556517
 30
0.0
 10
6.8439501285
 20
3.6212672072
 30
0.0
 10
6.8461831858
 20
3.6215789615
 30
0.0
 10
6.8485970562
 20
3.6218908667
 30
0.0
 10
6.8511862932
 20
3.6222029509
 30
0.0
 10
6.8549711467
 20
3.6226312084
 30
0.0
 10
6.8600950515
 20
3.6231616268
 30
0.0
 10
6.8666830717
 20
3.6237828732
 30
0.0
 10
6.8738112193
 20
3.6244046808
 30
0.0
 10
6.8814161975
 20
3.6250270752
 30
0.0
 10
6.8894301862
 20
3.6256497801
 30
0.0
 10
6.897781927
 20
3.6262727836
 30
0.0
 10
6.9063969765
 20
3.6268959542
 30
0.0
 10
6.9181868607
 20
3.6277308479
 30
0.0
 10
6.9329969665
 20
3.628760787
 30
0.0
 10
6.9477226853
 20
3.6297961493
 30
0.0
 10
6.9592438375
 20
3.6306357325
 30
0.0
 10
6.9675100943
 20
3.6312586854
 30
0.0
 10
6.9754186667
 20
3.6318813008
 30
0.0
 10
6.9828992193
 20
3.6325035615
 30
0.0
 10
6.9898851071
 20
3.6331252245
 30
0.0
 10
6.9963142007
 20
3.6337461943
 30
0.0
 10
7.0012958543
 20
3.6342770535
 30
0.0
 10
7.0049596183
 20
3.6347058949
 30
0.0
 10
7.0074532054
 20
3.6350178827
 30
0.0
 10
7.0097683537
 20
3.6353297046
 30
0.0
 10
7.0118999184
 20
3.6356413618
 30
0.0
 10
7.0138432731
 20
3.6359527314
 30
0.0
 10
7.015594164
 20
3.6362636898
 30
0.0
 10
7.0171486619
 20
3.6365742541
 30
0.0
 10
7.0183177854
 20
3.6368415628
 30
0.0
 10
7.0191513335
 20
3.6370578094
 30
0.0
 10
7.0197016716
 20
3.6372137799
 30
0.0
 10
7.0202006834
 20
3.6373696488
 30
0.0
 10
7.0206480843
 20
3.6375254096
 30
0.0
 10
7.0210436629
 20
3.6376810724
 30
0.0
 10
7.0213873344
 20
3.6378366125
 30
0.0
 10
7.0216791388
 20
3.6379920605
 30
0.0
 10
7.0219192381
 20
3.6381475128
 30
0.0
 10
7.022107903
 20
3.638303437
 30
0.0
 10
7.0222453963
 20
3.6384605702
 30
0.0
 10
7.0223184705
 20
3.6385982614
 30
0.0
 10
7.0223463745
 20
3.6387067889
 30
0.0
 10
7.0223509217
 20
3.6387599939
 30
0.0
 10
7.0223509114
 20
3.638786176
 30
0.0
  0
SPLINE
  5
2F8
100
AcDbEntity
  8
ALL_FEATURES
100
AcDbSpline
 62
7
  6
CONTINUOUS
 70
0
 71
3
 72
60
 73
56
 74
0
 42
0.0000001
 43
0.0000001
 44
0.0000000001
 40
0.0
 40
0.0
 40
0.0
 40
0.0
 40
0.0004107869
 40
0.0008332366
 40
0.0017519583
 40
0.0028249312
 40
0.0040939227
 40
0.0055839983
 40
0.0073103534
 40
0.009282495
 40
0.0115065277
 40
0.0139859114
 40
0.0167223635
 40
0.019716695
 40
0.0229691041
 40
0.0302466744
 40
0.0385499778
 40
0.0478660061
 40
0.0581764278
 40
0.0694617195
 40
0.0817007681
 40
0.0948669632
 40
0.1089315504
 40
0.1396374323
 40
0.1735518285
 40
0.2103793827
 40
0.2497940118
 40
0.2914497666
 40
0.3349770554
 40
0.3799931443
 40
0.4728858186
 40
0.5668410525
 40
0.6131748085
 40
0.6585303392
 40
0.7025058252
 40
0.7447135999
 40
0.7847787413
 40
0.8223501959
 40
0.8570947496
 40
0.888710735
 40
0.9032567023
 40
0.9169202895
 40
0.9296724734
 40
0.9414848413
 40
0.9523336086
 40
0.9621986395
 40
0.9710607345
 40
0.978903071
 40
0.9857166624
 40
0.9887366392
 40
0.9914986822
 40
0.9940035206
 40
0.9962527531
 40
0.9982496337
 40
1.0
 40
1.0
 40
1.0
 40
1.0
 10
6.8323509317
 20
3.3627196543
 30
0.0
 10
6.8323509317
 20
3.3627458082
 30
0.0
 10
6.8323555073
 20
3.3627989632
 30
0.0
 10
6.8323834511
 20
3.3629074071
 30
0.0
 10
6.8324565326
 20
3.3630450286
 30
0.0
 10
6.8325939869
 20
3.3632021407
 30
0.0
 10
6.8327826017
 20
3.3633580944
 30
0.0
 10
6.8330226568
 20
3.3635136063
 30
0.0
 10
6.8333144398
 20
3.3636691265
 30
0.0
 10
6.8336581271
 20
3.3638247353
 30
0.0
 10
6.8340537505
 20
3.3639804315
 30
0.0
 10
6.8345011848
 20
3.3641362207
 30
0.0
 10
6.8350002012
 20
3.3642921037
 30
0.0
 10
6.8355505223
 20
3.3644480752
 30
0.0
 10
6.8363840513
 20
3.3646643132
 30
0.0
 10
6.8375532059
 20
3.3649316018
 30
0.0
 10
6.8391077622
 20
3.3652421227
 30
0.0
 10
6.8408586996
 20
3.365553094
 30
0.0
 10
6.8428020668
 20
3.3658644829
 30
0.0
 10
6.8449336434
 20
3.3661761518
 30
0.0
 10
6.8472487872
 20
3.3664879651
 30
0.0
 10
6.8497423349
 20
3.3667999552
 30
0.0
 10
6.8534060556
 20
3.3672287937
 30
0.0
 10
6.8583876786
 20
3.3677596282
 30
0.0
 10
6.86481679
 20
3.3683806205
 30
0.0
 10
6.8718026686
 20
3.3690022704
 30
0.0
 10
6.8792831684
 20
3.369624535
 30
0.0
 10
6.8871915821
 20
3.370247134
 30
0.0
 10
6.8954576501
 20
3.3708700759
 30
0.0
 10
6.9069787478
 20
3.3717096557
 30
0.0
 10
6.9217046846
 20
3.3727450349
 30
0.0
 10
6.936515084
 20
3.3737749944
 30
0.0
 10
6.9483051463
 20
3.3746099025
 30
0.0
 10
6.9569201241
 20
3.375233067
 30
0.0
 10
6.965271719
 20
3.3758560623
 30
0.0
 10
6.9732855424
 20
3.3764787526
 30
0.0
 10
6.9808903749
 20
3.3771011351
 30
0.0
 10
6.9880184165
 20
3.3777229316
 30
0.0
 10
6.9946063764
 20
3.3783441701
 30
0.0
 10
6.9997302521
 20
3.3788745815
 30
0.0
 10
7.0035150907
 20
3.3793028331
 30
0.0
 10
7.0061043236
 20
3.3796149088
 30
0.0
 10
7.0085181943
 20
3.3799268085
 30
0.0
 10
7.0107512721
 20
3.3802385723
 30
0.0
 10
7.0127986364
 20
3.3805501291
 30
0.0
 10
7.0146558568
 20
3.3808613544
 30
0.0
 10
7.016318824
 20
3.3811721037
 30
0.0
 10
7.0177838234
 20
3.3814823975
 30
0.0
 10
7.0188772519
 20
3.3817499633
 30
0.0
 10
7.0196494039
 20
3.3819667538
 30
0.0
 10
7.0201535264
 20
3.3821226584
 30
0.0
 10
7.0206060878
 20
3.3822784579
 30
0.0
 10
7.0210068636
 20
3.3824341695
 30
0.0
 10
7.0213556725
 20
3.3825897853
 30
0.0
 10
7.0215672499
 20
3.3827005974
 30
0.0
 10
7.0216635722
 20
3.382756645
 30
0.0
  0
SPLINE
  5
2F9
100
AcDbEntity
  8
ALL_FEATURES
100
AcDbSpline
 62
7
  6
CONTINUOUS
 70
0
 71
3
 72
58
 73
54
 74
0
 42
0.0000001
 43
0.0000001
 44
0.0000000001
 40
0.0
 40
0.0
 40
0.0
 40
0.0
 40
0.0010671503
 40
0.0022001829
 40
0.0034547546
 40
0.0048723086
 40
0.006481313
 40
0.0083005999
 40
0.0103427534
 40
0.0126162735
 40
0.0151269634
 40
0.0178788093
 40
0.0241153785
 40
0.0313370143
 40
0.0395401471
 40
0.0487158362
 40
0.0588523662
 40
0.0699343207
 40
0.0819395874
 40
0.0948442398
 40
0.1086237537
 40
0.1386964015
 40
0.1719039133
 40
0.2079716423
 40
0.2465891556
 40
0.2874302827
 40
0.3301420403
 40
0.3743598652
 40
0.4197016729
 40
0.4657780161
 40
0.5585418494
 40
0.6494605056
 40
0.6932462436
 40
0.73540898
 40
0.7755891093
 40
0.8134400869
 40
0.8486418121
 40
0.8808934547
 40
0.8958280991
 40
0.909927679
 40
0.9231619937
 40
0.9355035793
 40
0.9469303979
 40
0.9574217527
 40
0.9669579987
 40
0.971362696
 40
0.9755233889
 40
0.9831094048
 40
0.9897128388
 40
0.9926470294
 40
0.9953375586
 40
0.9977869964
 40
1.0
 40
1.0
 40
1.0
 40
1.0
 10
6.8549011697
 20
3.5163804233
 30
0.0
 10
6.8549011571
 20
3.5164323792
 30
0.0
 10
6.8549152473
 20
3.5165399312
 30
0.0
 10
6.8549772418
 20
3.5166977259
 30
0.0
 10
6.8550788526
 20
3.5168538457
 30
0.0
 10
6.8552193202
 20
3.517008738
 30
0.0
 10
6.8553984007
 20
3.5171630301
 30
0.0
 10
6.8556160431
 20
3.5173170822
 30
0.0
 10
6.8558722333
 20
3.5174710717
 30
0.0
 10
6.8561669291
 20
3.5176250737
 30
0.0
 10
6.856500052
 20
3.5177791326
 30
0.0
 10
6.8570172983
 20
3.5179936626
 30
0.0
 10
6.8577613234
 20
3.5182583373
 30
0.0
 10
6.8587707118
 20
3.518564717
 30
0.0
 10
6.8599286416
 20
3.518871637
 30
0.0
 10
6.8612326627
 20
3.5191790044
 30
0.0
 10
6.8626802112
 20
3.5194866735
 30
0.0
 10
6.8642682667
 20
3.5197945226
 30
0.0
 10
6.8659933475
 20
3.5201025846
 30
0.0
 10
6.8678516504
 20
3.5204108294
 30
0.0
 10
6.8705823244
 20
3.5208344168
 30
0.0
 10
6.8742974375
 20
3.5213587956
 30
0.0
 10
6.8790953604
 20
3.5219723488
 30
0.0
 10
6.8843123336
 20
3.5225864502
 30
0.0
 10
6.8899032539
 20
3.5232012113
 30
0.0
 10
6.8958194469
 20
3.5238162658
 30
0.0
 10
6.9020096577
 20
3.5244316737
 30
0.0
 10
6.9084200128
 20
3.5250472335
 30
0.0
 10
6.9149948912
 20
3.525662968
 30
0.0
 10
6.9239242378
 20
3.5264858415
 30
0.0
 10
6.9350642011
 20
3.5275013414
 30
0.0
 10
6.9460913311
 20
3.5285263251
 30
0.0
 10
6.9546621902
 20
3.5293574193
 30
0.0
 10
6.9607720638
 20
3.5299727551
 30
0.0
 10
6.9665915119
 20
3.5305877084
 30
0.0
 10
6.972070111
 20
3.5312022937
 30
0.0
 10
6.9771601867
 20
3.531816257
 30
0.0
 10
6.9811371886
 20
3.5323397548
 30
0.0
 10
6.9840909909
 20
3.5327619621
 30
0.0
 10
6.9861256926
 20
3.5330703311
 30
0.0
 10
6.9880326375
 20
3.5333785797
 30
0.0
 10
6.9898076672
 20
3.5336867403
 30
0.0
 10
6.9914470444
 20
3.5339947078
 30
0.0
 10
6.9929472934
 20
3.5343024395
 30
0.0
 10
6.9941075737
 20
3.5345651104
 30
0.0
 10
6.9949631616
 20
3.5347765775
 30
0.0
 10
6.9957237462
 20
3.5349763332
 30
0.0
 10
6.9965824188
 20
3.5352236694
 30
0.0
 10
6.9973735109
 20
3.5354880264
 30
0.0
 10
6.997929157
 20
3.5357020556
 30
0.0
 10
6.9982909122
 20
3.5358561382
 30
0.0
 10
6.9986141941
 20
3.5360101731
 30
0.0
 10
6.9988139945
 20
3.5361182306
 30
0.0
 10
6.9989070029
 20
3.5361726189
 30
0.0
  0
SPLINE
  5
2FA
100
AcDbEntity
  8
ALL_FEATURES
100
AcDbSpline
 62
7
  6
CONTINUOUS
 70
0
 71
3
 72
58
 73
54
 74
0
 42
0.0000001
 43
0.0000001
 44
0.0000000001
 40
0.0
 40
0.0
 40
0.0
 40
0.0
 40
0.002213093
 40
0.0046623293
 40
0.0073523567
 40
0.0102862771
 40
0.0168899858
 40
0.024476608
 40
0.0286374334
 40
0.0330419893
 40
0.0425774477
 40
0.0530689889
 40
0.064496375
 40
0.0768380418
 40
0.090071638
 40
0.1041713115
 40
0.1191064484
 40
0.1513576341
 40
0.1865597657
 40
0.2244104663
 40
0.2645908294
 40
0.3067534516
 40
0.3505392728
 40
0.4414579135
 40
0.5342217485
 40
0.5802982343
 40
0.6256399175
 40
0.6698578712
 40
0.7125695329
 40
0.7534107282
 40
0.7920282175
 40
0.8280959187
 40
0.8613035091
 40
0.8913760143
 40
0.9051559722
 40
0.9180603759
 40
0.930065267
 40
0.9411473375
 40
0.9512843911
 40
0.9604598641
 40
0.9686625904
 40
0.9758842724
 40
0.9821213958
 40
0.9848732302
 40
0.9873837723
 40
0.9896570902
 40
0.9916990645
 40
0.9935182656
 40
0.9951273326
 40
0.9965451125
 40
0.9977998272
 40
0.9989328675
 40
1.0
 40
1.0
 40
1.0
 40
1.0
 10
6.8557949297
 20
3.6320132271
 30
0.0
 10
6.8558879446
 20
3.6320676128
 30
0.0
 10
6.8560877421
 20
3.6321756636
 30
0.0
 10
6.8564109901
 20
3.6323296989
 30
0.0
 10
6.8567726857
 20
3.6324838002
 30
0.0
 10
6.8573283035
 20
3.6326978363
 30
0.0
 10
6.8581194312
 20
3.6329621815
 30
0.0
 10
6.8589781574
 20
3.6332095081
 30
0.0
 10
6.8597387716
 20
3.6334092645
 30
0.0
 10
6.8605943196
 20
3.6336207301
 30
0.0
 10
6.8617545564
 20
3.6338834281
 30
0.0
 10
6.863254807
 20
3.6341911429
 30
0.0
 10
6.8648942268
 20
3.6344991008
 30
0.0
 10
6.8666692532
 20
3.6348072568
 30
0.0
 10
6.8685761668
 20
3.6351155295
 30
0.0
 10
6.8706108628
 20
3.63542389
 30
0.0
 10
6.8735646731
 20
3.635846079
 30
0.0
 10
6.8775416916
 20
3.6363696066
 30
0.0
 10
6.8826317528
 20
3.6369835449
 30
0.0
 10
6.888110366
 20
3.6375981484
 30
0.0
 10
6.893929806
 20
3.6382130899
 30
0.0
 10
6.9000396868
 20
3.6388284333
 30
0.0
 10
6.9086105416
 20
3.639659523
 30
0.0
 10
6.9196376715
 20
3.6406845092
 30
0.0
 10
6.9307776377
 20
3.6417000117
 30
0.0
 10
6.939706983
 20
3.6425228801
 30
0.0
 10
6.9462818662
 20
3.64313862
 30
0.0
 10
6.9526922154
 20
3.6437541746
 30
0.0
 10
6.9588824289
 20
3.6443695869
 30
0.0
 10
6.9647986179
 20
3.6449846386
 30
0.0
 10
6.9703895373
 20
3.6455994
 30
0.0
 10
6.9756065098
 20
3.6462135047
 30
0.0
 10
6.9804044283
 20
3.6468270481
 30
0.0
 10
6.9841195557
 20
3.6473514477
 30
0.0
 10
6.9868502353
 20
3.6477750112
 30
0.0
 10
6.9887085275
 20
3.6480832638
 30
0.0
 10
6.9904335813
 20
3.6483913337
 30
0.0
 10
6.9920216486
 20
3.6486991857
 30
0.0
 10
6.9934692228
 20
3.6490068316
 30
0.0
 10
6.9947732364
 20
3.6493142088
 30
0.0
 10
6.9959311341
 20
3.6496211397
 30
0.0
 10
6.9969405275
 20
3.6499275308
 30
0.0
 10
6.9976845944
 20
3.6501921737
 30
0.0
 10
6.9982018579
 20
3.6504067127
 30
0.0
 10
6.9985349607
 20
3.6505607733
 30
0.0
 10
6.9988296263
 20
3.6507147775
 30
0.0
 10
6.9990857878
 20
3.6508687702
 30
0.0
 10
6.9993034162
 20
3.651022825
 30
0.0
 10
6.9994825034
 20
3.6511771223
 30
0.0
 10
6.9996230165
 20
3.6513319996
 30
0.0
 10
6.9997246723
 20
3.6514881137
 30
0.0
 10
6.9997866726
 20
3.6516459158
 30
0.0
 10
6.9998007478
 20
3.6517534705
 30
0.0
 10
6.9998007257
 20
3.6518054254
 30
0.0
  0
SPLINE
  5
2FB
100
AcDbEntity
  8
ALL_FEATURES
100
AcDbSpline
 62
7
  6
CONTINUOUS
 70
0
 71
3
 72
40
 73
36
 74
0
 42
0.0000001
 43
0.0000001
 44
0.0000000001
 40
0.0
 40
0.0
 40
0.0
 40
0.0
 40
0.0008352615
 40
0.0018203786
 40
0.0029659375
 40
0.0042785187
 40
0.0057623681
 40
0.0074203143
 40
0.0112652772
 40
0.0158233128
 40
0.0210976959
 40
0.0270866161
 40
0.0337864562
 40
0.0411926954
 40
0.049300178
 40
0.0675859476
 40
0.088563386
 40
0.1121431139
 40
0.1382129857
 40
0.1666505098
 40
0.1973170012
 40
0.2300578644
 40
0.2647098303
 40
0.3010913256
 40
0.378278628
 40
0.4599762174
 40
0.5443992337
 40
0.6296547546
 40
0.713780566
 40
0.7947936162
 40
0.8707335047
 40
0.9062077231
 40
0.9397250025
 40
0.9710658384
 40
1.0
 40
1.0
 40
1.0
 40
1.0
 10
7.0098055182
 20
3.312669243
 30
0.0
 10
7.0097788671
 20
3.312642592
 30
0.0
 10
7.0097154752
 20
3.3125898075
 30
0.0
 10
7.0096030523
 20
3.3125168599
 30
0.0
 10
7.0094657523
 20
3.3124437992
 30
0.0
 10
7.009303526
 20
3.312370618
 30
0.0
 10
7.0091163103
 20
3.3122972817
 30
0.0
 10
7.0088183119
 20
3.312194165
 30
0.0
 10
7.0083821361
 20
3.3120673198
 30
0.0
 10
7.0077824708
 20
3.3119208637
 30
0.0
 10
7.0070837475
 20
3.3117738622
 30
0.0
 10
7.0062866646
 20
3.3116263095
 30
0.0
 10
7.0053920163
 20
3.3114783017
 30
0.0
 10
7.0044006746
 20
3.31132986
 30
0.0
 10
7.0028895639
 20
3.3111230553
 30
0.0
 10
7.0007672376
 20
3.3108673194
 30
0.0
 10
6.9979471518
 20
3.3105693718
 30
0.0
 10
6.9947742361
 20
3.3102698775
 30
0.0
 10
6.991263498
 20
3.3099687834
 30
0.0
 10
6.9874320219
 20
3.309666275
 30
0.0
 10
6.9832987647
 20
3.3093623934
 30
0.0
 10
6.978884478
 20
3.3090571464
 30
0.0
 10
6.9742118132
 20
3.3087506236
 30
0.0
 10
6.9675366323
 20
3.3083318713
 30
0.0
 10
6.9587408534
 20
3.3078108012
 30
0.0
 10
6.9477793281
 20
3.3071915829
 30
0.0
 10
6.9364534644
 20
3.3065671031
 30
0.0
 10
6.9250181468
 20
3.3059375156
 30
0.0
 10
6.9137371999
 20
3.3053030847
 30
0.0
 10
6.9028775638
 20
3.3046640184
 30
0.0
 10
6.8942117357
 20
3.3041164144
 30
0.0
 10
6.8876871233
 20
3.3036697796
 30
0.0
 10
6.8831716661
 20
3.3033411195
 30
0.0
 10
6.8789522489
 20
3.3030112349
 30
0.0
 10
6.8762421336
 20
3.3027810358
 30
0.0
 10
6.8749417093
 20
3.3026646564
 30
0.0
  0
SPLINE
  5
2FC
100
AcDbEntity
  8
ALL_FEATURES
100
AcDbSpline
 62
7
  6
CONTINUOUS
 70
0
 71
3
 72
58
 73
54
 74
0
 42
0.0000001
 43
0.0000001
 44
0.0000000001
 40
0.0
 40
0.0
 40
0.0
 40
0.0
 40
0.0010671553
 40
0.0022001916
 40
0.0034547452
 40
0.0048722474
 40
0.0064812258
 40
0.0083005202
 40
0.0103427045
 40
0.0126162657
 40
0.0151269914
 40
0.017878852
 40
0.0241153284
 40
0.0313369247
 40
0.0395401282
 40
0.0487158755
 40
0.0588523277
 40
0.0699342287
 40
0.0819395553
 40
0.0948442668
 40
0.1086237241
 40
0.1386963552
 40
0.1719038874
 40
0.2079715825
 40
0.2465891262
 40
0.2874302112
 40
0.330142001
 40
0.3743597848
 40
0.4197016184
 40
0.4657779304
 40
0.5585417627
 40
0.6494604222
 40
0.69324613
 40
0.7354089041
 40
0.7755889785
 40
0.8134400224
 40
0.8486416683
 40
0.880893405
 40
0.8958279837
 40
0.9099275285
 40
0.9231619347
 40
0.9355035468
 40
0.9469302955
 40
0.957421603
 40
0.9669579386
 40
0.9713626812
 40
0.9755233746
 40
0.9831093219
 40
0.9897126998
 40
0.9926469051
 40
0.9953374964
 40
0.9977869885
 40
1.0
 40
1.0
 40
1.0
 40
1.0
 10
6.8549011736
 20
3.4747104002
 30
0.0
 10
6.8549011631
 20
3.4747623562
 30
0.0
 10
6.8549152574
 20
3.474869908
 30
0.0
 10
6.854977253
 20
3.4750277014
 30
0.0
 10
6.8550788578
 20
3.4751838207
 30
0.0
 10
6.855219314
 20
3.4753387171
 30
0.0
 10
6.8553983909
 20
3.4754930086
 30
0.0
 10
6.8556160345
 20
3.4756470601
 30
0.0
 10
6.8558722296
 20
3.475801049
 30
0.0
 10
6.8561669316
 20
3.4759550506
 30
0.0
 10
6.8565000596
 20
3.4761091092
 30
0.0
 10
6.8570173044
 20
3.4763236371
 30
0.0
 10
6.8577613215
 20
3.4765883172
 30
0.0
 10
6.858770707
 20
3.4768946967
 30
0.0
 10
6.859928642
 20
3.4772016142
 30
0.0
 10
6.8612326661
 20
3.4775089796
 30
0.0
 10
6.8626802103
 20
3.4778166522
 30
0.0
 10
6.8642682621
 20
3.4781245023
 30
0.0
 10
6.8659933466
 20
3.4784325627
 30
0.0
 10
6.8678516528
 20
3.4787408062
 30
0.0
 10
6.8705823258
 20
3.4791643969
 30
0.0
 10
6.8742974365
 20
3.4796887745
 30
0.0
 10
6.8790953582
 20
3.4803023273
 30
0.0
 10
6.8843123322
 20
3.4809164304
 30
0.0
 10
6.8899032507
 20
3.4815311901
 30
0.0
 10
6.8958194447
 20
3.4821462468
 30
0.0
 10
6.9020096534
 20
3.4827616533
 30
0.0
 10
6.9084200093
 20
3.4833772152
 30
0.0
 10
6.9149948858
 20
3.4839929487
 30
0.0
 10
6.9239242322
 20
3.4848158239
 30
0.0
 10
6.9350641946
 20
3.485831324
 30
0.0
 10
6.9460913236
 20
3.4868563077
 30
0.0
 10
6.9546621834
 20
3.487687404
 30
0.0
 10
6.960772055
 20
3.4883027383
 30
0.0
 10
6.9665915053
 20
3.488917695
 30
0.0
 10
6.9720701017
 20
3.489532277
 30
0.0
 10
6.9771601809
 20
3.4901462457
 30
0.0
 10
6.9811371811
 20
3.490669739
 30
0.0
 10
6.9840909828
 20
3.4910919491
 30
0.0
 10
6.9861256838
 20
3.4914003201
 30
0.0
 10
6.9880326333
 20
3.4917085663
 30
0.0
 10
6.9898076654
 20
3.4920167267
 30
0.0
 10
6.9914470379
 20
3.4923246959
 30
0.0
 10
6.992947285
 20
3.4926324303
 30
0.0
 10
6.9941075701
 20
3.4928950992
 30
0.0
 10
6.9949631651
 20
3.4931065654
 30
0.0
 10
6.9957237486
 20
3.4933063211
 30
0.0
 10
6.9965824147
 20
3.4935536585
 30
0.0
 10
6.9973735005
 20
3.4938180174
 30
0.0
 10
6.9979291475
 20
3.4940320469
 30
0.0
 10
6.9982909102
 20
3.4941861281
 30
0.0
 10
6.9986141995
 20
3.4943401616
 30
0.0
 10
6.9988140028
 20
3.4944482203
 30
0.0
 10
6.9989070113
 20
3.4945026091
 30
0.0
  0
SPLINE
  5
2FD
100
AcDbEntity
  8
ALL_FEATURES
100
AcDbSpline
 62
7
  6
CONTINUOUS
 70
0
 71
3
 72
60
 73
56
 74
0
 42
0.0000001
 43
0.0000001
 44
0.0000000001
 40
0.0
 40
0.0
 40
0.0
 40
0.0
 40
0.0004107865
 40
0.0008332351
 40
0.0017519521
 40
0.002824916
 40
0.0040938944
 40
0.0055839539
 40
0.0073102903
 40
0.0092824116
 40
0.0115064192
 40
0.0139857631
 40
0.0167221644
 40
0.0197164392
 40
0.022968791
 40
0.0302462664
 40
0.0385495038
 40
0.0478654124
 40
0.0581757056
 40
0.0694609198
 40
0.0816999189
 40
0.0948660274
 40
0.1089305462
 40
0.1396364308
 40
0.1735508674
 40
0.2103786886
 40
0.2497935964
 40
0.291449558
 40
0.3349769402
 40
0.3799930507
 40
0.4728857511
 40
0.5668410451
 40
0.6131748057
 40
0.658530357
 40
0.7025059582
 40
0.7447138789
 40
0.7847790356
 40
0.8223503828
 40
0.8570948082
 40
0.8887106974
 40
0.903256654
 40
0.9169202498
 40
0.9296724476
 40
0.9414848245
 40
0.9523335995
 40
0.9621986362
 40
0.9710607327
 40
0.9789030692
 40
0.9857166631
 40
0.9887366413
 40
0.9914986852
 40
0.9940035238
 40
0.9962527554
 40
0.9982496348
 40
1.0
 40
1.0
 40
1.0
 40
1.0
 10
6.8323509317
 20
3.4043896738
 30
0.0
 10
6.8323509317
 20
3.4044158277
 30
0.0
 10
6.8323555072
 20
3.4044689825
 30
0.0
 10
6.8323834505
 20
3.4045774262
 30
0.0
 10
6.8324565306
 20
3.4047150473
 30
0.0
 10
6.8325939829
 20
3.4048721589
 30
0.0
 10
6.8327825953
 20
3.4050281119
 30
0.0
 10
6.8330226474
 20
3.4051836227
 30
0.0
 10
6.8333144272
 20
3.4053391415
 30
0.0
 10
6.8336581108
 20
3.4054947486
 30
0.0
 10
6.8340537293
 20
3.4056504423
 30
0.0
 10
6.8345011564
 20
3.4058062298
 30
0.0
 10
6.8350001635
 20
3.4059621111
 30
0.0
 10
6.8355504742
 20
3.4061180809
 30
0.0
 10
6.8363839899
 20
3.4063343172
 30
0.0
 10
6.8375531307
 20
3.4066016039
 30
0.0
 10
6.8391076695
 20
3.4069121213
 30
0.0
 10
6.8408585866
 20
3.4072230924
 30
0.0
 10
6.8428019328
 20
3.407534481
 30
0.0
 10
6.8449334932
 20
3.4078461483
 30
0.0
 10
6.8472486235
 20
3.4081579597
 30
0.0
 10
6.849742158
 20
3.4084699504
 30
0.0
 10
6.8534058689
 20
3.4088987899
 30
0.0
 10
6.8583874903
 20
3.4094296239
 30
0.0
 10
6.8648166211
 20
3.4100506211
 30
0.0
 10
6.871802537
 20
3.4106722731
 30
0.0
 10
6.8792830844
 20
3.4112945427
 30
0.0
 10
6.887191535
 20
3.4119171439
 30
0.0
 10
6.8954576234
 20
3.4125400869
 30
0.0
 10
6.9069787302
 20
3.4133796665
 30
0.0
 10
6.9217046739
 20
3.4144150451
 30
0.0
 10
6.9365150792
 20
3.415445004
 30
0.0
 10
6.948305147
 20
3.4162799115
 30
0.0
 10
6.9569201338
 20
3.416903076
 30
0.0
 10
6.9652717467
 20
3.4175260722
 30
0.0
 10
6.9732855876
 20
3.4181487631
 30
0.0
 10
6.9808904237
 20
3.4187711452
 30
0.0
 10
6.9880184513
 20
3.4193929402
 30
0.0
 10
6.9946063903
 20
3.4200141758
 30
0.0
 10
6.9997302511
 20
3.4205445854
 30
0.0
 10
7.0035150835
 20
3.4209728358
 30
0.0
 10
7.0061043172
 20
3.4212849111
 30
0.0
 10
7.00851819
 20
3.4215968105
 30
0.0
 10
7.0107512698
 20
3.4219085742
 30
0.0
 10
7.0127986356
 20
3.4222201307
 30
0.0
 10
7.014655857
 20
3.4225313556
 30
0.0
 10
7.0163188247
 20
3.4228421047
 30
0.0
 10
7.0177838245
 20
3.4231523982
 30
0.0
 10
7.0188772533
 20
3.4234199638
 30
0.0
 10
7.0196494057
 20
3.4236367542
 30
0.0
 10
7.0201535283
 20
3.4237926587
 30
0.0
 10
7.0206060898
 20
3.423948458
 30
0.0
 10
7.0210068655
 20
3.4241041695
 30
0.0
 10
7.0213556742
 20
3.4242597853
 30
0.0
 10
7.0215672515
 20
3.4243705973
 30
0.0
 10
7.0216635737
 20
3.4244266448
 30
0.0
  0
SPLINE
  5
2FE
100
AcDbEntity
  8
ALL_FEATURES
100
AcDbSpline
 62
7
  6
CONTINUOUS
 70
0
 71
3
 72
58
 73
54
 74
0
 42
0.0000001
 43
0.0000001
 44
0.0000000001
 40
0.0
 40
0.0
 40
0.0
 40
0.0
 40
0.001067159
 40
0.0022001991
 40
0.0034547365
 40
0.0048721865
 40
0.0064811333
 40
0.0083004311
 40
0.0103426438
 40
0.0126162451
 40
0.0151270079
 40
0.0178788863
 40
0.0241152783
 40
0.0313368253
 40
0.0395400968
 40
0.0487159071
 40
0.0588522925
 40
0.0699341313
 40
0.0819395157
 40
0.094844291
 40
0.1086237036
 40
0.1386963096
 40
0.1719038769
 40
0.2079715338
 40
0.2465891201
 40
0.2874301623
 40
0.3301419937
 40
0.3743597386
 40
0.4197016045
 40
0.4657778897
 40
0.5585417296
 40
0.6494603983
 40
0.6932460738
 40
0.7354088899
 40
0.7755889045
 40
0.8134400176
 40
0.8486415772
 40
0.8808934078
 40
0.8958279198
 40
0.9099274217
 40
0.9231619101
 40
0.9355035547
 40
0.946930232
 40
0.9574214834
 40
0.9669578955
 40
0.9713626873
 40
0.9755233833
 40
0.9831092601
 40
0.9897125724
 40
0.992646785
 40
0.9953374296
 40
0.997786979
 40
1.0
 40
1.0
 40
1.0
 40
1.0
 10
6.8549011765
 20
3.4330403948
 30
0.0
 10
6.8549011684
 20
3.4330923511
 30
0.0
 10
6.854915267
 20
3.4331999024
 30
0.0
 10
6.8549772641
 20
3.4333576944
 30
0.0
 10
6.8550788639
 20
3.4335138126
 30
0.0
 10
6.8552193087
 20
3.4336687128
 30
0.0
 10
6.8553983814
 20
3.4338230039
 30
0.0
 10
6.8556160255
 20
3.4339770546
 30
0.0
 10
6.8558722253
 20
3.4341310427
 30
0.0
 10
6.8561669334
 20
3.4342850435
 30
0.0
 10
6.8565000667
 20
3.4344391016
 30
0.0
 10
6.857017311
 20
3.434653627
 30
0.0
 10
6.8577613205
 20
3.4349183115
 30
0.0
 10
6.8587707028
 20
3.4352246912
 30
0.0
 10
6.8599286427
 20
3.4355316057
 30
0.0
 10
6.8612326706
 20
3.4358389687
 30
0.0
 10
6.862680211
 20
3.4361466437
 30
0.0
 10
6.8642682592
 20
3.436454495
 30
0.0
 10
6.865993347
 20
3.4367625531
 30
0.0
 10
6.8678516573
 20
3.4370707948
 30
0.0
 10
6.8705823297
 20
3.4374943877
 30
0.0
 10
6.8742974391
 20
3.4380187641
 30
0.0
 10
6.8790953597
 20
3.4386323149
 30
0.0
 10
6.8843123356
 20
3.4392464195
 30
0.0
 10
6.8899032526
 20
3.4398611764
 30
0.0
 10
6.8958194486
 20
3.4404762347
 30
0.0
 10
6.9020096557
 20
3.4410916386
 30
0.0
 10
6.9084200134
 20
3.4417072017
 30
0.0
 10
6.9149948887
 20
3.4423229333
 30
0.0
 10
6.9239242358
 20
3.4431458089
 30
0.0
 10
6.9350641981
 20
3.4441613078
 30
0.0
 10
6.9460913268
 20
3.4451862898
 30
0.0
 10
6.9546621876
 20
3.4460173872
 30
0.0
 10
6.9607720572
 20
3.4466327189
 30
0.0
 10
6.9665915098
 20
3.4472476783
 30
0.0
 10
6.9720701031
 20
3.4478622558
 30
0.0
 10
6.9771601856
 20
3.4484762292
 30
0.0
 10
6.9811371837
 20
3.4489997171
 30
0.0
 10
6.9840909844
 20
3.4494219293
 30
0.0
 10
6.9861256839
 20
3.4497303018
 30
0.0
 10
6.9880326373
 20
3.4500385454
 30
0.0
 10
6.9898076718
 20
3.4503467047
 30
0.0
 10
6.9914470395
 20
3.4506546753
 30
0.0
 10
6.9929472836
 20
3.4509624119
 30
0.0
 10
6.9941075726
 20
3.451225079
 30
0.0
 10
6.9949631744
 20
3.4514365435
 30
0.0
 10
6.9957237571
 20
3.4516362989
 30
0.0
 10
6.9965824163
 20
3.451883637
 30
0.0
 10
6.9973734949
 20
3.4521479975
 30
0.0
 10
6.9979291417
 20
3.4523620269
 30
0.0
 10
6.998290911
 20
3.452516107
 30
0.0
 10
6.9986142079
 20
3.4526701383
 30
0.0
 10
6.9988140143
 20
3.4527781982
 30
0.0
 10
6.9989070231
 20
3.4528325875
 30
0.0
  0
SPLINE
  5
2FF
100
AcDbEntity
  8
ALL_FEATURES
100
AcDbSpline
 62
7
  6
CONTINUOUS
 70
0
 71
3
 72
57
 73
53
 74
0
 42
0.0000001
 43
0.0000001
 44
0.0000000001
 40
0.0
 40
0.0
 40
0.0
 40
0.0
 40
0.001067247
 40
0.00220072
 40
0.0034558413
 40
0.0048735061
 40
0.0064819676
 40
0.0083003486
 40
0.0103416511
 40
0.0126148491
 40
0.0151260989
 40
0.017879029
 40
0.0241169191
 40
0.0313369962
 40
0.0395386901
 40
0.0487158442
 40
0.0588538659
 40
0.0699344925
 40
0.0819382583
 40
0.0948440628
 40
0.1086250933
 40
0.1386952818
 40
0.1719050114
 40
0.2079707854
 40
0.2465899579
 40
0.2874297193
 40
0.3301425212
 40
0.374359603
 40
0.4197018357
 40
0.4657780406
 40
0.5585421258
 40
0.6494609824
 40
0.6932457194
 40
0.7354095934
 40
0.7755885026
 40
0.813440767
 40
0.8486412082
 40
0.8808941313
 40
0.9099268986
 40
0.9231605345
 40
0.935503924
 40
0.9469315897
 40
0.9574211312
 40
0.966956379
 40
0.9713618058
 40
0.9755236054
 40
0.9831107625
 40
0.9897124426
 40
0.9926456872
 40
0.9953359215
 40
0.9977859599
 40
1.0
 40
1.0
 40
1.0
 40
1.0
 10
6.8549009323
 20
3.6413904214
 30
0.0
 10
6.8549009345
 20
3.641442382
 30
0.0
 10
6.8549151223
 20
3.6415499557
 30
0.0
 10
6.8549773154
 20
3.6417077272
 30
0.0
 10
6.8550790644
 20
3.6418638128
 30
0.0
 10
6.8552195336
 20
3.6420187032
 30
0.0
 10
6.8553985073
 20
3.6421730174
 30
0.0
 10
6.8556160004
 20
3.6423270873
 30
0.0
 10
6.8558720647
 20
3.6424810917
 30
0.0
 10
6.8561667242
 20
3.6426351014
 30
0.0
 10
6.8564999268
 20
3.6427891431
 30
0.0
 10
6.8570173455
 20
3.6430036336
 30
0.0
 10
6.8577614276
 20
3.643268262
 30
0.0
 10
6.8587707028
 20
3.6435747291
 30
0.0
 10
6.8599285452
 20
3.6438816937
 30
0.0
 10
6.8612326581
 20
3.6441889958
 30
0.0
 10
6.8626802953
 20
3.6444966244
 30
0.0
 10
6.8642682743
 20
3.6448045228
 30
0.0
 10
6.865993266
 20
3.6451126209
 30
0.0
 10
6.8678516327
 20
3.645420829
 30
0.0
 10
6.8705823256
 20
3.6458443564
 30
0.0
 10
6.8742974816
 20
3.6463688716
 30
0.0
 10
6.879095315
 20
3.6469822821
 30
0.0
 10
6.8843123675
 20
3.6475965007
 30
0.0
 10
6.8899032164
 20
3.6482111685
 30
0.0
 10
6.8958194665
 20
3.6488262951
 30
0.0
 10
6.90200963
 20
3.6494416498
 30
0.0
 10
6.9084200163
 20
3.650057246
 30
0.0
 10
6.9149948737
 20
3.6506729594
 30
0.0
 10
6.9239242444
 20
3.6514958451
 30
0.0
 10
6.935064222
 20
3.6525113443
 30
0.0
 10
6.9460913265
 20
3.6535363011
 30
0.0
 10
6.9546621967
 20
3.6543674418
 30
0.0
 10
6.9607720216
 20
3.6549827252
 30
0.0
 10
6.9665915227
 20
3.6555977375
 30
0.0
 10
6.9720700642
 20
3.6562122668
 30
0.0
 10
6.9771602112
 20
3.6568262583
 30
0.0
 10
6.981817701
 20
3.6574394217
 30
0.0
 10
6.985407815
 20
3.6579643394
 30
0.0
 10
6.988032555
 20
3.6583886076
 30
0.0
 10
6.9898076885
 20
3.658696731
 30
0.0
 10
6.9914471142
 20
3.659004662
 30
0.0
 10
6.9929472552
 20
3.6593124468
 30
0.0
 10
6.9941074241
 20
3.6595751461
 30
0.0
 10
6.9949630609
 20
3.6597865845
 30
0.0
 10
6.9957238001
 20
3.6599863209
 30
0.0
 10
6.9965825173
 20
3.6602335942
 30
0.0
 10
6.9973735095
 20
3.6604980162
 30
0.0
 10
6.9979289893
 20
3.6607120708
 30
0.0
 10
6.9982907042
 20
3.6608661666
 30
0.0
 10
6.9986140625
 20
3.6610201905
 30
0.0
 10
6.9988139616
 20
3.6611282322
 30
0.0
 10
6.9989070296
 20
3.6611826184
 30
0.0
  0
SPLINE
  5
300
100
AcDbEntity
  8
ALL_FEATURES
100
AcDbSpline
 62
7
  6
CONTINUOUS
 70
0
 71
3
 72
57
 73
53
 74
0
 42
0.0000001
 43
0.0000001
 44
0.0000000001
 40
0.0
 40
0.0
 40
0.0
 40
0.0
 40
0.0010672669
 40
0.0022005818
 40
0.0034553013
 40
0.0048724689
 40
0.0064805988
 40
0.0082991216
 40
0.0103411927
 40
0.0126152245
 40
0.0151267172
 40
0.0178793248
 40
0.0241159063
 40
0.0313356176
 40
0.0395389882
 40
0.0487162454
 40
0.0588530147
 40
0.0699331309
 40
0.0819383845
 40
0.0948444505
 40
0.1086243911
 40
0.1386952226
 40
0.1719044482
 40
0.2079705422
 40
0.2465895041
 40
0.2874293135
 40
0.33014214
 40
0.3743590701
 40
0.4197014836
 40
0.4657774269
 40
0.5585414832
 40
0.6494603629
 40
0.6932451911
 40
0.7354090439
 40
0.7755878436
 40
0.8134403245
 40
0.848640398
 40
0.880893819
 40
0.9099259296
 40
0.9231605689
 40
0.9355037488
 40
0.9469300231
 40
0.9574200096
 40
0.9669563759
 40
0.971362037
 40
0.9755235507
 40
0.983109195
 40
0.9897111984
 40
0.9926450275
 40
0.9953358122
 40
0.9977861403
 40
1.0
 40
1.0
 40
1.0
 40
1.0
 10
6.8549010919
 20
3.3080303928
 30
0.0
 10
6.8549011228
 20
3.3080823543
 30
0.0
 10
6.8549153186
 20
3.3081899121
 30
0.0
 10
6.8549774298
 20
3.3083476839
 30
0.0
 10
6.8550790654
 20
3.3085037823
 30
0.0
 10
6.8552194328
 20
3.3086586867
 30
0.0
 10
6.8553983556
 20
3.3088130119
 30
0.0
 10
6.8556158841
 20
3.308967084
 30
0.0
 10
6.8558720644
 20
3.3091210616
 30
0.0
 10
6.8561668349
 20
3.3092750508
 30
0.0
 10
6.856500074
 20
3.3094290994
 30
0.0
 10
6.8570174171
 20
3.3096435953
 30
0.0
 10
6.8577613827
 20
3.3099082619
 30
0.0
 10
6.8587706551
 20
3.310214746
 30
0.0
 10
6.8599285922
 20
3.3105216237
 30
0.0
 10
6.8612327253
 20
3.3108289482
 30
0.0
 10
6.8626802739
 20
3.311136608
 30
0.0
 10
6.8642682366
 20
3.3114445248
 30
0.0
 10
6.8659932996
 20
3.3117525696
 30
0.0
 10
6.8678516981
 20
3.3120607831
 30
0.0
 10
6.870582375
 20
3.3124843608
 30
0.0
 10
6.8742974939
 20
3.3130088168
 30
0.0
 10
6.8790953457
 20
3.3136222665
 30
0.0
 10
6.8843123833
 20
3.3142364612
 30
0.0
 10
6.88990324
 20
3.3148511416
 30
0.0
 10
6.8958194855
 20
3.3154662631
 30
0.0
 10
6.9020096468
 20
3.3160816167
 30
0.0
 10
6.908420037
 20
3.3166972179
 30
0.0
 10
6.9149948856
 20
3.3173129235
 30
0.0
 10
6.9239242525
 20
3.3181358176
 30
0.0
 10
6.9350642205
 20
3.3191513114
 30
0.0
 10
6.9460913319
 20
3.3201762702
 30
0.0
 10
6.9546622091
 20
3.321007409
 30
0.0
 10
6.9607720339
 20
3.3216226915
 30
0.0
 10
6.96659154
 20
3.3222377106
 30
0.0
 10
6.972070072
 20
3.3228522252
 30
0.0
 10
6.9771602341
 20
3.3234662423
 30
0.0
 10
6.9818177049
 20
3.3240793649
 30
0.0
 10
6.9854078527
 20
3.3246043412
 30
0.0
 10
6.9880326077
 20
3.3250285613
 30
0.0
 10
6.9898077138
 20
3.3253366775
 30
0.0
 10
6.9914470728
 20
3.325644661
 30
0.0
 10
6.9929472258
 20
3.3259524282
 30
0.0
 10
6.9941074895
 20
3.3262151075
 30
0.0
 10
6.9949631804
 20
3.3264265443
 30
0.0
 10
6.995723844
 20
3.3266262708
 30
0.0
 10
6.9965824681
 20
3.3268736084
 30
0.0
 10
6.997373436
 20
3.3271380053
 30
0.0
 10
6.9979289993
 20
3.3273520408
 30
0.0
 10
6.9982907926
 20
3.3275061297
 30
0.0
 10
6.9986141909
 20
3.327660145
 30
0.0
 10
6.9988140932
 20
3.3277681937
 30
0.0
 10
6.9989071465
 20
3.3278225879
 30
0.0
  0
SPLINE
  5
301
100
AcDbEntity
  8
ALL_FEATURES
100
AcDbSpline
 62
7
  6
CONTINUOUS
 70
0
 71
3
 72
26
 73
22
 74
0
 42
0.0000001
 43
0.0000001
 44
0.0000000001
 40
0.0
 40
0.0
 40
0.0
 40
0.0
 40
0.1050560639
 40
0.2028085902
 40
0.293180793
 40
0.3761355227
 40
0.4516930133
 40
0.5199865471
 40
0.5813105496
 40
0.636135151
 40
0.6851843492
 40
0.7295426806
 40
0.7504563632
 40
0.7708145471
 40
0.7908751279
 40
0.8109105912
 40
0.8311974998
 40
0.8520053912
 40
0.8961191243
 40
0.9450302833
 40
1.0
 40
1.0
 40
1.0
 40
1.0
 10
6.8504776222
 20
3.3252146565
 30
0.0
 10
6.8499597309
 20
3.3250261915
 30
0.0
 10
6.8489645197
 20
3.3246495745
 30
0.0
 10
6.8475433573
 20
3.3240608243
 30
0.0
 10
6.8462501072
 20
3.3234684874
 30
0.0
 10
6.8450877843
 20
3.3228726556
 30
0.0
 10
6.8440591836
 20
3.3222732381
 30
0.0
 10
6.8431666413
 20
3.321669922
 30
0.0
 10
6.8424118419
 20
3.3210623448
 30
0.0
 10
6.8417962894
 20
3.320449408
 30
0.0
 10
6.8413218803
 20
3.3198297665
 30
0.0
 10
6.8410415419
 20
3.3192950573
 30
0.0
 10
6.8408978698
 20
3.3188686015
 30
0.0
 10
6.8408292292
 20
3.3185535448
 30
0.0
 10
6.8407979301
 20
3.3182372232
 30
0.0
 10
6.8408041559
 20
3.3179197834
 30
0.0
 10
6.8408480497
 20
3.317601383
 30
0.0
 10
6.8409588923
 20
3.3171674813
 30
0.0
 10
6.84120073
 20
3.3166167247
 30
0.0
 10
6.8416359037
 20
3.3159701781
 30
0.0
 10
6.8420017734
 20
3.3155640609
 30
0.0
 10
6.8422056725
 20
3.3153601466
 30
0.0
  0
SPLINE
  5
302
100
AcDbEntity
  8
ALL_FEATURES
100
AcDbSpline
 62
7
  6
CONTINUOUS
 70
0
 71
3
 72
60
 73
56
 74
0
 42
0.0000001
 43
0.0000001
 44
0.0000000001
 40
0.0
 40
0.0
 40
0.0
 40
0.0
 40
0.0004107871
 40
0.0008332391
 40
0.0017519747
 40
0.0028249746
 40
0.0040940031
 40
0.0055841215
 40
0.0073105204
 40
0.0092827026
 40
0.0115067773
 40
0.0139862329
 40
0.0167227799
 40
0.0197172187
 40
0.0229697363
 40
0.0302474825
 40
0.0385508925
 40
0.047867134
 40
0.0581777962
 40
0.0694632416
 40
0.0817023896
 40
0.0948687596
 40
0.1089334747
 40
0.1396392264
 40
0.173553272
 40
0.2103799163
 40
0.2497938798
 40
0.2914498345
 40
0.3349775914
 40
0.3799937766
 40
0.4728863898
 40
0.5668416141
 40
0.613175384
 40
0.6585308735
 40
0.7025061426
 40
0.7447138732
 40
0.7847797683
 40
0.8223523388
 40
0.8570973621
 40
0.8887134226
 40
0.9032592891
 40
0.9169226274
 40
0.9296745902
 40
0.9414868349
 40
0.9523352916
 40
0.9621999496
 40
0.9710617885
 40
0.9789039481
 40
0.9857172354
 40
0.9887370529
 40
0.9914989542
 40
0.9940036845
 40
0.9962528556
 40
0.9982496857
 40
1.0
 40
1.0
 40
1.0
 40
1.0
 10
7.0223509317
 20
3.4304361429
 30
0.0
 10
7.0223509317
 20
3.430409989
 30
0.0
 10
7.0223463557
 20
3.4303568339
 30
0.0
 10
7.0223184101
 20
3.4302483893
 30
0.0
 10
7.0222453241
 20
3.4301107669
 30
0.0
 10
7.0221078634
 20
3.4299536539
 30
0.0
 10
7.0219192412
 20
3.4297976985
 30
0.0
 10
7.0216791783
 20
3.4296421842
 30
0.0
 10
7.0213873877
 20
3.4294866611
 30
0.0
 10
7.0210436933
 20
3.4293310483
 30
0.0
 10
7.0206480613
 20
3.4291753469
 30
0.0
 10
7.0202006139
 20
3.4290195548
 30
0.0
 10
7.0197015801
 20
3.4288636689
 30
0.0
 10
7.0191512391
 20
3.428707695
 30
0.0
 10
7.0183176848
 20
3.4284914548
 30
0.0
 10
7.017148505
 20
3.4282241644
 30
0.0
 10
7.0155939175
 20
3.4279136381
 30
0.0
 10
7.0138429435
 20
3.4276026677
 30
0.0
 10
7.0118995371
 20
3.4272912788
 30
0.0
 10
7.0097679289
 20
3.4269796077
 30
0.0
 10
7.0074527578
 20
3.4266677911
 30
0.0
 10
7.0049591839
 20
3.4263558026
 30
0.0
 10
7.0012954514
 20
3.4259269681
 30
0.0
 10
6.9963138504
 20
3.425396136
 30
0.0
 10
6.9898848259
 20
3.4247751591
 30
0.0
 10
6.9828990691
 20
3.4241535181
 30
0.0
 10
6.9754186559
 20
3.4235312632
 30
0.0
 10
6.9675102412
 20
3.4229086655
 30
0.0
 10
6.9592441242
 20
3.4222857193
 30
0.0
 10
6.9477229936
 20
3.4214461382
 30
0.0
 10
6.9329970539
 20
3.4204107602
 30
0.0
 10
6.918186657
 20
3.4193808015
 30
0.0
 10
6.906396596
 20
3.4185458941
 30
0.0
 10
6.8977816331
 20
3.4179227304
 30
0.0
 10
6.8894300566
 20
3.4172997378
 30
0.0
 10
6.8814162013
 20
3.4166770454
 30
0.0
 10
6.8738112526
 20
3.4160546508
 30
0.0
 10
6.866683062
 20
3.4154328427
 30
0.0
 10
6.8600949967
 20
3.4148115895
 30
0.0
 10
6.8549710928
 20
3.4142811723
 30
0.0
 10
6.8511862717
 20
3.4138529192
 30
0.0
 10
6.8485970754
 20
3.4135408418
 30
0.0
 10
6.8461832427
 20
3.4132289421
 30
0.0
 10
6.8439502057
 20
3.4129171864
 30
0.0
 10
6.8419028929
 20
3.4126056309
 30
0.0
 10
6.8400457329
 20
3.412294406
 30
0.0
 10
6.8383828173
 20
3.4119836597
 30
0.0
 10
6.8369178635
 20
3.4116733762
 30
0.0
 10
6.835824476
 20
3.4114058141
 30
0.0
 10
6.8350523623
 20
3.4111890292
 30
0.0
 10
6.8345482655
 20
3.4110331296
 30
0.0
 10
6.8340957234
 20
3.4108773351
 30
0.0
 10
6.8336949596
 20
3.4107216313
 30
0.0
 10
6.8333461592
 20
3.4105660219
 30
0.0
 10
6.8331345874
 20
3.410455213
 30
0.0
 10
6.833038268
 20
3.4103991669
 30
0.0
  0
SPLINE
  5
303
100
AcDbEntity
  8
ALL_FEATURES
100
AcDbSpline
 62
7
  6
CONTINUOUS
 70
0
 71
3
 72
58
 73
54
 74
0
 42
0.0000001
 43
0.0000001
 44
0.0000000001
 40
0.0
 40
0.0
 40
0.0
 40
0.0
 40
0.0010672324
 40
0.0022004275
 40
0.0034550044
 40
0.0048721238
 40
0.0064804367
 40
0.0082994114
 40
0.0103417357
 40
0.0126157343
 40
0.0151270026
 40
0.0178793024
 40
0.0241154799
 40
0.0313358056
 40
0.0395394883
 40
0.0487162411
 40
0.0588525794
 40
0.0699332095
 40
0.0819388547
 40
0.0948444934
 40
0.1086240012
 40
0.1386956259
 40
0.1719041201
 40
0.2079708586
 40
0.2465892542
 40
0.287429526
 40
0.3301419752
 40
0.3743591686
 40
0.4197014044
 40
0.4657774083
 40
0.558541352
 40
0.6494601312
 40
0.6932453053
 40
0.7354087309
 40
0.7755879852
 40
0.8134399552
 40
0.8486405443
 40
0.8808934222
 40
0.895827434
 40
0.9099263192
 40
0.9231611588
 40
0.9355036182
 40
0.9469298208
 40
0.9574203598
 40
0.9669570122
 40
0.971362442
 40
0.9755234588
 40
0.9831089299
 40
0.9897114875
 40
0.9926455732
 40
0.995336451
 40
0.9977866039
 40
1.0
 40
1.0
 40
1.0
 40
1.0
 10
6.8549011459
 20
3.3497004064
 30
0.0
 10
6.8549011659
 20
3.3497523663
 30
0.0
 10
6.8549153287
 20
3.3498599198
 30
0.0
 10
6.854977388
 20
3.3500176975
 30
0.0
 10
6.8550789883
 20
3.3501738027
 30
0.0
 10
6.855219352
 20
3.3503287119
 30
0.0
 10
6.8553983144
 20
3.3504830369
 30
0.0
 10
6.8556159131
 20
3.3506370846
 30
0.0
 10
6.855872129
 20
3.3507910643
 30
0.0
 10
6.8561668968
 20
3.3509450582
 30
0.0
 10
6.8565001036
 20
3.3510991109
 30
0.0
 10
6.8570173942
 20
3.3513136149
 30
0.0
 10
6.8577613482
 20
3.3515783031
 30
0.0
 10
6.8587706597
 20
3.3518847484
 30
0.0
 10
6.8599286181
 20
3.3521916236
 30
0.0
 10
6.8612327162
 20
3.3524989659
 30
0.0
 10
6.8626802415
 20
3.3528066393
 30
0.0
 10
6.864268232
 20
3.3531145364
 30
0.0
 10
6.8659933202
 20
3.3534225739
 30
0.0
 10
6.8678516937
 20
3.3537308
 30
0.0
 10
6.8705823655
 20
3.3541543944
 30
0.0
 10
6.8742974729
 20
3.3546788087
 30
0.0
 10
6.8790953543
 20
3.3552923051
 30
0.0
 10
6.8843123657
 20
3.3559064616
 30
0.0
 10
6.8899032464
 20
3.3565211738
 30
0.0
 10
6.8958194723
 20
3.3571362711
 30
0.0
 10
6.9020096501
 20
3.3577516438
 30
0.0
 10
6.9084200286
 20
3.3583672323
 30
0.0
 10
6.9149948849
 20
3.3589829464
 30
0.0
 10
6.923924243
 20
3.359805836
 30
0.0
 10
6.9350642058
 20
3.3608213311
 30
0.0
 10
6.9460913252
 20
3.3618463003
 30
0.0
 10
6.9546621969
 20
3.3626774229
 30
0.0
 10
6.9607720396
 20
3.3632927244
 30
0.0
 10
6.9665915244
 20
3.3639077237
 30
0.0
 10
6.9720700821
 20
3.3645222532
 30
0.0
 10
6.977160205
 20
3.3651362836
 30
0.0
 10
6.98113719
 20
3.3656597218
 30
0.0
 10
6.9840909858
 20
3.3660819515
 30
0.0
 10
6.9861256462
 20
3.3663903378
 30
0.0
 10
6.9880326275
 20
3.3666985791
 30
0.0
 10
6.9898077019
 20
3.3670067096
 30
0.0
 10
6.9914470488
 20
3.367314696
 30
0.0
 10
6.9929472428
 20
3.3676224498
 30
0.0
 10
6.9941075387
 20
3.3678851225
 30
0.0
 10
6.994963207
 20
3.3680965627
 30
0.0
 10
6.9957238203
 20
3.3682963088
 30
0.0
 10
6.9965824367
 20
3.3685436511
 30
0.0
 10
6.9973734427
 20
3.3688080314
 30
0.0
 10
6.9979290553
 20
3.3690220619
 30
0.0
 10
6.9982908596
 20
3.3691761473
 30
0.0
 10
6.9986142314
 20
3.3693301577
 30
0.0
 10
6.9988140922
 20
3.3694382185
 30
0.0
 10
6.9989071191
 20
3.3694926131
 30
0.0
  0
SPLINE
  5
304
100
AcDbEntity
  8
ALL_FEATURES
100
AcDbSpline
 62
7
  6
CONTINUOUS
 70
0
 71
3
 72
60
 73
56
 74
0
 42
0.0000001
 43
0.0000001
 44
0.0000000001
 40
0.0
 40
0.0
 40
0.0
 40
0.0
 40
0.0004107872
 40
0.0008332393
 40
0.001751975
 40
0.0028249747
 40
0.0040940028
 40
0.0055841207
 40
0.0073105191
 40
0.0092827009
 40
0.0115067752
 40
0.01398623
 40
0.0167227761
 40
0.0197172136
 40
0.0229697298
 40
0.0302474721
 40
0.0385508767
 40
0.0478671105
 40
0.0581777663
 40
0.0694632107
 40
0.0817023634
 40
0.0948687334
 40
0.1089334319
 40
0.1396390581
 40
0.1735529367
 40
0.2103795537
 40
0.2497935926
 40
0.2914496722
 40
0.3349775091
 40
0.379993695
 40
0.4728862622
 40
0.5668414822
 40
0.6131752053
 40
0.6585306713
 40
0.702506097
 40
0.7447141477
 40
0.7847803465
 40
0.8223531461
 40
0.8570982551
 40
0.888714317
 40
0.903260149
 40
0.9169234034
 40
0.929675287
 40
0.9414874853
 40
0.9523358408
 40
0.9622003754
 40
0.9710621214
 40
0.9789042176
 40
0.9857174103
 40
0.9887371789
 40
0.9914990357
 40
0.9940037306
 40
0.9962528789
 40
0.9982496948
 40
1.0
 40
1.0
 40
1.0
 40
1.0
 10
7.0223509317
 20
3.4721061653
 30
0.0
 10
7.0223509317
 20
3.4720800114
 30
0.0
 10
7.0223463557
 20
3.4720268563
 30
0.0
 10
7.0223184101
 20
3.4719184117
 30
0.0
 10
7.0222453242
 20
3.4717807892
 30
0.0
 10
7.0221078636
 20
3.4716236761
 30
0.0
 10
7.0219192415
 20
3.4714677207
 30
0.0
 10
7.0216791787
 20
3.4713122064
 30
0.0
 10
7.0213873883
 20
3.4711566832
 30
0.0
 10
7.021043694
 20
3.4710010704
 30
0.0
 10
7.0206480621
 20
3.4708453691
 30
0.0
 10
7.0202006148
 20
3.4706895769
 30
0.0
 10
7.0197015812
 20
3.4705336909
 30
0.0
 10
7.0191512404
 20
3.470377717
 30
0.0
 10
7.0183176866
 20
3.4701614768
 30
0.0
 10
7.0171485075
 20
3.4698941863
 30
0.0
 10
7.0155939211
 20
3.4695836599
 30
0.0
 10
7.0138429484
 20
3.4692726894
 30
0.0
 10
7.0118995429
 20
3.4689613004
 30
0.0
 10
7.0097679349
 20
3.4686496292
 30
0.0
 10
7.0074527636
 20
3.4683378124
 30
0.0
 10
7.0049591905
 20
3.4680258239
 30
0.0
 10
7.0012954669
 20
3.46759699
 30
0.0
 10
6.9963138856
 20
3.4670661591
 30
0.0
 10
6.9898848813
 20
3.4664451833
 30
0.0
 10
6.982899132
 20
3.4658235428
 30
0.0
 10
6.9754187078
 20
3.4652012858
 30
0.0
 10
6.9675102754
 20
3.4645786862
 30
0.0
 10
6.9592441452
 20
3.4639557385
 30
0.0
 10
6.9477230124
 20
3.4631161565
 30
0.0
 10
6.9329970757
 20
3.4620807779
 30
0.0
 10
6.9181866849
 20
3.4610508187
 30
0.0
 10
6.9063966286
 20
3.4602159111
 30
0.0
 10
6.8977816602
 20
3.4595927465
 30
0.0
 10
6.8894300549
 20
3.458969751
 30
0.0
 10
6.88141615
 20
3.4583470543
 30
0.0
 10
6.8738111472
 20
3.457724654
 30
0.0
 10
6.8666829174
 20
3.4571028415
 30
0.0
 10
6.8600948323
 20
3.4564815842
 30
0.0
 10
6.8549709251
 20
3.4559511648
 30
0.0
 10
6.8511861116
 20
3.4555229111
 30
0.0
 10
6.848596928
 20
3.4552108329
 30
0.0
 10
6.8461831087
 20
3.4548989328
 30
0.0
 10
6.843950086
 20
3.4545871793
 30
0.0
 10
6.8419027906
 20
3.4542756239
 30
0.0
 10
6.8400456511
 20
3.4539643991
 30
0.0
 10
6.8383827534
 20
3.4536536538
 30
0.0
 10
6.8369178152
 20
3.4533433738
 30
0.0
 10
6.8358244408
 20
3.4530758134
 30
0.0
 10
6.835052339
 20
3.4528590303
 30
0.0
 10
6.8345482504
 20
3.4527031322
 30
0.0
 10
6.8340957147
 20
3.452547339
 30
0.0
 10
6.8336949553
 20
3.4523916366
 30
0.0
 10
6.8333461576
 20
3.4522360283
 30
0.0
 10
6.8331345873
 20
3.45212522
 30
0.0
 10
6.8330382684
 20
3.4520691741
 30
0.0
  0
SPLINE
  5
305
100
AcDbEntity
  8
ALL_FEATURES
100
AcDbSpline
 62
7
  6
CONTINUOUS
 70
0
 71
3
 72
58
 73
54
 74
0
 42
0.0000001
 43
0.0000001
 44
0.0000000001
 40
0.0
 40
0.0
 40
0.0
 40
0.0
 40
0.0022133054
 40
0.0046625864
 40
0.0073523749
 40
0.010285831
 40
0.0168894147
 40
0.0244765648
 40
0.0286376329
 40
0.0330422723
 40
0.0425770891
 40
0.0530684225
 40
0.0644962834
 40
0.0768383031
 40
0.0900713776
 40
0.1041707806
 40
0.1191063112
 40
0.151357466
 40
0.1865595917
 40
0.2244103713
 40
0.2645906317
 40
0.3067534016
 40
0.3505390678
 40
0.4414577193
 40
0.5342215831
 40
0.580298123
 40
0.6256397978
 40
0.6698576862
 40
0.7125694726
 40
0.7534104559
 40
0.7920282262
 40
0.8280955546
 40
0.8613035909
 40
0.8913755631
 40
0.9051561987
 40
0.918060529
 40
0.9300649023
 40
0.9411468134
 40
0.9512846022
 40
0.9604600781
 40
0.9686622566
 40
0.9758837033
 40
0.9821215523
 40
0.9848735632
 40
0.9873840193
 40
0.9896571036
 40
0.9916988076
 40
0.9935178042
 40
0.9951268187
 40
0.9965447508
 40
0.9977997425
 40
0.9989328736
 40
1.0
 40
1.0
 40
1.0
 40
1.0
 10
6.85579496
 20
3.5903432031
 30
0.0
 10
6.8558879878
 20
3.5903975873
 30
0.0
 10
6.8560878017
 20
3.5905056335
 30
0.0
 10
6.8564110515
 20
3.5906596664
 30
0.0
 10
6.8567727109
 20
3.5908137702
 30
0.0
 10
6.8573282749
 20
3.5910278341
 30
0.0
 10
6.8581194044
 20
3.5912921684
 30
0.0
 10
6.8589781664
 20
3.5915394827
 30
0.0
 10
6.859738824
 20
3.5917392378
 30
0.0
 10
6.8605943582
 20
3.5919506941
 30
0.0
 10
6.8617545513
 20
3.5922134154
 30
0.0
 10
6.8632547839
 20
3.5925211286
 30
0.0
 10
6.8648942365
 20
3.5928290749
 30
0.0
 10
6.8666692795
 20
3.5931372206
 30
0.0
 10
6.8685761685
 20
3.5934455106
 30
0.0
 10
6.8706108444
 20
3.5937538745
 30
0.0
 10
6.8735646616
 20
3.5941760454
 30
0.0
 10
6.8775416954
 20
3.5946995864
 30
0.0
 10
6.8826317589
 20
3.5953135221
 30
0.0
 10
6.8881103704
 20
3.5959281235
 30
0.0
 10
6.8939298156
 20
3.59654307
 30
0.0
 10
6.9000396913
 20
3.5971584076
 30
0.0
 10
6.9086105451
 20
3.5979895039
 30
0.0
 10
6.9196376689
 20
3.5990144866
 30
0.0
 10
6.9307776388
 20
3.600029991
 30
0.0
 10
6.9397069873
 20
3.6008528587
 30
0.0
 10
6.9462818691
 20
3.6014685985
 30
0.0
 10
6.9526922201
 20
3.6020841568
 30
0.0
 10
6.9588824264
 20
3.6026995624
 30
0.0
 10
6.9647986232
 20
3.6033146259
 30
0.0
 10
6.9703895294
 20
3.6039293708
 30
0.0
 10
6.9756065159
 20
3.6045434997
 30
0.0
 10
6.9804044159
 20
3.60515701
 30
0.0
 10
6.9841195659
 20
3.6056814529
 30
0.0
 10
6.9868502539
 20
3.606104983
 30
0.0
 10
6.9887085496
 20
3.6064132403
 30
0.0
 10
6.9904335646
 20
3.6067213192
 30
0.0
 10
6.9920216315
 20
3.6070291862
 30
0.0
 10
6.993469241
 20
3.6073368011
 30
0.0
 10
6.9947732636
 20
3.6076441814
 30
0.0
 10
6.9959311191
 20
3.607951125
 30
0.0
 10
6.9969405
 20
3.6082575439
 30
0.0
 10
6.9976846134
 20
3.6085221513
 30
0.0
 10
6.9982019209
 20
3.6087366888
 30
0.0
 10
6.998535015
 20
3.6088907521
 30
0.0
 10
6.9988296468
 20
3.6090447594
 30
0.0
 10
6.9990857659
 20
3.6091987559
 30
0.0
 10
6.999303359
 20
3.6093528155
 30
0.0
 10
6.9994824355
 20
3.6095071174
 30
0.0
 10
6.9996229691
 20
3.6096619961
 30
0.0
 10
6.9997247073
 20
3.6098180857
 30
0.0
 10
6.9997867519
 20
3.6099758937
 30
0.0
 10
6.9998008207
 20
3.610083456
 30
0.0
 10
6.9998007902
 20
3.6101354106
 30
0.0
  0
SPLINE
  5
306
100
AcDbEntity
  8
ALL_FEATURES
100
AcDbSpline
 62
7
  6
CONTINUOUS
 70
0
 71
3
 72
58
 73
54
 74
0
 42
0.0000001
 43
0.0000001
 44
0.0000000001
 40
0.0
 40
0.0
 40
0.0
 40
0.0
 40
0.0010671892
 40
0.0022002787
 40
0.0034547886
 40
0.0048720224
 40
0.0064807283
 40
0.0082999804
 40
0.0103423006
 40
0.0126160976
 40
0.0151270689
 40
0.0178790883
 40
0.0241152248
 40
0.0313363682
 40
0.0395399123
 40
0.0487160839
 40
0.0588523042
 40
0.0699337176
 40
0.0819393102
 40
0.0948444207
 40
0.1086237537
 40
0.1386960962
 40
0.1719039391
 40
0.207971326
 40
0.2465891715
 40
0.2874299728
 40
0.3301420153
 40
0.3743595783
 40
0.4197015831
 40
0.4657777661
 40
0.5585416469
 40
0.6494603565
 40
0.693245898
 40
0.735408885
 40
0.7755886851
 40
0.8134400417
 40
0.8486413232
 40
0.8808934505
 40
0.8958277887
 40
0.9099271442
 40
0.9231618112
 40
0.9355036025
 40
0.9469301109
 40
0.9574211929
 40
0.9669577474
 40
0.9713626935
 40
0.9755234225
 40
0.9831091502
 40
0.9897122854
 40
0.9926464929
 40
0.9953372354
 40
0.997786936
 40
1.0
 40
1.0
 40
1.0
 40
1.0
 10
6.8549011777
 20
3.3913704252
 30
0.0
 10
6.854901182
 20
3.3914223829
 30
0.0
 10
6.8549153066
 20
3.391529934
 30
0.0
 10
6.8549773221
 20
3.3916877196
 30
0.0
 10
6.85507891
 20
3.3918438319
 30
0.0
 10
6.8552193045
 20
3.3919987447
 30
0.0
 10
6.8553983383
 20
3.3921530455
 30
0.0
 10
6.8556159764
 20
3.3923070908
 30
0.0
 10
6.8558721925
 20
3.3924610762
 30
0.0
 10
6.8561669303
 20
3.3926150742
 30
0.0
 10
6.8565000937
 20
3.3927691303
 30
0.0
 10
6.857017347
 20
3.3929836455
 30
0.0
 10
6.8577613246
 20
3.3932483422
 30
0.0
 10
6.8587706828
 20
3.3935547389
 30
0.0
 10
6.859928639
 20
3.3938616367
 30
0.0
 10
6.8612326922
 20
3.394168991
 30
0.0
 10
6.8626802199
 20
3.3944766718
 30
0.0
 10
6.8642682464
 20
3.3947845376
 30
0.0
 10
6.865993342
 20
3.3950925858
 30
0.0
 10
6.8678516763
 20
3.3954008213
 30
0.0
 10
6.8705823473
 20
3.3958244205
 30
0.0
 10
6.8742974526
 20
3.3963488035
 30
0.0
 10
6.8790953626
 20
3.3969623398
 30
0.0
 10
6.8843123499
 20
3.3975764595
 30
0.0
 10
6.8899032563
 20
3.3981912026
 30
0.0
 10
6.8958194624
 20
3.3988062731
 30
0.0
 10
6.9020096604
 20
3.3994216666
 30
0.0
 10
6.9084200257
 20
3.4000372381
 30
0.0
 10
6.9149948947
 20
3.4006529633
 30
0.0
 10
6.9239242455
 20
3.4014758438
 30
0.0
 10
6.9350642073
 20
3.4024913404
 30
0.0
 10
6.9460913342
 20
3.4035163185
 30
0.0
 10
6.9546621984
 20
3.4043474224
 30
0.0
 10
6.9607720604
 20
3.4049627453
 30
0.0
 10
6.9665915219
 20
3.4055777156
 30
0.0
 10
6.9720701048
 20
3.4061922789
 30
0.0
 10
6.9771601983
 20
3.4068062684
 30
0.0
 10
6.9811371909
 20
3.4073297408
 30
0.0
 10
6.9840909897
 20
3.407751959
 30
0.0
 10
6.9861256817
 20
3.4080603356
 30
0.0
 10
6.9880326448
 20
3.4083685746
 30
0.0
 10
6.9898076879
 20
3.408676729
 30
0.0
 10
6.9914470454
 20
3.4089847036
 30
0.0
 10
6.9929472788
 20
3.4092924453
 30
0.0
 10
6.9941075744
 20
3.4095551107
 30
0.0
 10
6.9949631943
 20
3.4097665692
 30
0.0
 10
6.9957237792
 20
3.4099663238
 30
0.0
 10
6.9965824233
 20
3.4102136631
 30
0.0
 10
6.9973734835
 20
3.4104780278
 30
0.0
 10
6.9979291259
 20
3.4106920571
 30
0.0
 10
6.9982909082
 20
3.4108461368
 30
0.0
 10
6.9986142239
 20
3.4110001615
 30
0.0
 10
6.9988140399
 20
3.411108224
 30
0.0
 10
6.9989070505
 20
3.4111626143
 30
0.0
  0
SPLINE
  5
307
100
AcDbEntity
  8
ALL_FEATURES
100
AcDbSpline
 62
7
  6
CONTINUOUS
 70
0
 71
3
 72
57
 73
53
 74
0
 42
0.0000001
 43
0.0000001
 44
0.0000000001
 40
0.0
 40
0.0
 40
0.0
 40
0.0
 40
0.0010671384
 40
0.0022003868
 40
0.003455502
 40
0.0048734361
 40
0.0064823421
 40
0.0083011668
 40
0.0103427006
 40
0.0126156905
 40
0.0151262058
 40
0.0178785011
 40
0.0241166366
 40
0.031337767
 40
0.0395396256
 40
0.0487153959
 40
0.0588535379
 40
0.0699351649
 40
0.0819392051
 40
0.0948437531
 40
0.1086247765
 40
0.1386961951
 40
0.1719047548
 40
0.2079716277
 40
0.2465898075
 40
0.2874304605
 40
0.3301425185
 40
0.3743602205
 40
0.4197020151
 40
0.4657785208
 40
0.5585424649
 40
0.649461186
 40
0.6932465494
 40
0.7354096765
 40
0.7755895437
 40
0.8134407523
 40
0.8486424362
 40
0.8808940482
 40
0.9099282774
 40
0.9231612623
 40
0.9355038075
 40
0.9469319615
 40
0.9574226112
 40
0.9669572309
 40
0.9713621149
 40
0.9755234984
 40
0.9831110239
 40
0.9897139473
 40
0.9926470826
 40
0.9953368858
 40
0.9977863895
 40
1.0
 40
1.0
 40
1.0
 40
1.0
 10
6.8549010226
 20
3.5997203952
 30
0.0
 10
6.8549009918
 20
3.5997723504
 30
0.0
 10
6.8549150693
 20
3.5998799209
 30
0.0
 10
6.8549771749
 20
3.600037719
 30
0.0
 10
6.8550789399
 20
3.6001938013
 30
0.0
 10
6.8552194701
 20
3.6003486834
 30
0.0
 10
6.8553985258
 20
3.6005029883
 30
0.0
 10
6.8556160899
 20
3.6006570508
 30
0.0
 10
6.855872183
 20
3.6008110497
 30
0.0
 10
6.8561668029
 20
3.6009650585
 30
0.0
 10
6.8564999095
 20
3.6011191239
 30
0.0
 10
6.8570172573
 20
3.6013336442
 30
0.0
 10
6.8577613841
 20
3.6015982478
 30
0.0
 10
6.8587707423
 20
3.6019046823
 30
0.0
 10
6.8599285778
 20
3.6022116367
 30
0.0
 10
6.8612326197
 20
3.6025190039
 30
0.0
 10
6.8626802491
 20
3.6028266083
 30
0.0
 10
6.8642683004
 20
3.6031344866
 30
0.0
 10
6.8659932941
 20
3.6034425728
 30
0.0
 10
6.8678516039
 20
3.603750824
 30
0.0
 10
6.8705822965
 20
3.6041743376
 30
0.0
 10
6.8742974588
 20
3.6046988135
 30
0.0
 10
6.8790953385
 20
3.6053122901
 30
0.0
 10
6.8843123442
 20
3.6059264468
 30
0.0
 10
6.8899032335
 20
3.6065411691
 30
0.0
 10
6.8958194446
 20
3.6071562503
 30
0.0
 10
6.9020096392
 20
3.6077716425
 30
0.0
 10
6.9084199982
 20
3.60838721
 30
0.0
 10
6.9149948745
 20
3.6090029443
 30
0.0
 10
6.9239242292
 20
3.6098258153
 30
0.0
 10
6.9350642028
 20
3.6108413197
 30
0.0
 10
6.9460913181
 20
3.611866294
 30
0.0
 10
6.9546621752
 20
3.6126974045
 30
0.0
 10
6.9607720345
 20
3.6133127263
 30
0.0
 10
6.9665914972
 20
3.6139276895
 30
0.0
 10
6.9720700853
 20
3.6145422805
 30
0.0
 10
6.9771601843
 20
3.6151561986
 30
0.0
 10
6.9818177288
 20
3.6157694484
 30
0.0
 10
6.9854078276
 20
3.6162942914
 30
0.0
 10
6.9880325609
 20
3.6167185849
 30
0.0
 10
6.98980764
 20
3.6170267309
 30
0.0
 10
6.9914471025
 20
3.6173346586
 30
0.0
 10
6.9929473006
 20
3.6176423974
 30
0.0
 10
6.9941074607
 20
3.6179051214
 30
0.0
 10
6.9949630153
 20
3.6181165688
 30
0.0
 10
6.9957237205
 20
3.6183163207
 30
0.0
 10
6.9965824916
 20
3.6185636098
 30
0.0
 10
6.9973735828
 20
3.6188279678
 30
0.0
 10
6.997929091
 20
3.6190420449
 30
0.0
 10
6.9982907469
 20
3.6191961454
 30
0.0
 10
6.998614027
 20
3.6193501757
 30
0.0
 10
6.9988138718
 20
3.6194582185
 30
0.0
 10
6.998906917
 20
3.6195126023
 30
0.0
  0
SPLINE
  5
308
100
AcDbEntity
  8
ALL_FEATURES
100
AcDbSpline
 62
7
  6
CONTINUOUS
 70
0
 71
3
 72
60
 73
56
 74
0
 42
0.0000001
 43
0.0000001
 44
0.0000000001
 40
0.0
 40
0.0
 40
0.0
 40
0.0
 40
0.0004107862
 40
0.0008332346
 40
0.0017519507
 40
0.0028249134
 40
0.0040938903
 40
0.0055839477
 40
0.0073102815
 40
0.0092823999
 40
0.0115064037
 40
0.0139857417
 40
0.0167221357
 40
0.0197164024
 40
0.0229687461
 40
0.0302462076
 40
0.0385494346
 40
0.0478653253
 40
0.0581755996
 40
0.0694608017
 40
0.0816997922
 40
0.094865887
 40
0.1089303947
 40
0.1396362766
 40
0.1735507154
 40
0.2103785684
 40
0.2497935131
 40
0.291449511
 40
0.3349769127
 40
0.3799930233
 40
0.472885717
 40
0.5668410121
 40
0.6131747703
 40
0.6585303218
 40
0.7025059356
 40
0.7447138761
 40
0.7847790424
 40
0.8223503842
 40
0.857094793
 40
0.8887106673
 40
0.9032566227
 40
0.9169202205
 40
0.9296724217
 40
0.9414848016
 40
0.9523335794
 40
0.9621986185
 40
0.9710607174
 40
0.9789030564
 40
0.9857166534
 40
0.9887366331
 40
0.9914986786
 40
0.9940035188
 40
0.9962527521
 40
0.9982496332
 40
1.0
 40
1.0
 40
1.0
 40
1.0
 10
6.8323509317
 20
3.4460596438
 30
0.0
 10
6.8323509317
 20
3.4460857977
 30
0.0
 10
6.8323555072
 20
3.4461389525
 30
0.0
 10
6.8323834504
 20
3.4462473961
 30
0.0
 10
6.8324565305
 20
3.4463850171
 30
0.0
 10
6.8325939826
 20
3.4465421286
 30
0.0
 10
6.8327825947
 20
3.4466980813
 30
0.0
 10
6.8330226464
 20
3.446853592
 30
0.0
 10
6.8333144258
 20
3.4470091105
 30
0.0
 10
6.833658109
 20
3.4471647173
 30
0.0
 10
6.8340537267
 20
3.4473204106
 30
0.0
 10
6.8345011527
 20
3.4474761978
 30
0.0
 10
6.8350001586
 20
3.4476320789
 30
0.0
 10
6.8355504677
 20
3.4477880483
 30
0.0
 10
6.8363839816
 20
3.4480042843
 30
0.0
 10
6.8375531203
 20
3.4482715706
 30
0.0
 10
6.8391076565
 20
3.4485820874
 30
0.0
 10
6.8408585705
 20
3.4488930583
 30
0.0
 10
6.8428019136
 20
3.4492044467
 30
0.0
 10
6.8449334715
 20
3.4495161138
 30
0.0
 10
6.8472485996
 20
3.4498279248
 30
0.0
 10
6.849742132
 20
3.4501399155
 30
0.0
 10
6.8534058411
 20
3.450568755
 30
0.0
 10
6.8583874617
 20
3.4510995888
 30
0.0
 10
6.8648165944
 20
3.4517205866
 30
0.0
 10
6.8718025148
 20
3.4523422389
 30
0.0
 10
6.8792830688
 20
3.4529645092
 30
0.0
 10
6.8871915252
 20
3.4535871108
 30
0.0
 10
6.8954576171
 20
3.4542100542
 30
0.0
 10
6.9069787246
 20
3.455049634
 30
0.0
 10
6.9217046679
 20
3.4560850127
 30
0.0
 10
6.9365150725
 20
3.4571149718
 30
0.0
 10
6.9483051402
 20
3.4579498796
 30
0.0
 10
6.9569201276
 20
3.4585730443
 30
0.0
 10
6.9652717424
 20
3.459196041
 30
0.0
 10
6.973285586
 20
3.4598187324
 30
0.0
 10
6.9808904235
 20
3.460441115
 30
0.0
 10
6.9880184502
 20
3.4610629103
 30
0.0
 10
6.9946063868
 20
3.461684146
 30
0.0
 10
6.9997302455
 20
3.4622145557
 30
0.0
 10
7.0035150769
 20
3.4626428063
 30
0.0
 10
7.0061043109
 20
3.4629548818
 30
0.0
 10
7.0085181841
 20
3.4632667815
 30
0.0
 10
7.0107512645
 20
3.4635785454
 30
0.0
 10
7.0127986308
 20
3.4638901022
 30
0.0
 10
7.0146558526
 20
3.4642013274
 30
0.0
 10
7.0163188207
 20
3.4645120767
 30
0.0
 10
7.0177838209
 20
3.4648223706
 30
0.0
 10
7.0188772501
 20
3.4650899364
 30
0.0
 10
7.0196494029
 20
3.4653067269
 30
0.0
 10
7.0201535258
 20
3.4654626316
 30
0.0
 10
7.0206060876
 20
3.4656184311
 30
0.0
 10
7.0210068635
 20
3.4657741428
 30
0.0
 10
7.0213556725
 20
3.4659297587
 30
0.0
 10
7.0215672499
 20
3.4660405708
 30
0.0
 10
7.0216635723
 20
3.4660966184
 30
0.0
  0
SPLINE
  5
309
100
AcDbEntity
  8
ALL_FEATURES
100
AcDbSpline
 62
7
  6
CONTINUOUS
 70
0
 71
3
 72
60
 73
56
 74
0
 42
0.0000001
 43
0.0000001
 44
0.0000000001
 40
0.0
 40
0.0
 40
0.0
 40
0.0
 40
0.0004107867
 40
0.0008332383
 40
0.0017519725
 40
0.0028249704
 40
0.0040939964
 40
0.005584112
 40
0.0073105083
 40
0.0092826882
 40
0.0115067608
 40
0.0139862129
 40
0.0167227552
 40
0.0197171881
 40
0.0229696994
 40
0.0302474318
 40
0.0385508263
 40
0.047867043
 40
0.0581776821
 40
0.069463119
 40
0.0817022733
 40
0.0948686345
 40
0.1089333041
 40
0.1396387671
 40
0.1735524561
 40
0.2103791392
 40
0.2497933604
 40
0.2914495777
 40
0.3349774587
 40
0.3799936257
 40
0.4728861164
 40
0.5668413036
 40
0.6131749423
 40
0.6585303658
 40
0.7025060314
 40
0.7447145385
 40
0.7847810722
 40
0.8223540528
 40
0.857099222
 40
0.8887152717
 40
0.9032610637
 40
0.9169242276
 40
0.9296760225
 40
0.941488164
 40
0.9523364149
 40
0.9622008235
 40
0.9710624694
 40
0.9789044945
 40
0.9857175923
 40
0.9887373122
 40
0.9914991243
 40
0.9940037817
 40
0.9962529032
 40
0.9982497029
 40
1.0
 40
1.0
 40
1.0
 40
1.0
 10
7.0223509317
 20
3.5137761729
 30
0.0
 10
7.0223509317
 20
3.513750019
 30
0.0
 10
7.0223463558
 20
3.513696864
 30
0.0
 10
7.0223184102
 20
3.5135884195
 30
0.0
 10
7.0222453245
 20
3.5134507972
 30
0.0
 10
7.0221078642
 20
3.5132936844
 30
0.0
 10
7.0219192424
 20
3.5131377292
 30
0.0
 10
7.0216791799
 20
3.5129822151
 30
0.0
 10
7.0213873897
 20
3.5128266923
 30
0.0
 10
7.0210436957
 20
3.5126710798
 30
0.0
 10
7.0206480641
 20
3.5125153788
 30
0.0
 10
7.0202006173
 20
3.5123595869
 30
0.0
 10
7.0197015844
 20
3.5122037013
 30
0.0
 10
7.0191512444
 20
3.5120477277
 30
0.0
 10
7.0183176917
 20
3.5118314878
 30
0.0
 10
7.0171485142
 20
3.5115641978
 30
0.0
 10
7.0155939301
 20
3.5112536721
 30
0.0
 10
7.0138429602
 20
3.5109427019
 30
0.0
 10
7.0118995573
 20
3.5106313134
 30
0.0
 10
7.0097679507
 20
3.5103196426
 30
0.0
 10
7.0074527804
 20
3.5100078265
 30
0.0
 10
7.0049592095
 20
3.5096958383
 30
0.0
 10
7.0012954988
 20
3.5092670061
 30
0.0
 10
6.9963139417
 20
3.5087361774
 30
0.0
 10
6.9898849557
 20
3.5081152032
 30
0.0
 10
6.9828992027
 20
3.5074935635
 30
0.0
 10
6.9754187542
 20
3.5068713039
 30
0.0
 10
6.9675102987
 20
3.5062487031
 30
0.0
 10
6.9592441584
 20
3.5056257551
 30
0.0
 10
6.9477230289
 20
3.504786174
 30
0.0
 10
6.9329971006
 20
3.5037507969
 30
0.0
 10
6.9181867223
 20
3.5027208392
 30
0.0
 10
6.9063966763
 20
3.501885933
 30
0.0
 10
6.8977817008
 20
3.5012627687
 30
0.0
 10
6.8894300542
 20
3.50063977
 30
0.0
 10
6.8814160839
 20
3.5000170689
 30
0.0
 10
6.8738110196
 20
3.4993946633
 30
0.0
 10
6.8666827533
 20
3.4987728473
 30
0.0
 10
6.8600946539
 20
3.4981515873
 30
0.0
 10
6.8549707465
 20
3.4976211667
 30
0.0
 10
6.8511859421
 20
3.4971929132
 30
0.0
 10
6.8485967727
 20
3.4968808349
 30
0.0
 10
6.8461829686
 20
3.496568935
 30
0.0
 10
6.8439499616
 20
3.496257184
 30
0.0
 10
6.8419026846
 20
3.4959456295
 30
0.0
 10
6.8400455664
 20
3.4956344054
 30
0.0
 10
6.8383826877
 20
3.4953236616
 30
0.0
 10
6.836917766
 20
3.4950133859
 30
0.0
 10
6.835824405
 20
3.4947458281
 30
0.0
 10
6.835052315
 20
3.4945290473
 30
0.0
 10
6.8345482346
 20
3.4943731508
 30
0.0
 10
6.8340957058
 20
3.494217359
 30
0.0
 10
6.8336949515
 20
3.4940616578
 30
0.0
 10
6.833346157
 20
3.4939060502
 30
0.0
 10
6.8331345882
 20
3.4937952424
 30
0.0
 10
6.8330382698
 20
3.4937391967
 30
0.0
  0
SPLINE
  5
30A
100
AcDbEntity
  8
ALL_FEATURES
100
AcDbSpline
 62
7
  6
CONTINUOUS
 70
0
 71
3
 72
56
 73
52
 74
0
 42
0.0000001
 43
0.0000001
 44
0.0000000001
 40
0.0
 40
0.0
 40
0.0
 40
0.0
 40
0.0013555323
 40
0.0029792908
 40
0.0048782041
 40
0.0070553546
 40
0.0095120156
 40
0.0122484196
 40
0.0185581065
 40
0.025976812
 40
0.03448827
 40
0.0440701032
 40
0.0546987074
 40
0.0663489151
 40
0.0789896468
 40
0.1071086209
 40
0.1387745048
 40
0.1736672733
 40
0.2114460635
 40
0.2517423078
 40
0.2941726834
 40
0.3383366553
 40
0.3838253695
 40
0.4302220733
 40
0.5240680773
 40
0.5706883807
 40
0.6165650418
 40
0.6613079928
 40
0.7045385185
 40
0.7459002109
 40
0.7850519568
 40
0.8216817079
 40
0.8554957808
 40
0.8862352398
 40
0.9136619909
 40
0.9260701065
 40
0.9375775564
 40
0.9481621872
 40
0.9578067855
 40
0.9664970937
 40
0.9742193887
 40
0.9809612494
 40
0.9867164195
 40
0.989223658
 40
0.9914841882
 40
0.9934987168
 40
0.995268641
 40
0.996796497
 40
0.9980871422
 40
0.9991495593
 40
1.0
 40
1.0
 40
1.0
 40
1.0
 10
7.0062690055
 20
3.6654814574
 30
0.0
 10
7.0062019156
 20
3.6654422778
 30
0.0
 10
7.0060488773
 20
3.6653657486
 30
0.0
 10
7.0057895043
 20
3.6652609312
 30
0.0
 10
7.0054799616
 20
3.6651560427
 30
0.0
 10
7.0051204587
 20
3.6650511127
 30
0.0
 10
7.004711215
 20
3.6649461671
 30
0.0
 10
7.0040684622
 20
3.6647992135
 30
0.0
 10
7.003141906
 20
3.6646190566
 30
0.0
 10
7.0018841287
 20
3.6644115532
 30
0.0
 10
7.000436614
 20
3.6642040809
 30
0.0
 10
6.9988034832
 20
3.6639966862
 30
0.0
 10
6.9969891387
 20
3.6637895376
 30
0.0
 10
6.9949984103
 20
3.6635827382
 30
0.0
 10
6.9920081062
 20
3.6632972543
 30
0.0
 10
6.9878717818
 20
3.6629463742
 30
0.0
 10
6.9824605381
 20
3.6625397656
 30
0.0
 10
6.9764941559
 20
3.6621343659
 30
0.0
 10
6.9700319979
 20
3.6617304228
 30
0.0
 10
6.9631369505
 20
3.6613280057
 30
0.0
 10
6.9558752593
 20
3.6609272489
 30
0.0
 10
6.948315442
 20
3.6605281648
 30
0.0
 10
6.9405279014
 20
3.6601308117
 30
0.0
 10
6.9298958825
 20
3.6596013283
 30
0.0
 10
6.9191985037
 20
3.6590804704
 30
0.0
 10
6.9085310023
 20
3.6585589056
 30
0.0
 10
6.9006747012
 20
3.6581703396
 30
0.0
 10
6.893012836
 20
3.6577835822
 30
0.0
 10
6.8856099932
 20
3.6573985906
 30
0.0
 10
6.878527959
 20
3.6570154615
 30
0.0
 10
6.871824725
 20
3.65663414
 30
0.0
 10
6.8655547052
 20
3.6562547867
 30
0.0
 10
6.8597676518
 20
3.6558773758
 30
0.0
 10
6.8545091372
 20
3.6555021395
 30
0.0
 10
6.8504768196
 20
3.6551815907
 30
0.0
 10
6.8475454885
 20
3.6549231549
 30
0.0
 10
6.8455769345
 20
3.6547363682
 30
0.0
 10
6.843767489
 20
3.654550075
 30
0.0
 10
6.8421203751
 20
3.6543643208
 30
0.0
 10
6.8406383843
 20
3.6541791821
 30
0.0
 10
6.8393240905
 20
3.6539947761
 30
0.0
 10
6.8381797857
 20
3.6538111011
 30
0.0
 10
6.8373343967
 20
3.653652475
 30
0.0
 10
6.8367451294
 20
3.6535237411
 30
0.0
 10
6.8363673702
 20
3.6534318649
 30
0.0
 10
6.8360331849
 20
3.6533402051
 30
0.0
 10
6.8357426609
 20
3.6532487812
 30
0.0
 10
6.8354958423
 20
3.6531576398
 30
0.0
 10
6.8352925358
 20
3.6530667395
 30
0.0
 10
6.8351325231
 20
3.6529761575
 30
0.0
 10
6.8350451144
 20
3.6529086602
 30
0.0
 10
6.8350106542
 20
3.6528741874
 30
0.0
  0
SPLINE
  5
30B
100
AcDbEntity
  8
ALL_FEATURES
100
AcDbSpline
 62
7
  6
CONTINUOUS
 70
0
 71
3
 72
57
 73
53
 74
0
 42
0.0000001
 43
0.0000001
 44
0.0000000001
 40
0.0
 40
0.0
 40
0.0
 40
0.0
 40
0.002213578
 40
0.0046630531
 40
0.0073528437
 40
0.0102859946
 40
0.0168890016
 40
0.024476513
 40
0.028637869
 40
0.0330427248
 40
0.0425773261
 40
0.0530680273
 40
0.0644961769
 40
0.076838689
 40
0.0900716588
 40
0.119105921
 40
0.1513575057
 40
0.186559202
 40
0.2244104054
 40
0.2645902687
 40
0.3067534064
 40
0.3505387562
 40
0.441457482
 40
0.5342214386
 40
0.5802979403
 40
0.6256397592
 40
0.6698574277
 40
0.7125695464
 40
0.7534101259
 40
0.7920284113
 40
0.8280951634
 40
0.8613038785
 40
0.8913751261
 40
0.9051562343
 40
0.9180609024
 40
0.9300648405
 40
0.941146351
 40
0.9512845727
 40
0.9604605104
 40
0.9686622601
 40
0.9758832445
 40
0.9821214435
 40
0.9848738855
 40
0.987384458
 40
0.9896574219
 40
0.9916988837
 40
0.9935176255
 40
0.9951264697
 40
0.9965443872
 40
0.9977995397
 40
0.9989328509
 40
1.0
 40
1.0
 40
1.0
 40
1.0
 10
6.8557949464
 20
3.5486732058
 30
0.0
 10
6.8558879899
 20
3.5487275895
 30
0.0
 10
6.8560878313
 20
3.5488356323
 30
0.0
 10
6.8564111073
 20
3.5489896626
 30
0.0
 10
6.856772762
 20
3.549143763
 30
0.0
 10
6.8573282749
 20
3.5493578397
 30
0.0
 10
6.8581193718
 20
3.5496221933
 30
0.0
 10
6.8589781443
 20
3.5498694846
 30
0.0
 10
6.859738846
 20
3.5500692366
 30
0.0
 10
6.8605943967
 20
3.5502806843
 30
0.0
 10
6.861754557
 20
3.5505434087
 30
0.0
 10
6.863254757
 20
3.5508511447
 30
0.0
 10
6.8648942201
 20
3.5511590728
 30
0.0
 10
6.8666692964
 20
3.5514672189
 30
0.0
 10
6.8692940289
 20
3.5518915122
 30
0.0
 10
6.8728841275
 20
3.5524163528
 30
0.0
 10
6.8775416726
 20
3.5530296035
 30
0.0
 10
6.8826317706
 20
3.5536435198
 30
0.0
 10
6.8881103587
 20
3.5542581104
 30
0.0
 10
6.8939298214
 20
3.554873073
 30
0.0
 10
6.9000396803
 20
3.5554883936
 30
0.0
 10
6.9086105372
 20
3.5563195036
 30
0.0
 10
6.9196376523
 20
3.5573444766
 30
0.0
 10
6.9307776263
 20
3.5583599796
 30
0.0
 10
6.9397069823
 20
3.5591828504
 30
0.0
 10
6.9462818579
 20
3.5597985829
 30
0.0
 10
6.952692219
 20
3.5604141518
 30
0.0
 10
6.9588824115
 20
3.5610295406
 30
0.0
 10
6.9647986265
 20
3.5616446254
 30
0.0
 10
6.970389512
 20
3.5622593415
 30
0.0
 10
6.9756065235
 20
3.5628735051
 30
0.0
 10
6.9804043977
 20
3.5634869719
 30
0.0
 10
6.984119562
 20
3.5640114558
 30
0.0
 10
6.9868502566
 20
3.5644349666
 30
0.0
 10
6.9887085722
 20
3.5647432135
 30
0.0
 10
6.9904335605
 20
3.5650513024
 30
0.0
 10
6.9920216042
 20
3.5653591838
 30
0.0
 10
6.99346924
 20
3.5656667876
 30
0.0
 10
6.994773291
 20
3.5659741463
 30
0.0
 10
6.9959311209
 20
3.5662811052
 30
0.0
 10
6.996940468
 20
3.5665875444
 30
0.0
 10
6.9976845964
 20
3.5668521511
 30
0.0
 10
6.9982019624
 20
3.5670666616
 30
0.0
 10
6.9985350787
 20
3.5672207269
 30
0.0
 10
6.998829696
 20
3.5673747364
 30
0.0
 10
6.9990857784
 20
3.5675287362
 30
0.0
 10
6.9993033288
 20
3.5676828
 30
0.0
 10
6.9994823727
 20
3.5678371063
 30
0.0
 10
6.9996228987
 20
3.5679919895
 30
0.0
 10
6.9997246688
 20
3.5681480714
 30
0.0
 10
6.9997868063
 20
3.5683058621
 30
0.0
 10
6.9998008939
 20
3.5684134364
 30
0.0
 10
6.9998008645
 20
3.5684653922
 30
0.0
  0
SPLINE
  5
30C
100
AcDbEntity
  8
ALL_FEATURES
100
AcDbSpline
 62
7
  6
CONTINUOUS
 70
0
 71
3
 72
58
 73
54
 74
0
 42
0.0000001
 43
0.0000001
 44
0.0000000001
 40
0.0
 40
0.0
 40
0.0
 40
0.0
 40
0.0010671391
 40
0.0022001674
 40
0.0034548051
 40
0.0048724923
 40
0.0064815358
 40
0.0083007724
 40
0.0103428192
 40
0.0126162188
 40
0.0151268209
 40
0.0178786609
 40
0.0241155909
 40
0.0313372766
 40
0.0395401429
 40
0.0487156797
 40
0.0588525624
 40
0.0699346156
 40
0.081939621
 40
0.0948440935
 40
0.1086239279
 40
0.1386964907
 40
0.1719040607
 40
0.2079717877
 40
0.2465892822
 40
0.2874304826
 40
0.3301421624
 40
0.3743601111
 40
0.4197018146
 40
0.4657782946
 40
0.5585421433
 40
0.6494607949
 40
0.6932466121
 40
0.7354092443
 40
0.7755895997
 40
0.8134403075
 40
0.8486424357
 40
0.880893617
 40
0.8958287811
 40
0.9099284375
 40
0.9231619793
 40
0.9355036747
 40
0.9469311077
 40
0.9574226347
 40
0.966958007
 40
0.9713625668
 40
0.975523419
 40
0.9831101083
 40
0.9897138111
 40
0.992647669
 40
0.9953376457
 40
0.9977868796
 40
1.0
 40
1.0
 40
1.0
 40
1.0
 10
6.8549011599
 20
3.5580503999
 30
0.0
 10
6.854901141
 20
3.5581023552
 30
0.0
 10
6.8549152199
 20
3.5582099085
 30
0.0
 10
6.8549772134
 20
3.5583677077
 30
0.0
 10
6.8550788449
 20
3.5585238266
 30
0.0
 10
6.8552193401
 20
3.5586787085
 30
0.0
 10
6.8553984244
 20
3.5588330038
 30
0.0
 10
6.8556160587
 20
3.5589870574
 30
0.0
 10
6.8558722318
 20
3.5591410486
 30
0.0
 10
6.8561669097
 20
3.5592950518
 30
0.0
 10
6.8565000207
 20
3.5594491114
 30
0.0
 10
6.8570172787
 20
3.5596636471
 30
0.0
 10
6.8577613319
 20
3.5599283013
 30
0.0
 10
6.8587707247
 20
3.5602346869
 30
0.0
 10
6.8599286336
 20
3.5605416143
 30
0.0
 10
6.8612326494
 20
3.5608489884
 30
0.0
 10
6.8626802157
 20
3.5611566419
 30
0.0
 10
6.8642682796
 20
3.5614644918
 30
0.0
 10
6.8659933419
 20
3.5617725595
 30
0.0
 10
6.8678516372
 20
3.5620808097
 30
0.0
 10
6.8705823157
 20
3.5625043797
 30
0.0
 10
6.8742974396
 20
3.5630287726
 30
0.0
 10
6.8790953603
 20
3.5636423188
 30
0.0
 10
6.8843123331
 20
3.5642564216
 30
0.0
 10
6.8899032539
 20
3.5648711831
 30
0.0
 10
6.8958194438
 20
3.5654862344
 30
0.0
 10
6.9020096577
 20
3.5661016459
 30
0.0
 10
6.908420008
 20
3.5667172006
 30
0.0
 10
6.9149948912
 20
3.5673329396
 30
0.0
 10
6.9239242371
 20
3.568155808
 30
0.0
 10
6.9350642034
 20
3.5691713096
 30
0.0
 10
6.9460913334
 20
3.5701962951
 30
0.0
 10
6.9546621883
 20
3.5710273846
 30
0.0
 10
6.9607720686
 20
3.5716427273
 30
0.0
 10
6.9665915085
 20
3.5722576688
 30
0.0
 10
6.9720701211
 20
3.5728722716
 30
0.0
 10
6.977160182
 20
3.5734862095
 30
0.0
 10
6.981137201
 20
3.5740097377
 30
0.0
 10
6.9840910115
 20
3.5744319253
 30
0.0
 10
6.9861257052
 20
3.5747402855
 30
0.0
 10
6.9880326163
 20
3.5750485599
 30
0.0
 10
6.9898076437
 20
3.5753567148
 30
0.0
 10
6.9914470666
 20
3.5756646715
 30
0.0
 10
6.9929473147
 20
3.5759723852
 30
0.0
 10
6.9941075459
 20
3.5762350862
 30
0.0
 10
6.9949630913
 20
3.5764465506
 30
0.0
 10
6.9957237105
 20
3.5766463068
 30
0.0
 10
6.9965824414
 20
3.576893632
 30
0.0
 10
6.9973735698
 20
3.5771579752
 30
0.0
 10
6.9979291803
 20
3.5773720142
 30
0.0
 10
6.9982908691
 20
3.5775261168
 30
0.0
 10
6.9986141159
 20
3.5776801516
 30
0.0
 10
6.9988139151
 20
3.5777882015
 30
0.0
 10
6.9989069318
 20
3.5778425869
 30
0.0
  0
SPLINE
  5
30D
100
AcDbEntity
  8
ALL_FEATURES
100
AcDbSpline
 62
7
  6
CONTINUOUS
 70
0
 71
3
 72
57
 73
53
 74
0
 42
0.0000001
 43
0.0000001
 44
0.0000000001
 40
0.0
 40
0.0
 40
0.0
 40
0.0
 40
0.0022136586
 40
0.004663203
 40
0.0073530209
 40
0.0102861253
 40
0.0168888993
 40
0.0244764795
 40
0.0286379287
 40
0.0330428722
 40
0.0425774956
 40
0.0530679551
 40
0.0644961516
 40
0.0768388428
 40
0.0900718561
 40
0.1191058963
 40
0.1513577125
 40
0.1865591859
 40
0.2244106057
 40
0.2645902673
 40
0.306753584
 40
0.3505387781
 40
0.4414575359
 40
0.5342215329
 40
0.5802979782
 40
0.6256399005
 40
0.6698574085
 40
0.7125697387
 40
0.7534100526
 40
0.7920286548
 40
0.8280950438
 40
0.8613041691
 40
0.8913749725
 40
0.905156176
 40
0.9180612306
 40
0.930064988
 40
0.9411461799
 40
0.9512844533
 40
0.9604608606
 40
0.9686624529
 40
0.9758830781
 40
0.9821212745
 40
0.9848740021
 40
0.9873847953
 40
0.9896577709
 40
0.9916991148
 40
0.9935176861
 40
0.9951263779
 40
0.9965442185
 40
0.997799398
 40
0.9989328135
 40
1.0
 40
1.0
 40
1.0
 40
1.0
 10
6.8557949465
 20
3.507003231
 30
0.0
 10
6.8558879944
 20
3.5070576147
 30
0.0
 10
6.8560878444
 20
3.507165657
 30
0.0
 10
6.8564111302
 20
3.5073196868
 30
0.0
 10
6.8567727875
 20
3.5074737868
 30
0.0
 10
6.8573282872
 20
3.5076878634
 30
0.0
 10
6.8581193694
 20
3.5079522289
 30
0.0
 10
6.8589781406
 20
3.5081995126
 30
0.0
 10
6.859738855
 20
3.5083992636
 30
0.0
 10
6.8605944163
 20
3.5086107092
 30
0.0
 10
6.8617545704
 20
3.5088734314
 30
0.0
 10
6.8632547595
 20
3.5091811779
 30
0.0
 10
6.8648942225
 20
3.5094891019
 30
0.0
 10
6.8666693125
 20
3.5097972451
 30
0.0
 10
6.8692940449
 20
3.5102215378
 30
0.0
 10
6.8728841444
 20
3.5107463888
 30
0.0
 10
6.8775416804
 20
3.5113596259
 30
0.0
 10
6.8826317873
 20
3.5119735559
 30
0.0
 10
6.8881103661
 20
3.512588135
 30
0.0
 10
6.8939298366
 20
3.5132031082
 30
0.0
 10
6.9000396872
 20
3.5138184206
 30
0.0
 10
6.9086105453
 20
3.5146495384
 30
0.0
 10
6.9196376559
 20
3.5156745076
 30
0.0
 10
6.9307776298
 20
3.51669001
 30
0.0
 10
6.9397069891
 20
3.5175128843
 30
0.0
 10
6.9462818591
 20
3.518128612
 30
0.0
 10
6.9526922264
 20
3.5187441886
 30
0.0
 10
6.958882409
 20
3.5193595667
 30
0.0
 10
6.9647986349
 20
3.5199746655
 30
0.0
 10
6.9703895066
 20
3.5205893641
 30
0.0
 10
6.975606533
 20
3.5212035488
 30
0.0
 10
6.9804043904
 20
3.5218169915
 30
0.0
 10
6.9841195551
 20
3.5223414928
 30
0.0
 10
6.9868502512
 20
3.5227650037
 30
0.0
 10
6.9887085838
 20
3.5230732369
 30
0.0
 10
6.9904335654
 20
3.523381332
 30
0.0
 10
6.9920215855
 20
3.52368922
 30
0.0
 10
6.9934692299
 20
3.5239968293
 30
0.0
 10
6.9947733045
 20
3.5243041646
 30
0.0
 10
6.99593113
 20
3.5246111318
 30
0.0
 10
6.996940448
 20
3.5249175808
 30
0.0
 10
6.9976845679
 20
3.5251821975
 30
0.0
 10
6.9982019669
 20
3.5253966915
 30
0.0
 10
6.9985351139
 20
3.525550751
 30
0.0
 10
6.9988297368
 20
3.5257047624
 30
0.0
 10
6.9990858026
 20
3.525858764
 30
0.0
 10
6.9993033251
 20
3.5260128304
 30
0.0
 10
6.9994823403
 20
3.52616714
 30
0.0
 10
6.9996228488
 20
3.5263220257
 30
0.0
 10
6.9997246182
 20
3.5264781087
 30
0.0
 10
6.9997868
 20
3.5266358871
 30
0.0
 10
6.9998009283
 20
3.5267434649
 30
0.0
 10
6.999800907
 20
3.5267954224
 30
0.0
  0
SPLINE
  5
30E
100
AcDbEntity
  8
ALL_FEATURES
100
AcDbSpline
 62
7
  6
CONTINUOUS
 70
0
 71
3
 72
60
 73
56
 74
0
 42
0.0000001
 43
0.0000001
 44
0.0000000001
 40
0.0
 40
0.0
 40
0.0
 40
0.0
 40
0.0004107867
 40
0.0008332355
 40
0.0017519519
 40
0.0028249134
 40
0.0040938864
 40
0.0055839365
 40
0.0073102588
 40
0.0092823604
 40
0.0115063396
 40
0.0139856402
 40
0.0167219875
 40
0.0197162025
 40
0.0229684937
 40
0.0302458657
 40
0.0385490228
 40
0.047864795
 40
0.0581749443
 40
0.069460068
 40
0.0816989999
 40
0.0948650025
 40
0.1089294379
 40
0.1396353111
 40
0.1735497713
 40
0.2103778356
 40
0.2497930511
 40
0.2914493847
 40
0.3349770007
 40
0.3799931237
 40
0.4728857537
 40
0.566841047
 40
0.6131747822
 40
0.6585303246
 40
0.7025060027
 40
0.7447140679
 40
0.7847793402
 40
0.8223506939
 40
0.8570949729
 40
0.888710697
 40
0.9032566251
 40
0.9169202184
 40
0.9296724264
 40
0.9414848122
 40
0.9523335889
 40
0.9621986235
 40
0.9710607182
 40
0.9789030553
 40
0.9857166513
 40
0.988736631
 40
0.9914986767
 40
0.9940035173
 40
0.9962527511
 40
0.9982496327
 40
1.0
 40
1.0
 40
1.0
 40
1.0
 10
6.8323509317
 20
3.4877296495
 30
0.0
 10
6.8323509317
 20
3.4877558034
 30
0.0
 10
6.8323555072
 20
3.4878089582
 30
0.0
 10
6.8323834504
 20
3.4879174019
 30
0.0
 10
6.8324565303
 20
3.488055023
 30
0.0
 10
6.8325939818
 20
3.4882121345
 30
0.0
 10
6.832782593
 20
3.4883680871
 30
0.0
 10
6.8330226433
 20
3.4885235975
 30
0.0
 10
6.8333144204
 20
3.4886791154
 30
0.0
 10
6.8336581003
 20
3.4888347212
 30
0.0
 10
6.8340537133
 20
3.4889904131
 30
0.0
 10
6.8345011324
 20
3.489146199
 30
0.0
 10
6.8350001296
 20
3.4893020786
 30
0.0
 10
6.8355504292
 20
3.4894580467
 30
0.0
 10
6.8363839307
 20
3.489674281
 30
0.0
 10
6.8375530561
 20
3.4899415652
 30
0.0
 10
6.8391075749
 20
3.490252079
 30
0.0
 10
6.8408584686
 20
3.49056305
 30
0.0
 10
6.842801791
 20
3.4908744384
 30
0.0
 10
6.8449333322
 20
3.4911861043
 30
0.0
 10
6.8472484459
 20
3.4914979141
 30
0.0
 10
6.8497419638
 20
3.4918099056
 30
0.0
 10
6.8534056617
 20
3.4922387465
 30
0.0
 10
6.8583872786
 20
3.4927695806
 30
0.0
 10
6.8648164252
 20
3.4933905838
 30
0.0
 10
6.8718023776
 20
3.4940122391
 30
0.0
 10
6.8792829834
 20
3.4946345159
 30
0.0
 10
6.887191492
 20
3.4952571218
 30
0.0
 10
6.8954576197
 20
3.4958800688
 30
0.0
 10
6.9069787376
 20
3.49671965
 30
0.0
 10
6.9217046777
 20
3.4977550293
 30
0.0
 10
6.9365150768
 20
3.498784989
 30
0.0
 10
6.9483051424
 20
3.4996198972
 30
0.0
 10
6.9569201319
 20
3.5002430626
 30
0.0
 10
6.9652717583
 20
3.5008660606
 30
0.0
 10
6.9732856207
 20
3.5014887539
 30
0.0
 10
6.9808904736
 20
3.5021111386
 30
0.0
 10
6.9880184996
 20
3.5027329346
 30
0.0
 10
6.9946064193
 20
3.5033541688
 30
0.0
 10
6.9997302585
 20
3.5038845776
 30
0.0
 10
7.0035150784
 20
3.5043128273
 30
0.0
 10
7.0061043108
 20
3.5046249028
 30
0.0
 10
7.0085181846
 20
3.5049368026
 30
0.0
 10
7.0107512657
 20
3.5052485667
 30
0.0
 10
7.012798632
 20
3.5055601236
 30
0.0
 10
7.0146558532
 20
3.5058713489
 30
0.0
 10
7.0163188206
 20
3.5061820984
 30
0.0
 10
7.0177838204
 20
3.5064923923
 30
0.0
 10
7.0188772494
 20
3.5067599582
 30
0.0
 10
7.0196494021
 20
3.5069767488
 30
0.0
 10
7.020153525
 20
3.5071326535
 30
0.0
 10
7.0206060869
 20
3.507288453
 30
0.0
 10
7.0210068629
 20
3.5074441648
 30
0.0
 10
7.021355672
 20
3.5075997807
 30
0.0
 10
7.0215672495
 20
3.5077105928
 30
0.0
 10
7.0216635719
 20
3.5077666405
 30
0.0
  0
SPLINE
  5
30F
100
AcDbEntity
  8
ALL_FEATURES
100
AcDbSpline
 62
7
  6
CONTINUOUS
 70
0
 71
3
 72
60
 73
56
 74
0
 42
0.0000001
 43
0.0000001
 44
0.0000000001
 40
0.0
 40
0.0
 40
0.0
 40
0.0
 40
0.0004107867
 40
0.000833236
 40
0.001751955
 40
0.00282492
 40
0.0040938957
 40
0.0055839451
 40
0.0073102611
 40
0.0092823485
 40
0.0115063031
 40
0.0139855684
 40
0.0167218726
 40
0.0197160403
 40
0.0229682834
 40
0.0302455711
 40
0.0385486562
 40
0.0478643128
 40
0.0581743419
 40
0.0694593881
 40
0.0816982561
 40
0.0948641645
 40
0.1089285274
 40
0.1396343883
 40
0.1735488599
 40
0.2103770938
 40
0.2497925831
 40
0.2914493752
 40
0.3349773201
 40
0.3799934568
 40
0.4728859597
 40
0.566841209
 40
0.6131749013
 40
0.6585304118
 40
0.7025061111
 40
0.744714282
 40
0.7847797371
 40
0.8223512045
 40
0.8570953492
 40
0.8887108693
 40
0.9032567511
 40
0.9169203237
 40
0.9296725268
 40
0.9414849103
 40
0.9523336721
 40
0.9621986865
 40
0.9710607648
 40
0.9789030907
 40
0.9857166746
 40
0.9887366486
 40
0.9914986893
 40
0.994003526
 40
0.996252757
 40
0.9982496358
 40
1.0
 40
1.0
 40
1.0
 40
1.0
 10
6.8323509317
 20
3.5293996728
 30
0.0
 10
6.8323509317
 20
3.5294258267
 30
0.0
 10
6.8323555073
 20
3.5294789816
 30
0.0
 10
6.8323834509
 20
3.5295874254
 30
0.0
 10
6.8324565316
 20
3.5297250465
 30
0.0
 10
6.832593984
 20
3.529882158
 30
0.0
 10
6.8327825956
 20
3.5300381106
 30
0.0
 10
6.8330226457
 20
3.5301936208
 30
0.0
 10
6.8333144215
 20
3.5303491383
 30
0.0
 10
6.8336580986
 20
3.5305047433
 30
0.0
 10
6.8340537069
 20
3.5306604341
 30
0.0
 10
6.8345011195
 20
3.5308162187
 30
0.0
 10
6.8350001089
 20
3.5309720967
 30
0.0
 10
6.8355503998
 20
3.531128063
 30
0.0
 10
6.8363838901
 20
3.531344295
 30
0.0
 10
6.8375530029
 20
3.5316115764
 30
0.0
 10
6.8391075046
 20
3.5319220866
 30
0.0
 10
6.8408583786
 20
3.5322330569
 30
0.0
 10
6.8428016809
 20
3.5325444446
 30
0.0
 10
6.8449332055
 20
3.5328561087
 30
0.0
 10
6.8472483042
 20
3.5331679168
 30
0.0
 10
6.8497418074
 20
3.5334799084
 30
0.0
 10
6.8534054937
 20
3.5339087499
 30
0.0
 10
6.8583871059
 20
3.5344395832
 30
0.0
 10
6.864816263
 20
3.5350605903
 30
0.0
 10
6.8718022443
 20
3.5356822474
 30
0.0
 10
6.8792829072
 20
3.5363045301
 30
0.0
 10
6.8871914832
 20
3.5369271403
 30
0.0
 10
6.8954576617
 20
3.5375500911
 30
0.0
 10
6.9069787934
 20
3.5383896726
 30
0.0
 10
6.9217047235
 20
3.5394250501
 30
0.0
 10
6.9365151091
 20
3.5404550082
 30
0.0
 10
6.9483051672
 20
3.5412899152
 30
0.0
 10
6.9569201533
 20
3.5419130799
 30
0.0
 10
6.9652717857
 20
3.5425360778
 30
0.0
 10
6.9732856678
 20
3.5431587721
 30
0.0
 10
6.9808905462
 20
3.5437811592
 30
0.0
 10
6.9880185826
 20
3.5444029556
 30
0.0
 10
6.994606488
 20
3.545024188
 30
0.0
 10
6.9997303028
 20
3.5455545948
 30
0.0
 10
7.0035151056
 20
3.5459828426
 30
0.0
 10
7.0061043334
 20
3.5462949175
 30
0.0
 10
7.0085182054
 20
3.5466068168
 30
0.0
 10
7.0107512852
 20
3.5469185803
 30
0.0
 10
7.0127986492
 20
3.5472301368
 30
0.0
 10
7.0146558671
 20
3.5475413618
 30
0.0
 10
7.0163188315
 20
3.5478521107
 30
0.0
 10
7.0177838288
 20
3.548162404
 30
0.0
 10
7.018877256
 20
3.5484299695
 30
0.0
 10
7.0196494074
 20
3.5486467597
 30
0.0
 10
7.0201535294
 20
3.548802664
 30
0.0
 10
7.0206060906
 20
3.5489584632
 30
0.0
 10
7.0210068661
 20
3.5491141746
 30
0.0
 10
7.0213556748
 20
3.5492697902
 30
0.0
 10
7.0215672519
 20
3.5493806021
 30
0.0
 10
7.0216635741
 20
3.5494366497
 30
0.0
  0
SPLINE
  5
310
100
AcDbEntity
  8
ALL_FEATURES
100
AcDbSpline
 62
7
  6
CONTINUOUS
 70
0
 71
3
 72
60
 73
56
 74
0
 42
0.0000001
 43
0.0000001
 44
0.0000000001
 40
0.0
 40
0.0
 40
0.0
 40
0.0
 40
0.0017502028
 40
0.0037473156
 40
0.0059965204
 40
0.0085008841
 40
0.0112621863
 40
0.0142813546
 40
0.0210939532
 40
0.0289366809
 40
0.0377977859
 40
0.0476611529
 40
0.0585093203
 40
0.0703221553
 40
0.0830736483
 40
0.0967364081
 40
0.1112826839
 40
0.1428983068
 40
0.1776429259
 40
0.2152144312
 40
0.2552805804
 40
0.2974887934
 40
0.3414654337
 40
0.3868214366
 40
0.4331551099
 40
0.5271077854
 40
0.6199998751
 40
0.6650171603
 40
0.7085461493
 40
0.7502031572
 40
0.7896185783
 40
0.8264461455
 40
0.8603610894
 40
0.8910672983
 40
0.9051323827
 40
0.9182990729
 40
0.9305382701
 40
0.941823579
 40
0.9521340205
 40
0.9614499562
 40
0.9697530069
 40
0.9770305333
 40
0.9802829824
 40
0.9832773648
 40
0.9860138567
 40
0.9884932478
 40
0.990717247
 40
0.9926893924
 40
0.9944157925
 40
0.9959059357
 40
0.9971749982
 40
0.9982480264
 40
0.9991667721
 40
0.9995892208
 40
1.0
 40
1.0
 40
1.0
 40
1.0
 10
7.0216639608
 20
3.6327766336
 30
0.0
 10
7.0215676414
 20
3.6327206013
 30
0.0
 10
7.0213560345
 20
3.6326098328
 30
0.0
 10
7.0210071782
 20
3.6324543168
 30
0.0
 10
7.0206064024
 20
3.6322986541
 30
0.0
 10
7.0201539177
 20
3.6321428738
 30
0.0
 10
7.0196499277
 20
3.6319869746
 30
0.0
 10
7.0188779475
 20
3.6317701657
 30
0.0
 10
7.0177846195
 20
3.6315025551
 30
0.0
 10
7.016319712
 20
3.6311923031
 30
0.0
 10
7.0146568952
 20
3.630881521
 30
0.0
 10
7.0127998839
 20
3.6305702797
 30
0.0
 10
7.0107526291
 20
3.630258739
 30
0.0
 10
7.0085195945
 20
3.6299470176
 30
0.0
 10
7.0061057906
 20
3.6296350926
 30
0.0
 10
7.0035166338
 20
3.629322991
 30
0.0
 10
6.9997318438
 20
3.6288947525
 30
0.0
 10
6.9946079621
 20
3.6283643067
 30
0.0
 10
6.988020006
 20
3.6277430747
 30
0.0
 10
6.9808918832
 20
3.6271212459
 30
0.0
 10
6.9732869422
 20
3.626498862
 30
0.0
 10
6.9652729417
 20
3.6258761386
 30
0.0
 10
6.9569212008
 20
3.6252531416
 30
0.0
 10
6.9483061111
 20
3.624629958
 30
0.0
 10
6.9365161661
 20
3.6237950634
 30
0.0
 10
6.9217059468
 20
3.6227651119
 30
0.0
 10
6.9069801083
 20
3.6217297436
 30
0.0
 10
6.8954588442
 20
3.6208901533
 30
0.0
 10
6.8871924983
 20
3.6202671962
 30
0.0
 10
6.8792838336
 20
3.6196445751
 30
0.0
 10
6.8718031896
 20
3.6190223102
 30
0.0
 10
6.8648172142
 20
3.6184006428
 30
0.0
 10
6.8583880337
 20
3.6177796622
 30
0.0
 10
6.8534063165
 20
3.6172488079
 30
0.0
 10
6.8497425056
 20
3.6168199634
 30
0.0
 10
6.8472488808
 20
3.6165079699
 30
0.0
 10
6.8449336918
 20
3.6161961469
 30
0.0
 10
6.8428021001
 20
3.6158844744
 30
0.0
 10
6.8408587325
 20
3.61557309
 30
0.0
 10
6.8391078115
 20
3.6152621275
 30
0.0
 10
6.8375532777
 20
3.6149516068
 30
0.0
 10
6.836384136
 20
3.614684326
 30
0.0
 10
6.8355506013
 20
3.6144680922
 30
0.0
 10
6.8350002703
 20
3.6143121216
 30
0.0
 10
6.8345012467
 20
3.6141562377
 30
0.0
 10
6.8340538113
 20
3.6140004464
 30
0.0
 10
6.8336581922
 20
3.6138447411
 30
0.0
 10
6.8333145059
 20
3.6136891263
 30
0.0
 10
6.8330227164
 20
3.6135336015
 30
0.0
 10
6.8327826493
 20
3.6133780862
 30
0.0
 10
6.8325940197
 20
3.6132221305
 30
0.0
 10
6.8324565505
 20
3.6130650186
 30
0.0
 10
6.8323834573
 20
3.6129273971
 30
0.0
 10
6.8323555083
 20
3.6128189532
 30
0.0
 10
6.8323509317
 20
3.6127657987
 30
0.0
 10
6.8323509317
 20
3.6127396452
 30
0.0
  0
SPLINE
  5
311
100
AcDbEntity
  8
ALL_FEATURES
100
AcDbSpline
 62
7
  6
CONTINUOUS
 70
0
 71
3
 72
60
 73
56
 74
0
 42
0.0000001
 43
0.0000001
 44
0.0000000001
 40
0.0
 40
0.0
 40
0.0
 40
0.0
 40
0.0004107869
 40
0.0008332387
 40
0.0017519732
 40
0.0028249711
 40
0.0040939971
 40
0.0055841126
 40
0.0073105088
 40
0.0092826887
 40
0.0115067613
 40
0.0139862131
 40
0.0167227549
 40
0.0197171872
 40
0.0229696978
 40
0.030247429
 40
0.0385508222
 40
0.0478670364
 40
0.0581776729
 40
0.069463109
 40
0.0817022641
 40
0.0948686242
 40
0.1089332895
 40
0.1396387278
 40
0.1735523899
 40
0.2103790921
 40
0.2497933502
 40
0.2914495902
 40
0.3349774765
 40
0.3799936412
 40
0.4728861218
 40
0.5668413043
 40
0.6131749289
 40
0.6585303458
 40
0.7025060526
 40
0.7447146354
 40
0.7847812186
 40
0.8223542201
 40
0.8570993939
 40
0.8887154384
 40
0.9032612229
 40
0.9169243718
 40
0.9296761516
 40
0.9414882824
 40
0.9523365161
 40
0.9622009044
 40
0.9710625332
 40
0.9789045452
 40
0.985717627
 40
0.9887373387
 40
0.9914991431
 40
0.9940037937
 40
0.9962529097
 40
0.9982497055
 40
1.0
 40
1.0
 40
1.0
 40
1.0
 10
7.0223509317
 20
3.5554461424
 30
0.0
 10
7.0223509317
 20
3.5554199885
 30
0.0
 10
7.0223463558
 20
3.5553668334
 30
0.0
 10
7.0223184102
 20
3.5552583889
 30
0.0
 10
7.0222453246
 20
3.5551207665
 30
0.0
 10
7.0221078643
 20
3.5549636536
 30
0.0
 10
7.0219192425
 20
3.5548076984
 30
0.0
 10
7.0216791801
 20
3.5546521843
 30
0.0
 10
7.02138739
 20
3.5544966614
 30
0.0
 10
7.0210436959
 20
3.5543410489
 30
0.0
 10
7.0206480644
 20
3.5541853479
 30
0.0
 10
7.0202006177
 20
3.554029556
 30
0.0
 10
7.0197015848
 20
3.5538736703
 30
0.0
 10
7.0191512449
 20
3.5537176966
 30
0.0
 10
7.0183176925
 20
3.5535014567
 30
0.0
 10
7.0171485152
 20
3.5532341666
 30
0.0
 10
7.0155939314
 20
3.5529236409
 30
0.0
 10
7.0138429619
 20
3.5526126707
 30
0.0
 10
7.0118995594
 20
3.5523012821
 30
0.0
 10
7.009767953
 20
3.5519896113
 30
0.0
 10
7.0074527827
 20
3.5516777951
 30
0.0
 10
7.0049592121
 20
3.5513658069
 30
0.0
 10
7.0012955033
 20
3.5509369748
 30
0.0
 10
6.9963139497
 20
3.5504061463
 30
0.0
 10
6.9898849658
 20
3.5497851722
 30
0.0
 10
6.9828992109
 20
3.5491635325
 30
0.0
 10
6.9754187574
 20
3.5485412723
 30
0.0
 10
6.9675102978
 20
3.5479186713
 30
0.0
 10
6.9592441557
 20
3.5472957233
 30
0.0
 10
6.9477230267
 20
3.5464561425
 30
0.0
 10
6.9329970994
 20
3.5454207657
 30
0.0
 10
6.9181867228
 20
3.5443908085
 30
0.0
 10
6.9063966784
 20
3.5435559029
 30
0.0
 10
6.8977817015
 20
3.5429327388
 30
0.0
 10
6.8894300478
 20
3.5423097399
 30
0.0
 10
6.8814160669
 20
3.5416870384
 30
0.0
 10
6.8738109932
 20
3.5410646324
 30
0.0
 10
6.8666827222
 20
3.5404428162
 30
0.0
 10
6.8600946215
 20
3.5398215563
 30
0.0
 10
6.8549707145
 20
3.5392911359
 30
0.0
 10
6.8511859119
 20
3.5388628828
 30
0.0
 10
6.8485967448
 20
3.5385508047
 30
0.0
 10
6.8461829432
 20
3.5382389051
 30
0.0
 10
6.8439499389
 20
3.5379271548
 30
0.0
 10
6.841902665
 20
3.5376156007
 30
0.0
 10
6.8400455502
 20
3.537304377
 30
0.0
 10
6.8383826747
 20
3.5369936337
 30
0.0
 10
6.8369177558
 20
3.5366833589
 30
0.0
 10
6.835824397
 20
3.5364158018
 30
0.0
 10
6.835052309
 20
3.5361990215
 30
0.0
 10
6.83454823
 20
3.5360431254
 30
0.0
 10
6.8340957024
 20
3.5358873339
 30
0.0
 10
6.8336949491
 20
3.535731633
 30
0.0
 10
6.8333461554
 20
3.5355760257
 30
0.0
 10
6.8331345869
 20
3.535465218
 30
0.0
 10
6.8330382687
 20
3.5354091724
 30
0.0
  0
SPLINE
  5
312
100
AcDbEntity
  8
ALL_FEATURES
100
AcDbSpline
 62
7
  6
CONTINUOUS
 70
0
 71
3
 72
60
 73
56
 74
0
 42
0.0000001
 43
0.0000001
 44
0.0000000001
 40
0.0
 40
0.0
 40
0.0
 40
0.0
 40
0.0004107872
 40
0.000833239
 40
0.0017519731
 40
0.0028249698
 40
0.0040939938
 40
0.005584107
 40
0.0073105007
 40
0.0092826782
 40
0.0115067484
 40
0.013986196
 40
0.0167227321
 40
0.0197171576
 40
0.0229696609
 40
0.0302473781
 40
0.0385507582
 40
0.0478669496
 40
0.0581775615
 40
0.0694629821
 40
0.0817021285
 40
0.0948684667
 40
0.1089330939
 40
0.1396383818
 40
0.1735518998
 40
0.2103787448
 40
0.2497932454
 40
0.2914496254
 40
0.3349775324
 40
0.3799936589
 40
0.4728860018
 40
0.5668410229
 40
0.6131745311
 40
0.6585299223
 40
0.7025058991
 40
0.7447149539
 40
0.7847818508
 40
0.8223549917
 40
0.8571002087
 40
0.888716238
 40
0.9032619872
 40
0.9169250552
 40
0.9296767528
 40
0.941488828
 40
0.9523369678
 40
0.9622012443
 40
0.9710627826
 40
0.9789047341
 40
0.9857177464
 40
0.9887374242
 40
0.9914991979
 40
0.994003823
 40
0.9962529208
 40
0.9982497073
 40
1.0
 40
1.0
 40
1.0
 40
1.0
 10
7.0223509317
 20
3.5971161605
 30
0.0
 10
7.0223509317
 20
3.5970900065
 30
0.0
 10
7.0223463558
 20
3.5970368514
 30
0.0
 10
7.0223184103
 20
3.5969284069
 30
0.0
 10
7.022245325
 20
3.5967907845
 30
0.0
 10
7.0221078651
 20
3.5966336715
 30
0.0
 10
7.0219192438
 20
3.5964777163
 30
0.0
 10
7.0216791819
 20
3.5963222022
 30
0.0
 10
7.0213873923
 20
3.5961666794
 30
0.0
 10
7.0210436987
 20
3.5960110671
 30
0.0
 10
7.0206480677
 20
3.5958553663
 30
0.0
 10
7.0202006217
 20
3.5956995744
 30
0.0
 10
7.0197015899
 20
3.5955436888
 30
0.0
 10
7.0191512514
 20
3.5953877153
 30
0.0
 10
7.0183177008
 20
3.5951714754
 30
0.0
 10
7.0171485257
 20
3.5949041853
 30
0.0
 10
7.0155939451
 20
3.5945936598
 30
0.0
 10
7.0138429796
 20
3.5942826895
 30
0.0
 10
7.0118995812
 20
3.5939713008
 30
0.0
 10
7.0097679779
 20
3.59365963
 30
0.0
 10
7.0074528106
 20
3.5933478141
 30
0.0
 10
7.0049592444
 20
3.5930358259
 30
0.0
 10
7.001295549
 20
3.5926069944
 30
0.0
 10
6.9963140167
 20
3.592076167
 30
0.0
 10
6.9898850426
 20
3.5914551922
 30
0.0
 10
6.9828992724
 20
3.5908335513
 30
0.0
 10
6.9754187858
 20
3.5902112867
 30
0.0
 10
6.9675103006
 20
3.589588683
 30
0.0
 10
6.9592441509
 20
3.588965734
 30
0.0
 10
6.9477230318
 20
3.588126153
 30
0.0
 10
6.9329971261
 20
3.5870907766
 30
0.0
 10
6.9181867761
 20
3.5860608201
 30
0.0
 10
6.9063967511
 20
3.585225915
 30
0.0
 10
6.8977817661
 20
3.5846027501
 30
0.0
 10
6.8894300671
 20
3.5839797465
 30
0.0
 10
6.8814160193
 20
3.5833570394
 30
0.0
 10
6.8738108871
 20
3.5827346274
 30
0.0
 10
6.8666825847
 20
3.582112807
 30
0.0
 10
6.8600944736
 20
3.5814915439
 30
0.0
 10
6.8549705674
 20
3.5809611217
 30
0.0
 10
6.8511857732
 20
3.5805328681
 30
0.0
 10
6.8485966189
 20
3.5802207896
 30
0.0
 10
6.8461828315
 20
3.5799088898
 30
0.0
 10
6.8439498418
 20
3.5795971413
 30
0.0
 10
6.8419025846
 20
3.5792855878
 30
0.0
 10
6.8400454889
 20
3.5789743646
 30
0.0
 10
6.8383826302
 20
3.5786636224
 30
0.0
 10
6.836917725
 20
3.5783533506
 30
0.0
 10
6.8358243766
 20
3.5780857954
 30
0.0
 10
6.835052297
 20
3.5778690167
 30
0.0
 10
6.8345482237
 20
3.5777131215
 30
0.0
 10
6.8340957009
 20
3.5775573308
 30
0.0
 10
6.833694951
 20
3.5774016302
 30
0.0
 10
6.8333461593
 20
3.577246023
 30
0.0
 10
6.8331345916
 20
3.5771352154
 30
0.0
 10
6.8330382735
 20
3.5770791698
 30
0.0
  0
SPLINE
  5
313
100
AcDbEntity
  8
ALL_FEATURES
100
AcDbSpline
 62
7
  6
CONTINUOUS
 70
0
 71
3
 72
43
 73
39
 74
0
 42
0.0000001
 43
0.0000001
 44
0.0000000001
 40
0.0
 40
0.0
 40
0.0
 40
0.0
 40
0.0307689008
 40
0.0636721885
 40
0.0985051632
 40
0.1350677962
 40
0.2126000919
 40
0.2946044881
 40
0.3792802284
 40
0.4647754824
 40
0.5492184334
 40
0.6307616926
 40
0.6698854895
 40
0.7076239153
 40
0.7437694889
 40
0.7781289747
 40
0.8105129006
 40
0.840748723
 40
0.8686759196
 40
0.8941433945
 40
0.9170249014
 40
0.9372030593
 40
0.9462487981
 40
0.9545872948
 40
0.9622111049
 40
0.9691140914
 40
0.9752929996
 40
0.9807508993
 40
0.9854962804
 40
0.9895455378
 40
0.9913186723
 40
0.9929312343
 40
0.9943915633
 40
0.9957114931
 40
0.9969072312
 40
0.9980005526
 40
0.9990198491
 40
1.0
 40
1.0
 40
1.0
 40
1.0
 10
6.8749417093
 20
3.3026646564
 30
0.0
 10
6.8762271817
 20
3.3028350836
 30
0.0
 10
6.8788891506
 20
3.3031738435
 30
0.0
 10
6.8830114374
 20
3.3036648128
 30
0.0
 10
6.8873794812
 20
3.30415611
 30
0.0
 10
6.8936202296
 20
3.3048243412
 30
0.0
 10
6.901843268
 20
3.3056507748
 30
0.0
 10
6.9120890878
 20
3.3066254906
 30
0.0
 10
6.9226718927
 20
3.3076008322
 30
0.0
 10
6.9333578725
 20
3.3085763842
 30
0.0
 10
6.9439113068
 20
3.3095517145
 30
0.0
 10
6.9525162019
 20
3.3103747394
 30
0.0
 10
6.9591588734
 20
3.311039311
 30
0.0
 10
6.9638960531
 20
3.3115307226
 30
0.0
 10
6.9684313381
 20
3.3120220308
 30
0.0
 10
6.9727396123
 20
3.3125130792
 30
0.0
 10
6.9767971507
 20
3.3130039301
 30
0.0
 10
6.9805815487
 20
3.3134944571
 30
0.0
 10
6.9840719109
 20
3.3139844857
 30
0.0
 10
6.9872491173
 20
3.3144740436
 30
0.0
 10
6.9900956287
 20
3.3149627402
 30
0.0
 10
6.9922512889
 20
3.3153829115
 30
0.0
 10
6.9937974088
 20
3.3157230764
 30
0.0
 10
6.9948224072
 20
3.3159686626
 30
0.0
 10
6.9957543692
 20
3.3162140545
 30
0.0
 10
6.9965919789
 20
3.3164592277
 30
0.0
 10
6.9973341118
 20
3.3167042007
 30
0.0
 10
6.9979800327
 20
3.3169488624
 30
0.0
 10
6.998529141
 20
3.3171931834
 30
0.0
 10
6.9989218008
 20
3.3174049072
 30
0.0
 10
6.9991841708
 20
3.3175765391
 30
0.0
 10
6.9993474156
 20
3.3176995654
 30
0.0
 10
6.999485968
 20
3.317822719
 30
0.0
 10
6.9995998129
 20
3.3179461244
 30
0.0
 10
6.9996889085
 20
3.3180699479
 30
0.0
 10
6.9997530752
 20
3.3181944226
 30
0.0
 10
6.9997919299
 20
3.3183195943
 30
0.0
 10
6.9998006897
 20
3.3184040859
 30
0.0
 10
6.9998006996
 20
3.3184453933
 30
0.0
  0
SPLINE
  5
314
100
AcDbEntity
  8
ALL_FEATURES
100
AcDbSpline
 62
7
  6
CONTINUOUS
 70
0
 71
3
 72
57
 73
53
 74
0
 42
0.0000001
 43
0.0000001
 44
0.0000000001
 40
0.0
 40
0.0
 40
0.0
 40
0.0
 40
0.0022136992
 40
0.0046632831
 40
0.0073531235
 40
0.010286217
 40
0.0168888773
 40
0.024476475
 40
0.0286379651
 40
0.0330429503
 40
0.0425775973
 40
0.0530679475
 40
0.064496148
 40
0.0768389144
 40
0.0900719593
 40
0.1191058957
 40
0.1513578108
 40
0.1865591903
 40
0.2244106935
 40
0.2645902786
 40
0.306753657
 40
0.3505387978
 40
0.4414575651
 40
0.5342215722
 40
0.5802979953
 40
0.6256399497
 40
0.6698574082
 40
0.7125697966
 40
0.7534100377
 40
0.7920287198
 40
0.8280950182
 40
0.8613042388
 40
0.8913749411
 40
0.9051561454
 40
0.9180613021
 40
0.9300650338
 40
0.9411461479
 40
0.9512844098
 40
0.9604609307
 40
0.9686625083
 40
0.975883052
 40
0.9821212253
 40
0.9848740003
 40
0.9873848583
 40
0.9896578506
 40
0.9916991777
 40
0.9935177157
 40
0.9951263735
 40
0.9965441925
 40
0.9977993709
 40
0.9989328025
 40
1.0
 40
1.0
 40
1.0
 40
1.0
 10
6.8557949415
 20
3.4653332086
 30
0.0
 10
6.8558879917
 20
3.4653875924
 30
0.0
 10
6.8560878462
 20
3.4654956345
 30
0.0
 10
6.8564111377
 20
3.4656496639
 30
0.0
 10
6.8567727979
 20
3.4658037637
 30
0.0
 10
6.8573282925
 20
3.4660178394
 30
0.0
 10
6.8581193672
 20
3.466282211
 30
0.0
 10
6.8589781367
 20
3.4665294914
 30
0.0
 10
6.8597388563
 20
3.4667292418
 30
0.0
 10
6.8605944232
 20
3.4669406866
 30
0.0
 10
6.8617545753
 20
3.4672034074
 30
0.0
 10
6.8632547595
 20
3.4675111587
 30
0.0
 10
6.8648942213
 20
3.4678190813
 30
0.0
 10
6.8666693171
 20
3.4681272233
 30
0.0
 10
6.8692940498
 20
3.4685515151
 30
0.0
 10
6.8728841499
 20
3.4690763713
 30
0.0
 10
6.877541682
 20
3.4696896026
 30
0.0
 10
6.8826317927
 20
3.4703035384
 30
0.0
 10
6.8881103678
 20
3.4709181131
 30
0.0
 10
6.8939298414
 20
3.4715330907
 30
0.0
 10
6.9000396891
 20
3.4721484003
 30
0.0
 10
6.908610548
 20
3.4729795212
 30
0.0
 10
6.9196376573
 20
3.4740044897
 30
0.0
 10
6.9307776313
 20
3.4750199925
 30
0.0
 10
6.9397069916
 20
3.4758428685
 30
0.0
 10
6.94628186
 20
3.4764585951
 30
0.0
 10
6.9526922292
 20
3.4770741745
 30
0.0
 10
6.9588824091
 20
3.4776895502
 30
0.0
 10
6.9647986379
 20
3.4783046531
 30
0.0
 10
6.9703895061
 20
3.4789193478
 30
0.0
 10
6.9756065361
 20
3.4795335382
 30
0.0
 10
6.9804043895
 20
3.4801469761
 30
0.0
 10
6.9841195536
 20
3.4806714811
 30
0.0
 10
6.9868502495
 20
3.4810949935
 30
0.0
 10
6.9887085865
 20
3.4814032235
 30
0.0
 10
6.9904335678
 20
3.4817113201
 30
0.0
 10
6.992021582
 20
3.4820192097
 30
0.0
 10
6.993469227
 20
3.4823268215
 30
0.0
 10
6.9947733073
 20
3.4826341517
 30
0.0
 10
6.9959311334
 20
3.4829411203
 30
0.0
 10
6.9969404445
 20
3.483247572
 30
0.0
 10
6.9976845607
 20
3.4835121908
 30
0.0
 10
6.9982019649
 20
3.4837266833
 30
0.0
 10
6.99853512
 20
3.4838807404
 30
0.0
 10
6.9988297462
 20
3.4840347524
 30
0.0
 10
6.9990858098
 20
3.4841887546
 30
0.0
 10
6.9993033269
 20
3.4843428217
 30
0.0
 10
6.9994823357
 20
3.4844971321
 30
0.0
 10
6.9996228391
 20
3.4846520186
 30
0.0
 10
6.999724607
 20
3.4848081021
 30
0.0
 10
6.9997867933
 20
3.484965879
 30
0.0
 10
6.9998009324
 20
3.4850734567
 30
0.0
 10
6.9998009138
 20
3.4851254148
 30
0.0
  0
SPLINE
  5
315
100
AcDbEntity
  8
ALL_FEATURES
100
AcDbSpline
 62
7
  6
CONTINUOUS
 70
0
 71
3
 72
60
 73
56
 74
0
 42
0.0000001
 43
0.0000001
 44
0.0000000001
 40
0.0
 40
0.0
 40
0.0
 40
0.0
 40
0.0004107862
 40
0.0008332352
 40
0.0017519539
 40
0.0028249191
 40
0.004093895
 40
0.0055839443
 40
0.0073102593
 40
0.0092823445
 40
0.0115062954
 40
0.0139855554
 40
0.0167218536
 40
0.0197160146
 40
0.022968251
 40
0.0302455266
 40
0.0385486006
 40
0.0478642405
 40
0.0581742521
 40
0.0694592867
 40
0.0816981445
 40
0.0948640386
 40
0.1089283905
 40
0.139634248
 40
0.1735487189
 40
0.2103769723
 40
0.2497924997
 40
0.2914493656
 40
0.3349773655
 40
0.3799935034
 40
0.472885981
 40
0.5668412189
 40
0.6131749029
 40
0.6585304068
 40
0.7025061056
 40
0.7447142904
 40
0.7847797785
 40
0.8223512715
 40
0.8570953982
 40
0.8887108866
 40
0.9032567611
 40
0.9169203305
 40
0.9296725332
 40
0.9414849171
 40
0.9523336771
 40
0.9621986888
 40
0.9710607653
 40
0.9789030906
 40
0.9857166737
 40
0.9887366474
 40
0.991498688
 40
0.9940035248
 40
0.9962527562
 40
0.9982496355
 40
1.0
 40
1.0
 40
1.0
 40
1.0
 10
6.8323509317
 20
3.5710696498
 30
0.0
 10
6.8323509317
 20
3.5710958037
 30
0.0
 10
6.8323555073
 20
3.5711489585
 30
0.0
 10
6.832383451
 20
3.5712574022
 30
0.0
 10
6.8324565319
 20
3.5713950232
 30
0.0
 10
6.8325939845
 20
3.5715521345
 30
0.0
 10
6.8327825963
 20
3.5717080869
 30
0.0
 10
6.8330226464
 20
3.5718635969
 30
0.0
 10
6.833314422
 20
3.5720191142
 30
0.0
 10
6.8336580988
 20
3.572174719
 30
0.0
 10
6.8340537064
 20
3.5723304095
 30
0.0
 10
6.8345011182
 20
3.5724861938
 30
0.0
 10
6.8350001064
 20
3.5726420713
 30
0.0
 10
6.8355503962
 20
3.5727980372
 30
0.0
 10
6.836383885
 20
3.5730142687
 30
0.0
 10
6.8375529959
 20
3.5732815493
 30
0.0
 10
6.8391074952
 20
3.5735920588
 30
0.0
 10
6.8408583663
 20
3.5739030286
 30
0.0
 10
6.8428016657
 20
3.5742144159
 30
0.0
 10
6.8449331879
 20
3.5745260794
 30
0.0
 10
6.8472482843
 20
3.574837887
 30
0.0
 10
6.8497417852
 20
3.5751498783
 30
0.0
 10
6.8534054696
 20
3.5755787195
 30
0.0
 10
6.8583870809
 20
3.5761095524
 30
0.0
 10
6.8648162388
 20
3.5767305594
 30
0.0
 10
6.8718022237
 20
3.5773522165
 30
0.0
 10
6.8792828949
 20
3.5779744995
 30
0.0
 10
6.8871914814
 20
3.5785971101
 30
0.0
 10
6.8954576681
 20
3.5792200613
 30
0.0
 10
6.9069788016
 20
3.5800596424
 30
0.0
 10
6.9217047294
 20
3.5810950193
 30
0.0
 10
6.9365151119
 20
3.5821249768
 30
0.0
 10
6.9483051682
 20
3.5829598834
 30
0.0
 10
6.9569201532
 20
3.5835830479
 30
0.0
 10
6.965271786
 20
3.5842060457
 30
0.0
 10
6.9732856709
 20
3.5848287402
 30
0.0
 10
6.9808905538
 20
3.5854511277
 30
0.0
 10
6.9880185927
 20
3.5860729243
 30
0.0
 10
6.9946064965
 20
3.5866941565
 30
0.0
 10
6.9997303076
 20
3.5872245632
 30
0.0
 10
7.0035151076
 20
3.5876528107
 30
0.0
 10
7.0061043347
 20
3.5879648856
 30
0.0
 10
7.0085182066
 20
3.588276785
 30
0.0
 10
7.0107512862
 20
3.5885885484
 30
0.0
 10
7.0127986498
 20
3.588900105
 30
0.0
 10
7.0146558674
 20
3.58921133
 30
0.0
 10
7.0163188314
 20
3.589522079
 30
0.0
 10
7.0177838285
 20
3.5898323722
 30
0.0
 10
7.0188772555
 20
3.5900999378
 30
0.0
 10
7.0196494068
 20
3.590316728
 30
0.0
 10
7.0201535288
 20
3.5904726324
 30
0.0
 10
7.02060609
 20
3.5906284317
 30
0.0
 10
7.0210068655
 20
3.590784143
 30
0.0
 10
7.0213556743
 20
3.5909397587
 30
0.0
 10
7.0215672515
 20
3.5910505706
 30
0.0
 10
7.0216635737
 20
3.5911066182
 30
0.0
  0
SPLINE
  5
316
100
AcDbEntity
  8
ALL_FEATURES
100
AcDbSpline
 62
7
  6
CONTINUOUS
 70
0
 71
3
 72
41
 73
37
 74
0
 42
0.0000001
 43
0.0000001
 44
0.0000000001
 40
0.0
 40
0.0
 40
0.0
 40
0.0
 40
0.0256364139
 40
0.0536314699
 40
0.0838128102
 40
0.1160096983
 40
0.1500512917
 40
0.1857515533
 40
0.2613218477
 40
0.3410441988
 40
0.4231505944
 40
0.5058149648
 40
0.587198125
 40
0.6654911476
 40
0.7029322865
 40
0.738958725
 40
0.7733687537
 40
0.8059740463
 40
0.83659263
 40
0.8650572723
 40
0.8912118872
 40
0.9149140802
 40
0.9360394286
 40
0.9455996059
 40
0.9544760634
 40
0.9626585262
 40
0.9701372165
 40
0.9769034768
 40
0.9800179191
 40
0.9829527801
 40
0.9882830296
 40
0.992895277
 40
0.9949338871
 40
0.9967957248
 40
0.9984831986
 40
1.0
 40
1.0
 40
1.0
 40
1.0
 10
6.8504776222
 20
3.3252146565
 30
0.0
 10
6.8519379097
 20
3.3253881641
 30
0.0
 10
6.8549951183
 20
3.3257320231
 30
0.0
 10
6.8597774891
 20
3.3262251581
 30
0.0
 10
6.8649379897
 20
3.3267186578
 30
0.0
 10
6.8704467787
 20
3.327212403
 30
0.0
 10
6.8762733202
 20
3.327706354
 30
0.0
 10
6.8845816474
 20
3.3283779948
 30
0.0
 10
6.8955059202
 20
3.3292087362
 30
0.0
 10
6.9090883202
 20
3.330188999
 30
0.0
 10
6.9230786256
 20
3.331169883
 30
0.0
 10
6.9371644164
 20
3.3321509173
 30
0.0
 10
6.9510309526
 20
3.3331316404
 30
0.0
 10
6.9623076729
 20
3.3339599478
 30
0.0
 10
6.9709872443
 20
3.3346290192
 30
0.0
 10
6.9771555821
 20
3.3351231816
 30
0.0
 10
6.983045611
 20
3.3356172149
 30
0.0
 10
6.9886243142
 20
3.3361109876
 30
0.0
 10
6.9938605917
 20
3.3366045121
 30
0.0
 10
6.9987251326
 20
3.3370976494
 30
0.0
 10
7.0031908088
 20
3.3375902442
 30
0.0
 10
7.007232758
 20
3.338082247
 30
0.0
 10
7.0103240699
 20
3.3385041593
 30
0.0
 10
7.012567685
 20
3.3388452951
 30
0.0
 10
7.0140745217
 20
3.3390924301
 30
0.0
 10
7.0154602723
 20
3.3393393887
 30
0.0
 10
7.0167229375
 20
3.3395861453
 30
0.0
 10
7.017696229
 20
3.339797004
 30
0.0
 10
7.0184115107
 20
3.3399667677
 30
0.0
 10
7.0190443797
 20
3.3401267406
 30
0.0
 10
7.0197561838
 20
3.3403247137
 30
0.0
 10
7.0204102278
 20
3.3405369077
 30
0.0
 10
7.0208673417
 20
3.3407088673
 30
0.0
 10
7.0211631901
 20
3.3408324461
 30
0.0
 10
7.021426336
 20
3.3409559806
 30
0.0
 10
7.0215884612
 20
3.3410428612
 30
0.0
 10
7.0216636636
 20
3.3410866199
 30
0.0
  0
SPLINE
  5
317
100
AcDbEntity
  8
ALL_FEATURES
100
AcDbSpline
 62
7
  6
CONTINUOUS
 70
0
 71
3
 72
60
 73
56
 74
0
 42
0.0000001
 43
0.0000001
 44
0.0000000001
 40
0.0
 40
0.0
 40
0.0
 40
0.0
 40
0.0004107866
 40
0.0008332382
 40
0.0017519731
 40
0.0028249723
 40
0.0040940002
 40
0.0055841181
 40
0.0073105165
 40
0.0092826983
 40
0.0115067727
 40
0.0139862278
 40
0.0167227744
 40
0.0197172128
 40
0.0229697301
 40
0.0302474757
 40
0.0385508855
 40
0.0478671267
 40
0.0581777882
 40
0.0694632327
 40
0.081702379
 40
0.0948687475
 40
0.1089334633
 40
0.1396392282
 40
0.1735532941
 40
0.2103799482
 40
0.2497939078
 40
0.2914498441
 40
0.3349775849
 40
0.3799937668
 40
0.4728863812
 40
0.5668416016
 40
0.6131753746
 40
0.6585308655
 40
0.7025061188
 40
0.7447138151
 40
0.7847796699
 40
0.822352205
 40
0.8570972156
 40
0.8887132768
 40
0.903259149
 40
0.9169225001
 40
0.9296744749
 40
0.9414867271
 40
0.9523351996
 40
0.9621998769
 40
0.9710617304
 40
0.9789039005
 40
0.9857172035
 40
0.9887370293
 40
0.991498938
 40
0.9940036744
 40
0.9962528497
 40
0.998249683
 40
1.0
 40
1.0
 40
1.0
 40
1.0
 10
7.0223509317
 20
3.3887661677
 30
0.0
 10
7.0223509317
 20
3.3887400138
 30
0.0
 10
7.0223463557
 20
3.3886868587
 30
0.0
 10
7.0223184101
 20
3.3885784142
 30
0.0
 10
7.0222453241
 20
3.3884407919
 30
0.0
 10
7.0221078634
 20
3.3882836791
 30
0.0
 10
7.0219192412
 20
3.3881277238
 30
0.0
 10
7.0216791783
 20
3.3879722097
 30
0.0
 10
7.0213873877
 20
3.3878166868
 30
0.0
 10
7.0210436933
 20
3.3876610742
 30
0.0
 10
7.0206480614
 20
3.387505373
 30
0.0
 10
7.020200614
 20
3.387349581
 30
0.0
 10
7.0197015802
 20
3.3871936952
 30
0.0
 10
7.0191512393
 20
3.3870377215
 30
0.0
 10
7.018317685
 20
3.3868214816
 30
0.0
 10
7.0171485053
 20
3.3865541914
 30
0.0
 10
7.0155939178
 20
3.3862436653
 30
0.0
 10
7.0138429439
 20
3.3859326952
 30
0.0
 10
7.0118995375
 20
3.3856213066
 30
0.0
 10
7.0097679295
 20
3.3853096358
 30
0.0
 10
7.0074527588
 20
3.3849978194
 30
0.0
 10
7.004959185
 20
3.3846858312
 30
0.0
 10
7.0012954517
 20
3.3842569969
 30
0.0
 10
6.9963138486
 20
3.383726165
 30
0.0
 10
6.9898848214
 20
3.3831051882
 30
0.0
 10
6.982899063
 20
3.3824835474
 30
0.0
 10
6.9754186506
 20
3.3818612931
 30
0.0
 10
6.9675102385
 20
3.3812386958
 30
0.0
 10
6.9592441239
 20
3.3806157501
 30
0.0
 10
6.9477229946
 20
3.3797761694
 30
0.0
 10
6.9329970555
 20
3.3787407918
 30
0.0
 10
6.9181866587
 20
3.3777108333
 30
0.0
 10
6.9063965979
 20
3.376875926
 30
0.0
 10
6.8977816358
 20
3.3762527624
 30
0.0
 10
6.8894300625
 20
3.3756297701
 30
0.0
 10
6.881416213
 20
3.3750070781
 30
0.0
 10
6.8738112714
 20
3.3743846842
 30
0.0
 10
6.8666830864
 20
3.3737628766
 30
0.0
 10
6.8600950243
 20
3.3731416239
 30
0.0
 10
6.8549711208
 20
3.3726112068
 30
0.0
 10
6.8511862986
 20
3.3721829537
 30
0.0
 10
6.8485971004
 20
3.3718708763
 30
0.0
 10
6.8461832655
 20
3.3715589765
 30
0.0
 10
6.8439502264
 20
3.3712472203
 30
0.0
 10
6.8419029109
 20
3.3709356646
 30
0.0
 10
6.8400457478
 20
3.3706244395
 30
0.0
 10
6.8383828294
 20
3.370313693
 30
0.0
 10
6.8369178731
 20
3.3700034089
 30
0.0
 10
6.8358244834
 20
3.3697358464
 30
0.0
 10
6.8350523678
 20
3.369519061
 30
0.0
 10
6.8345482696
 20
3.3693631611
 30
0.0
 10
6.8340957264
 20
3.3692073664
 30
0.0
 10
6.8336949618
 20
3.3690516622
 30
0.0
 10
6.8333461609
 20
3.3688960525
 30
0.0
 10
6.8331345888
 20
3.3687852435
 30
0.0
 10
6.8330382692
 20
3.3687291973
 30
0.0
  0
SPLINE
  5
318
100
AcDbEntity
  8
ALL_FEATURES
100
AcDbSpline
 62
7
  6
CONTINUOUS
 70
0
 71
3
 72
57
 73
53
 74
0
 42
0.0000001
 43
0.0000001
 44
0.0000000001
 40
0.0
 40
0.0
 40
0.0
 40
0.0
 40
0.002213736
 40
0.0046633574
 40
0.0073532202
 40
0.0102863049
 40
0.0168888462
 40
0.0244764488
 40
0.028637976
 40
0.0330430012
 40
0.0425776742
 40
0.0530679132
 40
0.0644961063
 40
0.0768389432
 40
0.0900720223
 40
0.1191058459
 40
0.1513578583
 40
0.1865591392
 40
0.224410725
 40
0.2645902327
 40
0.3067536729
 40
0.3505387626
 40
0.441457545
 40
0.53422157
 40
0.5802979744
 40
0.6256399668
 40
0.6698573806
 40
0.7125698326
 40
0.7534100068
 40
0.7920287725
 40
0.8280949877
 40
0.8613043046
 40
0.8913749141
 40
0.905156114
 40
0.918061376
 40
0.9300650901
 40
0.9411461273
 40
0.9512843716
 40
0.9604610064
 40
0.9686625777
 40
0.9758830404
 40
0.9821211838
 40
0.9848740002
 40
0.987384926
 40
0.9896579395
 40
0.9916992524
 40
0.9935177578
 40
0.9951263803
 40
0.9965441752
 40
0.9977993488
 40
0.998932793
 40
1.0
 40
1.0
 40
1.0
 40
1.0
 10
6.855794933
 20
3.4236632008
 30
0.0
 10
6.8558879852
 20
3.4237175846
 30
0.0
 10
6.856087844
 20
3.4238256264
 30
0.0
 10
6.856411141
 20
3.4239796552
 30
0.0
 10
6.8567728041
 20
3.4241337545
 30
0.0
 10
6.8573282937
 20
3.4243478287
 30
0.0
 10
6.8581193601
 20
3.4246122062
 30
0.0
 10
6.8589781269
 20
3.4248594831
 30
0.0
 10
6.8597388509
 20
3.4250592324
 30
0.0
 10
6.8605944232
 20
3.4252706762
 30
0.0
 10
6.8617545735
 20
3.425533395
 30
0.0
 10
6.8632547522
 20
3.4258411506
 30
0.0
 10
6.864894212
 20
3.4261490717
 30
0.0
 10
6.8666693129
 20
3.4264572119
 30
0.0
 10
6.8692940455
 20
3.426881502
 30
0.0
 10
6.8728841459
 20
3.4274063629
 30
0.0
 10
6.8775416734
 20
3.4280195872
 30
0.0
 10
6.8826317875
 20
3.4286335281
 30
0.0
 10
6.8881103588
 20
3.4292480974
 30
0.0
 10
6.8939298353
 20
3.4298630784
 30
0.0
 10
6.9000396802
 20
3.4304783844
 30
0.0
 10
6.9086105403
 20
3.4313095071
 30
0.0
 10
6.919637649
 20
3.4323344734
 30
0.0
 10
6.930777624
 20
3.4333499751
 30
0.0
 10
6.9397069862
 20
3.4341728516
 30
0.0
 10
6.9462818536
 20
3.4347885762
 30
0.0
 10
6.9526922255
 20
3.4354041574
 30
0.0
 10
6.9588824035
 20
3.4360195297
 30
0.0
 10
6.9647986359
 20
3.4366346359
 30
0.0
 10
6.9703895015
 20
3.4372493259
 30
0.0
 10
6.9756065357
 20
3.4378635208
 30
0.0
 10
6.980404386
 20
3.4384769532
 30
0.0
 10
6.9841195497
 20
3.4390014608
 30
0.0
 10
6.9868502459
 20
3.4394249745
 30
0.0
 10
6.9887085877
 20
3.4397332006
 30
0.0
 10
6.9904335694
 20
3.4400412981
 30
0.0
 10
6.9920215779
 20
3.4403491889
 30
0.0
 10
6.9934692233
 20
3.440656803
 30
0.0
 10
6.9947733094
 20
3.4409641276
 30
0.0
 10
6.9959311368
 20
3.4412710968
 30
0.0
 10
6.9969404413
 20
3.4415775508
 30
0.0
 10
6.9976845532
 20
3.4418421712
 30
0.0
 10
6.9982019621
 20
3.4420566624
 30
0.0
 10
6.9985351255
 20
3.4422107166
 30
0.0
 10
6.9988297558
 20
3.4423647289
 30
0.0
 10
6.9990858178
 20
3.4425187314
 30
0.0
 10
6.9993033297
 20
3.4426727989
 30
0.0
 10
6.9994823322
 20
3.44282711
 30
0.0
 10
6.9996228301
 20
3.4429819971
 30
0.0
 10
6.999724596
 20
3.4431380808
 30
0.0
 10
6.9997867857
 20
3.4432958563
 30
0.0
 10
6.9998009356
 20
3.4434034336
 30
0.0
 10
6.99980092
 20
3.4434553921
 30
0.0
  0
SPLINE
  5
319
100
AcDbEntity
  8
ALL_FEATURES
100
AcDbSpline
 62
7
  6
CONTINUOUS
 70
0
 71
3
 72
57
 73
53
 74
0
 42
0.0000001
 43
0.0000001
 44
0.0000000001
 40
0.0
 40
0.0
 40
0.0
 40
0.0
 40
0.0022138717
 40
0.0046641975
 40
0.0073549707
 40
0.0102887848
 40
0.0168907714
 40
0.0244764575
 40
0.0286379993
 40
0.0330436624
 40
0.0425799897
 40
0.0530699416
 40
0.0644962599
 40
0.0768394913
 40
0.0900740864
 40
0.1191061852
 40
0.151359633
 40
0.1865596733
 40
0.2244121985
 40
0.2645909485
 40
0.3067548561
 40
0.3505396277
 40
0.4414585111
 40
0.534222578
 40
0.5802985234
 40
0.6256409524
 40
0.6698578324
 40
0.7125707327
 40
0.7534104235
 40
0.7920295317
 40
0.8280954272
 40
0.861304881
 40
0.8913754256
 40
0.9051555803
 40
0.9180617449
 40
0.9300666848
 40
0.9411467485
 40
0.9512837686
 40
0.9604611687
 40
0.9686641988
 40
0.9758837922
 40
0.9821206282
 40
0.9848733622
 40
0.9873849093
 40
0.9896588744
 40
0.9917007288
 40
0.9935191206
 40
0.9951272683
 40
0.9965445286
 40
0.9977993482
 40
0.9989327221
 40
1.0
 40
1.0
 40
1.0
 40
1.0
 10
6.8557947192
 20
3.3403232128
 30
0.0
 10
6.8558877733
 20
3.3403776067
 30
0.0
 10
6.8560876763
 20
3.3404856553
 30
0.0
 10
6.8564110743
 20
3.3406396708
 30
0.0
 10
6.8567728661
 20
3.34079376
 30
0.0
 10
6.857328427
 20
3.3410077959
 30
0.0
 10
6.8581193952
 20
3.3412721939
 30
0.0
 10
6.8589780224
 20
3.3415195305
 30
0.0
 10
6.8597386899
 20
3.3417192562
 30
0.0
 10
6.8605943804
 20
3.3419306932
 30
0.0
 10
6.8617546404
 20
3.3421933732
 30
0.0
 10
6.8632547919
 20
3.3425011417
 30
0.0
 10
6.8648941543
 20
3.342809124
 30
0.0
 10
6.8666692634
 20
3.3431172389
 30
0.0
 10
6.869294018
 20
3.3435414618
 30
0.0
 10
6.8728841649
 20
3.3440664372
 30
0.0
 10
6.8775416354
 20
3.3446795591
 30
0.0
 10
6.8826317997
 20
3.3452935783
 30
0.0
 10
6.8881103305
 20
3.3459080909
 30
0.0
 10
6.8939298394
 20
3.3465231128
 30
0.0
 10
6.9000396625
 20
3.3471383931
 30
0.0
 10
6.9086105405
 20
3.3479695346
 30
0.0
 10
6.9196376511
 20
3.3489944926
 30
0.0
 10
6.930777621
 20
3.3500099871
 30
0.0
 10
6.9397069903
 20
3.350832882
 30
0.0
 10
6.946281838
 20
3.3514485868
 30
0.0
 10
6.9526922305
 20
3.3520641908
 30
0.0
 10
6.9588823883
 20
3.3526795407
 30
0.0
 10
6.9647986387
 20
3.3532946688
 30
0.0
 10
6.9703894885
 20
3.3539093408
 30
0.0
 10
6.9756065338
 20
3.3545235477
 30
0.0
 10
6.9804043756
 20
3.3551369823
 30
0.0
 10
6.9841195001
 20
3.3556614552
 30
0.0
 10
6.9868501798
 20
3.3560850247
 30
0.0
 10
6.9887085794
 20
3.3563932326
 30
0.0
 10
6.9904336275
 20
3.3567012882
 30
0.0
 10
6.9920215843
 20
3.3570092059
 30
0.0
 10
6.993469151
 20
3.3573168608
 30
0.0
 10
6.9947732896
 20
3.3576241749
 30
0.0
 10
6.995931207
 20
3.3579310678
 30
0.0
 10
6.9969404669
 20
3.3582375585
 30
0.0
 10
6.9976844489
 20
3.3585022163
 30
0.0
 10
6.9982018162
 20
3.3587167097
 30
0.0
 10
6.9985350622
 20
3.3588707568
 30
0.0
 10
6.9988298225
 20
3.3590247422
 30
0.0
 10
6.9990859737
 20
3.3591787296
 30
0.0
 10
6.9993034794
 20
3.3593328056
 30
0.0
 10
6.9994824025
 20
3.3594871279
 30
0.0
 10
6.9996227879
 20
3.359642029
 30
0.0
 10
6.9997244508
 20
3.3597981238
 30
0.0
 10
6.9997865893
 20
3.359955894
 30
0.0
 10
6.9998007949
 20
3.3600634553
 30
0.0
 10
6.999800826
 20
3.3601154173
 30
0.0
  0
SPLINE
  5
31A
100
AcDbEntity
  8
ALL_FEATURES
100
AcDbSpline
 62
7
  6
CONTINUOUS
 70
0
 71
3
 72
14
 73
10
 74
0
 42
0.0000001
 43
0.0000001
 44
0.0000000001
 40
0.0
 40
0.0
 40
0.0
 40
0.0
 40
0.0913343208
 40
0.186818112
 40
0.2900581551
 40
0.4039133491
 40
0.5305136852
 40
0.6714016721
 40
1.0
 40
1.0
 40
1.0
 40
1.0
 10
3.4703509317
 20
3.6179511725
 30
0.0
 10
3.4703509317
 20
3.6179845876
 30
0.0
 10
3.4703585173
 20
3.6180531432
 30
0.0
 10
3.470392092
 20
3.6181544967
 30
0.0
 10
3.4704474148
 20
3.6182551962
 30
0.0
 10
3.4705241041
 20
3.6183553245
 30
0.0
 10
3.4706219932
 20
3.6184551307
 30
0.0
 10
3.4707894769
 20
3.6185951993
 30
0.0
 10
3.4709343763
 20
3.618688732
 30
0.0
 10
3.4710382849
 20
3.6187491943
 30
0.0
  0
SPLINE
  5
31B
100
AcDbEntity
  8
ALL_FEATURES
100
AcDbSpline
 62
7
  6
CONTINUOUS
 70
0
 71
3
 72
14
 73
10
 74
0
 42
0.0000001
 43
0.0000001
 44
0.0000000001
 40
0.0
 40
0.0
 40
0.0
 40
0.0
 40
0.3286011459
 40
0.4694893901
 40
0.59608946
 40
0.7099440505
 40
0.8131833325
 40
0.9086663584
 40
1.0
 40
1.0
 40
1.0
 40
1.0
 10
3.4710382898
 20
3.6119416228
 30
0.0
 10
3.4709343798
 20
3.6120020856
 30
0.0
 10
3.4707894785
 20
3.6120956188
 30
0.0
 10
3.470621993
 20
3.6122356881
 30
0.0
 10
3.4705241035
 20
3.6123354943
 30
0.0
 10
3.4704474141
 20
3.6124356225
 30
0.0
 10
3.4703920916
 20
3.6125363217
 30
0.0
 10
3.4703585172
 20
3.6126376748
 30
0.0
 10
3.4703509317
 20
3.6127062302
 30
0.0
 10
3.4703509317
 20
3.6127396452
 30
0.0
  0
SPLINE
  5
31C
100
AcDbEntity
  8
ALL_FEATURES
100
AcDbSpline
 62
7
  6
CONTINUOUS
 70
0
 71
3
 72
14
 73
10
 74
0
 42
0.0000001
 43
0.0000001
 44
0.0000000001
 40
0.0
 40
0.0
 40
0.0
 40
0.0
 40
0.3286001701
 40
0.4694888793
 40
0.5960896234
 40
0.70994479
 40
0.8131842949
 40
0.9086670526
 40
1.0
 40
1.0
 40
1.0
 40
1.0
 10
3.4710382998
 20
3.5702716296
 30
0.0
 10
3.4709343897
 20
3.5703320925
 30
0.0
 10
3.470789488
 20
3.5704256257
 30
0.0
 10
3.4706220008
 20
3.5705656943
 30
0.0
 10
3.4705241095
 20
3.5706655002
 30
0.0
 10
3.470447418
 20
3.570765628
 30
0.0
 10
3.4703920936
 20
3.5708663268
 30
0.0
 10
3.4703585176
 20
3.5709676797
 30
0.0
 10
3.4703509317
 20
3.5710362349
 30
0.0
 10
3.4703509317
 20
3.5710696498
 30
0.0
  0
SPLINE
  5
31D
100
AcDbEntity
  8
ALL_FEATURES
100
AcDbSpline
 62
7
  6
CONTINUOUS
 70
0
 71
3
 72
14
 73
10
 74
0
 42
0.0000001
 43
0.0000001
 44
0.0000000001
 40
0.0
 40
0.0
 40
0.0
 40
0.0
 40
0.3286011914
 40
0.4694894643
 40
0.5960895561
 40
0.7099441541
 40
0.8131834231
 40
0.9086664131
 40
1.0
 40
1.0
 40
1.0
 40
1.0
 10
3.6596635737
 20
3.5911066182
 30
0.0
 10
3.6597674837
 20
3.5911670809
 30
0.0
 10
3.6599123849
 20
3.591260614
 30
0.0
 10
3.6600798704
 20
3.5914006832
 30
0.0
 10
3.6601777598
 20
3.5915004893
 30
0.0
 10
3.6602544492
 20
3.5916006173
 30
0.0
 10
3.6603097717
 20
3.5917013164
 30
0.0
 10
3.6603433462
 20
3.5918026694
 30
0.0
 10
3.6603509317
 20
3.5918712247
 30
0.0
 10
3.6603509317
 20
3.5919046397
 30
0.0
  0
SPLINE
  5
31E
100
AcDbEntity
  8
ALL_FEATURES
100
AcDbSpline
 62
7
  6
CONTINUOUS
 70
0
 71
3
 72
14
 73
10
 74
0
 42
0.0000001
 43
0.0000001
 44
0.0000000001
 40
0.0
 40
0.0
 40
0.0
 40
0.0
 40
0.328597131
 40
0.4694845089
 40
0.5960844193
 40
0.7099395099
 40
0.8131798819
 40
0.9086644762
 40
1.0
 40
1.0
 40
1.0
 40
1.0
 10
3.4710382735
 20
3.5770791698
 30
0.0
 10
3.470934366
 20
3.577018708
 30
0.0
 10
3.4707894682
 20
3.5769251759
 30
0.0
 10
3.4706219871
 20
3.5767851075
 30
0.0
 10
3.4705240998
 20
3.5766853014
 30
0.0
 10
3.4704474121
 20
3.5765851729
 30
0.0
 10
3.4703920907
 20
3.576484473
 30
0.0
 10
3.470358517
 20
3.576383119
 30
0.0
 10
3.4703509317
 20
3.5763145631
 30
0.0
 10
3.4703509317
 20
3.5762811477
 30
0.0
  0
SPLINE
  5
31F
100
AcDbEntity
  8
ALL_FEATURES
100
AcDbSpline
 62
7
  6
CONTINUOUS
 70
0
 71
3
 72
15
 73
11
 74
0
 42
0.0000001
 43
0.0000001
 44
0.0000000001
 40
0.0
 40
0.0
 40
0.0
 40
0.0
 40
0.1265411284
 40
0.2349476441
 40
0.333312009
 40
0.4321744459
 40
0.5418880905
 40
0.6701685699
 40
0.8218940273
 40
1.0
 40
1.0
 40
1.0
 40
1.0
 10
3.644482537
 20
3.6660830512
 30
0.0
 10
3.6445056276
 20
3.6660599607
 30
0.0
 10
3.644545437
 20
3.6660136478
 30
0.0
 10
3.6445853386
 20
3.6659362542
 30
0.0
 10
3.6445981644
 20
3.6658568522
 30
0.0
 10
3.6445824835
 20
3.6657776591
 30
0.0
 10
3.6445400432
 20
3.665700627
 30
0.0
 10
3.6444726457
 20
3.6656251975
 30
0.0
 10
3.6443806013
 20
3.6655504671
 30
0.0
 10
3.644308695
 20
3.6655046355
 30
0.0
 10
3.6442690055
 20
3.6654814574
 30
0.0
  0
SPLINE
  5
320
100
AcDbEntity
  8
ALL_FEATURES
100
AcDbSpline
 62
7
  6
CONTINUOUS
 70
0
 71
3
 72
14
 73
10
 74
0
 42
0.0000001
 43
0.0000001
 44
0.0000000001
 40
0.0
 40
0.0
 40
0.0
 40
0.0
 40
0.3285976297
 40
0.4694848818
 40
0.5960845617
 40
0.7099394248
 40
0.8131796669
 40
0.9086642901
 40
1.0
 40
1.0
 40
1.0
 40
1.0
 10
3.4710382687
 20
3.5354091724
 30
0.0
 10
3.4709343614
 20
3.5353487109
 30
0.0
 10
3.4707894641
 20
3.535255179
 30
0.0
 10
3.4706219839
 20
3.535115111
 30
0.0
 10
3.4705240975
 20
3.5350153051
 30
0.0
 10
3.4704474106
 20
3.5349151769
 30
0.0
 10
3.47039209
 20
3.5348144774
 30
0.0
 10
3.4703585168
 20
3.5347131237
 30
0.0
 10
3.4703509317
 20
3.5346445679
 30
0.0
 10
3.4703509317
 20
3.5346111527
 30
0.0
  0
SPLINE
  5
321
100
AcDbEntity
  8
ALL_FEATURES
100
AcDbSpline
 62
7
  6
CONTINUOUS
 70
0
 71
3
 72
14
 73
10
 74
0
 42
0.0000001
 43
0.0000001
 44
0.0000000001
 40
0.0
 40
0.0
 40
0.0
 40
0.0
 40
0.328597081
 40
0.4694845616
 40
0.5960845918
 40
0.7099397691
 40
0.8131801521
 40
0.9086646573
 40
1.0
 40
1.0
 40
1.0
 40
1.0
 10
3.6596635875
 20
3.5979141828
 30
0.0
 10
3.6597674952
 20
3.5978537209
 30
0.0
 10
3.6599123932
 20
3.5977601887
 30
0.0
 10
3.6600798748
 20
3.5976201203
 30
0.0
 10
3.6601777624
 20
3.5975203141
 30
0.0
 10
3.6602544506
 20
3.5974201856
 30
0.0
 10
3.6603097723
 20
3.5973194857
 30
0.0
 10
3.6603433463
 20
3.5972181317
 30
0.0
 10
3.6603509317
 20
3.5971495758
 30
0.0
 10
3.6603509317
 20
3.5971161605
 30
0.0
  0
SPLINE
  5
322
100
AcDbEntity
  8
ALL_FEATURES
100
AcDbSpline
 62
7
  6
CONTINUOUS
 70
0
 71
3
 72
14
 73
10
 74
0
 42
0.0000001
 43
0.0000001
 44
0.0000000001
 40
0.0
 40
0.0
 40
0.0
 40
0.0
 40
0.3285973396
 40
0.4694846556
 40
0.5960844598
 40
0.7099394487
 40
0.8131797665
 40
0.9086643817
 40
1.0
 40
1.0
 40
1.0
 40
1.0
 10
3.6596635919
 20
3.5562441636
 30
0.0
 10
3.6597674994
 20
3.5561837019
 30
0.0
 10
3.6599123969
 20
3.5560901699
 30
0.0
 10
3.6600798777
 20
3.5559501017
 30
0.0
 10
3.6601777646
 20
3.5558502956
 30
0.0
 10
3.660254452
 20
3.5557501672
 30
0.0
 10
3.660309773
 20
3.5556494675
 30
0.0
 10
3.6603433464
 20
3.5555481136
 30
0.0
 10
3.6603509317
 20
3.5554795577
 30
0.0
 10
3.6603509317
 20
3.5554461424
 30
0.0
  0
SPLINE
  5
323
100
AcDbEntity
  8
ALL_FEATURES
100
AcDbSpline
 62
7
  6
CONTINUOUS
 70
0
 71
3
 72
14
 73
10
 74
0
 42
0.0000001
 43
0.0000001
 44
0.0000000001
 40
0.0
 40
0.0
 40
0.0
 40
0.0
 40
0.3286012364
 40
0.4694895382
 40
0.5960896524
 40
0.7099442582
 40
0.8131835145
 40
0.9086664684
 40
1.0
 40
1.0
 40
1.0
 40
1.0
 10
3.4710382907
 20
3.5286016508
 30
0.0
 10
3.4709343805
 20
3.5286621136
 30
0.0
 10
3.4707894792
 20
3.5287556468
 30
0.0
 10
3.4706219935
 20
3.5288957161
 30
0.0
 10
3.4705241039
 20
3.5289955223
 30
0.0
 10
3.4704474143
 20
3.5290956503
 30
0.0
 10
3.4703920917
 20
3.5291963494
 30
0.0
 10
3.4703585172
 20
3.5292977025
 30
0.0
 10
3.4703509317
 20
3.5293662579
 30
0.0
 10
3.4703509317
 20
3.5293996728
 30
0.0
  0
SPLINE
  5
324
100
AcDbEntity
  8
ALL_FEATURES
100
AcDbSpline
 62
7
  6
CONTINUOUS
 70
0
 71
3
 72
14
 73
10
 74
0
 42
0.0000001
 43
0.0000001
 44
0.0000000001
 40
0.0
 40
0.0
 40
0.0
 40
0.0
 40
0.3286012619
 40
0.4694895849
 40
0.5960897168
 40
0.7099443303
 40
0.813183579
 40
0.9086665079
 40
1.0
 40
1.0
 40
1.0
 40
1.0
 10
3.4710382916
 20
3.4869316269
 30
0.0
 10
3.4709343814
 20
3.4869920898
 30
0.0
 10
3.4707894799
 20
3.487085623
 30
0.0
 10
3.4706219939
 20
3.4872256924
 30
0.0
 10
3.4705241042
 20
3.4873254987
 30
0.0
 10
3.4704474145
 20
3.4874256268
 30
0.0
 10
3.4703920918
 20
3.487526326
 30
0.0
 10
3.4703585172
 20
3.4876276791
 30
0.0
 10
3.4703509317
 20
3.4876962345
 30
0.0
 10
3.4703509317
 20
3.4877296495
 30
0.0
  0
SPLINE
  5
325
100
AcDbEntity
  8
ALL_FEATURES
100
AcDbSpline
 62
7
  6
CONTINUOUS
 70
0
 71
3
 72
14
 73
10
 74
0
 42
0.0000001
 43
0.0000001
 44
0.0000000001
 40
0.0
 40
0.0
 40
0.0
 40
0.0
 40
0.328592726
 40
0.4694760785
 40
0.5960725206
 40
0.7099259898
 40
0.813167639
 40
0.9086569006
 40
1.0
 40
1.0
 40
1.0
 40
1.0
 10
3.4710381938
 20
3.4452616227
 30
0.0
 10
3.4709342921
 20
3.4453220808
 30
0.0
 10
3.4707894042
 20
3.4454156091
 30
0.0
 10
3.47062194
 20
3.445555676
 30
0.0
 10
3.4705240658
 20
3.4456554818
 30
0.0
 10
3.4704473906
 20
3.4457556112
 30
0.0
 10
3.4703920803
 20
3.4458563131
 30
0.0
 10
3.4703585146
 20
3.4459576698
 30
0.0
 10
3.4703509317
 20
3.4460262272
 30
0.0
 10
3.4703509317
 20
3.4460596438
 30
0.0
  0
SPLINE
  5
326
100
AcDbEntity
  8
ALL_FEATURES
100
AcDbSpline
 62
7
  6
CONTINUOUS
 70
0
 71
3
 72
14
 73
10
 74
0
 42
0.0000001
 43
0.0000001
 44
0.0000000001
 40
0.0
 40
0.0
 40
0.0
 40
0.0
 40
0.3286012085
 40
0.4694894902
 40
0.5960895883
 40
0.7099441878
 40
0.8131834521
 40
0.9086664305
 40
1.0
 40
1.0
 40
1.0
 40
1.0
 10
3.6596635741
 20
3.5494366497
 30
0.0
 10
3.6597674841
 20
3.5494971123
 30
0.0
 10
3.6599123851
 20
3.5495906454
 30
0.0
 10
3.6600798705
 20
3.5497307144
 30
0.0
 10
3.6601777599
 20
3.5498305205
 30
0.0
 10
3.6602544493
 20
3.5499306484
 30
0.0
 10
3.6603097718
 20
3.5500313474
 30
0.0
 10
3.6603433462
 20
3.5501327003
 30
0.0
 10
3.6603509317
 20
3.5502012555
 30
0.0
 10
3.6603509317
 20
3.5502346705
 30
0.0
  0
SPLINE
  5
327
100
AcDbEntity
  8
ALL_FEATURES
100
AcDbSpline
 62
7
  6
CONTINUOUS
 70
0
 71
3
 72
14
 73
10
 74
0
 42
0.0000001
 43
0.0000001
 44
0.0000000001
 40
0.0
 40
0.0
 40
0.0
 40
0.0
 40
0.0914326298
 40
0.1869796914
 40
0.2902467566
 40
0.4040973032
 40
0.5306686593
 40
0.6715113363
 40
1.0
 40
1.0
 40
1.0
 40
1.0
 10
3.6603509114
 20
3.638786176
 30
0.0
 10
3.6603508982
 20
3.6388196211
 30
0.0
 10
3.6603433015
 20
3.6388882204
 30
0.0
 10
3.660309737
 20
3.638989629
 30
0.0
 10
3.6602544444
 20
3.6390903574
 30
0.0
 10
3.6601778008
 20
3.6391904899
 30
0.0
 10
3.6600799698
 20
3.6392902783
 30
0.0
 10
3.6599125813
 20
3.6394302959
 30
0.0
 10
3.6597677502
 20
3.6395237755
 30
0.0
 10
3.6596638897
 20
3.639584198
 30
0.0
  0
SPLINE
  5
328
100
AcDbEntity
  8
ALL_FEATURES
100
AcDbSpline
 62
7
  6
CONTINUOUS
 70
0
 71
3
 72
14
 73
10
 74
0
 42
0.0000001
 43
0.0000001
 44
0.0000000001
 40
0.0
 40
0.0
 40
0.0
 40
0.0
 40
0.0914426336
 40
0.1869957773
 40
0.2902611926
 40
0.4041031925
 40
0.5306630091
 40
0.6714966872
 40
1.0
 40
1.0
 40
1.0
 40
1.0
 10
3.6603508264
 20
3.6335746573
 30
0.0
 10
3.6603508051
 20
3.6335412117
 30
0.0
 10
3.6603432024
 20
3.6334726153
 30
0.0
 10
3.6603096529
 20
3.633371208
 30
0.0
 10
3.6602543896
 20
3.6332704782
 30
0.0
 10
3.6601777819
 20
3.6331703432
 30
0.0
 10
3.6600799873
 20
3.6330705524
 30
0.0
 10
3.6599126352
 20
3.6329305267
 30
0.0
 10
3.6597678175
 20
3.6328370506
 30
0.0
 10
3.6596639608
 20
3.6327766336
 30
0.0
  0
SPLINE
  5
329
100
AcDbEntity
  8
ALL_FEATURES
100
AcDbSpline
 62
7
  6
CONTINUOUS
 70
0
 71
3
 72
14
 73
10
 74
0
 42
0.0000001
 43
0.0000001
 44
0.0000000001
 40
0.0
 40
0.0
 40
0.0
 40
0.0
 40
0.0914387457
 40
0.1869691643
 40
0.2902179909
 40
0.4040597409
 40
0.5306343195
 40
0.6714890594
 40
1.0
 40
1.0
 40
1.0
 40
1.0
 10
3.4703510442
 20
3.3262611555
 30
0.0
 10
3.4703510017
 20
3.3262946041
 30
0.0
 10
3.4703584831
 20
3.3263632173
 30
0.0
 10
3.4703919504
 20
3.3264646566
 30
0.0
 10
3.4704472002
 20
3.3265653984
 30
0.0
 10
3.4705238389
 20
3.3266655317
 30
0.0
 10
3.4706216901
 20
3.326765312
 30
0.0
 10
3.4707891254
 20
3.3269053087
 30
0.0
 10
3.4709339911
 20
3.3269987691
 30
0.0
 10
3.4710378714
 20
3.327059183
 30
0.0
  0
SPLINE
  5
32A
100
AcDbEntity
  8
ALL_FEATURES
100
AcDbSpline
 62
7
  6
CONTINUOUS
 70
0
 71
3
 72
11
 73
7
 74
0
 42
0.0000001
 43
0.0000001
 44
0.0000000001
 40
0.0
 40
0.0
 40
0.0
 40
0.0
 40
0.2164285365
 40
0.4545432676
 40
0.7154782165
 40
1.0
 40
1.0
 40
1.0
 40
1.0
 10
3.4802056725
 20
3.3153601466
 30
0.0
 10
3.4803922648
 20
3.3151735405
 30
0.0
 10
3.480803029
 20
3.3148003152
 30
0.0
 10
3.4814913666
 20
3.3142633744
 30
0.0
 10
3.4822801924
 20
3.3137234298
 30
0.0
 10
3.4828479611
 20
3.3133765298
 30
0.0
 10
3.483147693
 20
3.3132018523
 30
0.0
  0
SPLINE
  5
32B
100
AcDbEntity
  8
ALL_FEATURES
100
AcDbSpline
 62
7
  6
CONTINUOUS
 70
0
 71
3
 72
15
 73
11
 74
0
 42
0.0000001
 43
0.0000001
 44
0.0000000001
 40
0.0
 40
0.0
 40
0.0
 40
0.0
 40
0.1264004651
 40
0.234682314
 40
0.3329117849
 40
0.4316434559
 40
0.541280839
 40
0.6695965554
 40
0.8215183412
 40
1.0
 40
1.0
 40
1.0
 40
1.0
 10
3.4730106542
 20
3.6528741874
 30
0.0
 10
3.4729907925
 20
3.6528543184
 30
0.0
 10
3.4729565452
 20
3.6528144763
 30
0.0
 10
3.4729221975
 20
3.6527479116
 30
0.0
 10
3.4729111494
 20
3.65267961
 30
0.0
 10
3.4729246835
 20
3.6526114797
 30
0.0
 10
3.4729613204
 20
3.6525452184
 30
0.0
 10
3.4730195209
 20
3.6524803403
 30
0.0
 10
3.4730990414
 20
3.6524160624
 30
0.0
 10
3.4731611626
 20
3.6523766505
 30
0.0
 10
3.473195457
 20
3.6523567114
 30
0.0
  0
SPLINE
  5
32C
100
AcDbEntity
  8
ALL_FEATURES
100
AcDbSpline
 62
7
  6
CONTINUOUS
 70
0
 71
3
 72
15
 73
11
 74
0
 42
0.0000001
 43
0.0000001
 44
0.0000000001
 40
0.0
 40
0.0
 40
0.0
 40
0.0
 40
0.1782046399
 40
0.3299973932
 40
0.4583142741
 40
0.5680331409
 40
0.6668707139
 40
0.76518625
 40
0.8735296521
 40
1.0
 40
1.0
 40
1.0
 40
1.0
 10
3.6475998528
 20
3.3132472433
 30
0.0
 10
3.6476380282
 20
3.3132249693
 30
0.0
 10
3.6477071909
 20
3.3131809282
 30
0.0
 10
3.6477957309
 20
3.3131091193
 30
0.0
 10
3.6478605697
 20
3.3130366448
 30
0.0
 10
3.6479014143
 20
3.3129626354
 30
0.0
 10
3.6479165357
 20
3.3128865494
 30
0.0
 10
3.6479042505
 20
3.312810262
 30
0.0
 10
3.647865936
 20
3.3127359105
 30
0.0
 10
3.6478276981
 20
3.312691423
 30
0.0
 10
3.6478055182
 20
3.312669243
 30
0.0
  0
SPLINE
  5
32D
100
AcDbEntity
  8
ALL_FEATURES
100
AcDbSpline
 62
7
  6
CONTINUOUS
 70
0
 71
3
 72
14
 73
10
 74
0
 42
0.0000001
 43
0.0000001
 44
0.0000000001
 40
0.0
 40
0.0
 40
0.0
 40
0.0
 40
0.3286012543
 40
0.4694895698
 40
0.5960896953
 40
0.7099443058
 40
0.8131835568
 40
0.9086664943
 40
1.0
 40
1.0
 40
1.0
 40
1.0
 10
3.6596635719
 20
3.5077666405
 30
0.0
 10
3.6597674821
 20
3.5078271033
 30
0.0
 10
3.6599123836
 20
3.5079206366
 30
0.0
 10
3.6600798695
 20
3.508060706
 30
0.0
 10
3.6601777592
 20
3.5081605122
 30
0.0
 10
3.6602544489
 20
3.5082606404
 30
0.0
 10
3.6603097716
 20
3.5083613396
 30
0.0
 10
3.6603433461
 20
3.5084626927
 30
0.0
 10
3.6603509317
 20
3.5085312481
 30
0.0
 10
3.6603509317
 20
3.5085646631
 30
0.0
  0
SPLINE
  5
32E
100
AcDbEntity
  8
ALL_FEATURES
100
AcDbSpline
 62
7
  6
CONTINUOUS
 70
0
 71
3
 72
14
 73
10
 74
0
 42
0.0000001
 43
0.0000001
 44
0.0000000001
 40
0.0
 40
0.0
 40
0.0
 40
0.0
 40
0.3285995293
 40
0.4694868942
 40
0.5960863314
 40
0.709940748
 40
0.8131804821
 40
0.9086646477
 40
1.0
 40
1.0
 40
1.0
 40
1.0
 10
3.6596635913
 20
3.3478941917
 30
0.0
 10
3.6597674998
 20
3.3478337298
 30
0.0
 10
3.6599123984
 20
3.3477401974
 30
0.0
 10
3.66007988
 20
3.3476001286
 30
0.0
 10
3.6601777666
 20
3.3475003224
 30
0.0
 10
3.6602544535
 20
3.3474001941
 30
0.0
 10
3.6603097738
 20
3.3472994945
 30
0.0
 10
3.6603433466
 20
3.3471981407
 30
0.0
 10
3.6603509317
 20
3.347129585
 30
0.0
 10
3.6603509317
 20
3.3470961697
 30
0.0
  0
SPLINE
  5
32F
100
AcDbEntity
  8
ALL_FEATURES
100
AcDbSpline
 62
7
  6
CONTINUOUS
 70
0
 71
3
 72
14
 73
10
 74
0
 42
0.0000001
 43
0.0000001
 44
0.0000000001
 40
0.0
 40
0.0
 40
0.0
 40
0.0
 40
0.3285855735
 40
0.4694647149
 40
0.5960580097
 40
0.7099104755
 40
0.8131541249
 40
0.9086487363
 40
1.0
 40
1.0
 40
1.0
 40
1.0
 10
3.6596637468
 20
3.3895641883
 30
0.0
 10
3.659767642
 20
3.3895037344
 30
0.0
 10
3.6599125196
 20
3.3894102107
 30
0.0
 10
3.6600799669
 20
3.3892701461
 30
0.0
 10
3.6601778286
 20
3.3891703405
 30
0.0
 10
3.6602544921
 20
3.3890702099
 30
0.0
 10
3.6603097925
 20
3.3889695055
 30
0.0
 10
3.6603433509
 20
3.3888681452
 30
0.0
 10
3.6603509317
 20
3.3887995859
 30
0.0
 10
3.6603509317
 20
3.3887661677
 30
0.0
  0
SPLINE
  5
330
100
AcDbEntity
  8
ALL_FEATURES
100
AcDbSpline
 62
7
  6
CONTINUOUS
 70
0
 71
3
 72
14
 73
10
 74
0
 42
0.0000001
 43
0.0000001
 44
0.0000000001
 40
0.0
 40
0.0
 40
0.0
 40
0.0
 40
0.3286012593
 40
0.4694895833
 40
0.5960897168
 40
0.7099443317
 40
0.813183581
 40
0.9086665094
 40
1.0
 40
1.0
 40
1.0
 40
1.0
 10
3.6596635723
 20
3.4660966184
 30
0.0
 10
3.6597674825
 20
3.4661570812
 30
0.0
 10
3.6599123838
 20
3.4662506144
 30
0.0
 10
3.6600798696
 20
3.4663906837
 30
0.0
 10
3.6601777593
 20
3.4664904898
 30
0.0
 10
3.6602544489
 20
3.4665906179
 30
0.0
 10
3.6603097716
 20
3.466691317
 30
0.0
 10
3.6603433461
 20
3.46679267
 30
0.0
 10
3.6603509317
 20
3.4668612253
 30
0.0
 10
3.6603509317
 20
3.4668946403
 30
0.0
  0
SPLINE
  5
331
100
AcDbEntity
  8
ALL_FEATURES
100
AcDbSpline
 62
7
  6
CONTINUOUS
 70
0
 71
3
 72
14
 73
10
 74
0
 42
0.0000001
 43
0.0000001
 44
0.0000000001
 40
0.0
 40
0.0
 40
0.0
 40
0.0
 40
0.3285991755
 40
0.4694864305
 40
0.5960858177
 40
0.7099402547
 40
0.8131800856
 40
0.9086644215
 40
1.0
 40
1.0
 40
1.0
 40
1.0
 10
3.4710382692
 20
3.3687291973
 30
0.0
 10
3.4709343612
 20
3.3686687355
 30
0.0
 10
3.470789463
 20
3.3685752034
 30
0.0
 10
3.4706219821
 20
3.3684351348
 30
0.0
 10
3.4705240959
 20
3.3683353287
 30
0.0
 10
3.4704474094
 20
3.3682352004
 30
0.0
 10
3.4703920893
 20
3.3681345008
 30
0.0
 10
3.4703585167
 20
3.3680331471
 30
0.0
 10
3.4703509317
 20
3.3679645914
 30
0.0
 10
3.4703509317
 20
3.3679311761
 30
0.0
  0
SPLINE
  5
332
100
AcDbEntity
  8
ALL_FEATURES
100
AcDbSpline
 62
7
  6
CONTINUOUS
 70
0
 71
3
 72
14
 73
10
 74
0
 42
0.0000001
 43
0.0000001
 44
0.0000000001
 40
0.0
 40
0.0
 40
0.0
 40
0.0
 40
0.3285931266
 40
0.4694767247
 40
0.5960733532
 40
0.709926885
 40
0.8131684216
 40
0.9086573743
 40
1.0
 40
1.0
 40
1.0
 40
1.0
 10
3.6596636636
 20
3.3410866199
 30
0.0
 10
3.6597675658
 20
3.3411470784
 30
0.0
 10
3.6599124546
 20
3.3412406071
 30
0.0
 10
3.6600799202
 20
3.3413806743
 30
0.0
 10
3.6601777953
 20
3.3414804804
 30
0.0
 10
3.6602544714
 20
3.3415806099
 30
0.0
 10
3.6603097824
 20
3.3416813118
 30
0.0
 10
3.6603433486
 20
3.3417826686
 30
0.0
 10
3.6603509317
 20
3.341851226
 30
0.0
 10
3.6603509317
 20
3.3418846426
 30
0.0
  0
SPLINE
  5
333
100
AcDbEntity
  8
ALL_FEATURES
100
AcDbSpline
 62
7
  6
CONTINUOUS
 70
0
 71
3
 72
14
 73
10
 74
0
 42
0.0000001
 43
0.0000001
 44
0.0000000001
 40
0.0
 40
0.0
 40
0.0
 40
0.0
 40
0.3285977143
 40
0.4694849427
 40
0.5960845811
 40
0.709939404
 40
0.8131796241
 40
0.9086642543
 40
1.0
 40
1.0
 40
1.0
 40
1.0
 10
3.4710382698
 20
3.4937391967
 30
0.0
 10
3.4709343622
 20
3.493678735
 30
0.0
 10
3.4707894647
 20
3.493585203
 30
0.0
 10
3.4706219841
 20
3.4934451346
 30
0.0
 10
3.4705240975
 20
3.4933453285
 30
0.0
 10
3.4704474106
 20
3.4932452001
 30
0.0
 10
3.47039209
 20
3.4931445003
 30
0.0
 10
3.4703585168
 20
3.4930431463
 30
0.0
 10
3.4703509317
 20
3.4929745904
 30
0.0
 10
3.4703509317
 20
3.4929411751
 30
0.0
  0
SPLINE
  5
334
100
AcDbEntity
  8
ALL_FEATURES
100
AcDbSpline
 62
7
  6
CONTINUOUS
 70
0
 71
3
 72
14
 73
10
 74
0
 42
0.0000001
 43
0.0000001
 44
0.0000000001
 40
0.0
 40
0.0
 40
0.0
 40
0.0
 40
0.3286012162
 40
0.4694895197
 40
0.5960896394
 40
0.7099442517
 40
0.8131835129
 40
0.908666469
 40
1.0
 40
1.0
 40
1.0
 40
1.0
 10
3.6596635722
 20
3.382756645
 30
0.0
 10
3.6597674824
 20
3.3828171078
 30
0.0
 10
3.6599123838
 20
3.3829106411
 30
0.0
 10
3.6600798696
 20
3.3830507104
 30
0.0
 10
3.6601777593
 20
3.3831505167
 30
0.0
 10
3.6602544489
 20
3.3832506448
 30
0.0
 10
3.6603097716
 20
3.383351344
 30
0.0
 10
3.6603433461
 20
3.3834526971
 30
0.0
 10
3.6603509317
 20
3.3835212525
 30
0.0
 10
3.6603509317
 20
3.3835546675
 30
0.0
  0
SPLINE
  5
335
100
AcDbEntity
  8
ALL_FEATURES
100
AcDbSpline
 62
7
  6
CONTINUOUS
 70
0
 71
3
 72
14
 73
10
 74
0
 42
0.0000001
 43
0.0000001
 44
0.0000000001
 40
0.0
 40
0.0
 40
0.0
 40
0.0
 40
0.328601264
 40
0.4694895892
 40
0.596089723
 40
0.7099443375
 40
0.8131835855
 40
0.908666512
 40
1.0
 40
1.0
 40
1.0
 40
1.0
 10
3.6596635737
 20
3.4244266448
 30
0.0
 10
3.6597674837
 20
3.4244871075
 30
0.0
 10
3.6599123847
 20
3.4245806405
 30
0.0
 10
3.6600798702
 20
3.4247207095
 30
0.0
 10
3.6601777597
 20
3.4248205154
 30
0.0
 10
3.6602544491
 20
3.4249206433
 30
0.0
 10
3.6603097717
 20
3.4250213421
 30
0.0
 10
3.6603433462
 20
3.425122695
 30
0.0
 10
3.6603509317
 20
3.4251912501
 30
0.0
 10
3.6603509317
 20
3.425224665
 30
0.0
  0
SPLINE
  5
336
100
AcDbEntity
  8
ALL_FEATURES
100
AcDbSpline
 62
7
  6
CONTINUOUS
 70
0
 71
3
 72
14
 73
10
 74
0
 42
0.0000001
 43
0.0000001
 44
0.0000000001
 40
0.0
 40
0.0
 40
0.0
 40
0.0
 40
0.3285983878
 40
0.4694855405
 40
0.5960849689
 40
0.7099395518
 40
0.8131795947
 40
0.9086641736
 40
1.0
 40
1.0
 40
1.0
 40
1.0
 10
3.4710382684
 20
3.4520691741
 30
0.0
 10
3.4709343606
 20
3.4520087124
 30
0.0
 10
3.4707894628
 20
3.4519151803
 30
0.0
 10
3.4706219823
 20
3.4517751117
 30
0.0
 10
3.4705240961
 20
3.4516753055
 30
0.0
 10
3.4704474096
 20
3.451575177
 30
0.0
 10
3.4703920894
 20
3.4514744772
 30
0.0
 10
3.4703585167
 20
3.4513731232
 30
0.0
 10
3.4703509317
 20
3.4513045673
 30
0.0
 10
3.4703509317
 20
3.4512711519
 30
0.0
  0
SPLINE
  5
337
100
AcDbEntity
  8
ALL_FEATURES
100
AcDbSpline
 62
7
  6
CONTINUOUS
 70
0
 71
3
 72
14
 73
10
 74
0
 42
0.0000001
 43
0.0000001
 44
0.0000000001
 40
0.0
 40
0.0
 40
0.0
 40
0.0
 40
0.3286011771
 40
0.4694894602
 40
0.5960895657
 40
0.7099441745
 40
0.8131834466
 40
0.9086664293
 40
1.0
 40
1.0
 40
1.0
 40
1.0
 10
3.4710382909
 20
3.3619216317
 30
0.0
 10
3.4709343807
 20
3.3619820945
 30
0.0
 10
3.4707894794
 20
3.3620756277
 30
0.0
 10
3.4706219936
 20
3.3622156971
 30
0.0
 10
3.4705241039
 20
3.3623155033
 30
0.0
 10
3.4704474143
 20
3.3624156315
 30
0.0
 10
3.4703920917
 20
3.3625163307
 30
0.0
 10
3.4703585172
 20
3.3626176839
 30
0.0
 10
3.4703509317
 20
3.3626862393
 30
0.0
 10
3.4703509317
 20
3.3627196543
 30
0.0
  0
SPLINE
  5
338
100
AcDbEntity
  8
ALL_FEATURES
100
AcDbSpline
 62
7
  6
CONTINUOUS
 70
0
 71
3
 72
14
 73
10
 74
0
 42
0.0000001
 43
0.0000001
 44
0.0000000001
 40
0.0
 40
0.0
 40
0.0
 40
0.0
 40
0.3286012452
 40
0.4694895626
 40
0.5960896918
 40
0.709944306
 40
0.8131835592
 40
0.9086664965
 40
1.0
 40
1.0
 40
1.0
 40
1.0
 10
3.4710382907
 20
3.4035916522
 30
0.0
 10
3.4709343806
 20
3.4036521149
 30
0.0
 10
3.4707894793
 20
3.4037456481
 30
0.0
 10
3.4706219936
 20
3.4038857173
 30
0.0
 10
3.470524104
 20
3.4039855234
 30
0.0
 10
3.4704474144
 20
3.4040856515
 30
0.0
 10
3.4703920917
 20
3.4041863505
 30
0.0
 10
3.4703585172
 20
3.4042877036
 30
0.0
 10
3.4703509317
 20
3.4043562589
 30
0.0
 10
3.4703509317
 20
3.4043896738
 30
0.0
  0
SPLINE
  5
339
100
AcDbEntity
  8
ALL_FEATURES
100
AcDbSpline
 62
7
  6
CONTINUOUS
 70
0
 71
3
 72
14
 73
10
 74
0
 42
0.0000001
 43
0.0000001
 44
0.0000000001
 40
0.0
 40
0.0
 40
0.0
 40
0.0
 40
0.3285987326
 40
0.4694859058
 40
0.5960852901
 40
0.709939792
 40
0.8131797428
 40
0.9086642386
 40
1.0
 40
1.0
 40
1.0
 40
1.0
 10
3.6596635953
 20
3.4312341645
 30
0.0
 10
3.6597675031
 20
3.4311737028
 30
0.0
 10
3.659912401
 20
3.4310801707
 30
0.0
 10
3.6600798815
 20
3.4309401021
 30
0.0
 10
3.6601777676
 20
3.4308402961
 30
0.0
 10
3.660254454
 20
3.4307401677
 30
0.0
 10
3.660309774
 20
3.430639468
 30
0.0
 10
3.6603433467
 20
3.4305381141
 30
0.0
 10
3.6603509317
 20
3.4304695583
 30
0.0
 10
3.6603509317
 20
3.4304361429
 30
0.0
  0
SPLINE
  5
33A
100
AcDbEntity
  8
ALL_FEATURES
100
AcDbSpline
 62
7
  6
CONTINUOUS
 70
0
 71
3
 72
14
 73
10
 74
0
 42
0.0000001
 43
0.0000001
 44
0.0000000001
 40
0.0
 40
0.0
 40
0.0
 40
0.0
 40
0.3285990823
 40
0.4694863151
 40
0.5960856964
 40
0.7099401435
 40
0.8131799999
 40
0.9086643742
 40
1.0
 40
1.0
 40
1.0
 40
1.0
 10
3.471038268
 20
3.4103991669
 30
0.0
 10
3.4709343602
 20
3.4103387052
 30
0.0
 10
3.4707894623
 20
3.4102451733
 30
0.0
 10
3.4706219817
 20
3.4101051048
 30
0.0
 10
3.4705240956
 20
3.4100052989
 30
0.0
 10
3.4704474092
 20
3.4099051707
 30
0.0
 10
3.4703920893
 20
3.4098044712
 30
0.0
 10
3.4703585167
 20
3.4097031175
 30
0.0
 10
3.4703509317
 20
3.4096345619
 30
0.0
 10
3.4703509317
 20
3.4096011466
 30
0.0
  0
SPLINE
  5
33B
100
AcDbEntity
  8
ALL_FEATURES
100
AcDbSpline
 62
7
  6
CONTINUOUS
 70
0
 71
3
 72
14
 73
10
 74
0
 42
0.0000001
 43
0.0000001
 44
0.0000000001
 40
0.0
 40
0.0
 40
0.0
 40
0.0
 40
0.3285980482
 40
0.4694852194
 40
0.5960847325
 40
0.7099394225
 40
0.8131795552
 40
0.9086641789
 40
1.0
 40
1.0
 40
1.0
 40
1.0
 10
3.6596635944
 20
3.4729041876
 30
0.0
 10
3.6597675021
 20
3.4728437258
 30
0.0
 10
3.6599123998
 20
3.4727501938
 30
0.0
 10
3.6600798803
 20
3.4726101252
 30
0.0
 10
3.6601777667
 20
3.4725103191
 30
0.0
 10
3.6602544534
 20
3.4724101905
 30
0.0
 10
3.6603097737
 20
3.4723094907
 30
0.0
 10
3.6603433466
 20
3.4722081366
 30
0.0
 10
3.6603509317
 20
3.4721395807
 30
0.0
 10
3.6603509317
 20
3.4721061653
 30
0.0
  0
SPLINE
  5
33C
100
AcDbEntity
  8
ALL_FEATURES
100
AcDbSpline
 62
7
  6
CONTINUOUS
 70
0
 71
3
 72
14
 73
10
 74
0
 42
0.0000001
 43
0.0000001
 44
0.0000000001
 40
0.0
 40
0.0
 40
0.0
 40
0.0
 40
0.3285973419
 40
0.4694845953
 40
0.5960843318
 40
0.7099392755
 40
0.8131795942
 40
0.908664269
 40
1.0
 40
1.0
 40
1.0
 40
1.0
 10
3.6596635939
 20
3.5145741933
 30
0.0
 10
3.6597675012
 20
3.5145137318
 30
0.0
 10
3.6599123985
 20
3.5144201999
 30
0.0
 10
3.6600798788
 20
3.5142801318
 30
0.0
 10
3.6601777654
 20
3.5141803259
 30
0.0
 10
3.6602544525
 20
3.5140801975
 30
0.0
 10
3.6603097732
 20
3.5139794979
 30
0.0
 10
3.6603433465
 20
3.513878144
 30
0.0
 10
3.6603509317
 20
3.5138095882
 30
0.0
 10
3.6603509317
 20
3.5137761729
 30
0.0
  0
SPLINE
  5
33D
100
AcDbEntity
  8
ALL_FEATURES
100
AcDbSpline
 62
7
  6
CONTINUOUS
 70
0
 71
3
 72
60
 73
56
 74
0
 42
0.0000001
 43
0.0000001
 44
0.0000000001
 40
0.0
 40
0.0
 40
0.0
 40
0.0
 40
0.0017501034
 40
0.0037465671
 40
0.0059951672
 40
0.0084994924
 40
0.0112611872
 40
0.0142809019
 40
0.0210939169
 40
0.0289350997
 40
0.0377959219
 40
0.0476602185
 40
0.0585083861
 40
0.0703199367
 40
0.0830717166
 40
0.0967352445
 40
0.1112810252
 40
0.1428963189
 40
0.1776407285
 40
0.2152124405
 40
0.2552781748
 40
0.2974867969
 40
0.341463096
 40
0.386819459
 40
0.4331529916
 40
0.5271059425
 40
0.6199983114
 40
0.6650157743
 40
0.708544842
 40
0.7502021718
 40
0.7896175072
 40
0.8264455192
 40
0.8603602584
 40
0.891066952
 40
0.9051319361
 40
0.9182984933
 40
0.9305379439
 40
0.9418234203
 40
0.9521337451
 40
0.9614496212
 40
0.9697529143
 40
0.9770304945
 40
0.980282903
 40
0.9832772356
 40
0.9860136948
 40
0.9884930957
 40
0.9907171599
 40
0.9926893507
 40
0.9944157665
 40
0.9959059072
 40
0.9971749604
 40
0.9982479846
 40
0.9991667421
 40
0.9995892038
 40
1.0
 40
1.0
 40
1.0
 40
1.0
 10
3.4710378714
 20
3.327059183
 30
0.0
 10
3.4711341922
 20
3.3271152005
 30
0.0
 10
3.4713457569
 20
3.327225944
 30
0.0
 10
3.4716945145
 20
3.3273814694
 30
0.0
 10
3.4720952034
 20
3.3275371308
 30
0.0
 10
3.4725476784
 20
3.3276928917
 30
0.0
 10
3.4730517326
 20
3.3278487779
 30
0.0
 10
3.473823808
 20
3.3280655674
 30
0.0
 10
3.4749171023
 20
3.3283331549
 30
0.0
 10
3.4763818978
 20
3.3286435033
 30
0.0
 10
3.4780446604
 20
3.3289542719
 30
0.0
 10
3.4799017195
 20
3.3292654782
 30
0.0
 10
3.4819489525
 20
3.3295770141
 30
0.0
 10
3.4841819172
 20
3.3298887804
 30
0.0
 10
3.4865957101
 20
3.3302006828
 30
0.0
 10
3.4891849056
 20
3.3305127643
 30
0.0
 10
3.4929696893
 20
3.3309410347
 30
0.0
 10
3.4980935075
 20
3.331471467
 30
0.0
 10
3.5046814428
 20
3.3320927091
 30
0.0
 10
3.5118095417
 20
3.3327145249
 30
0.0
 10
3.5194144956
 20
3.3333369287
 30
0.0
 10
3.5274284772
 20
3.3339596345
 30
0.0
 10
3.5357802459
 20
3.33458265
 30
0.0
 10
3.5443953306
 20
3.3352058217
 30
0.0
 10
3.5561853088
 20
3.3360407293
 30
0.0
 10
3.5709955582
 20
3.3370706762
 30
0.0
 10
3.5857214463
 20
3.3381060502
 30
0.0
 10
3.5972427473
 20
3.3389456398
 30
0.0
 10
3.6055091315
 20
3.3395686032
 30
0.0
 10
3.6134178187
 20
3.340191217
 30
0.0
 10
3.6208985066
 20
3.3408134965
 30
0.0
 10
3.627884495
 20
3.3414351477
 30
0.0
 10
3.6343137211
 20
3.3420561504
 30
0.0
 10
3.6392954526
 20
3.3425869895
 30
0.0
 10
3.6429592797
 20
3.3430158404
 30
0.0
 10
3.6454529054
 20
3.343327841
 30
0.0
 10
3.6477681144
 20
3.3436396562
 30
0.0
 10
3.6498997267
 20
3.3439513251
 30
0.0
 10
3.6518430933
 20
3.344262716
 30
0.0
 10
3.6535940171
 20
3.3445736886
 30
0.0
 10
3.6551485677
 20
3.3448842035
 30
0.0
 10
3.6563177257
 20
3.3451514874
 30
0.0
 10
3.6571512578
 20
3.3453677227
 30
0.0
 10
3.657701581
 20
3.3455236926
 30
0.0
 10
3.6582006004
 20
3.3456795748
 30
0.0
 10
3.6586480394
 20
3.3458353641
 30
0.0
 10
3.6590436697
 20
3.3459910618
 30
0.0
 10
3.6593873666
 20
3.3461466731
 30
0.0
 10
3.6596791612
 20
3.3463021965
 30
0.0
 10
3.6599192286
 20
3.3464577122
 30
0.0
 10
3.6601078554
 20
3.34661367
 30
0.0
 10
3.6602453201
 20
3.3467707861
 30
0.0
 10
3.6603184087
 20
3.3469084115
 30
0.0
 10
3.6603463555
 20
3.3470168587
 30
0.0
 10
3.6603509317
 20
3.3470700151
 30
0.0
 10
3.6603509317
 20
3.3470961697
 30
0.0
  0
SPLINE
  5
33E
100
AcDbEntity
  8
ALL_FEATURES
100
AcDbSpline
 62
7
  6
CONTINUOUS
 70
0
 71
3
 72
57
 73
53
 74
0
 42
0.0000001
 43
0.0000001
 44
0.0000000001
 40
0.0
 40
0.0
 40
0.0
 40
0.0
 40
0.0022140349
 40
0.0046640621
 40
0.0073542843
 40
0.0102875208
 40
0.016889219
 40
0.0244764088
 40
0.0286382034
 40
0.0330436178
 40
0.0425788412
 40
0.053068397
 40
0.0644961002
 40
0.0768394739
 40
0.0900730833
 40
0.1191058989
 40
0.151358783
 40
0.1865592654
 40
0.2244114974
 40
0.2645904375
 40
0.3067542887
 40
0.3505390437
 40
0.4414578929
 40
0.5342219689
 40
0.5802981889
 40
0.6256403966
 40
0.6698575053
 40
0.7125702708
 40
0.7534100685
 40
0.7920291966
 40
0.8280950123
 40
0.8613046944
 40
0.8913749258
 40
0.905155986
 40
0.918061715
 40
0.9300654582
 40
0.9411461453
 40
0.9512842077
 40
0.9604612839
 40
0.9686629427
 40
0.9758830845
 40
0.9821210237
 40
0.9848739382
 40
0.9873851293
 40
0.9896582809
 40
0.9916995782
 40
0.9935179789
 40
0.9951264698
 40
0.9965441602
 40
0.997799293
 40
0.9989327618
 40
1.0
 40
1.0
 40
1.0
 40
1.0
 10
3.4937948384
 20
3.381993232
 30
0.0
 10
3.4938879062
 20
3.3820476181
 30
0.0
 10
3.4940878043
 20
3.3821556598
 30
0.0
 10
3.494411161
 20
3.3823096838
 30
0.0
 10
3.4947728742
 20
3.3824637798
 30
0.0
 10
3.4953283536
 20
3.382677835
 30
0.0
 10
3.4961193483
 20
3.3829422564
 30
0.0
 10
3.496978068
 20
3.3831895289
 30
0.0
 10
3.4977388078
 20
3.3833892658
 30
0.0
 10
3.4985944424
 20
3.3836007044
 30
0.0
 10
3.49975461
 20
3.3838634044
 30
0.0
 10
3.5012547524
 20
3.3841711888
 30
0.0
 10
3.5028941801
 20
3.3844791186
 30
0.0
 10
3.5046693132
 20
3.3847872427
 30
0.0
 10
3.5072940532
 20
3.385211512
 30
0.0
 10
3.5108841667
 20
3.3857364271
 30
0.0
 10
3.5155416585
 20
3.3863495931
 30
0.0
 10
3.5206318042
 20
3.3869635821
 30
0.0
 10
3.5261103473
 20
3.3875781132
 30
0.0
 10
3.5319298473
 20
3.3881931236
 30
0.0
 10
3.5380396733
 20
3.3888084081
 30
0.0
 10
3.5466105427
 20
3.3896395475
 30
0.0
 10
3.5576376471
 20
3.3906645042
 30
0.0
 10
3.5687776243
 20
3.3916800032
 30
0.0
 10
3.577706994
 20
3.3925028875
 30
0.0
 10
3.584281852
 20
3.3931186015
 30
0.0
 10
3.5906922366
 20
3.3937341958
 30
0.0
 10
3.5968824012
 20
3.3943495518
 30
0.0
 10
3.6027986492
 20
3.3949646759
 30
0.0
 10
3.6083894994
 20
3.3955793454
 30
0.0
 10
3.6136065498
 20
3.396193561
 30
0.0
 10
3.6184043846
 20
3.3968069731
 30
0.0
 10
3.6221195418
 20
3.3973314874
 30
0.0
 10
3.624850235
 20
3.3977550121
 30
0.0
 10
3.6267085979
 20
3.3980632222
 30
0.0
 10
3.6284335877
 20
3.3983713205
 30
0.0
 10
3.6300215708
 20
3.3986792173
 30
0.0
 10
3.6314692098
 20
3.3989868432
 30
0.0
 10
3.6327733184
 20
3.399294148
 30
0.0
 10
3.633931158
 20
3.3996011139
 30
0.0
 10
3.6349404379
 20
3.3999075782
 30
0.0
 10
3.6356845257
 20
3.4001722049
 30
0.0
 10
3.6362019433
 20
3.400386695
 30
0.0
 10
3.6365351388
 20
3.4005407383
 30
0.0
 10
3.6368297916
 20
3.4006947491
 30
0.0
 10
3.6370858543
 20
3.4008487529
 30
0.0
 10
3.6373033504
 20
3.4010028222
 30
0.0
 10
3.6374823294
 20
3.4011571356
 30
0.0
 10
3.6376228044
 20
3.4013120252
 30
0.0
 10
3.6377245575
 20
3.4014681101
 30
0.0
 10
3.6377867507
 20
3.4016258819
 30
0.0
 10
3.6378009333
 20
3.4017334563
 30
0.0
 10
3.6378009314
 20
3.4017854164
 30
0.0
  0
SPLINE
  5
33F
100
AcDbEntity
  8
ALL_FEATURES
100
AcDbSpline
 62
7
  6
CONTINUOUS
 70
0
 71
3
 72
60
 73
56
 74
0
 42
0.0000001
 43
0.0000001
 44
0.0000000001
 40
0.0
 40
0.0
 40
0.0
 40
0.0
 40
0.0017503431
 40
0.0037471853
 40
0.005996352
 40
0.0085010775
 40
0.0112629724
 40
0.0142827799
 40
0.0210960262
 40
0.0289380975
 40
0.0377997416
 40
0.0476641885
 40
0.0585125678
 40
0.0703249746
 40
0.0830771436
 40
0.0967406889
 40
0.1112867648
 40
0.1429028891
 40
0.1776476057
 40
0.2152196448
 40
0.2552856381
 40
0.2974941926
 40
0.3414705702
 40
0.3868266361
 40
0.4331600053
 40
0.5271121616
 40
0.6200035233
 40
0.6650204141
 40
0.7085489503
 40
0.7502055403
 40
0.7896205085
 40
0.8264476319
 40
0.8603622106
 40
0.891067958
 40
0.9051329649
 40
0.918299517
 40
0.9305383719
 40
0.9418235651
 40
0.9521340456
 40
0.9614498535
 40
0.9697525388
 40
0.9770301629
 40
0.9802827225
 40
0.9832771664
 40
0.9860136026
 40
0.9884927513
 40
0.9907163867
 40
0.9926883173
 40
0.994414616
 40
0.9959047275
 40
0.9971738116
 40
0.9982469498
 40
0.9991660145
 40
0.9995887707
 40
1.0
 40
1.0
 40
1.0
 40
1.0
 10
3.4710382849
 20
3.6187491943
 30
0.0
 10
3.4711346059
 20
3.6188052415
 30
0.0
 10
3.4713461797
 20
3.6189160523
 30
0.0
 10
3.4716949814
 20
3.619071665
 30
0.0
 10
3.4720957446
 20
3.6192273716
 30
0.0
 10
3.4725482859
 20
3.6193831666
 30
0.0
 10
3.4730523816
 20
3.6195390659
 30
0.0
 10
3.4738244925
 20
3.6197558489
 30
0.0
 10
3.4749178727
 20
3.6200234069
 30
0.0
 10
3.4763828075
 20
3.6203336844
 30
0.0
 10
3.4780456925
 20
3.6206444282
 30
0.0
 10
3.4799028226
 20
3.6209556517
 30
0.0
 10
3.4819501285
 20
3.6212672072
 30
0.0
 10
3.4841831858
 20
3.6215789615
 30
0.0
 10
3.4865970562
 20
3.6218908667
 30
0.0
 10
3.4891862932
 20
3.6222029509
 30
0.0
 10
3.4929711467
 20
3.6226312084
 30
0.0
 10
3.4980950515
 20
3.6231616268
 30
0.0
 10
3.5046830717
 20
3.6237828732
 30
0.0
 10
3.5118112193
 20
3.6244046808
 30
0.0
 10
3.5194161975
 20
3.6250270752
 30
0.0
 10
3.5274301862
 20
3.6256497801
 30
0.0
 10
3.535781927
 20
3.6262727836
 30
0.0
 10
3.5443969765
 20
3.6268959542
 30
0.0
 10
3.5561868607
 20
3.6277308479
 30
0.0
 10
3.5709969665
 20
3.628760787
 30
0.0
 10
3.5857226853
 20
3.6297961493
 30
0.0
 10
3.5972438375
 20
3.6306357325
 30
0.0
 10
3.6055100943
 20
3.6312586854
 30
0.0
 10
3.6134186667
 20
3.6318813008
 30
0.0
 10
3.6208992193
 20
3.6325035615
 30
0.0
 10
3.6278851071
 20
3.6331252245
 30
0.0
 10
3.6343142007
 20
3.6337461943
 30
0.0
 10
3.6392958543
 20
3.6342770535
 30
0.0
 10
3.6429596183
 20
3.6347058949
 30
0.0
 10
3.6454532054
 20
3.6350178827
 30
0.0
 10
3.6477683537
 20
3.6353297046
 30
0.0
 10
3.6498999184
 20
3.6356413618
 30
0.0
 10
3.6518432731
 20
3.6359527314
 30
0.0
 10
3.653594164
 20
3.6362636898
 30
0.0
 10
3.6551486619
 20
3.6365742541
 30
0.0
 10
3.6563177854
 20
3.6368415628
 30
0.0
 10
3.6571513335
 20
3.6370578094
 30
0.0
 10
3.6577016716
 20
3.6372137799
 30
0.0
 10
3.6582006834
 20
3.6373696488
 30
0.0
 10
3.6586480843
 20
3.6375254096
 30
0.0
 10
3.6590436629
 20
3.6376810724
 30
0.0
 10
3.6593873344
 20
3.6378366125
 30
0.0
 10
3.6596791388
 20
3.6379920605
 30
0.0
 10
3.6599192381
 20
3.6381475128
 30
0.0
 10
3.660107903
 20
3.638303437
 30
0.0
 10
3.6602453963
 20
3.6384605702
 30
0.0
 10
3.6603184705
 20
3.6385982614
 30
0.0
 10
3.6603463745
 20
3.6387067889
 30
0.0
 10
3.6603509217
 20
3.6387599939
 30
0.0
 10
3.6603509114
 20
3.638786176
 30
0.0
  0
SPLINE
  5
340
100
AcDbEntity
  8
ALL_FEATURES
100
AcDbSpline
 62
7
  6
CONTINUOUS
 70
0
 71
3
 72
60
 73
56
 74
0
 42
0.0000001
 43
0.0000001
 44
0.0000000001
 40
0.0
 40
0.0
 40
0.0
 40
0.0
 40
0.0004107869
 40
0.0008332366
 40
0.0017519583
 40
0.0028249312
 40
0.0040939227
 40
0.0055839983
 40
0.0073103534
 40
0.009282495
 40
0.0115065277
 40
0.0139859114
 40
0.0167223635
 40
0.019716695
 40
0.0229691041
 40
0.0302466744
 40
0.0385499778
 40
0.0478660061
 40
0.0581764278
 40
0.0694617195
 40
0.0817007681
 40
0.0948669632
 40
0.1089315504
 40
0.1396374323
 40
0.1735518285
 40
0.2103793827
 40
0.2497940118
 40
0.2914497666
 40
0.3349770554
 40
0.3799931443
 40
0.4728858186
 40
0.5668410525
 40
0.6131748085
 40
0.6585303392
 40
0.7025058252
 40
0.7447135999
 40
0.7847787413
 40
0.8223501959
 40
0.8570947496
 40
0.888710735
 40
0.9032567023
 40
0.9169202895
 40
0.9296724734
 40
0.9414848413
 40
0.9523336086
 40
0.9621986395
 40
0.9710607345
 40
0.978903071
 40
0.9857166624
 40
0.9887366392
 40
0.9914986822
 40
0.9940035206
 40
0.9962527531
 40
0.9982496337
 40
1.0
 40
1.0
 40
1.0
 40
1.0
 10
3.4703509317
 20
3.3627196543
 30
0.0
 10
3.4703509317
 20
3.3627458082
 30
0.0
 10
3.4703555073
 20
3.3627989632
 30
0.0
 10
3.4703834511
 20
3.3629074071
 30
0.0
 10
3.4704565326
 20
3.3630450286
 30
0.0
 10
3.4705939869
 20
3.3632021407
 30
0.0
 10
3.4707826017
 20
3.3633580944
 30
0.0
 10
3.4710226568
 20
3.3635136063
 30
0.0
 10
3.4713144398
 20
3.3636691265
 30
0.0
 10
3.4716581271
 20
3.3638247353
 30
0.0
 10
3.4720537505
 20
3.3639804315
 30
0.0
 10
3.4725011848
 20
3.3641362207
 30
0.0
 10
3.4730002012
 20
3.3642921037
 30
0.0
 10
3.4735505223
 20
3.3644480752
 30
0.0
 10
3.4743840513
 20
3.3646643132
 30
0.0
 10
3.4755532059
 20
3.3649316018
 30
0.0
 10
3.4771077622
 20
3.3652421227
 30
0.0
 10
3.4788586996
 20
3.365553094
 30
0.0
 10
3.4808020668
 20
3.3658644829
 30
0.0
 10
3.4829336434
 20
3.3661761518
 30
0.0
 10
3.4852487872
 20
3.3664879651
 30
0.0
 10
3.4877423349
 20
3.3667999552
 30
0.0
 10
3.4914060556
 20
3.3672287937
 30
0.0
 10
3.4963876786
 20
3.3677596282
 30
0.0
 10
3.50281679
 20
3.3683806205
 30
0.0
 10
3.5098026686
 20
3.3690022704
 30
0.0
 10
3.5172831684
 20
3.369624535
 30
0.0
 10
3.5251915821
 20
3.370247134
 30
0.0
 10
3.5334576501
 20
3.3708700759
 30
0.0
 10
3.5449787478
 20
3.3717096557
 30
0.0
 10
3.5597046846
 20
3.3727450349
 30
0.0
 10
3.574515084
 20
3.3737749944
 30
0.0
 10
3.5863051463
 20
3.3746099025
 30
0.0
 10
3.5949201241
 20
3.375233067
 30
0.0
 10
3.603271719
 20
3.3758560623
 30
0.0
 10
3.6112855424
 20
3.3764787526
 30
0.0
 10
3.6188903749
 20
3.3771011351
 30
0.0
 10
3.6260184165
 20
3.3777229316
 30
0.0
 10
3.6326063764
 20
3.3783441701
 30
0.0
 10
3.6377302521
 20
3.3788745815
 30
0.0
 10
3.6415150907
 20
3.3793028331
 30
0.0
 10
3.6441043236
 20
3.3796149088
 30
0.0
 10
3.6465181943
 20
3.3799268085
 30
0.0
 10
3.6487512721
 20
3.3802385723
 30
0.0
 10
3.6507986364
 20
3.3805501291
 30
0.0
 10
3.6526558568
 20
3.3808613544
 30
0.0
 10
3.654318824
 20
3.3811721037
 30
0.0
 10
3.6557838234
 20
3.3814823975
 30
0.0
 10
3.6568772519
 20
3.3817499633
 30
0.0
 10
3.6576494039
 20
3.3819667538
 30
0.0
 10
3.6581535264
 20
3.3821226584
 30
0.0
 10
3.6586060878
 20
3.3822784579
 30
0.0
 10
3.6590068636
 20
3.3824341695
 30
0.0
 10
3.6593556725
 20
3.3825897853
 30
0.0
 10
3.6595672499
 20
3.3827005974
 30
0.0
 10
3.6596635722
 20
3.382756645
 30
0.0
  0
SPLINE
  5
341
100
AcDbEntity
  8
ALL_FEATURES
100
AcDbSpline
 62
7
  6
CONTINUOUS
 70
0
 71
3
 72
58
 73
54
 74
0
 42
0.0000001
 43
0.0000001
 44
0.0000000001
 40
0.0
 40
0.0
 40
0.0
 40
0.0
 40
0.0010671503
 40
0.0022001829
 40
0.0034547546
 40
0.0048723086
 40
0.006481313
 40
0.0083005999
 40
0.0103427534
 40
0.0126162735
 40
0.0151269634
 40
0.0178788093
 40
0.0241153785
 40
0.0313370143
 40
0.0395401471
 40
0.0487158362
 40
0.0588523662
 40
0.0699343207
 40
0.0819395874
 40
0.0948442398
 40
0.1086237537
 40
0.1386964015
 40
0.1719039133
 40
0.2079716423
 40
0.2465891556
 40
0.2874302827
 40
0.3301420403
 40
0.3743598652
 40
0.4197016729
 40
0.4657780161
 40
0.5585418494
 40
0.6494605056
 40
0.6932462436
 40
0.73540898
 40
0.7755891093
 40
0.8134400869
 40
0.8486418121
 40
0.8808934547
 40
0.8958280991
 40
0.909927679
 40
0.9231619937
 40
0.9355035793
 40
0.9469303979
 40
0.9574217527
 40
0.9669579987
 40
0.971362696
 40
0.9755233889
 40
0.9831094048
 40
0.9897128388
 40
0.9926470294
 40
0.9953375586
 40
0.9977869964
 40
1.0
 40
1.0
 40
1.0
 40
1.0
 10
3.4929011697
 20
3.5163804233
 30
0.0
 10
3.4929011571
 20
3.5164323792
 30
0.0
 10
3.4929152473
 20
3.5165399312
 30
0.0
 10
3.4929772418
 20
3.5166977259
 30
0.0
 10
3.4930788526
 20
3.5168538457
 30
0.0
 10
3.4932193202
 20
3.517008738
 30
0.0
 10
3.4933984007
 20
3.5171630301
 30
0.0
 10
3.4936160431
 20
3.5173170822
 30
0.0
 10
3.4938722333
 20
3.5174710717
 30
0.0
 10
3.4941669291
 20
3.5176250737
 30
0.0
 10
3.494500052
 20
3.5177791326
 30
0.0
 10
3.4950172983
 20
3.5179936626
 30
0.0
 10
3.4957613234
 20
3.5182583373
 30
0.0
 10
3.4967707118
 20
3.518564717
 30
0.0
 10
3.4979286416
 20
3.518871637
 30
0.0
 10
3.4992326627
 20
3.5191790044
 30
0.0
 10
3.5006802112
 20
3.5194866735
 30
0.0
 10
3.5022682667
 20
3.5197945226
 30
0.0
 10
3.5039933475
 20
3.5201025846
 30
0.0
 10
3.5058516504
 20
3.5204108294
 30
0.0
 10
3.5085823244
 20
3.5208344168
 30
0.0
 10
3.5122974375
 20
3.5213587956
 30
0.0
 10
3.5170953604
 20
3.5219723488
 30
0.0
 10
3.5223123336
 20
3.5225864502
 30
0.0
 10
3.5279032539
 20
3.5232012113
 30
0.0
 10
3.5338194469
 20
3.5238162658
 30
0.0
 10
3.5400096577
 20
3.5244316737
 30
0.0
 10
3.5464200128
 20
3.5250472335
 30
0.0
 10
3.5529948912
 20
3.525662968
 30
0.0
 10
3.5619242378
 20
3.5264858415
 30
0.0
 10
3.5730642011
 20
3.5275013414
 30
0.0
 10
3.5840913311
 20
3.5285263251
 30
0.0
 10
3.5926621902
 20
3.5293574193
 30
0.0
 10
3.5987720638
 20
3.5299727551
 30
0.0
 10
3.6045915119
 20
3.5305877084
 30
0.0
 10
3.610070111
 20
3.5312022937
 30
0.0
 10
3.6151601867
 20
3.531816257
 30
0.0
 10
3.6191371886
 20
3.5323397548
 30
0.0
 10
3.6220909909
 20
3.5327619621
 30
0.0
 10
3.6241256926
 20
3.5330703311
 30
0.0
 10
3.6260326375
 20
3.5333785797
 30
0.0
 10
3.6278076672
 20
3.5336867403
 30
0.0
 10
3.6294470444
 20
3.5339947078
 30
0.0
 10
3.6309472934
 20
3.5343024395
 30
0.0
 10
3.6321075737
 20
3.5345651104
 30
0.0
 10
3.6329631616
 20
3.5347765775
 30
0.0
 10
3.6337237462
 20
3.5349763332
 30
0.0
 10
3.6345824188
 20
3.5352236694
 30
0.0
 10
3.6353735109
 20
3.5354880264
 30
0.0
 10
3.635929157
 20
3.5357020556
 30
0.0
 10
3.6362909122
 20
3.5358561382
 30
0.0
 10
3.6366141941
 20
3.5360101731
 30
0.0
 10
3.6368139945
 20
3.5361182306
 30
0.0
 10
3.6369070029
 20
3.5361726189
 30
0.0
  0
SPLINE
  5
342
100
AcDbEntity
  8
ALL_FEATURES
100
AcDbSpline
 62
7
  6
CONTINUOUS
 70
0
 71
3
 72
58
 73
54
 74
0
 42
0.0000001
 43
0.0000001
 44
0.0000000001
 40
0.0
 40
0.0
 40
0.0
 40
0.0
 40
0.002213093
 40
0.0046623293
 40
0.0073523567
 40
0.0102862771
 40
0.0168899858
 40
0.024476608
 40
0.0286374334
 40
0.0330419893
 40
0.0425774477
 40
0.0530689889
 40
0.064496375
 40
0.0768380418
 40
0.090071638
 40
0.1041713115
 40
0.1191064484
 40
0.1513576341
 40
0.1865597657
 40
0.2244104663
 40
0.2645908294
 40
0.3067534516
 40
0.3505392728
 40
0.4414579135
 40
0.5342217485
 40
0.5802982343
 40
0.6256399175
 40
0.6698578712
 40
0.7125695329
 40
0.7534107282
 40
0.7920282175
 40
0.8280959187
 40
0.8613035091
 40
0.8913760143
 40
0.9051559722
 40
0.9180603759
 40
0.930065267
 40
0.9411473375
 40
0.9512843911
 40
0.9604598641
 40
0.9686625904
 40
0.9758842724
 40
0.9821213958
 40
0.9848732302
 40
0.9873837723
 40
0.9896570902
 40
0.9916990645
 40
0.9935182656
 40
0.9951273326
 40
0.9965451125
 40
0.9977998272
 40
0.9989328675
 40
1.0
 40
1.0
 40
1.0
 40
1.0
 10
3.4937949297
 20
3.6320132271
 30
0.0
 10
3.4938879446
 20
3.6320676128
 30
0.0
 10
3.4940877421
 20
3.6321756636
 30
0.0
 10
3.4944109901
 20
3.6323296989
 30
0.0
 10
3.4947726857
 20
3.6324838002
 30
0.0
 10
3.4953283035
 20
3.6326978363
 30
0.0
 10
3.4961194312
 20
3.6329621815
 30
0.0
 10
3.4969781574
 20
3.6332095081
 30
0.0
 10
3.4977387716
 20
3.6334092645
 30
0.0
 10
3.4985943196
 20
3.6336207301
 30
0.0
 10
3.4997545564
 20
3.6338834281
 30
0.0
 10
3.501254807
 20
3.6341911429
 30
0.0
 10
3.5028942268
 20
3.6344991008
 30
0.0
 10
3.5046692532
 20
3.6348072568
 30
0.0
 10
3.5065761668
 20
3.6351155295
 30
0.0
 10
3.5086108628
 20
3.63542389
 30
0.0
 10
3.5115646731
 20
3.635846079
 30
0.0
 10
3.5155416916
 20
3.6363696066
 30
0.0
 10
3.5206317528
 20
3.6369835449
 30
0.0
 10
3.526110366
 20
3.6375981484
 30
0.0
 10
3.531929806
 20
3.6382130899
 30
0.0
 10
3.5380396868
 20
3.6388284333
 30
0.0
 10
3.5466105416
 20
3.639659523
 30
0.0
 10
3.5576376715
 20
3.6406845092
 30
0.0
 10
3.5687776377
 20
3.6417000117
 30
0.0
 10
3.577706983
 20
3.6425228801
 30
0.0
 10
3.5842818662
 20
3.64313862
 30
0.0
 10
3.5906922154
 20
3.6437541746
 30
0.0
 10
3.5968824289
 20
3.6443695869
 30
0.0
 10
3.6027986179
 20
3.6449846386
 30
0.0
 10
3.6083895373
 20
3.6455994
 30
0.0
 10
3.6136065098
 20
3.6462135047
 30
0.0
 10
3.6184044283
 20
3.6468270481
 30
0.0
 10
3.6221195557
 20
3.6473514477
 30
0.0
 10
3.6248502353
 20
3.6477750112
 30
0.0
 10
3.6267085275
 20
3.6480832638
 30
0.0
 10
3.6284335813
 20
3.6483913337
 30
0.0
 10
3.6300216486
 20
3.6486991857
 30
0.0
 10
3.6314692228
 20
3.6490068316
 30
0.0
 10
3.6327732364
 20
3.6493142088
 30
0.0
 10
3.6339311341
 20
3.6496211397
 30
0.0
 10
3.6349405275
 20
3.6499275308
 30
0.0
 10
3.6356845944
 20
3.6501921737
 30
0.0
 10
3.6362018579
 20
3.6504067127
 30
0.0
 10
3.6365349607
 20
3.6505607733
 30
0.0
 10
3.6368296263
 20
3.6507147775
 30
0.0
 10
3.6370857878
 20
3.6508687702
 30
0.0
 10
3.6373034162
 20
3.651022825
 30
0.0
 10
3.6374825034
 20
3.6511771223
 30
0.0
 10
3.6376230165
 20
3.6513319996
 30
0.0
 10
3.6377246723
 20
3.6514881137
 30
0.0
 10
3.6377866726
 20
3.6516459158
 30
0.0
 10
3.6378007478
 20
3.6517534705
 30
0.0
 10
3.6378007257
 20
3.6518054254
 30
0.0
  0
SPLINE
  5
343
100
AcDbEntity
  8
ALL_FEATURES
100
AcDbSpline
 62
7
  6
CONTINUOUS
 70
0
 71
3
 72
40
 73
36
 74
0
 42
0.0000001
 43
0.0000001
 44
0.0000000001
 40
0.0
 40
0.0
 40
0.0
 40
0.0
 40
0.0008352615
 40
0.0018203786
 40
0.0029659375
 40
0.0042785187
 40
0.0057623681
 40
0.0074203143
 40
0.0112652772
 40
0.0158233128
 40
0.0210976959
 40
0.0270866161
 40
0.0337864562
 40
0.0411926954
 40
0.049300178
 40
0.0675859476
 40
0.088563386
 40
0.1121431139
 40
0.1382129857
 40
0.1666505098
 40
0.1973170012
 40
0.2300578644
 40
0.2647098303
 40
0.3010913256
 40
0.378278628
 40
0.4599762174
 40
0.5443992337
 40
0.6296547546
 40
0.713780566
 40
0.7947936162
 40
0.8707335047
 40
0.9062077231
 40
0.9397250025
 40
0.9710658384
 40
1.0
 40
1.0
 40
1.0
 40
1.0
 10
3.6478055182
 20
3.312669243
 30
0.0
 10
3.6477788671
 20
3.312642592
 30
0.0
 10
3.6477154752
 20
3.3125898075
 30
0.0
 10
3.6476030523
 20
3.3125168599
 30
0.0
 10
3.6474657523
 20
3.3124437992
 30
0.0
 10
3.647303526
 20
3.312370618
 30
0.0
 10
3.6471163103
 20
3.3122972817
 30
0.0
 10
3.6468183119
 20
3.312194165
 30
0.0
 10
3.6463821361
 20
3.3120673198
 30
0.0
 10
3.6457824708
 20
3.3119208637
 30
0.0
 10
3.6450837475
 20
3.3117738622
 30
0.0
 10
3.6442866646
 20
3.3116263095
 30
0.0
 10
3.6433920163
 20
3.3114783017
 30
0.0
 10
3.6424006746
 20
3.31132986
 30
0.0
 10
3.6408895639
 20
3.3111230553
 30
0.0
 10
3.6387672376
 20
3.3108673194
 30
0.0
 10
3.6359471518
 20
3.3105693718
 30
0.0
 10
3.6327742361
 20
3.3102698775
 30
0.0
 10
3.629263498
 20
3.3099687834
 30
0.0
 10
3.6254320219
 20
3.309666275
 30
0.0
 10
3.6212987647
 20
3.3093623934
 30
0.0
 10
3.616884478
 20
3.3090571464
 30
0.0
 10
3.6122118132
 20
3.3087506236
 30
0.0
 10
3.6055366323
 20
3.3083318713
 30
0.0
 10
3.5967408534
 20
3.3078108012
 30
0.0
 10
3.5857793281
 20
3.3071915829
 30
0.0
 10
3.5744534644
 20
3.3065671031
 30
0.0
 10
3.5630181468
 20
3.3059375156
 30
0.0
 10
3.5517371999
 20
3.3053030847
 30
0.0
 10
3.5408775638
 20
3.3046640184
 30
0.0
 10
3.5322117357
 20
3.3041164144
 30
0.0
 10
3.5256871233
 20
3.3036697796
 30
0.0
 10
3.5211716661
 20
3.3033411195
 30
0.0
 10
3.5169522489
 20
3.3030112349
 30
0.0
 10
3.5142421336
 20
3.3027810358
 30
0.0
 10
3.5129417093
 20
3.3026646564
 30
0.0
  0
SPLINE
  5
344
100
AcDbEntity
  8
ALL_FEATURES
100
AcDbSpline
 62
7
  6
CONTINUOUS
 70
0
 71
3
 72
58
 73
54
 74
0
 42
0.0000001
 43
0.0000001
 44
0.0000000001
 40
0.0
 40
0.0
 40
0.0
 40
0.0
 40
0.0010671553
 40
0.0022001916
 40
0.0034547452
 40
0.0048722474
 40
0.0064812258
 40
0.0083005202
 40
0.0103427045
 40
0.0126162657
 40
0.0151269914
 40
0.017878852
 40
0.0241153284
 40
0.0313369247
 40
0.0395401282
 40
0.0487158755
 40
0.0588523277
 40
0.0699342287
 40
0.0819395553
 40
0.0948442668
 40
0.1086237241
 40
0.1386963552
 40
0.1719038874
 40
0.2079715825
 40
0.2465891262
 40
0.2874302112
 40
0.330142001
 40
0.3743597848
 40
0.4197016184
 40
0.4657779304
 40
0.5585417627
 40
0.6494604222
 40
0.69324613
 40
0.7354089041
 40
0.7755889785
 40
0.8134400224
 40
0.8486416683
 40
0.880893405
 40
0.8958279837
 40
0.9099275285
 40
0.9231619347
 40
0.9355035468
 40
0.9469302955
 40
0.957421603
 40
0.9669579386
 40
0.9713626812
 40
0.9755233746
 40
0.9831093219
 40
0.9897126998
 40
0.9926469051
 40
0.9953374964
 40
0.9977869885
 40
1.0
 40
1.0
 40
1.0
 40
1.0
 10
3.4929011736
 20
3.4747104002
 30
0.0
 10
3.4929011631
 20
3.4747623562
 30
0.0
 10
3.4929152574
 20
3.474869908
 30
0.0
 10
3.492977253
 20
3.4750277014
 30
0.0
 10
3.4930788578
 20
3.4751838207
 30
0.0
 10
3.493219314
 20
3.4753387171
 30
0.0
 10
3.4933983909
 20
3.4754930086
 30
0.0
 10
3.4936160345
 20
3.4756470601
 30
0.0
 10
3.4938722296
 20
3.475801049
 30
0.0
 10
3.4941669316
 20
3.4759550506
 30
0.0
 10
3.4945000596
 20
3.4761091092
 30
0.0
 10
3.4950173044
 20
3.4763236371
 30
0.0
 10
3.4957613215
 20
3.4765883172
 30
0.0
 10
3.496770707
 20
3.4768946967
 30
0.0
 10
3.497928642
 20
3.4772016142
 30
0.0
 10
3.4992326661
 20
3.4775089796
 30
0.0
 10
3.5006802103
 20
3.4778166522
 30
0.0
 10
3.5022682621
 20
3.4781245023
 30
0.0
 10
3.5039933466
 20
3.4784325627
 30
0.0
 10
3.5058516528
 20
3.4787408062
 30
0.0
 10
3.5085823258
 20
3.4791643969
 30
0.0
 10
3.5122974365
 20
3.4796887745
 30
0.0
 10
3.5170953582
 20
3.4803023273
 30
0.0
 10
3.5223123322
 20
3.4809164304
 30
0.0
 10
3.5279032507
 20
3.4815311901
 30
0.0
 10
3.5338194447
 20
3.4821462468
 30
0.0
 10
3.5400096534
 20
3.4827616533
 30
0.0
 10
3.5464200093
 20
3.4833772152
 30
0.0
 10
3.5529948858
 20
3.4839929487
 30
0.0
 10
3.5619242322
 20
3.4848158239
 30
0.0
 10
3.5730641946
 20
3.485831324
 30
0.0
 10
3.5840913236
 20
3.4868563077
 30
0.0
 10
3.5926621834
 20
3.487687404
 30
0.0
 10
3.598772055
 20
3.4883027383
 30
0.0
 10
3.6045915053
 20
3.488917695
 30
0.0
 10
3.6100701017
 20
3.489532277
 30
0.0
 10
3.6151601809
 20
3.4901462457
 30
0.0
 10
3.6191371811
 20
3.490669739
 30
0.0
 10
3.6220909828
 20
3.4910919491
 30
0.0
 10
3.6241256838
 20
3.4914003201
 30
0.0
 10
3.6260326333
 20
3.4917085663
 30
0.0
 10
3.6278076654
 20
3.4920167267
 30
0.0
 10
3.6294470379
 20
3.4923246959
 30
0.0
 10
3.630947285
 20
3.4926324303
 30
0.0
 10
3.6321075701
 20
3.4928950992
 30
0.0
 10
3.6329631651
 20
3.4931065654
 30
0.0
 10
3.6337237486
 20
3.4933063211
 30
0.0
 10
3.6345824147
 20
3.4935536585
 30
0.0
 10
3.6353735005
 20
3.4938180174
 30
0.0
 10
3.6359291475
 20
3.4940320469
 30
0.0
 10
3.6362909102
 20
3.4941861281
 30
0.0
 10
3.6366141995
 20
3.4943401616
 30
0.0
 10
3.6368140028
 20
3.4944482203
 30
0.0
 10
3.6369070113
 20
3.4945026091
 30
0.0
  0
SPLINE
  5
345
100
AcDbEntity
  8
ALL_FEATURES
100
AcDbSpline
 62
7
  6
CONTINUOUS
 70
0
 71
3
 72
60
 73
56
 74
0
 42
0.0000001
 43
0.0000001
 44
0.0000000001
 40
0.0
 40
0.0
 40
0.0
 40
0.0
 40
0.0004107865
 40
0.0008332351
 40
0.0017519521
 40
0.002824916
 40
0.0040938944
 40
0.0055839539
 40
0.0073102903
 40
0.0092824116
 40
0.0115064192
 40
0.0139857631
 40
0.0167221644
 40
0.0197164392
 40
0.022968791
 40
0.0302462664
 40
0.0385495038
 40
0.0478654124
 40
0.0581757056
 40
0.0694609198
 40
0.0816999189
 40
0.0948660274
 40
0.1089305462
 40
0.1396364308
 40
0.1735508674
 40
0.2103786886
 40
0.2497935964
 40
0.291449558
 40
0.3349769402
 40
0.3799930507
 40
0.4728857511
 40
0.5668410451
 40
0.6131748057
 40
0.658530357
 40
0.7025059582
 40
0.7447138789
 40
0.7847790356
 40
0.8223503828
 40
0.8570948082
 40
0.8887106974
 40
0.903256654
 40
0.9169202498
 40
0.9296724476
 40
0.9414848245
 40
0.9523335995
 40
0.9621986362
 40
0.9710607327
 40
0.9789030692
 40
0.9857166631
 40
0.9887366413
 40
0.9914986852
 40
0.9940035238
 40
0.9962527554
 40
0.9982496348
 40
1.0
 40
1.0
 40
1.0
 40
1.0
 10
3.4703509317
 20
3.4043896738
 30
0.0
 10
3.4703509317
 20
3.4044158277
 30
0.0
 10
3.4703555072
 20
3.4044689825
 30
0.0
 10
3.4703834505
 20
3.4045774262
 30
0.0
 10
3.4704565306
 20
3.4047150473
 30
0.0
 10
3.4705939829
 20
3.4048721589
 30
0.0
 10
3.4707825953
 20
3.4050281119
 30
0.0
 10
3.4710226474
 20
3.4051836227
 30
0.0
 10
3.4713144272
 20
3.4053391415
 30
0.0
 10
3.4716581108
 20
3.4054947486
 30
0.0
 10
3.4720537293
 20
3.4056504423
 30
0.0
 10
3.4725011564
 20
3.4058062298
 30
0.0
 10
3.4730001635
 20
3.4059621111
 30
0.0
 10
3.4735504742
 20
3.4061180809
 30
0.0
 10
3.4743839899
 20
3.4063343172
 30
0.0
 10
3.4755531307
 20
3.4066016039
 30
0.0
 10
3.4771076695
 20
3.4069121213
 30
0.0
 10
3.4788585866
 20
3.4072230924
 30
0.0
 10
3.4808019328
 20
3.407534481
 30
0.0
 10
3.4829334932
 20
3.4078461483
 30
0.0
 10
3.4852486235
 20
3.4081579597
 30
0.0
 10
3.487742158
 20
3.4084699504
 30
0.0
 10
3.4914058689
 20
3.4088987899
 30
0.0
 10
3.4963874903
 20
3.4094296239
 30
0.0
 10
3.5028166211
 20
3.4100506211
 30
0.0
 10
3.509802537
 20
3.4106722731
 30
0.0
 10
3.5172830844
 20
3.4112945427
 30
0.0
 10
3.525191535
 20
3.4119171439
 30
0.0
 10
3.5334576234
 20
3.4125400869
 30
0.0
 10
3.5449787302
 20
3.4133796665
 30
0.0
 10
3.5597046739
 20
3.4144150451
 30
0.0
 10
3.5745150792
 20
3.415445004
 30
0.0
 10
3.586305147
 20
3.4162799115
 30
0.0
 10
3.5949201338
 20
3.416903076
 30
0.0
 10
3.6032717467
 20
3.4175260722
 30
0.0
 10
3.6112855876
 20
3.4181487631
 30
0.0
 10
3.6188904237
 20
3.4187711452
 30
0.0
 10
3.6260184513
 20
3.4193929402
 30
0.0
 10
3.6326063903
 20
3.4200141758
 30
0.0
 10
3.6377302511
 20
3.4205445854
 30
0.0
 10
3.6415150835
 20
3.4209728358
 30
0.0
 10
3.6441043172
 20
3.4212849111
 30
0.0
 10
3.64651819
 20
3.4215968105
 30
0.0
 10
3.6487512698
 20
3.4219085742
 30
0.0
 10
3.6507986356
 20
3.4222201307
 30
0.0
 10
3.652655857
 20
3.4225313556
 30
0.0
 10
3.6543188247
 20
3.4228421047
 30
0.0
 10
3.6557838245
 20
3.4231523982
 30
0.0
 10
3.6568772533
 20
3.4234199638
 30
0.0
 10
3.6576494057
 20
3.4236367542
 30
0.0
 10
3.6581535283
 20
3.4237926587
 30
0.0
 10
3.6586060898
 20
3.423948458
 30
0.0
 10
3.6590068655
 20
3.4241041695
 30
0.0
 10
3.6593556742
 20
3.4242597853
 30
0.0
 10
3.6595672515
 20
3.4243705973
 30
0.0
 10
3.6596635737
 20
3.4244266448
 30
0.0
  0
SPLINE
  5
346
100
AcDbEntity
  8
ALL_FEATURES
100
AcDbSpline
 62
7
  6
CONTINUOUS
 70
0
 71
3
 72
58
 73
54
 74
0
 42
0.0000001
 43
0.0000001
 44
0.0000000001
 40
0.0
 40
0.0
 40
0.0
 40
0.0
 40
0.001067159
 40
0.0022001991
 40
0.0034547365
 40
0.0048721865
 40
0.0064811333
 40
0.0083004311
 40
0.0103426438
 40
0.0126162451
 40
0.0151270079
 40
0.0178788863
 40
0.0241152783
 40
0.0313368253
 40
0.0395400968
 40
0.0487159071
 40
0.0588522925
 40
0.0699341313
 40
0.0819395157
 40
0.094844291
 40
0.1086237036
 40
0.1386963096
 40
0.1719038769
 40
0.2079715338
 40
0.2465891201
 40
0.2874301623
 40
0.3301419937
 40
0.3743597386
 40
0.4197016045
 40
0.4657778897
 40
0.5585417296
 40
0.6494603983
 40
0.6932460738
 40
0.7354088899
 40
0.7755889045
 40
0.8134400176
 40
0.8486415772
 40
0.8808934078
 40
0.8958279198
 40
0.9099274217
 40
0.9231619101
 40
0.9355035547
 40
0.946930232
 40
0.9574214834
 40
0.9669578955
 40
0.9713626873
 40
0.9755233833
 40
0.9831092601
 40
0.9897125724
 40
0.992646785
 40
0.9953374296
 40
0.997786979
 40
1.0
 40
1.0
 40
1.0
 40
1.0
 10
3.4929011765
 20
3.4330403948
 30
0.0
 10
3.4929011684
 20
3.4330923511
 30
0.0
 10
3.492915267
 20
3.4331999024
 30
0.0
 10
3.4929772641
 20
3.4333576944
 30
0.0
 10
3.4930788639
 20
3.4335138126
 30
0.0
 10
3.4932193087
 20
3.4336687128
 30
0.0
 10
3.4933983814
 20
3.4338230039
 30
0.0
 10
3.4936160255
 20
3.4339770546
 30
0.0
 10
3.4938722253
 20
3.4341310427
 30
0.0
 10
3.4941669334
 20
3.4342850435
 30
0.0
 10
3.4945000667
 20
3.4344391016
 30
0.0
 10
3.495017311
 20
3.434653627
 30
0.0
 10
3.4957613205
 20
3.4349183115
 30
0.0
 10
3.4967707028
 20
3.4352246912
 30
0.0
 10
3.4979286427
 20
3.4355316057
 30
0.0
 10
3.4992326706
 20
3.4358389687
 30
0.0
 10
3.500680211
 20
3.4361466437
 30
0.0
 10
3.5022682592
 20
3.436454495
 30
0.0
 10
3.503993347
 20
3.4367625531
 30
0.0
 10
3.5058516573
 20
3.4370707948
 30
0.0
 10
3.5085823297
 20
3.4374943877
 30
0.0
 10
3.5122974391
 20
3.4380187641
 30
0.0
 10
3.5170953597
 20
3.4386323149
 30
0.0
 10
3.5223123356
 20
3.4392464195
 30
0.0
 10
3.5279032526
 20
3.4398611764
 30
0.0
 10
3.5338194486
 20
3.4404762347
 30
0.0
 10
3.5400096557
 20
3.4410916386
 30
0.0
 10
3.5464200134
 20
3.4417072017
 30
0.0
 10
3.5529948887
 20
3.4423229333
 30
0.0
 10
3.5619242358
 20
3.4431458089
 30
0.0
 10
3.5730641981
 20
3.4441613078
 30
0.0
 10
3.5840913268
 20
3.4451862898
 30
0.0
 10
3.5926621876
 20
3.4460173872
 30
0.0
 10
3.5987720572
 20
3.4466327189
 30
0.0
 10
3.6045915098
 20
3.4472476783
 30
0.0
 10
3.6100701031
 20
3.4478622558
 30
0.0
 10
3.6151601856
 20
3.4484762292
 30
0.0
 10
3.6191371837
 20
3.4489997171
 30
0.0
 10
3.6220909844
 20
3.4494219293
 30
0.0
 10
3.6241256839
 20
3.4497303018
 30
0.0
 10
3.6260326373
 20
3.4500385454
 30
0.0
 10
3.6278076718
 20
3.4503467047
 30
0.0
 10
3.6294470395
 20
3.4506546753
 30
0.0
 10
3.6309472836
 20
3.4509624119
 30
0.0
 10
3.6321075726
 20
3.451225079
 30
0.0
 10
3.6329631744
 20
3.4514365435
 30
0.0
 10
3.6337237571
 20
3.4516362989
 30
0.0
 10
3.6345824163
 20
3.451883637
 30
0.0
 10
3.6353734949
 20
3.4521479975
 30
0.0
 10
3.6359291417
 20
3.4523620269
 30
0.0
 10
3.636290911
 20
3.452516107
 30
0.0
 10
3.6366142079
 20
3.4526701383
 30
0.0
 10
3.6368140143
 20
3.4527781982
 30
0.0
 10
3.6369070231
 20
3.4528325875
 30
0.0
  0
SPLINE
  5
347
100
AcDbEntity
  8
ALL_FEATURES
100
AcDbSpline
 62
7
  6
CONTINUOUS
 70
0
 71
3
 72
57
 73
53
 74
0
 42
0.0000001
 43
0.0000001
 44
0.0000000001
 40
0.0
 40
0.0
 40
0.0
 40
0.0
 40
0.001067247
 40
0.00220072
 40
0.0034558413
 40
0.0048735061
 40
0.0064819676
 40
0.0083003486
 40
0.0103416511
 40
0.0126148491
 40
0.0151260989
 40
0.017879029
 40
0.0241169191
 40
0.0313369962
 40
0.0395386901
 40
0.0487158442
 40
0.0588538659
 40
0.0699344925
 40
0.0819382583
 40
0.0948440628
 40
0.1086250933
 40
0.1386952818
 40
0.1719050114
 40
0.2079707854
 40
0.2465899579
 40
0.2874297193
 40
0.3301425212
 40
0.374359603
 40
0.4197018357
 40
0.4657780406
 40
0.5585421258
 40
0.6494609824
 40
0.6932457194
 40
0.7354095934
 40
0.7755885026
 40
0.813440767
 40
0.8486412082
 40
0.8808941313
 40
0.9099268986
 40
0.9231605345
 40
0.935503924
 40
0.9469315897
 40
0.9574211312
 40
0.966956379
 40
0.9713618058
 40
0.9755236054
 40
0.9831107625
 40
0.9897124426
 40
0.9926456872
 40
0.9953359215
 40
0.9977859599
 40
1.0
 40
1.0
 40
1.0
 40
1.0
 10
3.4929009323
 20
3.6413904214
 30
0.0
 10
3.4929009345
 20
3.641442382
 30
0.0
 10
3.4929151223
 20
3.6415499557
 30
0.0
 10
3.4929773154
 20
3.6417077272
 30
0.0
 10
3.4930790644
 20
3.6418638128
 30
0.0
 10
3.4932195336
 20
3.6420187032
 30
0.0
 10
3.4933985073
 20
3.6421730174
 30
0.0
 10
3.4936160004
 20
3.6423270873
 30
0.0
 10
3.4938720647
 20
3.6424810917
 30
0.0
 10
3.4941667242
 20
3.6426351014
 30
0.0
 10
3.4944999268
 20
3.6427891431
 30
0.0
 10
3.4950173455
 20
3.6430036336
 30
0.0
 10
3.4957614276
 20
3.643268262
 30
0.0
 10
3.4967707028
 20
3.6435747291
 30
0.0
 10
3.4979285452
 20
3.6438816937
 30
0.0
 10
3.4992326581
 20
3.6441889958
 30
0.0
 10
3.5006802953
 20
3.6444966244
 30
0.0
 10
3.5022682743
 20
3.6448045228
 30
0.0
 10
3.503993266
 20
3.6451126209
 30
0.0
 10
3.5058516327
 20
3.645420829
 30
0.0
 10
3.5085823256
 20
3.6458443564
 30
0.0
 10
3.5122974816
 20
3.6463688716
 30
0.0
 10
3.517095315
 20
3.6469822821
 30
0.0
 10
3.5223123675
 20
3.6475965007
 30
0.0
 10
3.5279032164
 20
3.6482111685
 30
0.0
 10
3.5338194665
 20
3.6488262951
 30
0.0
 10
3.54000963
 20
3.6494416498
 30
0.0
 10
3.5464200163
 20
3.650057246
 30
0.0
 10
3.5529948737
 20
3.6506729594
 30
0.0
 10
3.5619242444
 20
3.6514958451
 30
0.0
 10
3.573064222
 20
3.6525113443
 30
0.0
 10
3.5840913265
 20
3.6535363011
 30
0.0
 10
3.5926621967
 20
3.6543674418
 30
0.0
 10
3.5987720216
 20
3.6549827252
 30
0.0
 10
3.6045915227
 20
3.6555977375
 30
0.0
 10
3.6100700642
 20
3.6562122668
 30
0.0
 10
3.6151602112
 20
3.6568262583
 30
0.0
 10
3.619817701
 20
3.6574394217
 30
0.0
 10
3.623407815
 20
3.6579643394
 30
0.0
 10
3.626032555
 20
3.6583886076
 30
0.0
 10
3.6278076885
 20
3.658696731
 30
0.0
 10
3.6294471142
 20
3.659004662
 30
0.0
 10
3.6309472552
 20
3.6593124468
 30
0.0
 10
3.6321074241
 20
3.6595751461
 30
0.0
 10
3.6329630609
 20
3.6597865845
 30
0.0
 10
3.6337238001
 20
3.6599863209
 30
0.0
 10
3.6345825173
 20
3.6602335942
 30
0.0
 10
3.6353735095
 20
3.6604980162
 30
0.0
 10
3.6359289893
 20
3.6607120708
 30
0.0
 10
3.6362907042
 20
3.6608661666
 30
0.0
 10
3.6366140625
 20
3.6610201905
 30
0.0
 10
3.6368139616
 20
3.6611282322
 30
0.0
 10
3.6369070296
 20
3.6611826184
 30
0.0
  0
SPLINE
  5
348
100
AcDbEntity
  8
ALL_FEATURES
100
AcDbSpline
 62
7
  6
CONTINUOUS
 70
0
 71
3
 72
57
 73
53
 74
0
 42
0.0000001
 43
0.0000001
 44
0.0000000001
 40
0.0
 40
0.0
 40
0.0
 40
0.0
 40
0.0010672669
 40
0.0022005818
 40
0.0034553013
 40
0.0048724689
 40
0.0064805988
 40
0.0082991216
 40
0.0103411927
 40
0.0126152245
 40
0.0151267172
 40
0.0178793248
 40
0.0241159063
 40
0.0313356176
 40
0.0395389882
 40
0.0487162454
 40
0.0588530147
 40
0.0699331309
 40
0.0819383845
 40
0.0948444505
 40
0.1086243911
 40
0.1386952226
 40
0.1719044482
 40
0.2079705422
 40
0.2465895041
 40
0.2874293135
 40
0.33014214
 40
0.3743590701
 40
0.4197014836
 40
0.4657774269
 40
0.5585414832
 40
0.6494603629
 40
0.6932451911
 40
0.7354090439
 40
0.7755878436
 40
0.8134403245
 40
0.848640398
 40
0.880893819
 40
0.9099259296
 40
0.9231605689
 40
0.9355037488
 40
0.9469300231
 40
0.9574200096
 40
0.9669563759
 40
0.971362037
 40
0.9755235507
 40
0.983109195
 40
0.9897111984
 40
0.9926450275
 40
0.9953358122
 40
0.9977861403
 40
1.0
 40
1.0
 40
1.0
 40
1.0
 10
3.4929010919
 20
3.3080303928
 30
0.0
 10
3.4929011228
 20
3.3080823543
 30
0.0
 10
3.4929153186
 20
3.3081899121
 30
0.0
 10
3.4929774298
 20
3.3083476839
 30
0.0
 10
3.4930790654
 20
3.3085037823
 30
0.0
 10
3.4932194328
 20
3.3086586867
 30
0.0
 10
3.4933983556
 20
3.3088130119
 30
0.0
 10
3.4936158841
 20
3.308967084
 30
0.0
 10
3.4938720644
 20
3.3091210616
 30
0.0
 10
3.4941668349
 20
3.3092750508
 30
0.0
 10
3.494500074
 20
3.3094290994
 30
0.0
 10
3.4950174171
 20
3.3096435953
 30
0.0
 10
3.4957613827
 20
3.3099082619
 30
0.0
 10
3.4967706551
 20
3.310214746
 30
0.0
 10
3.4979285922
 20
3.3105216237
 30
0.0
 10
3.4992327253
 20
3.3108289482
 30
0.0
 10
3.5006802739
 20
3.311136608
 30
0.0
 10
3.5022682366
 20
3.3114445248
 30
0.0
 10
3.5039932996
 20
3.3117525696
 30
0.0
 10
3.5058516981
 20
3.3120607831
 30
0.0
 10
3.508582375
 20
3.3124843608
 30
0.0
 10
3.5122974939
 20
3.3130088168
 30
0.0
 10
3.5170953457
 20
3.3136222665
 30
0.0
 10
3.5223123833
 20
3.3142364612
 30
0.0
 10
3.52790324
 20
3.3148511416
 30
0.0
 10
3.5338194855
 20
3.3154662631
 30
0.0
 10
3.5400096468
 20
3.3160816167
 30
0.0
 10
3.546420037
 20
3.3166972179
 30
0.0
 10
3.5529948856
 20
3.3173129235
 30
0.0
 10
3.5619242525
 20
3.3181358176
 30
0.0
 10
3.5730642205
 20
3.3191513114
 30
0.0
 10
3.5840913319
 20
3.3201762702
 30
0.0
 10
3.5926622091
 20
3.321007409
 30
0.0
 10
3.5987720339
 20
3.3216226915
 30
0.0
 10
3.60459154
 20
3.3222377106
 30
0.0
 10
3.610070072
 20
3.3228522252
 30
0.0
 10
3.6151602341
 20
3.3234662423
 30
0.0
 10
3.6198177049
 20
3.3240793649
 30
0.0
 10
3.6234078527
 20
3.3246043412
 30
0.0
 10
3.6260326077
 20
3.3250285613
 30
0.0
 10
3.6278077138
 20
3.3253366775
 30
0.0
 10
3.6294470728
 20
3.325644661
 30
0.0
 10
3.6309472258
 20
3.3259524282
 30
0.0
 10
3.6321074895
 20
3.3262151075
 30
0.0
 10
3.6329631804
 20
3.3264265443
 30
0.0
 10
3.633723844
 20
3.3266262708
 30
0.0
 10
3.6345824681
 20
3.3268736084
 30
0.0
 10
3.635373436
 20
3.3271380053
 30
0.0
 10
3.6359289993
 20
3.3273520408
 30
0.0
 10
3.6362907926
 20
3.3275061297
 30
0.0
 10
3.6366141909
 20
3.327660145
 30
0.0
 10
3.6368140932
 20
3.3277681937
 30
0.0
 10
3.6369071465
 20
3.3278225879
 30
0.0
  0
SPLINE
  5
349
100
AcDbEntity
  8
ALL_FEATURES
100
AcDbSpline
 62
7
  6
CONTINUOUS
 70
0
 71
3
 72
26
 73
22
 74
0
 42
0.0000001
 43
0.0000001
 44
0.0000000001
 40
0.0
 40
0.0
 40
0.0
 40
0.0
 40
0.1050560639
 40
0.2028085902
 40
0.293180793
 40
0.3761355227
 40
0.4516930133
 40
0.5199865471
 40
0.5813105496
 40
0.636135151
 40
0.6851843492
 40
0.7295426806
 40
0.7504563632
 40
0.7708145471
 40
0.7908751279
 40
0.8109105912
 40
0.8311974998
 40
0.8520053912
 40
0.8961191243
 40
0.9450302833
 40
1.0
 40
1.0
 40
1.0
 40
1.0
 10
3.4884776222
 20
3.3252146565
 30
0.0
 10
3.4879597309
 20
3.3250261915
 30
0.0
 10
3.4869645197
 20
3.3246495745
 30
0.0
 10
3.4855433573
 20
3.3240608243
 30
0.0
 10
3.4842501072
 20
3.3234684874
 30
0.0
 10
3.4830877843
 20
3.3228726556
 30
0.0
 10
3.4820591836
 20
3.3222732381
 30
0.0
 10
3.4811666413
 20
3.321669922
 30
0.0
 10
3.4804118419
 20
3.3210623448
 30
0.0
 10
3.4797962894
 20
3.320449408
 30
0.0
 10
3.4793218803
 20
3.3198297665
 30
0.0
 10
3.4790415419
 20
3.3192950573
 30
0.0
 10
3.4788978698
 20
3.3188686015
 30
0.0
 10
3.4788292292
 20
3.3185535448
 30
0.0
 10
3.4787979301
 20
3.3182372232
 30
0.0
 10
3.4788041559
 20
3.3179197834
 30
0.0
 10
3.4788480497
 20
3.317601383
 30
0.0
 10
3.4789588923
 20
3.3171674813
 30
0.0
 10
3.47920073
 20
3.3166167247
 30
0.0
 10
3.4796359037
 20
3.3159701781
 30
0.0
 10
3.4800017734
 20
3.3155640609
 30
0.0
 10
3.4802056725
 20
3.3153601466
 30
0.0
  0
SPLINE
  5
34A
100
AcDbEntity
  8
ALL_FEATURES
100
AcDbSpline
 62
7
  6
CONTINUOUS
 70
0
 71
3
 72
60
 73
56
 74
0
 42
0.0000001
 43
0.0000001
 44
0.0000000001
 40
0.0
 40
0.0
 40
0.0
 40
0.0
 40
0.0004107871
 40
0.0008332391
 40
0.0017519747
 40
0.0028249746
 40
0.0040940031
 40
0.0055841215
 40
0.0073105204
 40
0.0092827026
 40
0.0115067773
 40
0.0139862329
 40
0.0167227799
 40
0.0197172187
 40
0.0229697363
 40
0.0302474825
 40
0.0385508925
 40
0.047867134
 40
0.0581777962
 40
0.0694632416
 40
0.0817023896
 40
0.0948687596
 40
0.1089334747
 40
0.1396392264
 40
0.173553272
 40
0.2103799163
 40
0.2497938798
 40
0.2914498345
 40
0.3349775914
 40
0.3799937766
 40
0.4728863898
 40
0.5668416141
 40
0.613175384
 40
0.6585308735
 40
0.7025061426
 40
0.7447138732
 40
0.7847797683
 40
0.8223523388
 40
0.8570973621
 40
0.8887134226
 40
0.9032592891
 40
0.9169226274
 40
0.9296745902
 40
0.9414868349
 40
0.9523352916
 40
0.9621999496
 40
0.9710617885
 40
0.9789039481
 40
0.9857172354
 40
0.9887370529
 40
0.9914989542
 40
0.9940036845
 40
0.9962528556
 40
0.9982496857
 40
1.0
 40
1.0
 40
1.0
 40
1.0
 10
3.6603509317
 20
3.4304361429
 30
0.0
 10
3.6603509317
 20
3.430409989
 30
0.0
 10
3.6603463557
 20
3.4303568339
 30
0.0
 10
3.6603184101
 20
3.4302483893
 30
0.0
 10
3.6602453241
 20
3.4301107669
 30
0.0
 10
3.6601078634
 20
3.4299536539
 30
0.0
 10
3.6599192412
 20
3.4297976985
 30
0.0
 10
3.6596791783
 20
3.4296421842
 30
0.0
 10
3.6593873877
 20
3.4294866611
 30
0.0
 10
3.6590436933
 20
3.4293310483
 30
0.0
 10
3.6586480613
 20
3.4291753469
 30
0.0
 10
3.6582006139
 20
3.4290195548
 30
0.0
 10
3.6577015801
 20
3.4288636689
 30
0.0
 10
3.6571512391
 20
3.428707695
 30
0.0
 10
3.6563176848
 20
3.4284914548
 30
0.0
 10
3.655148505
 20
3.4282241644
 30
0.0
 10
3.6535939175
 20
3.4279136381
 30
0.0
 10
3.6518429435
 20
3.4276026677
 30
0.0
 10
3.6498995371
 20
3.4272912788
 30
0.0
 10
3.6477679289
 20
3.4269796077
 30
0.0
 10
3.6454527578
 20
3.4266677911
 30
0.0
 10
3.6429591839
 20
3.4263558026
 30
0.0
 10
3.6392954514
 20
3.4259269681
 30
0.0
 10
3.6343138504
 20
3.425396136
 30
0.0
 10
3.6278848259
 20
3.4247751591
 30
0.0
 10
3.6208990691
 20
3.4241535181
 30
0.0
 10
3.6134186559
 20
3.4235312632
 30
0.0
 10
3.6055102412
 20
3.4229086655
 30
0.0
 10
3.5972441242
 20
3.4222857193
 30
0.0
 10
3.5857229936
 20
3.4214461382
 30
0.0
 10
3.5709970539
 20
3.4204107602
 30
0.0
 10
3.556186657
 20
3.4193808015
 30
0.0
 10
3.544396596
 20
3.4185458941
 30
0.0
 10
3.5357816331
 20
3.4179227304
 30
0.0
 10
3.5274300566
 20
3.4172997378
 30
0.0
 10
3.5194162013
 20
3.4166770454
 30
0.0
 10
3.5118112526
 20
3.4160546508
 30
0.0
 10
3.504683062
 20
3.4154328427
 30
0.0
 10
3.4980949967
 20
3.4148115895
 30
0.0
 10
3.4929710928
 20
3.4142811723
 30
0.0
 10
3.4891862717
 20
3.4138529192
 30
0.0
 10
3.4865970754
 20
3.4135408418
 30
0.0
 10
3.4841832427
 20
3.4132289421
 30
0.0
 10
3.4819502057
 20
3.4129171864
 30
0.0
 10
3.4799028929
 20
3.4126056309
 30
0.0
 10
3.4780457329
 20
3.412294406
 30
0.0
 10
3.4763828173
 20
3.4119836597
 30
0.0
 10
3.4749178635
 20
3.4116733762
 30
0.0
 10
3.473824476
 20
3.4114058141
 30
0.0
 10
3.4730523623
 20
3.4111890292
 30
0.0
 10
3.4725482655
 20
3.4110331296
 30
0.0
 10
3.4720957234
 20
3.4108773351
 30
0.0
 10
3.4716949596
 20
3.4107216313
 30
0.0
 10
3.4713461592
 20
3.4105660219
 30
0.0
 10
3.4711345874
 20
3.410455213
 30
0.0
 10
3.471038268
 20
3.4103991669
 30
0.0
  0
SPLINE
  5
34B
100
AcDbEntity
  8
ALL_FEATURES
100
AcDbSpline
 62
7
  6
CONTINUOUS
 70
0
 71
3
 72
58
 73
54
 74
0
 42
0.0000001
 43
0.0000001
 44
0.0000000001
 40
0.0
 40
0.0
 40
0.0
 40
0.0
 40
0.0010672324
 40
0.0022004275
 40
0.0034550044
 40
0.0048721238
 40
0.0064804367
 40
0.0082994114
 40
0.0103417357
 40
0.0126157343
 40
0.0151270026
 40
0.0178793024
 40
0.0241154799
 40
0.0313358056
 40
0.0395394883
 40
0.0487162411
 40
0.0588525794
 40
0.0699332095
 40
0.0819388547
 40
0.0948444934
 40
0.1086240012
 40
0.1386956259
 40
0.1719041201
 40
0.2079708586
 40
0.2465892542
 40
0.287429526
 40
0.3301419752
 40
0.3743591686
 40
0.4197014044
 40
0.4657774083
 40
0.558541352
 40
0.6494601312
 40
0.6932453053
 40
0.7354087309
 40
0.7755879852
 40
0.8134399552
 40
0.8486405443
 40
0.8808934222
 40
0.895827434
 40
0.9099263192
 40
0.9231611588
 40
0.9355036182
 40
0.9469298208
 40
0.9574203598
 40
0.9669570122
 40
0.971362442
 40
0.9755234588
 40
0.9831089299
 40
0.9897114875
 40
0.9926455732
 40
0.995336451
 40
0.9977866039
 40
1.0
 40
1.0
 40
1.0
 40
1.0
 10
3.4929011459
 20
3.3497004064
 30
0.0
 10
3.4929011659
 20
3.3497523663
 30
0.0
 10
3.4929153287
 20
3.3498599198
 30
0.0
 10
3.492977388
 20
3.3500176975
 30
0.0
 10
3.4930789883
 20
3.3501738027
 30
0.0
 10
3.493219352
 20
3.3503287119
 30
0.0
 10
3.4933983144
 20
3.3504830369
 30
0.0
 10
3.4936159131
 20
3.3506370846
 30
0.0
 10
3.493872129
 20
3.3507910643
 30
0.0
 10
3.4941668968
 20
3.3509450582
 30
0.0
 10
3.4945001036
 20
3.3510991109
 30
0.0
 10
3.4950173942
 20
3.3513136149
 30
0.0
 10
3.4957613482
 20
3.3515783031
 30
0.0
 10
3.4967706597
 20
3.3518847484
 30
0.0
 10
3.4979286181
 20
3.3521916236
 30
0.0
 10
3.4992327162
 20
3.3524989659
 30
0.0
 10
3.5006802415
 20
3.3528066393
 30
0.0
 10
3.502268232
 20
3.3531145364
 30
0.0
 10
3.5039933202
 20
3.3534225739
 30
0.0
 10
3.5058516937
 20
3.3537308
 30
0.0
 10
3.5085823655
 20
3.3541543944
 30
0.0
 10
3.5122974729
 20
3.3546788087
 30
0.0
 10
3.5170953543
 20
3.3552923051
 30
0.0
 10
3.5223123657
 20
3.3559064616
 30
0.0
 10
3.5279032464
 20
3.3565211738
 30
0.0
 10
3.5338194723
 20
3.3571362711
 30
0.0
 10
3.5400096501
 20
3.3577516438
 30
0.0
 10
3.5464200286
 20
3.3583672323
 30
0.0
 10
3.5529948849
 20
3.3589829464
 30
0.0
 10
3.561924243
 20
3.359805836
 30
0.0
 10
3.5730642058
 20
3.3608213311
 30
0.0
 10
3.5840913252
 20
3.3618463003
 30
0.0
 10
3.5926621969
 20
3.3626774229
 30
0.0
 10
3.5987720396
 20
3.3632927244
 30
0.0
 10
3.6045915244
 20
3.3639077237
 30
0.0
 10
3.6100700821
 20
3.3645222532
 30
0.0
 10
3.615160205
 20
3.3651362836
 30
0.0
 10
3.61913719
 20
3.3656597218
 30
0.0
 10
3.6220909858
 20
3.3660819515
 30
0.0
 10
3.6241256462
 20
3.3663903378
 30
0.0
 10
3.6260326275
 20
3.3666985791
 30
0.0
 10
3.6278077019
 20
3.3670067096
 30
0.0
 10
3.6294470488
 20
3.367314696
 30
0.0
 10
3.6309472428
 20
3.3676224498
 30
0.0
 10
3.6321075387
 20
3.3678851225
 30
0.0
 10
3.632963207
 20
3.3680965627
 30
0.0
 10
3.6337238203
 20
3.3682963088
 30
0.0
 10
3.6345824367
 20
3.3685436511
 30
0.0
 10
3.6353734427
 20
3.3688080314
 30
0.0
 10
3.6359290553
 20
3.3690220619
 30
0.0
 10
3.6362908596
 20
3.3691761473
 30
0.0
 10
3.6366142314
 20
3.3693301577
 30
0.0
 10
3.6368140922
 20
3.3694382185
 30
0.0
 10
3.6369071191
 20
3.3694926131
 30
0.0
  0
SPLINE
  5
34C
100
AcDbEntity
  8
ALL_FEATURES
100
AcDbSpline
 62
7
  6
CONTINUOUS
 70
0
 71
3
 72
60
 73
56
 74
0
 42
0.0000001
 43
0.0000001
 44
0.0000000001
 40
0.0
 40
0.0
 40
0.0
 40
0.0
 40
0.0004107872
 40
0.0008332393
 40
0.001751975
 40
0.0028249747
 40
0.0040940028
 40
0.0055841207
 40
0.0073105191
 40
0.0092827009
 40
0.0115067752
 40
0.01398623
 40
0.0167227761
 40
0.0197172136
 40
0.0229697298
 40
0.0302474721
 40
0.0385508767
 40
0.0478671105
 40
0.0581777663
 40
0.0694632107
 40
0.0817023634
 40
0.0948687334
 40
0.1089334319
 40
0.1396390581
 40
0.1735529367
 40
0.2103795537
 40
0.2497935926
 40
0.2914496722
 40
0.3349775091
 40
0.379993695
 40
0.4728862622
 40
0.5668414822
 40
0.6131752053
 40
0.6585306713
 40
0.702506097
 40
0.7447141477
 40
0.7847803465
 40
0.8223531461
 40
0.8570982551
 40
0.888714317
 40
0.903260149
 40
0.9169234034
 40
0.929675287
 40
0.9414874853
 40
0.9523358408
 40
0.9622003754
 40
0.9710621214
 40
0.9789042176
 40
0.9857174103
 40
0.9887371789
 40
0.9914990357
 40
0.9940037306
 40
0.9962528789
 40
0.9982496948
 40
1.0
 40
1.0
 40
1.0
 40
1.0
 10
3.6603509317
 20
3.4721061653
 30
0.0
 10
3.6603509317
 20
3.4720800114
 30
0.0
 10
3.6603463557
 20
3.4720268563
 30
0.0
 10
3.6603184101
 20
3.4719184117
 30
0.0
 10
3.6602453242
 20
3.4717807892
 30
0.0
 10
3.6601078636
 20
3.4716236761
 30
0.0
 10
3.6599192415
 20
3.4714677207
 30
0.0
 10
3.6596791787
 20
3.4713122064
 30
0.0
 10
3.6593873883
 20
3.4711566832
 30
0.0
 10
3.659043694
 20
3.4710010704
 30
0.0
 10
3.6586480621
 20
3.4708453691
 30
0.0
 10
3.6582006148
 20
3.4706895769
 30
0.0
 10
3.6577015812
 20
3.4705336909
 30
0.0
 10
3.6571512404
 20
3.470377717
 30
0.0
 10
3.6563176866
 20
3.4701614768
 30
0.0
 10
3.6551485075
 20
3.4698941863
 30
0.0
 10
3.6535939211
 20
3.4695836599
 30
0.0
 10
3.6518429484
 20
3.4692726894
 30
0.0
 10
3.6498995429
 20
3.4689613004
 30
0.0
 10
3.6477679349
 20
3.4686496292
 30
0.0
 10
3.6454527636
 20
3.4683378124
 30
0.0
 10
3.6429591905
 20
3.4680258239
 30
0.0
 10
3.6392954669
 20
3.46759699
 30
0.0
 10
3.6343138856
 20
3.4670661591
 30
0.0
 10
3.6278848813
 20
3.4664451833
 30
0.0
 10
3.620899132
 20
3.4658235428
 30
0.0
 10
3.6134187078
 20
3.4652012858
 30
0.0
 10
3.6055102754
 20
3.4645786862
 30
0.0
 10
3.5972441452
 20
3.4639557385
 30
0.0
 10
3.5857230124
 20
3.4631161565
 30
0.0
 10
3.5709970757
 20
3.4620807779
 30
0.0
 10
3.5561866849
 20
3.4610508187
 30
0.0
 10
3.5443966286
 20
3.4602159111
 30
0.0
 10
3.5357816602
 20
3.4595927465
 30
0.0
 10
3.5274300549
 20
3.458969751
 30
0.0
 10
3.51941615
 20
3.4583470543
 30
0.0
 10
3.5118111472
 20
3.457724654
 30
0.0
 10
3.5046829174
 20
3.4571028415
 30
0.0
 10
3.4980948323
 20
3.4564815842
 30
0.0
 10
3.4929709251
 20
3.4559511648
 30
0.0
 10
3.4891861116
 20
3.4555229111
 30
0.0
 10
3.486596928
 20
3.4552108329
 30
0.0
 10
3.4841831087
 20
3.4548989328
 30
0.0
 10
3.481950086
 20
3.4545871793
 30
0.0
 10
3.4799027906
 20
3.4542756239
 30
0.0
 10
3.4780456511
 20
3.4539643991
 30
0.0
 10
3.4763827534
 20
3.4536536538
 30
0.0
 10
3.4749178152
 20
3.4533433738
 30
0.0
 10
3.4738244408
 20
3.4530758134
 30
0.0
 10
3.473052339
 20
3.4528590303
 30
0.0
 10
3.4725482504
 20
3.4527031322
 30
0.0
 10
3.4720957147
 20
3.452547339
 30
0.0
 10
3.4716949553
 20
3.4523916366
 30
0.0
 10
3.4713461576
 20
3.4522360283
 30
0.0
 10
3.4711345873
 20
3.45212522
 30
0.0
 10
3.4710382684
 20
3.4520691741
 30
0.0
  0
SPLINE
  5
34D
100
AcDbEntity
  8
ALL_FEATURES
100
AcDbSpline
 62
7
  6
CONTINUOUS
 70
0
 71
3
 72
58
 73
54
 74
0
 42
0.0000001
 43
0.0000001
 44
0.0000000001
 40
0.0
 40
0.0
 40
0.0
 40
0.0
 40
0.0022133054
 40
0.0046625864
 40
0.0073523749
 40
0.010285831
 40
0.0168894147
 40
0.0244765648
 40
0.0286376329
 40
0.0330422723
 40
0.0425770891
 40
0.0530684225
 40
0.0644962834
 40
0.0768383031
 40
0.0900713776
 40
0.1041707806
 40
0.1191063112
 40
0.151357466
 40
0.1865595917
 40
0.2244103713
 40
0.2645906317
 40
0.3067534016
 40
0.3505390678
 40
0.4414577193
 40
0.5342215831
 40
0.580298123
 40
0.6256397978
 40
0.6698576862
 40
0.7125694726
 40
0.7534104559
 40
0.7920282262
 40
0.8280955546
 40
0.8613035909
 40
0.8913755631
 40
0.9051561987
 40
0.918060529
 40
0.9300649023
 40
0.9411468134
 40
0.9512846022
 40
0.9604600781
 40
0.9686622566
 40
0.9758837033
 40
0.9821215523
 40
0.9848735632
 40
0.9873840193
 40
0.9896571036
 40
0.9916988076
 40
0.9935178042
 40
0.9951268187
 40
0.9965447508
 40
0.9977997425
 40
0.9989328736
 40
1.0
 40
1.0
 40
1.0
 40
1.0
 10
3.49379496
 20
3.5903432031
 30
0.0
 10
3.4938879878
 20
3.5903975873
 30
0.0
 10
3.4940878017
 20
3.5905056335
 30
0.0
 10
3.4944110515
 20
3.5906596664
 30
0.0
 10
3.4947727109
 20
3.5908137702
 30
0.0
 10
3.4953282749
 20
3.5910278341
 30
0.0
 10
3.4961194044
 20
3.5912921684
 30
0.0
 10
3.4969781664
 20
3.5915394827
 30
0.0
 10
3.497738824
 20
3.5917392378
 30
0.0
 10
3.4985943582
 20
3.5919506941
 30
0.0
 10
3.4997545513
 20
3.5922134154
 30
0.0
 10
3.5012547839
 20
3.5925211286
 30
0.0
 10
3.5028942365
 20
3.5928290749
 30
0.0
 10
3.5046692795
 20
3.5931372206
 30
0.0
 10
3.5065761685
 20
3.5934455106
 30
0.0
 10
3.5086108444
 20
3.5937538745
 30
0.0
 10
3.5115646616
 20
3.5941760454
 30
0.0
 10
3.5155416954
 20
3.5946995864
 30
0.0
 10
3.5206317589
 20
3.5953135221
 30
0.0
 10
3.5261103704
 20
3.5959281235
 30
0.0
 10
3.5319298156
 20
3.59654307
 30
0.0
 10
3.5380396913
 20
3.5971584076
 30
0.0
 10
3.5466105451
 20
3.5979895039
 30
0.0
 10
3.5576376689
 20
3.5990144866
 30
0.0
 10
3.5687776388
 20
3.600029991
 30
0.0
 10
3.5777069873
 20
3.6008528587
 30
0.0
 10
3.5842818691
 20
3.6014685985
 30
0.0
 10
3.5906922201
 20
3.6020841568
 30
0.0
 10
3.5968824264
 20
3.6026995624
 30
0.0
 10
3.6027986232
 20
3.6033146259
 30
0.0
 10
3.6083895294
 20
3.6039293708
 30
0.0
 10
3.6136065159
 20
3.6045434997
 30
0.0
 10
3.6184044159
 20
3.60515701
 30
0.0
 10
3.6221195659
 20
3.6056814529
 30
0.0
 10
3.6248502539
 20
3.606104983
 30
0.0
 10
3.6267085496
 20
3.6064132403
 30
0.0
 10
3.6284335646
 20
3.6067213192
 30
0.0
 10
3.6300216315
 20
3.6070291862
 30
0.0
 10
3.631469241
 20
3.6073368011
 30
0.0
 10
3.6327732636
 20
3.6076441814
 30
0.0
 10
3.6339311191
 20
3.607951125
 30
0.0
 10
3.6349405
 20
3.6082575439
 30
0.0
 10
3.6356846134
 20
3.6085221513
 30
0.0
 10
3.6362019209
 20
3.6087366888
 30
0.0
 10
3.636535015
 20
3.6088907521
 30
0.0
 10
3.6368296468
 20
3.6090447594
 30
0.0
 10
3.6370857659
 20
3.6091987559
 30
0.0
 10
3.637303359
 20
3.6093528155
 30
0.0
 10
3.6374824355
 20
3.6095071174
 30
0.0
 10
3.6376229691
 20
3.6096619961
 30
0.0
 10
3.6377247073
 20
3.6098180857
 30
0.0
 10
3.6377867519
 20
3.6099758937
 30
0.0
 10
3.6378008207
 20
3.610083456
 30
0.0
 10
3.6378007902
 20
3.6101354106
 30
0.0
  0
SPLINE
  5
34E
100
AcDbEntity
  8
ALL_FEATURES
100
AcDbSpline
 62
7
  6
CONTINUOUS
 70
0
 71
3
 72
58
 73
54
 74
0
 42
0.0000001
 43
0.0000001
 44
0.0000000001
 40
0.0
 40
0.0
 40
0.0
 40
0.0
 40
0.0010671892
 40
0.0022002787
 40
0.0034547886
 40
0.0048720224
 40
0.0064807283
 40
0.0082999804
 40
0.0103423006
 40
0.0126160976
 40
0.0151270689
 40
0.0178790883
 40
0.0241152248
 40
0.0313363682
 40
0.0395399123
 40
0.0487160839
 40
0.0588523042
 40
0.0699337176
 40
0.0819393102
 40
0.0948444207
 40
0.1086237537
 40
0.1386960962
 40
0.1719039391
 40
0.207971326
 40
0.2465891715
 40
0.2874299728
 40
0.3301420153
 40
0.3743595783
 40
0.4197015831
 40
0.4657777661
 40
0.5585416469
 40
0.6494603565
 40
0.693245898
 40
0.735408885
 40
0.7755886851
 40
0.8134400417
 40
0.8486413232
 40
0.8808934505
 40
0.8958277887
 40
0.9099271442
 40
0.9231618112
 40
0.9355036025
 40
0.9469301109
 40
0.9574211929
 40
0.9669577474
 40
0.9713626935
 40
0.9755234225
 40
0.9831091502
 40
0.9897122854
 40
0.9926464929
 40
0.9953372354
 40
0.997786936
 40
1.0
 40
1.0
 40
1.0
 40
1.0
 10
3.4929011777
 20
3.3913704252
 30
0.0
 10
3.492901182
 20
3.3914223829
 30
0.0
 10
3.4929153066
 20
3.391529934
 30
0.0
 10
3.4929773221
 20
3.3916877196
 30
0.0
 10
3.49307891
 20
3.3918438319
 30
0.0
 10
3.4932193045
 20
3.3919987447
 30
0.0
 10
3.4933983383
 20
3.3921530455
 30
0.0
 10
3.4936159764
 20
3.3923070908
 30
0.0
 10
3.4938721925
 20
3.3924610762
 30
0.0
 10
3.4941669303
 20
3.3926150742
 30
0.0
 10
3.4945000937
 20
3.3927691303
 30
0.0
 10
3.495017347
 20
3.3929836455
 30
0.0
 10
3.4957613246
 20
3.3932483422
 30
0.0
 10
3.4967706828
 20
3.3935547389
 30
0.0
 10
3.497928639
 20
3.3938616367
 30
0.0
 10
3.4992326922
 20
3.394168991
 30
0.0
 10
3.5006802199
 20
3.3944766718
 30
0.0
 10
3.5022682464
 20
3.3947845376
 30
0.0
 10
3.503993342
 20
3.3950925858
 30
0.0
 10
3.5058516763
 20
3.3954008213
 30
0.0
 10
3.5085823473
 20
3.3958244205
 30
0.0
 10
3.5122974526
 20
3.3963488035
 30
0.0
 10
3.5170953626
 20
3.3969623398
 30
0.0
 10
3.5223123499
 20
3.3975764595
 30
0.0
 10
3.5279032563
 20
3.3981912026
 30
0.0
 10
3.5338194624
 20
3.3988062731
 30
0.0
 10
3.5400096604
 20
3.3994216666
 30
0.0
 10
3.5464200257
 20
3.4000372381
 30
0.0
 10
3.5529948947
 20
3.4006529633
 30
0.0
 10
3.5619242455
 20
3.4014758438
 30
0.0
 10
3.5730642073
 20
3.4024913404
 30
0.0
 10
3.5840913342
 20
3.4035163185
 30
0.0
 10
3.5926621984
 20
3.4043474224
 30
0.0
 10
3.5987720604
 20
3.4049627453
 30
0.0
 10
3.6045915219
 20
3.4055777156
 30
0.0
 10
3.6100701048
 20
3.4061922789
 30
0.0
 10
3.6151601983
 20
3.4068062684
 30
0.0
 10
3.6191371909
 20
3.4073297408
 30
0.0
 10
3.6220909897
 20
3.407751959
 30
0.0
 10
3.6241256817
 20
3.4080603356
 30
0.0
 10
3.6260326448
 20
3.4083685746
 30
0.0
 10
3.6278076879
 20
3.408676729
 30
0.0
 10
3.6294470454
 20
3.4089847036
 30
0.0
 10
3.6309472788
 20
3.4092924453
 30
0.0
 10
3.6321075744
 20
3.4095551107
 30
0.0
 10
3.6329631943
 20
3.4097665692
 30
0.0
 10
3.6337237792
 20
3.4099663238
 30
0.0
 10
3.6345824233
 20
3.4102136631
 30
0.0
 10
3.6353734835
 20
3.4104780278
 30
0.0
 10
3.6359291259
 20
3.4106920571
 30
0.0
 10
3.6362909082
 20
3.4108461368
 30
0.0
 10
3.6366142239
 20
3.4110001615
 30
0.0
 10
3.6368140399
 20
3.411108224
 30
0.0
 10
3.6369070505
 20
3.4111626143
 30
0.0
  0
SPLINE
  5
34F
100
AcDbEntity
  8
ALL_FEATURES
100
AcDbSpline
 62
7
  6
CONTINUOUS
 70
0
 71
3
 72
57
 73
53
 74
0
 42
0.0000001
 43
0.0000001
 44
0.0000000001
 40
0.0
 40
0.0
 40
0.0
 40
0.0
 40
0.0010671384
 40
0.0022003868
 40
0.003455502
 40
0.0048734361
 40
0.0064823421
 40
0.0083011668
 40
0.0103427006
 40
0.0126156905
 40
0.0151262058
 40
0.0178785011
 40
0.0241166366
 40
0.031337767
 40
0.0395396256
 40
0.0487153959
 40
0.0588535379
 40
0.0699351649
 40
0.0819392051
 40
0.0948437531
 40
0.1086247765
 40
0.1386961951
 40
0.1719047548
 40
0.2079716277
 40
0.2465898075
 40
0.2874304605
 40
0.3301425185
 40
0.3743602205
 40
0.4197020151
 40
0.4657785208
 40
0.5585424649
 40
0.649461186
 40
0.6932465494
 40
0.7354096765
 40
0.7755895437
 40
0.8134407523
 40
0.8486424362
 40
0.8808940482
 40
0.9099282774
 40
0.9231612623
 40
0.9355038075
 40
0.9469319615
 40
0.9574226112
 40
0.9669572309
 40
0.9713621149
 40
0.9755234984
 40
0.9831110239
 40
0.9897139473
 40
0.9926470826
 40
0.9953368858
 40
0.9977863895
 40
1.0
 40
1.0
 40
1.0
 40
1.0
 10
3.4929010226
 20
3.5997203952
 30
0.0
 10
3.4929009918
 20
3.5997723504
 30
0.0
 10
3.4929150693
 20
3.5998799209
 30
0.0
 10
3.4929771749
 20
3.600037719
 30
0.0
 10
3.4930789399
 20
3.6001938013
 30
0.0
 10
3.4932194701
 20
3.6003486834
 30
0.0
 10
3.4933985258
 20
3.6005029883
 30
0.0
 10
3.4936160899
 20
3.6006570508
 30
0.0
 10
3.493872183
 20
3.6008110497
 30
0.0
 10
3.4941668029
 20
3.6009650585
 30
0.0
 10
3.4944999095
 20
3.6011191239
 30
0.0
 10
3.4950172573
 20
3.6013336442
 30
0.0
 10
3.4957613841
 20
3.6015982478
 30
0.0
 10
3.4967707423
 20
3.6019046823
 30
0.0
 10
3.4979285778
 20
3.6022116367
 30
0.0
 10
3.4992326197
 20
3.6025190039
 30
0.0
 10
3.5006802491
 20
3.6028266083
 30
0.0
 10
3.5022683004
 20
3.6031344866
 30
0.0
 10
3.5039932941
 20
3.6034425728
 30
0.0
 10
3.5058516039
 20
3.603750824
 30
0.0
 10
3.5085822965
 20
3.6041743376
 30
0.0
 10
3.5122974588
 20
3.6046988135
 30
0.0
 10
3.5170953385
 20
3.6053122901
 30
0.0
 10
3.5223123442
 20
3.6059264468
 30
0.0
 10
3.5279032335
 20
3.6065411691
 30
0.0
 10
3.5338194446
 20
3.6071562503
 30
0.0
 10
3.5400096392
 20
3.6077716425
 30
0.0
 10
3.5464199982
 20
3.60838721
 30
0.0
 10
3.5529948745
 20
3.6090029443
 30
0.0
 10
3.5619242292
 20
3.6098258153
 30
0.0
 10
3.5730642028
 20
3.6108413197
 30
0.0
 10
3.5840913181
 20
3.611866294
 30
0.0
 10
3.5926621752
 20
3.6126974045
 30
0.0
 10
3.5987720345
 20
3.6133127263
 30
0.0
 10
3.6045914972
 20
3.6139276895
 30
0.0
 10
3.6100700853
 20
3.6145422805
 30
0.0
 10
3.6151601843
 20
3.6151561986
 30
0.0
 10
3.6198177288
 20
3.6157694484
 30
0.0
 10
3.6234078276
 20
3.6162942914
 30
0.0
 10
3.6260325609
 20
3.6167185849
 30
0.0
 10
3.62780764
 20
3.6170267309
 30
0.0
 10
3.6294471025
 20
3.6173346586
 30
0.0
 10
3.6309473006
 20
3.6176423974
 30
0.0
 10
3.6321074607
 20
3.6179051214
 30
0.0
 10
3.6329630153
 20
3.6181165688
 30
0.0
 10
3.6337237205
 20
3.6183163207
 30
0.0
 10
3.6345824916
 20
3.6185636098
 30
0.0
 10
3.6353735828
 20
3.6188279678
 30
0.0
 10
3.635929091
 20
3.6190420449
 30
0.0
 10
3.6362907469
 20
3.6191961454
 30
0.0
 10
3.636614027
 20
3.6193501757
 30
0.0
 10
3.6368138718
 20
3.6194582185
 30
0.0
 10
3.636906917
 20
3.6195126023
 30
0.0
  0
SPLINE
  5
350
100
AcDbEntity
  8
ALL_FEATURES
100
AcDbSpline
 62
7
  6
CONTINUOUS
 70
0
 71
3
 72
60
 73
56
 74
0
 42
0.0000001
 43
0.0000001
 44
0.0000000001
 40
0.0
 40
0.0
 40
0.0
 40
0.0
 40
0.0004107862
 40
0.0008332346
 40
0.0017519507
 40
0.0028249134
 40
0.0040938903
 40
0.0055839477
 40
0.0073102815
 40
0.0092823999
 40
0.0115064037
 40
0.0139857417
 40
0.0167221357
 40
0.0197164024
 40
0.0229687461
 40
0.0302462076
 40
0.0385494346
 40
0.0478653253
 40
0.0581755996
 40
0.0694608017
 40
0.0816997922
 40
0.094865887
 40
0.1089303947
 40
0.1396362766
 40
0.1735507154
 40
0.2103785684
 40
0.2497935131
 40
0.291449511
 40
0.3349769127
 40
0.3799930233
 40
0.472885717
 40
0.5668410121
 40
0.6131747703
 40
0.6585303218
 40
0.7025059356
 40
0.7447138761
 40
0.7847790424
 40
0.8223503842
 40
0.857094793
 40
0.8887106673
 40
0.9032566227
 40
0.9169202205
 40
0.9296724217
 40
0.9414848016
 40
0.9523335794
 40
0.9621986185
 40
0.9710607174
 40
0.9789030564
 40
0.9857166534
 40
0.9887366331
 40
0.9914986786
 40
0.9940035188
 40
0.9962527521
 40
0.9982496332
 40
1.0
 40
1.0
 40
1.0
 40
1.0
 10
3.4703509317
 20
3.4460596438
 30
0.0
 10
3.4703509317
 20
3.4460857977
 30
0.0
 10
3.4703555072
 20
3.4461389525
 30
0.0
 10
3.4703834504
 20
3.4462473961
 30
0.0
 10
3.4704565305
 20
3.4463850171
 30
0.0
 10
3.4705939826
 20
3.4465421286
 30
0.0
 10
3.4707825947
 20
3.4466980813
 30
0.0
 10
3.4710226464
 20
3.446853592
 30
0.0
 10
3.4713144258
 20
3.4470091105
 30
0.0
 10
3.471658109
 20
3.4471647173
 30
0.0
 10
3.4720537267
 20
3.4473204106
 30
0.0
 10
3.4725011527
 20
3.4474761978
 30
0.0
 10
3.4730001586
 20
3.4476320789
 30
0.0
 10
3.4735504677
 20
3.4477880483
 30
0.0
 10
3.4743839816
 20
3.4480042843
 30
0.0
 10
3.4755531203
 20
3.4482715706
 30
0.0
 10
3.4771076565
 20
3.4485820874
 30
0.0
 10
3.4788585705
 20
3.4488930583
 30
0.0
 10
3.4808019136
 20
3.4492044467
 30
0.0
 10
3.4829334715
 20
3.4495161138
 30
0.0
 10
3.4852485996
 20
3.4498279248
 30
0.0
 10
3.487742132
 20
3.4501399155
 30
0.0
 10
3.4914058411
 20
3.450568755
 30
0.0
 10
3.4963874617
 20
3.4510995888
 30
0.0
 10
3.5028165944
 20
3.4517205866
 30
0.0
 10
3.5098025148
 20
3.4523422389
 30
0.0
 10
3.5172830688
 20
3.4529645092
 30
0.0
 10
3.5251915252
 20
3.4535871108
 30
0.0
 10
3.5334576171
 20
3.4542100542
 30
0.0
 10
3.5449787246
 20
3.455049634
 30
0.0
 10
3.5597046679
 20
3.4560850127
 30
0.0
 10
3.5745150725
 20
3.4571149718
 30
0.0
 10
3.5863051402
 20
3.4579498796
 30
0.0
 10
3.5949201276
 20
3.4585730443
 30
0.0
 10
3.6032717424
 20
3.459196041
 30
0.0
 10
3.611285586
 20
3.4598187324
 30
0.0
 10
3.6188904235
 20
3.460441115
 30
0.0
 10
3.6260184502
 20
3.4610629103
 30
0.0
 10
3.6326063868
 20
3.461684146
 30
0.0
 10
3.6377302455
 20
3.4622145557
 30
0.0
 10
3.6415150769
 20
3.4626428063
 30
0.0
 10
3.6441043109
 20
3.4629548818
 30
0.0
 10
3.6465181841
 20
3.4632667815
 30
0.0
 10
3.6487512645
 20
3.4635785454
 30
0.0
 10
3.6507986308
 20
3.4638901022
 30
0.0
 10
3.6526558526
 20
3.4642013274
 30
0.0
 10
3.6543188207
 20
3.4645120767
 30
0.0
 10
3.6557838209
 20
3.4648223706
 30
0.0
 10
3.6568772501
 20
3.4650899364
 30
0.0
 10
3.6576494029
 20
3.4653067269
 30
0.0
 10
3.6581535258
 20
3.4654626316
 30
0.0
 10
3.6586060876
 20
3.4656184311
 30
0.0
 10
3.6590068635
 20
3.4657741428
 30
0.0
 10
3.6593556725
 20
3.4659297587
 30
0.0
 10
3.6595672499
 20
3.4660405708
 30
0.0
 10
3.6596635723
 20
3.4660966184
 30
0.0
  0
SPLINE
  5
351
100
AcDbEntity
  8
ALL_FEATURES
100
AcDbSpline
 62
7
  6
CONTINUOUS
 70
0
 71
3
 72
60
 73
56
 74
0
 42
0.0000001
 43
0.0000001
 44
0.0000000001
 40
0.0
 40
0.0
 40
0.0
 40
0.0
 40
0.0004107867
 40
0.0008332383
 40
0.0017519725
 40
0.0028249704
 40
0.0040939964
 40
0.005584112
 40
0.0073105083
 40
0.0092826882
 40
0.0115067608
 40
0.0139862129
 40
0.0167227552
 40
0.0197171881
 40
0.0229696994
 40
0.0302474318
 40
0.0385508263
 40
0.047867043
 40
0.0581776821
 40
0.069463119
 40
0.0817022733
 40
0.0948686345
 40
0.1089333041
 40
0.1396387671
 40
0.1735524561
 40
0.2103791392
 40
0.2497933604
 40
0.2914495777
 40
0.3349774587
 40
0.3799936257
 40
0.4728861164
 40
0.5668413036
 40
0.6131749423
 40
0.6585303658
 40
0.7025060314
 40
0.7447145385
 40
0.7847810722
 40
0.8223540528
 40
0.857099222
 40
0.8887152717
 40
0.9032610637
 40
0.9169242276
 40
0.9296760225
 40
0.941488164
 40
0.9523364149
 40
0.9622008235
 40
0.9710624694
 40
0.9789044945
 40
0.9857175923
 40
0.9887373122
 40
0.9914991243
 40
0.9940037817
 40
0.9962529032
 40
0.9982497029
 40
1.0
 40
1.0
 40
1.0
 40
1.0
 10
3.6603509317
 20
3.5137761729
 30
0.0
 10
3.6603509317
 20
3.513750019
 30
0.0
 10
3.6603463558
 20
3.513696864
 30
0.0
 10
3.6603184102
 20
3.5135884195
 30
0.0
 10
3.6602453245
 20
3.5134507972
 30
0.0
 10
3.6601078642
 20
3.5132936844
 30
0.0
 10
3.6599192424
 20
3.5131377292
 30
0.0
 10
3.6596791799
 20
3.5129822151
 30
0.0
 10
3.6593873897
 20
3.5128266923
 30
0.0
 10
3.6590436957
 20
3.5126710798
 30
0.0
 10
3.6586480641
 20
3.5125153788
 30
0.0
 10
3.6582006173
 20
3.5123595869
 30
0.0
 10
3.6577015844
 20
3.5122037013
 30
0.0
 10
3.6571512444
 20
3.5120477277
 30
0.0
 10
3.6563176917
 20
3.5118314878
 30
0.0
 10
3.6551485142
 20
3.5115641978
 30
0.0
 10
3.6535939301
 20
3.5112536721
 30
0.0
 10
3.6518429602
 20
3.5109427019
 30
0.0
 10
3.6498995573
 20
3.5106313134
 30
0.0
 10
3.6477679507
 20
3.5103196426
 30
0.0
 10
3.6454527804
 20
3.5100078265
 30
0.0
 10
3.6429592095
 20
3.5096958383
 30
0.0
 10
3.6392954988
 20
3.5092670061
 30
0.0
 10
3.6343139417
 20
3.5087361774
 30
0.0
 10
3.6278849557
 20
3.5081152032
 30
0.0
 10
3.6208992027
 20
3.5074935635
 30
0.0
 10
3.6134187542
 20
3.5068713039
 30
0.0
 10
3.6055102987
 20
3.5062487031
 30
0.0
 10
3.5972441584
 20
3.5056257551
 30
0.0
 10
3.5857230289
 20
3.504786174
 30
0.0
 10
3.5709971006
 20
3.5037507969
 30
0.0
 10
3.5561867223
 20
3.5027208392
 30
0.0
 10
3.5443966763
 20
3.501885933
 30
0.0
 10
3.5357817008
 20
3.5012627687
 30
0.0
 10
3.5274300542
 20
3.50063977
 30
0.0
 10
3.5194160839
 20
3.5000170689
 30
0.0
 10
3.5118110196
 20
3.4993946633
 30
0.0
 10
3.5046827533
 20
3.4987728473
 30
0.0
 10
3.4980946539
 20
3.4981515873
 30
0.0
 10
3.4929707465
 20
3.4976211667
 30
0.0
 10
3.4891859421
 20
3.4971929132
 30
0.0
 10
3.4865967727
 20
3.4968808349
 30
0.0
 10
3.4841829686
 20
3.496568935
 30
0.0
 10
3.4819499616
 20
3.496257184
 30
0.0
 10
3.4799026846
 20
3.4959456295
 30
0.0
 10
3.4780455664
 20
3.4956344054
 30
0.0
 10
3.4763826877
 20
3.4953236616
 30
0.0
 10
3.474917766
 20
3.4950133859
 30
0.0
 10
3.473824405
 20
3.4947458281
 30
0.0
 10
3.473052315
 20
3.4945290473
 30
0.0
 10
3.4725482346
 20
3.4943731508
 30
0.0
 10
3.4720957058
 20
3.494217359
 30
0.0
 10
3.4716949515
 20
3.4940616578
 30
0.0
 10
3.471346157
 20
3.4939060502
 30
0.0
 10
3.4711345882
 20
3.4937952424
 30
0.0
 10
3.4710382698
 20
3.4937391967
 30
0.0
  0
SPLINE
  5
352
100
AcDbEntity
  8
ALL_FEATURES
100
AcDbSpline
 62
7
  6
CONTINUOUS
 70
0
 71
3
 72
56
 73
52
 74
0
 42
0.0000001
 43
0.0000001
 44
0.0000000001
 40
0.0
 40
0.0
 40
0.0
 40
0.0
 40
0.0013555323
 40
0.0029792908
 40
0.0048782041
 40
0.0070553546
 40
0.0095120156
 40
0.0122484196
 40
0.0185581065
 40
0.025976812
 40
0.03448827
 40
0.0440701032
 40
0.0546987074
 40
0.0663489151
 40
0.0789896468
 40
0.1071086209
 40
0.1387745048
 40
0.1736672733
 40
0.2114460635
 40
0.2517423078
 40
0.2941726834
 40
0.3383366553
 40
0.3838253695
 40
0.4302220733
 40
0.5240680773
 40
0.5706883807
 40
0.6165650418
 40
0.6613079928
 40
0.7045385185
 40
0.7459002109
 40
0.7850519568
 40
0.8216817079
 40
0.8554957808
 40
0.8862352398
 40
0.9136619909
 40
0.9260701065
 40
0.9375775564
 40
0.9481621872
 40
0.9578067855
 40
0.9664970937
 40
0.9742193887
 40
0.9809612494
 40
0.9867164195
 40
0.989223658
 40
0.9914841882
 40
0.9934987168
 40
0.995268641
 40
0.996796497
 40
0.9980871422
 40
0.9991495593
 40
1.0
 40
1.0
 40
1.0
 40
1.0
 10
3.6442690055
 20
3.6654814574
 30
0.0
 10
3.6442019156
 20
3.6654422778
 30
0.0
 10
3.6440488773
 20
3.6653657486
 30
0.0
 10
3.6437895043
 20
3.6652609312
 30
0.0
 10
3.6434799616
 20
3.6651560427
 30
0.0
 10
3.6431204587
 20
3.6650511127
 30
0.0
 10
3.642711215
 20
3.6649461671
 30
0.0
 10
3.6420684622
 20
3.6647992135
 30
0.0
 10
3.641141906
 20
3.6646190566
 30
0.0
 10
3.6398841287
 20
3.6644115532
 30
0.0
 10
3.638436614
 20
3.6642040809
 30
0.0
 10
3.6368034832
 20
3.6639966862
 30
0.0
 10
3.6349891387
 20
3.6637895376
 30
0.0
 10
3.6329984103
 20
3.6635827382
 30
0.0
 10
3.6300081062
 20
3.6632972543
 30
0.0
 10
3.6258717818
 20
3.6629463742
 30
0.0
 10
3.6204605381
 20
3.6625397656
 30
0.0
 10
3.6144941559
 20
3.6621343659
 30
0.0
 10
3.6080319979
 20
3.6617304228
 30
0.0
 10
3.6011369505
 20
3.6613280057
 30
0.0
 10
3.5938752593
 20
3.6609272489
 30
0.0
 10
3.586315442
 20
3.6605281648
 30
0.0
 10
3.5785279014
 20
3.6601308117
 30
0.0
 10
3.5678958825
 20
3.6596013283
 30
0.0
 10
3.5571985037
 20
3.6590804704
 30
0.0
 10
3.5465310023
 20
3.6585589056
 30
0.0
 10
3.5386747012
 20
3.6581703396
 30
0.0
 10
3.531012836
 20
3.6577835822
 30
0.0
 10
3.5236099932
 20
3.6573985906
 30
0.0
 10
3.516527959
 20
3.6570154615
 30
0.0
 10
3.509824725
 20
3.65663414
 30
0.0
 10
3.5035547052
 20
3.6562547867
 30
0.0
 10
3.4977676518
 20
3.6558773758
 30
0.0
 10
3.4925091372
 20
3.6555021395
 30
0.0
 10
3.4884768196
 20
3.6551815907
 30
0.0
 10
3.4855454885
 20
3.6549231549
 30
0.0
 10
3.4835769345
 20
3.6547363682
 30
0.0
 10
3.481767489
 20
3.654550075
 30
0.0
 10
3.4801203751
 20
3.6543643208
 30
0.0
 10
3.4786383843
 20
3.6541791821
 30
0.0
 10
3.4773240905
 20
3.6539947761
 30
0.0
 10
3.4761797857
 20
3.6538111011
 30
0.0
 10
3.4753343967
 20
3.653652475
 30
0.0
 10
3.4747451294
 20
3.6535237411
 30
0.0
 10
3.4743673702
 20
3.6534318649
 30
0.0
 10
3.4740331849
 20
3.6533402051
 30
0.0
 10
3.4737426609
 20
3.6532487812
 30
0.0
 10
3.4734958423
 20
3.6531576398
 30
0.0
 10
3.4732925358
 20
3.6530667395
 30
0.0
 10
3.4731325231
 20
3.6529761575
 30
0.0
 10
3.4730451144
 20
3.6529086602
 30
0.0
 10
3.4730106542
 20
3.6528741874
 30
0.0
  0
SPLINE
  5
353
100
AcDbEntity
  8
ALL_FEATURES
100
AcDbSpline
 62
7
  6
CONTINUOUS
 70
0
 71
3
 72
57
 73
53
 74
0
 42
0.0000001
 43
0.0000001
 44
0.0000000001
 40
0.0
 40
0.0
 40
0.0
 40
0.0
 40
0.002213578
 40
0.0046630531
 40
0.0073528437
 40
0.0102859946
 40
0.0168890016
 40
0.024476513
 40
0.028637869
 40
0.0330427248
 40
0.0425773261
 40
0.0530680273
 40
0.0644961769
 40
0.076838689
 40
0.0900716588
 40
0.119105921
 40
0.1513575057
 40
0.186559202
 40
0.2244104054
 40
0.2645902687
 40
0.3067534064
 40
0.3505387562
 40
0.441457482
 40
0.5342214386
 40
0.5802979403
 40
0.6256397592
 40
0.6698574277
 40
0.7125695464
 40
0.7534101259
 40
0.7920284113
 40
0.8280951634
 40
0.8613038785
 40
0.8913751261
 40
0.9051562343
 40
0.9180609024
 40
0.9300648405
 40
0.941146351
 40
0.9512845727
 40
0.9604605104
 40
0.9686622601
 40
0.9758832445
 40
0.9821214435
 40
0.9848738855
 40
0.987384458
 40
0.9896574219
 40
0.9916988837
 40
0.9935176255
 40
0.9951264697
 40
0.9965443872
 40
0.9977995397
 40
0.9989328509
 40
1.0
 40
1.0
 40
1.0
 40
1.0
 10
3.4937949464
 20
3.5486732058
 30
0.0
 10
3.4938879899
 20
3.5487275895
 30
0.0
 10
3.4940878313
 20
3.5488356323
 30
0.0
 10
3.4944111073
 20
3.5489896626
 30
0.0
 10
3.494772762
 20
3.549143763
 30
0.0
 10
3.4953282749
 20
3.5493578397
 30
0.0
 10
3.4961193718
 20
3.5496221933
 30
0.0
 10
3.4969781443
 20
3.5498694846
 30
0.0
 10
3.497738846
 20
3.5500692366
 30
0.0
 10
3.4985943967
 20
3.5502806843
 30
0.0
 10
3.499754557
 20
3.5505434087
 30
0.0
 10
3.501254757
 20
3.5508511447
 30
0.0
 10
3.5028942201
 20
3.5511590728
 30
0.0
 10
3.5046692964
 20
3.5514672189
 30
0.0
 10
3.5072940289
 20
3.5518915122
 30
0.0
 10
3.5108841275
 20
3.5524163528
 30
0.0
 10
3.5155416726
 20
3.5530296035
 30
0.0
 10
3.5206317706
 20
3.5536435198
 30
0.0
 10
3.5261103587
 20
3.5542581104
 30
0.0
 10
3.5319298214
 20
3.554873073
 30
0.0
 10
3.5380396803
 20
3.5554883936
 30
0.0
 10
3.5466105372
 20
3.5563195036
 30
0.0
 10
3.5576376523
 20
3.5573444766
 30
0.0
 10
3.5687776263
 20
3.5583599796
 30
0.0
 10
3.5777069823
 20
3.5591828504
 30
0.0
 10
3.5842818579
 20
3.5597985829
 30
0.0
 10
3.590692219
 20
3.5604141518
 30
0.0
 10
3.5968824115
 20
3.5610295406
 30
0.0
 10
3.6027986265
 20
3.5616446254
 30
0.0
 10
3.608389512
 20
3.5622593415
 30
0.0
 10
3.6136065235
 20
3.5628735051
 30
0.0
 10
3.6184043977
 20
3.5634869719
 30
0.0
 10
3.622119562
 20
3.5640114558
 30
0.0
 10
3.6248502566
 20
3.5644349666
 30
0.0
 10
3.6267085722
 20
3.5647432135
 30
0.0
 10
3.6284335605
 20
3.5650513024
 30
0.0
 10
3.6300216042
 20
3.5653591838
 30
0.0
 10
3.63146924
 20
3.5656667876
 30
0.0
 10
3.632773291
 20
3.5659741463
 30
0.0
 10
3.6339311209
 20
3.5662811052
 30
0.0
 10
3.634940468
 20
3.5665875444
 30
0.0
 10
3.6356845964
 20
3.5668521511
 30
0.0
 10
3.6362019624
 20
3.5670666616
 30
0.0
 10
3.6365350787
 20
3.5672207269
 30
0.0
 10
3.636829696
 20
3.5673747364
 30
0.0
 10
3.6370857784
 20
3.5675287362
 30
0.0
 10
3.6373033288
 20
3.5676828
 30
0.0
 10
3.6374823727
 20
3.5678371063
 30
0.0
 10
3.6376228987
 20
3.5679919895
 30
0.0
 10
3.6377246688
 20
3.5681480714
 30
0.0
 10
3.6377868063
 20
3.5683058621
 30
0.0
 10
3.6378008939
 20
3.5684134364
 30
0.0
 10
3.6378008645
 20
3.5684653922
 30
0.0
  0
SPLINE
  5
354
100
AcDbEntity
  8
ALL_FEATURES
100
AcDbSpline
 62
7
  6
CONTINUOUS
 70
0
 71
3
 72
58
 73
54
 74
0
 42
0.0000001
 43
0.0000001
 44
0.0000000001
 40
0.0
 40
0.0
 40
0.0
 40
0.0
 40
0.0010671391
 40
0.0022001674
 40
0.0034548051
 40
0.0048724923
 40
0.0064815358
 40
0.0083007724
 40
0.0103428192
 40
0.0126162188
 40
0.0151268209
 40
0.0178786609
 40
0.0241155909
 40
0.0313372766
 40
0.0395401429
 40
0.0487156797
 40
0.0588525624
 40
0.0699346156
 40
0.081939621
 40
0.0948440935
 40
0.1086239279
 40
0.1386964907
 40
0.1719040607
 40
0.2079717877
 40
0.2465892822
 40
0.2874304826
 40
0.3301421624
 40
0.3743601111
 40
0.4197018146
 40
0.4657782946
 40
0.5585421433
 40
0.6494607949
 40
0.6932466121
 40
0.7354092443
 40
0.7755895997
 40
0.8134403075
 40
0.8486424357
 40
0.880893617
 40
0.8958287811
 40
0.9099284375
 40
0.9231619793
 40
0.9355036747
 40
0.9469311077
 40
0.9574226347
 40
0.966958007
 40
0.9713625668
 40
0.975523419
 40
0.9831101083
 40
0.9897138111
 40
0.992647669
 40
0.9953376457
 40
0.9977868796
 40
1.0
 40
1.0
 40
1.0
 40
1.0
 10
3.4929011599
 20
3.5580503999
 30
0.0
 10
3.492901141
 20
3.5581023552
 30
0.0
 10
3.4929152199
 20
3.5582099085
 30
0.0
 10
3.4929772134
 20
3.5583677077
 30
0.0
 10
3.4930788449
 20
3.5585238266
 30
0.0
 10
3.4932193401
 20
3.5586787085
 30
0.0
 10
3.4933984244
 20
3.5588330038
 30
0.0
 10
3.4936160587
 20
3.5589870574
 30
0.0
 10
3.4938722318
 20
3.5591410486
 30
0.0
 10
3.4941669097
 20
3.5592950518
 30
0.0
 10
3.4945000207
 20
3.5594491114
 30
0.0
 10
3.4950172787
 20
3.5596636471
 30
0.0
 10
3.4957613319
 20
3.5599283013
 30
0.0
 10
3.4967707247
 20
3.5602346869
 30
0.0
 10
3.4979286336
 20
3.5605416143
 30
0.0
 10
3.4992326494
 20
3.5608489884
 30
0.0
 10
3.5006802157
 20
3.5611566419
 30
0.0
 10
3.5022682796
 20
3.5614644918
 30
0.0
 10
3.5039933419
 20
3.5617725595
 30
0.0
 10
3.5058516372
 20
3.5620808097
 30
0.0
 10
3.5085823157
 20
3.5625043797
 30
0.0
 10
3.5122974396
 20
3.5630287726
 30
0.0
 10
3.5170953603
 20
3.5636423188
 30
0.0
 10
3.5223123331
 20
3.5642564216
 30
0.0
 10
3.5279032539
 20
3.5648711831
 30
0.0
 10
3.5338194438
 20
3.5654862344
 30
0.0
 10
3.5400096577
 20
3.5661016459
 30
0.0
 10
3.546420008
 20
3.5667172006
 30
0.0
 10
3.5529948912
 20
3.5673329396
 30
0.0
 10
3.5619242371
 20
3.568155808
 30
0.0
 10
3.5730642034
 20
3.5691713096
 30
0.0
 10
3.5840913334
 20
3.5701962951
 30
0.0
 10
3.5926621883
 20
3.5710273846
 30
0.0
 10
3.5987720686
 20
3.5716427273
 30
0.0
 10
3.6045915085
 20
3.5722576688
 30
0.0
 10
3.6100701211
 20
3.5728722716
 30
0.0
 10
3.615160182
 20
3.5734862095
 30
0.0
 10
3.619137201
 20
3.5740097377
 30
0.0
 10
3.6220910115
 20
3.5744319253
 30
0.0
 10
3.6241257052
 20
3.5747402855
 30
0.0
 10
3.6260326163
 20
3.5750485599
 30
0.0
 10
3.6278076437
 20
3.5753567148
 30
0.0
 10
3.6294470666
 20
3.5756646715
 30
0.0
 10
3.6309473147
 20
3.5759723852
 30
0.0
 10
3.6321075459
 20
3.5762350862
 30
0.0
 10
3.6329630913
 20
3.5764465506
 30
0.0
 10
3.6337237105
 20
3.5766463068
 30
0.0
 10
3.6345824414
 20
3.576893632
 30
0.0
 10
3.6353735698
 20
3.5771579752
 30
0.0
 10
3.6359291803
 20
3.5773720142
 30
0.0
 10
3.6362908691
 20
3.5775261168
 30
0.0
 10
3.6366141159
 20
3.5776801516
 30
0.0
 10
3.6368139151
 20
3.5777882015
 30
0.0
 10
3.6369069318
 20
3.5778425869
 30
0.0
  0
SPLINE
  5
355
100
AcDbEntity
  8
ALL_FEATURES
100
AcDbSpline
 62
7
  6
CONTINUOUS
 70
0
 71
3
 72
57
 73
53
 74
0
 42
0.0000001
 43
0.0000001
 44
0.0000000001
 40
0.0
 40
0.0
 40
0.0
 40
0.0
 40
0.0022136586
 40
0.004663203
 40
0.0073530209
 40
0.0102861253
 40
0.0168888993
 40
0.0244764795
 40
0.0286379287
 40
0.0330428722
 40
0.0425774956
 40
0.0530679551
 40
0.0644961516
 40
0.0768388428
 40
0.0900718561
 40
0.1191058963
 40
0.1513577125
 40
0.1865591859
 40
0.2244106057
 40
0.2645902673
 40
0.306753584
 40
0.3505387781
 40
0.4414575359
 40
0.5342215329
 40
0.5802979782
 40
0.6256399005
 40
0.6698574085
 40
0.7125697387
 40
0.7534100526
 40
0.7920286548
 40
0.8280950438
 40
0.8613041691
 40
0.8913749725
 40
0.905156176
 40
0.9180612306
 40
0.930064988
 40
0.9411461799
 40
0.9512844533
 40
0.9604608606
 40
0.9686624529
 40
0.9758830781
 40
0.9821212745
 40
0.9848740021
 40
0.9873847953
 40
0.9896577709
 40
0.9916991148
 40
0.9935176861
 40
0.9951263779
 40
0.9965442185
 40
0.997799398
 40
0.9989328135
 40
1.0
 40
1.0
 40
1.0
 40
1.0
 10
3.4937949465
 20
3.507003231
 30
0.0
 10
3.4938879944
 20
3.5070576147
 30
0.0
 10
3.4940878444
 20
3.507165657
 30
0.0
 10
3.4944111302
 20
3.5073196868
 30
0.0
 10
3.4947727875
 20
3.5074737868
 30
0.0
 10
3.4953282872
 20
3.5076878634
 30
0.0
 10
3.4961193694
 20
3.5079522289
 30
0.0
 10
3.4969781406
 20
3.5081995126
 30
0.0
 10
3.497738855
 20
3.5083992636
 30
0.0
 10
3.4985944163
 20
3.5086107092
 30
0.0
 10
3.4997545704
 20
3.5088734314
 30
0.0
 10
3.5012547595
 20
3.5091811779
 30
0.0
 10
3.5028942225
 20
3.5094891019
 30
0.0
 10
3.5046693125
 20
3.5097972451
 30
0.0
 10
3.5072940449
 20
3.5102215378
 30
0.0
 10
3.5108841444
 20
3.5107463888
 30
0.0
 10
3.5155416804
 20
3.5113596259
 30
0.0
 10
3.5206317873
 20
3.5119735559
 30
0.0
 10
3.5261103661
 20
3.512588135
 30
0.0
 10
3.5319298366
 20
3.5132031082
 30
0.0
 10
3.5380396872
 20
3.5138184206
 30
0.0
 10
3.5466105453
 20
3.5146495384
 30
0.0
 10
3.5576376559
 20
3.5156745076
 30
0.0
 10
3.5687776298
 20
3.51669001
 30
0.0
 10
3.5777069891
 20
3.5175128843
 30
0.0
 10
3.5842818591
 20
3.518128612
 30
0.0
 10
3.5906922264
 20
3.5187441886
 30
0.0
 10
3.596882409
 20
3.5193595667
 30
0.0
 10
3.6027986349
 20
3.5199746655
 30
0.0
 10
3.6083895066
 20
3.5205893641
 30
0.0
 10
3.613606533
 20
3.5212035488
 30
0.0
 10
3.6184043904
 20
3.5218169915
 30
0.0
 10
3.6221195551
 20
3.5223414928
 30
0.0
 10
3.6248502512
 20
3.5227650037
 30
0.0
 10
3.6267085838
 20
3.5230732369
 30
0.0
 10
3.6284335654
 20
3.523381332
 30
0.0
 10
3.6300215855
 20
3.52368922
 30
0.0
 10
3.6314692299
 20
3.5239968293
 30
0.0
 10
3.6327733045
 20
3.5243041646
 30
0.0
 10
3.63393113
 20
3.5246111318
 30
0.0
 10
3.634940448
 20
3.5249175808
 30
0.0
 10
3.6356845679
 20
3.5251821975
 30
0.0
 10
3.6362019669
 20
3.5253966915
 30
0.0
 10
3.6365351139
 20
3.525550751
 30
0.0
 10
3.6368297368
 20
3.5257047624
 30
0.0
 10
3.6370858026
 20
3.525858764
 30
0.0
 10
3.6373033251
 20
3.5260128304
 30
0.0
 10
3.6374823403
 20
3.52616714
 30
0.0
 10
3.6376228488
 20
3.5263220257
 30
0.0
 10
3.6377246182
 20
3.5264781087
 30
0.0
 10
3.6377868
 20
3.5266358871
 30
0.0
 10
3.6378009283
 20
3.5267434649
 30
0.0
 10
3.637800907
 20
3.5267954224
 30
0.0
  0
SPLINE
  5
356
100
AcDbEntity
  8
ALL_FEATURES
100
AcDbSpline
 62
7
  6
CONTINUOUS
 70
0
 71
3
 72
60
 73
56
 74
0
 42
0.0000001
 43
0.0000001
 44
0.0000000001
 40
0.0
 40
0.0
 40
0.0
 40
0.0
 40
0.0004107867
 40
0.0008332355
 40
0.0017519519
 40
0.0028249134
 40
0.0040938864
 40
0.0055839365
 40
0.0073102588
 40
0.0092823604
 40
0.0115063396
 40
0.0139856402
 40
0.0167219875
 40
0.0197162025
 40
0.0229684937
 40
0.0302458657
 40
0.0385490228
 40
0.047864795
 40
0.0581749443
 40
0.069460068
 40
0.0816989999
 40
0.0948650025
 40
0.1089294379
 40
0.1396353111
 40
0.1735497713
 40
0.2103778356
 40
0.2497930511
 40
0.2914493847
 40
0.3349770007
 40
0.3799931237
 40
0.4728857537
 40
0.566841047
 40
0.6131747822
 40
0.6585303246
 40
0.7025060027
 40
0.7447140679
 40
0.7847793402
 40
0.8223506939
 40
0.8570949729
 40
0.888710697
 40
0.9032566251
 40
0.9169202184
 40
0.9296724264
 40
0.9414848122
 40
0.9523335889
 40
0.9621986235
 40
0.9710607182
 40
0.9789030553
 40
0.9857166513
 40
0.988736631
 40
0.9914986767
 40
0.9940035173
 40
0.9962527511
 40
0.9982496327
 40
1.0
 40
1.0
 40
1.0
 40
1.0
 10
3.4703509317
 20
3.4877296495
 30
0.0
 10
3.4703509317
 20
3.4877558034
 30
0.0
 10
3.4703555072
 20
3.4878089582
 30
0.0
 10
3.4703834504
 20
3.4879174019
 30
0.0
 10
3.4704565303
 20
3.488055023
 30
0.0
 10
3.4705939818
 20
3.4882121345
 30
0.0
 10
3.470782593
 20
3.4883680871
 30
0.0
 10
3.4710226433
 20
3.4885235975
 30
0.0
 10
3.4713144204
 20
3.4886791154
 30
0.0
 10
3.4716581003
 20
3.4888347212
 30
0.0
 10
3.4720537133
 20
3.4889904131
 30
0.0
 10
3.4725011324
 20
3.489146199
 30
0.0
 10
3.4730001296
 20
3.4893020786
 30
0.0
 10
3.4735504292
 20
3.4894580467
 30
0.0
 10
3.4743839307
 20
3.489674281
 30
0.0
 10
3.4755530561
 20
3.4899415652
 30
0.0
 10
3.4771075749
 20
3.490252079
 30
0.0
 10
3.4788584686
 20
3.49056305
 30
0.0
 10
3.480801791
 20
3.4908744384
 30
0.0
 10
3.4829333322
 20
3.4911861043
 30
0.0
 10
3.4852484459
 20
3.4914979141
 30
0.0
 10
3.4877419638
 20
3.4918099056
 30
0.0
 10
3.4914056617
 20
3.4922387465
 30
0.0
 10
3.4963872786
 20
3.4927695806
 30
0.0
 10
3.5028164252
 20
3.4933905838
 30
0.0
 10
3.5098023776
 20
3.4940122391
 30
0.0
 10
3.5172829834
 20
3.4946345159
 30
0.0
 10
3.525191492
 20
3.4952571218
 30
0.0
 10
3.5334576197
 20
3.4958800688
 30
0.0
 10
3.5449787376
 20
3.49671965
 30
0.0
 10
3.5597046777
 20
3.4977550293
 30
0.0
 10
3.5745150768
 20
3.498784989
 30
0.0
 10
3.5863051424
 20
3.4996198972
 30
0.0
 10
3.5949201319
 20
3.5002430626
 30
0.0
 10
3.6032717583
 20
3.5008660606
 30
0.0
 10
3.6112856207
 20
3.5014887539
 30
0.0
 10
3.6188904736
 20
3.5021111386
 30
0.0
 10
3.6260184996
 20
3.5027329346
 30
0.0
 10
3.6326064193
 20
3.5033541688
 30
0.0
 10
3.6377302585
 20
3.5038845776
 30
0.0
 10
3.6415150784
 20
3.5043128273
 30
0.0
 10
3.6441043108
 20
3.5046249028
 30
0.0
 10
3.6465181846
 20
3.5049368026
 30
0.0
 10
3.6487512657
 20
3.5052485667
 30
0.0
 10
3.650798632
 20
3.5055601236
 30
0.0
 10
3.6526558532
 20
3.5058713489
 30
0.0
 10
3.6543188206
 20
3.5061820984
 30
0.0
 10
3.6557838204
 20
3.5064923923
 30
0.0
 10
3.6568772494
 20
3.5067599582
 30
0.0
 10
3.6576494021
 20
3.5069767488
 30
0.0
 10
3.658153525
 20
3.5071326535
 30
0.0
 10
3.6586060869
 20
3.507288453
 30
0.0
 10
3.6590068629
 20
3.5074441648
 30
0.0
 10
3.659355672
 20
3.5075997807
 30
0.0
 10
3.6595672495
 20
3.5077105928
 30
0.0
 10
3.6596635719
 20
3.5077666405
 30
0.0
  0
SPLINE
  5
357
100
AcDbEntity
  8
ALL_FEATURES
100
AcDbSpline
 62
7
  6
CONTINUOUS
 70
0
 71
3
 72
60
 73
56
 74
0
 42
0.0000001
 43
0.0000001
 44
0.0000000001
 40
0.0
 40
0.0
 40
0.0
 40
0.0
 40
0.0004107867
 40
0.000833236
 40
0.001751955
 40
0.00282492
 40
0.0040938957
 40
0.0055839451
 40
0.0073102611
 40
0.0092823485
 40
0.0115063031
 40
0.0139855684
 40
0.0167218726
 40
0.0197160403
 40
0.0229682834
 40
0.0302455711
 40
0.0385486562
 40
0.0478643128
 40
0.0581743419
 40
0.0694593881
 40
0.0816982561
 40
0.0948641645
 40
0.1089285274
 40
0.1396343883
 40
0.1735488599
 40
0.2103770938
 40
0.2497925831
 40
0.2914493752
 40
0.3349773201
 40
0.3799934568
 40
0.4728859597
 40
0.566841209
 40
0.6131749013
 40
0.6585304118
 40
0.7025061111
 40
0.744714282
 40
0.7847797371
 40
0.8223512045
 40
0.8570953492
 40
0.8887108693
 40
0.9032567511
 40
0.9169203237
 40
0.9296725268
 40
0.9414849103
 40
0.9523336721
 40
0.9621986865
 40
0.9710607648
 40
0.9789030907
 40
0.9857166746
 40
0.9887366486
 40
0.9914986893
 40
0.994003526
 40
0.996252757
 40
0.9982496358
 40
1.0
 40
1.0
 40
1.0
 40
1.0
 10
3.4703509317
 20
3.5293996728
 30
0.0
 10
3.4703509317
 20
3.5294258267
 30
0.0
 10
3.4703555073
 20
3.5294789816
 30
0.0
 10
3.4703834509
 20
3.5295874254
 30
0.0
 10
3.4704565316
 20
3.5297250465
 30
0.0
 10
3.470593984
 20
3.529882158
 30
0.0
 10
3.4707825956
 20
3.5300381106
 30
0.0
 10
3.4710226457
 20
3.5301936208
 30
0.0
 10
3.4713144215
 20
3.5303491383
 30
0.0
 10
3.4716580986
 20
3.5305047433
 30
0.0
 10
3.4720537069
 20
3.5306604341
 30
0.0
 10
3.4725011195
 20
3.5308162187
 30
0.0
 10
3.4730001089
 20
3.5309720967
 30
0.0
 10
3.4735503998
 20
3.531128063
 30
0.0
 10
3.4743838901
 20
3.531344295
 30
0.0
 10
3.4755530029
 20
3.5316115764
 30
0.0
 10
3.4771075046
 20
3.5319220866
 30
0.0
 10
3.4788583786
 20
3.5322330569
 30
0.0
 10
3.4808016809
 20
3.5325444446
 30
0.0
 10
3.4829332055
 20
3.5328561087
 30
0.0
 10
3.4852483042
 20
3.5331679168
 30
0.0
 10
3.4877418074
 20
3.5334799084
 30
0.0
 10
3.4914054937
 20
3.5339087499
 30
0.0
 10
3.4963871059
 20
3.5344395832
 30
0.0
 10
3.502816263
 20
3.5350605903
 30
0.0
 10
3.5098022443
 20
3.5356822474
 30
0.0
 10
3.5172829072
 20
3.5363045301
 30
0.0
 10
3.5251914832
 20
3.5369271403
 30
0.0
 10
3.5334576617
 20
3.5375500911
 30
0.0
 10
3.5449787934
 20
3.5383896726
 30
0.0
 10
3.5597047235
 20
3.5394250501
 30
0.0
 10
3.5745151091
 20
3.5404550082
 30
0.0
 10
3.5863051672
 20
3.5412899152
 30
0.0
 10
3.5949201533
 20
3.5419130799
 30
0.0
 10
3.6032717857
 20
3.5425360778
 30
0.0
 10
3.6112856678
 20
3.5431587721
 30
0.0
 10
3.6188905462
 20
3.5437811592
 30
0.0
 10
3.6260185826
 20
3.5444029556
 30
0.0
 10
3.632606488
 20
3.545024188
 30
0.0
 10
3.6377303028
 20
3.5455545948
 30
0.0
 10
3.6415151056
 20
3.5459828426
 30
0.0
 10
3.6441043334
 20
3.5462949175
 30
0.0
 10
3.6465182054
 20
3.5466068168
 30
0.0
 10
3.6487512852
 20
3.5469185803
 30
0.0
 10
3.6507986492
 20
3.5472301368
 30
0.0
 10
3.6526558671
 20
3.5475413618
 30
0.0
 10
3.6543188315
 20
3.5478521107
 30
0.0
 10
3.6557838288
 20
3.548162404
 30
0.0
 10
3.656877256
 20
3.5484299695
 30
0.0
 10
3.6576494074
 20
3.5486467597
 30
0.0
 10
3.6581535294
 20
3.548802664
 30
0.0
 10
3.6586060906
 20
3.5489584632
 30
0.0
 10
3.6590068661
 20
3.5491141746
 30
0.0
 10
3.6593556748
 20
3.5492697902
 30
0.0
 10
3.6595672519
 20
3.5493806021
 30
0.0
 10
3.6596635741
 20
3.5494366497
 30
0.0
  0
SPLINE
  5
358
100
AcDbEntity
  8
ALL_FEATURES
100
AcDbSpline
 62
7
  6
CONTINUOUS
 70
0
 71
3
 72
60
 73
56
 74
0
 42
0.0000001
 43
0.0000001
 44
0.0000000001
 40
0.0
 40
0.0
 40
0.0
 40
0.0
 40
0.0017502028
 40
0.0037473156
 40
0.0059965204
 40
0.0085008841
 40
0.0112621863
 40
0.0142813546
 40
0.0210939532
 40
0.0289366809
 40
0.0377977859
 40
0.0476611529
 40
0.0585093203
 40
0.0703221553
 40
0.0830736483
 40
0.0967364081
 40
0.1112826839
 40
0.1428983068
 40
0.1776429259
 40
0.2152144312
 40
0.2552805804
 40
0.2974887934
 40
0.3414654337
 40
0.3868214366
 40
0.4331551099
 40
0.5271077854
 40
0.6199998751
 40
0.6650171603
 40
0.7085461493
 40
0.7502031572
 40
0.7896185783
 40
0.8264461455
 40
0.8603610894
 40
0.8910672983
 40
0.9051323827
 40
0.9182990729
 40
0.9305382701
 40
0.941823579
 40
0.9521340205
 40
0.9614499562
 40
0.9697530069
 40
0.9770305333
 40
0.9802829824
 40
0.9832773648
 40
0.9860138567
 40
0.9884932478
 40
0.990717247
 40
0.9926893924
 40
0.9944157925
 40
0.9959059357
 40
0.9971749982
 40
0.9982480264
 40
0.9991667721
 40
0.9995892208
 40
1.0
 40
1.0
 40
1.0
 40
1.0
 10
3.6596639608
 20
3.6327766336
 30
0.0
 10
3.6595676414
 20
3.6327206013
 30
0.0
 10
3.6593560345
 20
3.6326098328
 30
0.0
 10
3.6590071782
 20
3.6324543168
 30
0.0
 10
3.6586064024
 20
3.6322986541
 30
0.0
 10
3.6581539177
 20
3.6321428738
 30
0.0
 10
3.6576499277
 20
3.6319869746
 30
0.0
 10
3.6568779475
 20
3.6317701657
 30
0.0
 10
3.6557846195
 20
3.6315025551
 30
0.0
 10
3.654319712
 20
3.6311923031
 30
0.0
 10
3.6526568952
 20
3.630881521
 30
0.0
 10
3.6507998839
 20
3.6305702797
 30
0.0
 10
3.6487526291
 20
3.630258739
 30
0.0
 10
3.6465195945
 20
3.6299470176
 30
0.0
 10
3.6441057906
 20
3.6296350926
 30
0.0
 10
3.6415166338
 20
3.629322991
 30
0.0
 10
3.6377318438
 20
3.6288947525
 30
0.0
 10
3.6326079621
 20
3.6283643067
 30
0.0
 10
3.626020006
 20
3.6277430747
 30
0.0
 10
3.6188918832
 20
3.6271212459
 30
0.0
 10
3.6112869422
 20
3.626498862
 30
0.0
 10
3.6032729417
 20
3.6258761386
 30
0.0
 10
3.5949212008
 20
3.6252531416
 30
0.0
 10
3.5863061111
 20
3.624629958
 30
0.0
 10
3.5745161661
 20
3.6237950634
 30
0.0
 10
3.5597059468
 20
3.6227651119
 30
0.0
 10
3.5449801083
 20
3.6217297436
 30
0.0
 10
3.5334588442
 20
3.6208901533
 30
0.0
 10
3.5251924983
 20
3.6202671962
 30
0.0
 10
3.5172838336
 20
3.6196445751
 30
0.0
 10
3.5098031896
 20
3.6190223102
 30
0.0
 10
3.5028172142
 20
3.6184006428
 30
0.0
 10
3.4963880337
 20
3.6177796622
 30
0.0
 10
3.4914063165
 20
3.6172488079
 30
0.0
 10
3.4877425056
 20
3.6168199634
 30
0.0
 10
3.4852488808
 20
3.6165079699
 30
0.0
 10
3.4829336918
 20
3.6161961469
 30
0.0
 10
3.4808021001
 20
3.6158844744
 30
0.0
 10
3.4788587325
 20
3.61557309
 30
0.0
 10
3.4771078115
 20
3.6152621275
 30
0.0
 10
3.4755532777
 20
3.6149516068
 30
0.0
 10
3.474384136
 20
3.614684326
 30
0.0
 10
3.4735506013
 20
3.6144680922
 30
0.0
 10
3.4730002703
 20
3.6143121216
 30
0.0
 10
3.4725012467
 20
3.6141562377
 30
0.0
 10
3.4720538113
 20
3.6140004464
 30
0.0
 10
3.4716581922
 20
3.6138447411
 30
0.0
 10
3.4713145059
 20
3.6136891263
 30
0.0
 10
3.4710227164
 20
3.6135336015
 30
0.0
 10
3.4707826493
 20
3.6133780862
 30
0.0
 10
3.4705940197
 20
3.6132221305
 30
0.0
 10
3.4704565505
 20
3.6130650186
 30
0.0
 10
3.4703834573
 20
3.6129273971
 30
0.0
 10
3.4703555083
 20
3.6128189532
 30
0.0
 10
3.4703509317
 20
3.6127657987
 30
0.0
 10
3.4703509317
 20
3.6127396452
 30
0.0
  0
SPLINE
  5
359
100
AcDbEntity
  8
ALL_FEATURES
100
AcDbSpline
 62
7
  6
CONTINUOUS
 70
0
 71
3
 72
60
 73
56
 74
0
 42
0.0000001
 43
0.0000001
 44
0.0000000001
 40
0.0
 40
0.0
 40
0.0
 40
0.0
 40
0.0004107869
 40
0.0008332387
 40
0.0017519732
 40
0.0028249711
 40
0.0040939971
 40
0.0055841126
 40
0.0073105088
 40
0.0092826887
 40
0.0115067613
 40
0.0139862131
 40
0.0167227549
 40
0.0197171872
 40
0.0229696978
 40
0.030247429
 40
0.0385508222
 40
0.0478670364
 40
0.0581776729
 40
0.069463109
 40
0.0817022641
 40
0.0948686242
 40
0.1089332895
 40
0.1396387278
 40
0.1735523899
 40
0.2103790921
 40
0.2497933502
 40
0.2914495902
 40
0.3349774765
 40
0.3799936412
 40
0.4728861218
 40
0.5668413043
 40
0.6131749289
 40
0.6585303458
 40
0.7025060526
 40
0.7447146354
 40
0.7847812186
 40
0.8223542201
 40
0.8570993939
 40
0.8887154384
 40
0.9032612229
 40
0.9169243718
 40
0.9296761516
 40
0.9414882824
 40
0.9523365161
 40
0.9622009044
 40
0.9710625332
 40
0.9789045452
 40
0.985717627
 40
0.9887373387
 40
0.9914991431
 40
0.9940037937
 40
0.9962529097
 40
0.9982497055
 40
1.0
 40
1.0
 40
1.0
 40
1.0
 10
3.6603509317
 20
3.5554461424
 30
0.0
 10
3.6603509317
 20
3.5554199885
 30
0.0
 10
3.6603463558
 20
3.5553668334
 30
0.0
 10
3.6603184102
 20
3.5552583889
 30
0.0
 10
3.6602453246
 20
3.5551207665
 30
0.0
 10
3.6601078643
 20
3.5549636536
 30
0.0
 10
3.6599192425
 20
3.5548076984
 30
0.0
 10
3.6596791801
 20
3.5546521843
 30
0.0
 10
3.65938739
 20
3.5544966614
 30
0.0
 10
3.6590436959
 20
3.5543410489
 30
0.0
 10
3.6586480644
 20
3.5541853479
 30
0.0
 10
3.6582006177
 20
3.554029556
 30
0.0
 10
3.6577015848
 20
3.5538736703
 30
0.0
 10
3.6571512449
 20
3.5537176966
 30
0.0
 10
3.6563176925
 20
3.5535014567
 30
0.0
 10
3.6551485152
 20
3.5532341666
 30
0.0
 10
3.6535939314
 20
3.5529236409
 30
0.0
 10
3.6518429619
 20
3.5526126707
 30
0.0
 10
3.6498995594
 20
3.5523012821
 30
0.0
 10
3.647767953
 20
3.5519896113
 30
0.0
 10
3.6454527827
 20
3.5516777951
 30
0.0
 10
3.6429592121
 20
3.5513658069
 30
0.0
 10
3.6392955033
 20
3.5509369748
 30
0.0
 10
3.6343139497
 20
3.5504061463
 30
0.0
 10
3.6278849658
 20
3.5497851722
 30
0.0
 10
3.6208992109
 20
3.5491635325
 30
0.0
 10
3.6134187574
 20
3.5485412723
 30
0.0
 10
3.6055102978
 20
3.5479186713
 30
0.0
 10
3.5972441557
 20
3.5472957233
 30
0.0
 10
3.5857230267
 20
3.5464561425
 30
0.0
 10
3.5709970994
 20
3.5454207657
 30
0.0
 10
3.5561867228
 20
3.5443908085
 30
0.0
 10
3.5443966784
 20
3.5435559029
 30
0.0
 10
3.5357817015
 20
3.5429327388
 30
0.0
 10
3.5274300478
 20
3.5423097399
 30
0.0
 10
3.5194160669
 20
3.5416870384
 30
0.0
 10
3.5118109932
 20
3.5410646324
 30
0.0
 10
3.5046827222
 20
3.5404428162
 30
0.0
 10
3.4980946215
 20
3.5398215563
 30
0.0
 10
3.4929707145
 20
3.5392911359
 30
0.0
 10
3.4891859119
 20
3.5388628828
 30
0.0
 10
3.4865967448
 20
3.5385508047
 30
0.0
 10
3.4841829432
 20
3.5382389051
 30
0.0
 10
3.4819499389
 20
3.5379271548
 30
0.0
 10
3.479902665
 20
3.5376156007
 30
0.0
 10
3.4780455502
 20
3.537304377
 30
0.0
 10
3.4763826747
 20
3.5369936337
 30
0.0
 10
3.4749177558
 20
3.5366833589
 30
0.0
 10
3.473824397
 20
3.5364158018
 30
0.0
 10
3.473052309
 20
3.5361990215
 30
0.0
 10
3.47254823
 20
3.5360431254
 30
0.0
 10
3.4720957024
 20
3.5358873339
 30
0.0
 10
3.4716949491
 20
3.535731633
 30
0.0
 10
3.4713461554
 20
3.5355760257
 30
0.0
 10
3.4711345869
 20
3.535465218
 30
0.0
 10
3.4710382687
 20
3.5354091724
 30
0.0
  0
SPLINE
  5
35A
100
AcDbEntity
  8
ALL_FEATURES
100
AcDbSpline
 62
7
  6
CONTINUOUS
 70
0
 71
3
 72
60
 73
56
 74
0
 42
0.0000001
 43
0.0000001
 44
0.0000000001
 40
0.0
 40
0.0
 40
0.0
 40
0.0
 40
0.0004107872
 40
0.000833239
 40
0.0017519731
 40
0.0028249698
 40
0.0040939938
 40
0.005584107
 40
0.0073105007
 40
0.0092826782
 40
0.0115067484
 40
0.013986196
 40
0.0167227321
 40
0.0197171576
 40
0.0229696609
 40
0.0302473781
 40
0.0385507582
 40
0.0478669496
 40
0.0581775615
 40
0.0694629821
 40
0.0817021285
 40
0.0948684667
 40
0.1089330939
 40
0.1396383818
 40
0.1735518998
 40
0.2103787448
 40
0.2497932454
 40
0.2914496254
 40
0.3349775324
 40
0.3799936589
 40
0.4728860018
 40
0.5668410229
 40
0.6131745311
 40
0.6585299223
 40
0.7025058991
 40
0.7447149539
 40
0.7847818508
 40
0.8223549917
 40
0.8571002087
 40
0.888716238
 40
0.9032619872
 40
0.9169250552
 40
0.9296767528
 40
0.941488828
 40
0.9523369678
 40
0.9622012443
 40
0.9710627826
 40
0.9789047341
 40
0.9857177464
 40
0.9887374242
 40
0.9914991979
 40
0.994003823
 40
0.9962529208
 40
0.9982497073
 40
1.0
 40
1.0
 40
1.0
 40
1.0
 10
3.6603509317
 20
3.5971161605
 30
0.0
 10
3.6603509317
 20
3.5970900065
 30
0.0
 10
3.6603463558
 20
3.5970368514
 30
0.0
 10
3.6603184103
 20
3.5969284069
 30
0.0
 10
3.660245325
 20
3.5967907845
 30
0.0
 10
3.6601078651
 20
3.5966336715
 30
0.0
 10
3.6599192438
 20
3.5964777163
 30
0.0
 10
3.6596791819
 20
3.5963222022
 30
0.0
 10
3.6593873923
 20
3.5961666794
 30
0.0
 10
3.6590436987
 20
3.5960110671
 30
0.0
 10
3.6586480677
 20
3.5958553663
 30
0.0
 10
3.6582006217
 20
3.5956995744
 30
0.0
 10
3.6577015899
 20
3.5955436888
 30
0.0
 10
3.6571512514
 20
3.5953877153
 30
0.0
 10
3.6563177008
 20
3.5951714754
 30
0.0
 10
3.6551485257
 20
3.5949041853
 30
0.0
 10
3.6535939451
 20
3.5945936598
 30
0.0
 10
3.6518429796
 20
3.5942826895
 30
0.0
 10
3.6498995812
 20
3.5939713008
 30
0.0
 10
3.6477679779
 20
3.59365963
 30
0.0
 10
3.6454528106
 20
3.5933478141
 30
0.0
 10
3.6429592444
 20
3.5930358259
 30
0.0
 10
3.639295549
 20
3.5926069944
 30
0.0
 10
3.6343140167
 20
3.592076167
 30
0.0
 10
3.6278850426
 20
3.5914551922
 30
0.0
 10
3.6208992724
 20
3.5908335513
 30
0.0
 10
3.6134187858
 20
3.5902112867
 30
0.0
 10
3.6055103006
 20
3.589588683
 30
0.0
 10
3.5972441509
 20
3.588965734
 30
0.0
 10
3.5857230318
 20
3.588126153
 30
0.0
 10
3.5709971261
 20
3.5870907766
 30
0.0
 10
3.5561867761
 20
3.5860608201
 30
0.0
 10
3.5443967511
 20
3.585225915
 30
0.0
 10
3.5357817661
 20
3.5846027501
 30
0.0
 10
3.5274300671
 20
3.5839797465
 30
0.0
 10
3.5194160193
 20
3.5833570394
 30
0.0
 10
3.5118108871
 20
3.5827346274
 30
0.0
 10
3.5046825847
 20
3.582112807
 30
0.0
 10
3.4980944736
 20
3.5814915439
 30
0.0
 10
3.4929705674
 20
3.5809611217
 30
0.0
 10
3.4891857732
 20
3.5805328681
 30
0.0
 10
3.4865966189
 20
3.5802207896
 30
0.0
 10
3.4841828315
 20
3.5799088898
 30
0.0
 10
3.4819498418
 20
3.5795971413
 30
0.0
 10
3.4799025846
 20
3.5792855878
 30
0.0
 10
3.4780454889
 20
3.5789743646
 30
0.0
 10
3.4763826302
 20
3.5786636224
 30
0.0
 10
3.474917725
 20
3.5783533506
 30
0.0
 10
3.4738243766
 20
3.5780857954
 30
0.0
 10
3.473052297
 20
3.5778690167
 30
0.0
 10
3.4725482237
 20
3.5777131215
 30
0.0
 10
3.4720957009
 20
3.5775573308
 30
0.0
 10
3.471694951
 20
3.5774016302
 30
0.0
 10
3.4713461593
 20
3.577246023
 30
0.0
 10
3.4711345916
 20
3.5771352154
 30
0.0
 10
3.4710382735
 20
3.5770791698
 30
0.0
  0
SPLINE
  5
35B
100
AcDbEntity
  8
ALL_FEATURES
100
AcDbSpline
 62
7
  6
CONTINUOUS
 70
0
 71
3
 72
43
 73
39
 74
0
 42
0.0000001
 43
0.0000001
 44
0.0000000001
 40
0.0
 40
0.0
 40
0.0
 40
0.0
 40
0.0307689008
 40
0.0636721885
 40
0.0985051632
 40
0.1350677962
 40
0.2126000919
 40
0.2946044881
 40
0.3792802284
 40
0.4647754824
 40
0.5492184334
 40
0.6307616926
 40
0.6698854895
 40
0.7076239153
 40
0.7437694889
 40
0.7781289747
 40
0.8105129006
 40
0.840748723
 40
0.8686759196
 40
0.8941433945
 40
0.9170249014
 40
0.9372030593
 40
0.9462487981
 40
0.9545872948
 40
0.9622111049
 40
0.9691140914
 40
0.9752929996
 40
0.9807508993
 40
0.9854962804
 40
0.9895455378
 40
0.9913186723
 40
0.9929312343
 40
0.9943915633
 40
0.9957114931
 40
0.9969072312
 40
0.9980005526
 40
0.9990198491
 40
1.0
 40
1.0
 40
1.0
 40
1.0
 10
3.5129417093
 20
3.3026646564
 30
0.0
 10
3.5142271817
 20
3.3028350836
 30
0.0
 10
3.5168891506
 20
3.3031738435
 30
0.0
 10
3.5210114374
 20
3.3036648128
 30
0.0
 10
3.5253794812
 20
3.30415611
 30
0.0
 10
3.5316202296
 20
3.3048243412
 30
0.0
 10
3.539843268
 20
3.3056507748
 30
0.0
 10
3.5500890878
 20
3.3066254906
 30
0.0
 10
3.5606718927
 20
3.3076008322
 30
0.0
 10
3.5713578725
 20
3.3085763842
 30
0.0
 10
3.5819113068
 20
3.3095517145
 30
0.0
 10
3.5905162019
 20
3.3103747394
 30
0.0
 10
3.5971588734
 20
3.311039311
 30
0.0
 10
3.6018960531
 20
3.3115307226
 30
0.0
 10
3.6064313381
 20
3.3120220308
 30
0.0
 10
3.6107396123
 20
3.3125130792
 30
0.0
 10
3.6147971507
 20
3.3130039301
 30
0.0
 10
3.6185815487
 20
3.3134944571
 30
0.0
 10
3.6220719109
 20
3.3139844857
 30
0.0
 10
3.6252491173
 20
3.3144740436
 30
0.0
 10
3.6280956287
 20
3.3149627402
 30
0.0
 10
3.6302512889
 20
3.3153829115
 30
0.0
 10
3.6317974088
 20
3.3157230764
 30
0.0
 10
3.6328224072
 20
3.3159686626
 30
0.0
 10
3.6337543692
 20
3.3162140545
 30
0.0
 10
3.6345919789
 20
3.3164592277
 30
0.0
 10
3.6353341118
 20
3.3167042007
 30
0.0
 10
3.6359800327
 20
3.3169488624
 30
0.0
 10
3.636529141
 20
3.3171931834
 30
0.0
 10
3.6369218008
 20
3.3174049072
 30
0.0
 10
3.6371841708
 20
3.3175765391
 30
0.0
 10
3.6373474156
 20
3.3176995654
 30
0.0
 10
3.637485968
 20
3.317822719
 30
0.0
 10
3.6375998129
 20
3.3179461244
 30
0.0
 10
3.6376889085
 20
3.3180699479
 30
0.0
 10
3.6377530752
 20
3.3181944226
 30
0.0
 10
3.6377919299
 20
3.3183195943
 30
0.0
 10
3.6378006897
 20
3.3184040859
 30
0.0
 10
3.6378006996
 20
3.3184453933
 30
0.0
  0
SPLINE
  5
35C
100
AcDbEntity
  8
ALL_FEATURES
100
AcDbSpline
 62
7
  6
CONTINUOUS
 70
0
 71
3
 72
57
 73
53
 74
0
 42
0.0000001
 43
0.0000001
 44
0.0000000001
 40
0.0
 40
0.0
 40
0.0
 40
0.0
 40
0.0022136992
 40
0.0046632831
 40
0.0073531235
 40
0.010286217
 40
0.0168888773
 40
0.024476475
 40
0.0286379651
 40
0.0330429503
 40
0.0425775973
 40
0.0530679475
 40
0.064496148
 40
0.0768389144
 40
0.0900719593
 40
0.1191058957
 40
0.1513578108
 40
0.1865591903
 40
0.2244106935
 40
0.2645902786
 40
0.306753657
 40
0.3505387978
 40
0.4414575651
 40
0.5342215722
 40
0.5802979953
 40
0.6256399497
 40
0.6698574082
 40
0.7125697966
 40
0.7534100377
 40
0.7920287198
 40
0.8280950182
 40
0.8613042388
 40
0.8913749411
 40
0.9051561454
 40
0.9180613021
 40
0.9300650338
 40
0.9411461479
 40
0.9512844098
 40
0.9604609307
 40
0.9686625083
 40
0.975883052
 40
0.9821212253
 40
0.9848740003
 40
0.9873848583
 40
0.9896578506
 40
0.9916991777
 40
0.9935177157
 40
0.9951263735
 40
0.9965441925
 40
0.9977993709
 40
0.9989328025
 40
1.0
 40
1.0
 40
1.0
 40
1.0
 10
3.4937949415
 20
3.4653332086
 30
0.0
 10
3.4938879917
 20
3.4653875924
 30
0.0
 10
3.4940878462
 20
3.4654956345
 30
0.0
 10
3.4944111377
 20
3.4656496639
 30
0.0
 10
3.4947727979
 20
3.4658037637
 30
0.0
 10
3.4953282925
 20
3.4660178394
 30
0.0
 10
3.4961193672
 20
3.466282211
 30
0.0
 10
3.4969781367
 20
3.4665294914
 30
0.0
 10
3.4977388563
 20
3.4667292418
 30
0.0
 10
3.4985944232
 20
3.4669406866
 30
0.0
 10
3.4997545753
 20
3.4672034074
 30
0.0
 10
3.5012547595
 20
3.4675111587
 30
0.0
 10
3.5028942213
 20
3.4678190813
 30
0.0
 10
3.5046693171
 20
3.4681272233
 30
0.0
 10
3.5072940498
 20
3.4685515151
 30
0.0
 10
3.5108841499
 20
3.4690763713
 30
0.0
 10
3.515541682
 20
3.4696896026
 30
0.0
 10
3.5206317927
 20
3.4703035384
 30
0.0
 10
3.5261103678
 20
3.4709181131
 30
0.0
 10
3.5319298414
 20
3.4715330907
 30
0.0
 10
3.5380396891
 20
3.4721484003
 30
0.0
 10
3.546610548
 20
3.4729795212
 30
0.0
 10
3.5576376573
 20
3.4740044897
 30
0.0
 10
3.5687776313
 20
3.4750199925
 30
0.0
 10
3.5777069916
 20
3.4758428685
 30
0.0
 10
3.58428186
 20
3.4764585951
 30
0.0
 10
3.5906922292
 20
3.4770741745
 30
0.0
 10
3.5968824091
 20
3.4776895502
 30
0.0
 10
3.6027986379
 20
3.4783046531
 30
0.0
 10
3.6083895061
 20
3.4789193478
 30
0.0
 10
3.6136065361
 20
3.4795335382
 30
0.0
 10
3.6184043895
 20
3.4801469761
 30
0.0
 10
3.6221195536
 20
3.4806714811
 30
0.0
 10
3.6248502495
 20
3.4810949935
 30
0.0
 10
3.6267085865
 20
3.4814032235
 30
0.0
 10
3.6284335678
 20
3.4817113201
 30
0.0
 10
3.630021582
 20
3.4820192097
 30
0.0
 10
3.631469227
 20
3.4823268215
 30
0.0
 10
3.6327733073
 20
3.4826341517
 30
0.0
 10
3.6339311334
 20
3.4829411203
 30
0.0
 10
3.6349404445
 20
3.483247572
 30
0.0
 10
3.6356845607
 20
3.4835121908
 30
0.0
 10
3.6362019649
 20
3.4837266833
 30
0.0
 10
3.63653512
 20
3.4838807404
 30
0.0
 10
3.6368297462
 20
3.4840347524
 30
0.0
 10
3.6370858098
 20
3.4841887546
 30
0.0
 10
3.6373033269
 20
3.4843428217
 30
0.0
 10
3.6374823357
 20
3.4844971321
 30
0.0
 10
3.6376228391
 20
3.4846520186
 30
0.0
 10
3.637724607
 20
3.4848081021
 30
0.0
 10
3.6377867933
 20
3.484965879
 30
0.0
 10
3.6378009324
 20
3.4850734567
 30
0.0
 10
3.6378009138
 20
3.4851254148
 30
0.0
  0
SPLINE
  5
35D
100
AcDbEntity
  8
ALL_FEATURES
100
AcDbSpline
 62
7
  6
CONTINUOUS
 70
0
 71
3
 72
60
 73
56
 74
0
 42
0.0000001
 43
0.0000001
 44
0.0000000001
 40
0.0
 40
0.0
 40
0.0
 40
0.0
 40
0.0004107862
 40
0.0008332352
 40
0.0017519539
 40
0.0028249191
 40
0.004093895
 40
0.0055839443
 40
0.0073102593
 40
0.0092823445
 40
0.0115062954
 40
0.0139855554
 40
0.0167218536
 40
0.0197160146
 40
0.022968251
 40
0.0302455266
 40
0.0385486006
 40
0.0478642405
 40
0.0581742521
 40
0.0694592867
 40
0.0816981445
 40
0.0948640386
 40
0.1089283905
 40
0.139634248
 40
0.1735487189
 40
0.2103769723
 40
0.2497924997
 40
0.2914493656
 40
0.3349773655
 40
0.3799935034
 40
0.472885981
 40
0.5668412189
 40
0.6131749029
 40
0.6585304068
 40
0.7025061056
 40
0.7447142904
 40
0.7847797785
 40
0.8223512715
 40
0.8570953982
 40
0.8887108866
 40
0.9032567611
 40
0.9169203305
 40
0.9296725332
 40
0.9414849171
 40
0.9523336771
 40
0.9621986888
 40
0.9710607653
 40
0.9789030906
 40
0.9857166737
 40
0.9887366474
 40
0.991498688
 40
0.9940035248
 40
0.9962527562
 40
0.9982496355
 40
1.0
 40
1.0
 40
1.0
 40
1.0
 10
3.4703509317
 20
3.5710696498
 30
0.0
 10
3.4703509317
 20
3.5710958037
 30
0.0
 10
3.4703555073
 20
3.5711489585
 30
0.0
 10
3.470383451
 20
3.5712574022
 30
0.0
 10
3.4704565319
 20
3.5713950232
 30
0.0
 10
3.4705939845
 20
3.5715521345
 30
0.0
 10
3.4707825963
 20
3.5717080869
 30
0.0
 10
3.4710226464
 20
3.5718635969
 30
0.0
 10
3.471314422
 20
3.5720191142
 30
0.0
 10
3.4716580988
 20
3.572174719
 30
0.0
 10
3.4720537064
 20
3.5723304095
 30
0.0
 10
3.4725011182
 20
3.5724861938
 30
0.0
 10
3.4730001064
 20
3.5726420713
 30
0.0
 10
3.4735503962
 20
3.5727980372
 30
0.0
 10
3.474383885
 20
3.5730142687
 30
0.0
 10
3.4755529959
 20
3.5732815493
 30
0.0
 10
3.4771074952
 20
3.5735920588
 30
0.0
 10
3.4788583663
 20
3.5739030286
 30
0.0
 10
3.4808016657
 20
3.5742144159
 30
0.0
 10
3.4829331879
 20
3.5745260794
 30
0.0
 10
3.4852482843
 20
3.574837887
 30
0.0
 10
3.4877417852
 20
3.5751498783
 30
0.0
 10
3.4914054696
 20
3.5755787195
 30
0.0
 10
3.4963870809
 20
3.5761095524
 30
0.0
 10
3.5028162388
 20
3.5767305594
 30
0.0
 10
3.5098022237
 20
3.5773522165
 30
0.0
 10
3.5172828949
 20
3.5779744995
 30
0.0
 10
3.5251914814
 20
3.5785971101
 30
0.0
 10
3.5334576681
 20
3.5792200613
 30
0.0
 10
3.5449788016
 20
3.5800596424
 30
0.0
 10
3.5597047294
 20
3.5810950193
 30
0.0
 10
3.5745151119
 20
3.5821249768
 30
0.0
 10
3.5863051682
 20
3.5829598834
 30
0.0
 10
3.5949201532
 20
3.5835830479
 30
0.0
 10
3.603271786
 20
3.5842060457
 30
0.0
 10
3.6112856709
 20
3.5848287402
 30
0.0
 10
3.6188905538
 20
3.5854511277
 30
0.0
 10
3.6260185927
 20
3.5860729243
 30
0.0
 10
3.6326064965
 20
3.5866941565
 30
0.0
 10
3.6377303076
 20
3.5872245632
 30
0.0
 10
3.6415151076
 20
3.5876528107
 30
0.0
 10
3.6441043347
 20
3.5879648856
 30
0.0
 10
3.6465182066
 20
3.588276785
 30
0.0
 10
3.6487512862
 20
3.5885885484
 30
0.0
 10
3.6507986498
 20
3.588900105
 30
0.0
 10
3.6526558674
 20
3.58921133
 30
0.0
 10
3.6543188314
 20
3.589522079
 30
0.0
 10
3.6557838285
 20
3.5898323722
 30
0.0
 10
3.6568772555
 20
3.5900999378
 30
0.0
 10
3.6576494068
 20
3.590316728
 30
0.0
 10
3.6581535288
 20
3.5904726324
 30
0.0
 10
3.65860609
 20
3.5906284317
 30
0.0
 10
3.6590068655
 20
3.590784143
 30
0.0
 10
3.6593556743
 20
3.5909397587
 30
0.0
 10
3.6595672515
 20
3.5910505706
 30
0.0
 10
3.6596635737
 20
3.5911066182
 30
0.0
  0
SPLINE
  5
35E
100
AcDbEntity
  8
ALL_FEATURES
100
AcDbSpline
 62
7
  6
CONTINUOUS
 70
0
 71
3
 72
41
 73
37
 74
0
 42
0.0000001
 43
0.0000001
 44
0.0000000001
 40
0.0
 40
0.0
 40
0.0
 40
0.0
 40
0.0256364139
 40
0.0536314699
 40
0.0838128102
 40
0.1160096983
 40
0.1500512917
 40
0.1857515533
 40
0.2613218477
 40
0.3410441988
 40
0.4231505944
 40
0.5058149648
 40
0.587198125
 40
0.6654911476
 40
0.7029322865
 40
0.738958725
 40
0.7733687537
 40
0.8059740463
 40
0.83659263
 40
0.8650572723
 40
0.8912118872
 40
0.9149140802
 40
0.9360394286
 40
0.9455996059
 40
0.9544760634
 40
0.9626585262
 40
0.9701372165
 40
0.9769034768
 40
0.9800179191
 40
0.9829527801
 40
0.9882830296
 40
0.992895277
 40
0.9949338871
 40
0.9967957248
 40
0.9984831986
 40
1.0
 40
1.0
 40
1.0
 40
1.0
 10
3.4884776222
 20
3.3252146565
 30
0.0
 10
3.4899379097
 20
3.3253881641
 30
0.0
 10
3.4929951183
 20
3.3257320231
 30
0.0
 10
3.4977774891
 20
3.3262251581
 30
0.0
 10
3.5029379897
 20
3.3267186578
 30
0.0
 10
3.5084467787
 20
3.327212403
 30
0.0
 10
3.5142733202
 20
3.327706354
 30
0.0
 10
3.5225816474
 20
3.3283779948
 30
0.0
 10
3.5335059202
 20
3.3292087362
 30
0.0
 10
3.5470883202
 20
3.330188999
 30
0.0
 10
3.5610786256
 20
3.331169883
 30
0.0
 10
3.5751644164
 20
3.3321509173
 30
0.0
 10
3.5890309526
 20
3.3331316404
 30
0.0
 10
3.6003076729
 20
3.3339599478
 30
0.0
 10
3.6089872443
 20
3.3346290192
 30
0.0
 10
3.6151555821
 20
3.3351231816
 30
0.0
 10
3.621045611
 20
3.3356172149
 30
0.0
 10
3.6266243142
 20
3.3361109876
 30
0.0
 10
3.6318605917
 20
3.3366045121
 30
0.0
 10
3.6367251326
 20
3.3370976494
 30
0.0
 10
3.6411908088
 20
3.3375902442
 30
0.0
 10
3.645232758
 20
3.338082247
 30
0.0
 10
3.6483240699
 20
3.3385041593
 30
0.0
 10
3.650567685
 20
3.3388452951
 30
0.0
 10
3.6520745217
 20
3.3390924301
 30
0.0
 10
3.6534602723
 20
3.3393393887
 30
0.0
 10
3.6547229375
 20
3.3395861453
 30
0.0
 10
3.655696229
 20
3.339797004
 30
0.0
 10
3.6564115107
 20
3.3399667677
 30
0.0
 10
3.6570443797
 20
3.3401267406
 30
0.0
 10
3.6577561838
 20
3.3403247137
 30
0.0
 10
3.6584102278
 20
3.3405369077
 30
0.0
 10
3.6588673417
 20
3.3407088673
 30
0.0
 10
3.6591631901
 20
3.3408324461
 30
0.0
 10
3.659426336
 20
3.3409559806
 30
0.0
 10
3.6595884612
 20
3.3410428612
 30
0.0
 10
3.6596636636
 20
3.3410866199
 30
0.0
  0
SPLINE
  5
35F
100
AcDbEntity
  8
ALL_FEATURES
100
AcDbSpline
 62
7
  6
CONTINUOUS
 70
0
 71
3
 72
60
 73
56
 74
0
 42
0.0000001
 43
0.0000001
 44
0.0000000001
 40
0.0
 40
0.0
 40
0.0
 40
0.0
 40
0.0004107866
 40
0.0008332382
 40
0.0017519731
 40
0.0028249723
 40
0.0040940002
 40
0.0055841181
 40
0.0073105165
 40
0.0092826983
 40
0.0115067727
 40
0.0139862278
 40
0.0167227744
 40
0.0197172128
 40
0.0229697301
 40
0.0302474757
 40
0.0385508855
 40
0.0478671267
 40
0.0581777882
 40
0.0694632327
 40
0.081702379
 40
0.0948687475
 40
0.1089334633
 40
0.1396392282
 40
0.1735532941
 40
0.2103799482
 40
0.2497939078
 40
0.2914498441
 40
0.3349775849
 40
0.3799937668
 40
0.4728863812
 40
0.5668416016
 40
0.6131753746
 40
0.6585308655
 40
0.7025061188
 40
0.7447138151
 40
0.7847796699
 40
0.822352205
 40
0.8570972156
 40
0.8887132768
 40
0.903259149
 40
0.9169225001
 40
0.9296744749
 40
0.9414867271
 40
0.9523351996
 40
0.9621998769
 40
0.9710617304
 40
0.9789039005
 40
0.9857172035
 40
0.9887370293
 40
0.991498938
 40
0.9940036744
 40
0.9962528497
 40
0.998249683
 40
1.0
 40
1.0
 40
1.0
 40
1.0
 10
3.6603509317
 20
3.3887661677
 30
0.0
 10
3.6603509317
 20
3.3887400138
 30
0.0
 10
3.6603463557
 20
3.3886868587
 30
0.0
 10
3.6603184101
 20
3.3885784142
 30
0.0
 10
3.6602453241
 20
3.3884407919
 30
0.0
 10
3.6601078634
 20
3.3882836791
 30
0.0
 10
3.6599192412
 20
3.3881277238
 30
0.0
 10
3.6596791783
 20
3.3879722097
 30
0.0
 10
3.6593873877
 20
3.3878166868
 30
0.0
 10
3.6590436933
 20
3.3876610742
 30
0.0
 10
3.6586480614
 20
3.387505373
 30
0.0
 10
3.658200614
 20
3.387349581
 30
0.0
 10
3.6577015802
 20
3.3871936952
 30
0.0
 10
3.6571512393
 20
3.3870377215
 30
0.0
 10
3.656317685
 20
3.3868214816
 30
0.0
 10
3.6551485053
 20
3.3865541914
 30
0.0
 10
3.6535939178
 20
3.3862436653
 30
0.0
 10
3.6518429439
 20
3.3859326952
 30
0.0
 10
3.6498995375
 20
3.3856213066
 30
0.0
 10
3.6477679295
 20
3.3853096358
 30
0.0
 10
3.6454527588
 20
3.3849978194
 30
0.0
 10
3.642959185
 20
3.3846858312
 30
0.0
 10
3.6392954517
 20
3.3842569969
 30
0.0
 10
3.6343138486
 20
3.383726165
 30
0.0
 10
3.6278848214
 20
3.3831051882
 30
0.0
 10
3.620899063
 20
3.3824835474
 30
0.0
 10
3.6134186506
 20
3.3818612931
 30
0.0
 10
3.6055102385
 20
3.3812386958
 30
0.0
 10
3.5972441239
 20
3.3806157501
 30
0.0
 10
3.5857229946
 20
3.3797761694
 30
0.0
 10
3.5709970555
 20
3.3787407918
 30
0.0
 10
3.5561866587
 20
3.3777108333
 30
0.0
 10
3.5443965979
 20
3.376875926
 30
0.0
 10
3.5357816358
 20
3.3762527624
 30
0.0
 10
3.5274300625
 20
3.3756297701
 30
0.0
 10
3.519416213
 20
3.3750070781
 30
0.0
 10
3.5118112714
 20
3.3743846842
 30
0.0
 10
3.5046830864
 20
3.3737628766
 30
0.0
 10
3.4980950243
 20
3.3731416239
 30
0.0
 10
3.4929711208
 20
3.3726112068
 30
0.0
 10
3.4891862986
 20
3.3721829537
 30
0.0
 10
3.4865971004
 20
3.3718708763
 30
0.0
 10
3.4841832655
 20
3.3715589765
 30
0.0
 10
3.4819502264
 20
3.3712472203
 30
0.0
 10
3.4799029109
 20
3.3709356646
 30
0.0
 10
3.4780457478
 20
3.3706244395
 30
0.0
 10
3.4763828294
 20
3.370313693
 30
0.0
 10
3.4749178731
 20
3.3700034089
 30
0.0
 10
3.4738244834
 20
3.3697358464
 30
0.0
 10
3.4730523678
 20
3.369519061
 30
0.0
 10
3.4725482696
 20
3.3693631611
 30
0.0
 10
3.4720957264
 20
3.3692073664
 30
0.0
 10
3.4716949618
 20
3.3690516622
 30
0.0
 10
3.4713461609
 20
3.3688960525
 30
0.0
 10
3.4711345888
 20
3.3687852435
 30
0.0
 10
3.4710382692
 20
3.3687291973
 30
0.0
  0
SPLINE
  5
360
100
AcDbEntity
  8
ALL_FEATURES
100
AcDbSpline
 62
7
  6
CONTINUOUS
 70
0
 71
3
 72
57
 73
53
 74
0
 42
0.0000001
 43
0.0000001
 44
0.0000000001
 40
0.0
 40
0.0
 40
0.0
 40
0.0
 40
0.002213736
 40
0.0046633574
 40
0.0073532202
 40
0.0102863049
 40
0.0168888462
 40
0.0244764488
 40
0.028637976
 40
0.0330430012
 40
0.0425776742
 40
0.0530679132
 40
0.0644961063
 40
0.0768389432
 40
0.0900720223
 40
0.1191058459
 40
0.1513578583
 40
0.1865591392
 40
0.224410725
 40
0.2645902327
 40
0.3067536729
 40
0.3505387626
 40
0.441457545
 40
0.53422157
 40
0.5802979744
 40
0.6256399668
 40
0.6698573806
 40
0.7125698326
 40
0.7534100068
 40
0.7920287725
 40
0.8280949877
 40
0.8613043046
 40
0.8913749141
 40
0.905156114
 40
0.918061376
 40
0.9300650901
 40
0.9411461273
 40
0.9512843716
 40
0.9604610064
 40
0.9686625777
 40
0.9758830404
 40
0.9821211838
 40
0.9848740002
 40
0.987384926
 40
0.9896579395
 40
0.9916992524
 40
0.9935177578
 40
0.9951263803
 40
0.9965441752
 40
0.9977993488
 40
0.998932793
 40
1.0
 40
1.0
 40
1.0
 40
1.0
 10
3.493794933
 20
3.4236632008
 30
0.0
 10
3.4938879852
 20
3.4237175846
 30
0.0
 10
3.494087844
 20
3.4238256264
 30
0.0
 10
3.494411141
 20
3.4239796552
 30
0.0
 10
3.4947728041
 20
3.4241337545
 30
0.0
 10
3.4953282937
 20
3.4243478287
 30
0.0
 10
3.4961193601
 20
3.4246122062
 30
0.0
 10
3.4969781269
 20
3.4248594831
 30
0.0
 10
3.4977388509
 20
3.4250592324
 30
0.0
 10
3.4985944232
 20
3.4252706762
 30
0.0
 10
3.4997545735
 20
3.425533395
 30
0.0
 10
3.5012547522
 20
3.4258411506
 30
0.0
 10
3.502894212
 20
3.4261490717
 30
0.0
 10
3.5046693129
 20
3.4264572119
 30
0.0
 10
3.5072940455
 20
3.426881502
 30
0.0
 10
3.5108841459
 20
3.4274063629
 30
0.0
 10
3.5155416734
 20
3.4280195872
 30
0.0
 10
3.5206317875
 20
3.4286335281
 30
0.0
 10
3.5261103588
 20
3.4292480974
 30
0.0
 10
3.5319298353
 20
3.4298630784
 30
0.0
 10
3.5380396802
 20
3.4304783844
 30
0.0
 10
3.5466105403
 20
3.4313095071
 30
0.0
 10
3.557637649
 20
3.4323344734
 30
0.0
 10
3.568777624
 20
3.4333499751
 30
0.0
 10
3.5777069862
 20
3.4341728516
 30
0.0
 10
3.5842818536
 20
3.4347885762
 30
0.0
 10
3.5906922255
 20
3.4354041574
 30
0.0
 10
3.5968824035
 20
3.4360195297
 30
0.0
 10
3.6027986359
 20
3.4366346359
 30
0.0
 10
3.6083895015
 20
3.4372493259
 30
0.0
 10
3.6136065357
 20
3.4378635208
 30
0.0
 10
3.618404386
 20
3.4384769532
 30
0.0
 10
3.6221195497
 20
3.4390014608
 30
0.0
 10
3.6248502459
 20
3.4394249745
 30
0.0
 10
3.6267085877
 20
3.4397332006
 30
0.0
 10
3.6284335694
 20
3.4400412981
 30
0.0
 10
3.6300215779
 20
3.4403491889
 30
0.0
 10
3.6314692233
 20
3.440656803
 30
0.0
 10
3.6327733094
 20
3.4409641276
 30
0.0
 10
3.6339311368
 20
3.4412710968
 30
0.0
 10
3.6349404413
 20
3.4415775508
 30
0.0
 10
3.6356845532
 20
3.4418421712
 30
0.0
 10
3.6362019621
 20
3.4420566624
 30
0.0
 10
3.6365351255
 20
3.4422107166
 30
0.0
 10
3.6368297558
 20
3.4423647289
 30
0.0
 10
3.6370858178
 20
3.4425187314
 30
0.0
 10
3.6373033297
 20
3.4426727989
 30
0.0
 10
3.6374823322
 20
3.44282711
 30
0.0
 10
3.6376228301
 20
3.4429819971
 30
0.0
 10
3.637724596
 20
3.4431380808
 30
0.0
 10
3.6377867857
 20
3.4432958563
 30
0.0
 10
3.6378009356
 20
3.4434034336
 30
0.0
 10
3.63780092
 20
3.4434553921
 30
0.0
  0
SPLINE
  5
361
100
AcDbEntity
  8
ALL_FEATURES
100
AcDbSpline
 62
7
  6
CONTINUOUS
 70
0
 71
3
 72
57
 73
53
 74
0
 42
0.0000001
 43
0.0000001
 44
0.0000000001
 40
0.0
 40
0.0
 40
0.0
 40
0.0
 40
0.0022138717
 40
0.0046641975
 40
0.0073549707
 40
0.0102887848
 40
0.0168907714
 40
0.0244764575
 40
0.0286379993
 40
0.0330436624
 40
0.0425799897
 40
0.0530699416
 40
0.0644962599
 40
0.0768394913
 40
0.0900740864
 40
0.1191061852
 40
0.151359633
 40
0.1865596733
 40
0.2244121985
 40
0.2645909485
 40
0.3067548561
 40
0.3505396277
 40
0.4414585111
 40
0.534222578
 40
0.5802985234
 40
0.6256409524
 40
0.6698578324
 40
0.7125707327
 40
0.7534104235
 40
0.7920295317
 40
0.8280954272
 40
0.861304881
 40
0.8913754256
 40
0.9051555803
 40
0.9180617449
 40
0.9300666848
 40
0.9411467485
 40
0.9512837686
 40
0.9604611687
 40
0.9686641988
 40
0.9758837922
 40
0.9821206282
 40
0.9848733622
 40
0.9873849093
 40
0.9896588744
 40
0.9917007288
 40
0.9935191206
 40
0.9951272683
 40
0.9965445286
 40
0.9977993482
 40
0.9989327221
 40
1.0
 40
1.0
 40
1.0
 40
1.0
 10
3.4937947192
 20
3.3403232128
 30
0.0
 10
3.4938877733
 20
3.3403776067
 30
0.0
 10
3.4940876763
 20
3.3404856553
 30
0.0
 10
3.4944110743
 20
3.3406396708
 30
0.0
 10
3.4947728661
 20
3.34079376
 30
0.0
 10
3.495328427
 20
3.3410077959
 30
0.0
 10
3.4961193952
 20
3.3412721939
 30
0.0
 10
3.4969780224
 20
3.3415195305
 30
0.0
 10
3.4977386899
 20
3.3417192562
 30
0.0
 10
3.4985943804
 20
3.3419306932
 30
0.0
 10
3.4997546404
 20
3.3421933732
 30
0.0
 10
3.5012547919
 20
3.3425011417
 30
0.0
 10
3.5028941543
 20
3.342809124
 30
0.0
 10
3.5046692634
 20
3.3431172389
 30
0.0
 10
3.507294018
 20
3.3435414618
 30
0.0
 10
3.5108841649
 20
3.3440664372
 30
0.0
 10
3.5155416354
 20
3.3446795591
 30
0.0
 10
3.5206317997
 20
3.3452935783
 30
0.0
 10
3.5261103305
 20
3.3459080909
 30
0.0
 10
3.5319298394
 20
3.3465231128
 30
0.0
 10
3.5380396625
 20
3.3471383931
 30
0.0
 10
3.5466105405
 20
3.3479695346
 30
0.0
 10
3.5576376511
 20
3.3489944926
 30
0.0
 10
3.568777621
 20
3.3500099871
 30
0.0
 10
3.5777069903
 20
3.350832882
 30
0.0
 10
3.584281838
 20
3.3514485868
 30
0.0
 10
3.5906922305
 20
3.3520641908
 30
0.0
 10
3.5968823883
 20
3.3526795407
 30
0.0
 10
3.6027986387
 20
3.3532946688
 30
0.0
 10
3.6083894885
 20
3.3539093408
 30
0.0
 10
3.6136065338
 20
3.3545235477
 30
0.0
 10
3.6184043756
 20
3.3551369823
 30
0.0
 10
3.6221195001
 20
3.3556614552
 30
0.0
 10
3.6248501798
 20
3.3560850247
 30
0.0
 10
3.6267085794
 20
3.3563932326
 30
0.0
 10
3.6284336275
 20
3.3567012882
 30
0.0
 10
3.6300215843
 20
3.3570092059
 30
0.0
 10
3.631469151
 20
3.3573168608
 30
0.0
 10
3.6327732896
 20
3.3576241749
 30
0.0
 10
3.633931207
 20
3.3579310678
 30
0.0
 10
3.6349404669
 20
3.3582375585
 30
0.0
 10
3.6356844489
 20
3.3585022163
 30
0.0
 10
3.6362018162
 20
3.3587167097
 30
0.0
 10
3.6365350622
 20
3.3588707568
 30
0.0
 10
3.6368298225
 20
3.3590247422
 30
0.0
 10
3.6370859737
 20
3.3591787296
 30
0.0
 10
3.6373034794
 20
3.3593328056
 30
0.0
 10
3.6374824025
 20
3.3594871279
 30
0.0
 10
3.6376227879
 20
3.359642029
 30
0.0
 10
3.6377244508
 20
3.3597981238
 30
0.0
 10
3.6377865893
 20
3.359955894
 30
0.0
 10
3.6378007949
 20
3.3600634553
 30
0.0
 10
3.637800826
 20
3.3601154173
 30
0.0
  0
ENDSEC
  0
SECTION
  2
OBJECTS
  0
DICTIONARY
  5
C
100
AcDbDictionary
280
0
281
1
  3
ACAD_GROUP
350
D
  3
ACAD_MLINESTYLE
350
17
  3
ACAD_LAYOUT
350
1A
  3
ACAD_PLOTSETTINGS
350
19
  3
ACAD_PLOTSTYLENAME
350
E
  0
DICTIONARY
  5
D
102
{ACAD_REACTORS
330
C
102
}
100
AcDbDictionary
280
0
281
1
  0
ACDBDICTIONARYWDFLT
  5
E
102
{ACAD_REACTORS
330
C
102
}
100
AcDbDictionary
281
1
  3
Normal
350
F
100
AcDbDictionaryWithDefault
340
F
  0
DICTIONARY
  5
17
102
{ACAD_REACTORS
330
C
102
}
100
AcDbDictionary
280
0
281
1
  3
Standard
350
18
  0
DICTIONARY
  5
19
102
{ACAD_REACTORS
330
C
102
}
100
AcDbDictionary
281
1
  0
DICTIONARY
  5
1A
102
{ACAD_REACTORS
330
C
102
}
100
AcDbDictionary
281
1
  3
Model
350
362
  3
Layout1
350
363
  0
ACDBPLACEHOLDER
  5
F
102
{ACAD_REACTORS
330
E
102
}
  0
MLINESTYLE
  5
18
102
{ACAD_REACTORS
330
17
102
}
100
AcDbMlineStyle
  2
STANDARD
 70
0
  3

 62
256
 51
90.0
 52
90.0
 71
2
 49
0.5
 62
256
  6
BYLAYER
 49
-0.5
 62
256
  6
BYLAYER
  0
LAYOUT
  5
362
102
{ACAD_REACTORS
330
1A
102
}
100
AcDbPlotSettings
  1

  2
none_device
  4
ANSI_A_(11.00_x_8.50_Inches)
  6

 40
0.0
 41
0.0
 42
0.0
 43
0.0
 44
279.4
 45
215.9
 46
0.0
 47
0.0
 48
0.0
 49
0.0
140
0.0
141
0.0
142
1.0
143
1.0
 70
1024
 72
0
 73
0
 74
0
  7

 75
0
147
1.0
148
0.0
149
0.0
100
AcDbLayout
  1
Model
 70
0
 71
0
 10
0.0
 20
0.0
 11
11.0
 21
8.5
 12
0.0
 22
0.0
 32
0.0
 14
0.0
 24
0.0
 34
0.0
 15
0.0
 25
0.0
 35
0.0
146
0.0
 13
0.0
 23
0.0
 33
0.0
 16
1.0
 26
0.0
 36
0.0
 17
0.0
 27
1.0
 37
0.0
 76
0
330
208
345
0
346
0
  0
LAYOUT
  5
363
102
{ACAD_REACTORS
330
1A
102
}
100
AcDbPlotSettings
  1

  2
none_device
  4
ANSI_A_(11.00_x_8.50_Inches)
  6

 40
0.0
 41
0.0
 42
0.0
 43
0.0
 44
279.4
 45
215.9
 46
0.0
 47
0.0
 48
0.0
 49
0.0
140
0.0
141
0.0
142
1.0
143
1.0
 70
0
 72
0
 73
0
 74
0
  7

 75
0
147
1.0
148
0.0
149
0.0
100
AcDbLayout
  1
Layout1
 70
0
 71
1
 10
0.0
 20
0.0
 11
11.0
 21
8.5
 12
0.0
 22
0.0
 32
0.0
 14
0.0
 24
0.0
 34
0.0
 15
0.0
 25
0.0
 35
0.0
146
0.0
 13
0.0
 23
0.0
 33
0.0
 16
1.0
 26
0.0
 36
0.0
 17
0.0
 27
1.0
 37
0.0
 76
0
330
209
345
0
346
0
  0
ENDSEC
  0
EOF
