999
DXF file: E:\BT Custom\CADOUTPUT\_FRONT.dxf
999
Pro/ENGINEER 2018400 by Parametric Technology Corporation
  0
SECTION
  2
HEADER
  9
$ACADVER
  1
AC1018
  9
$DWGCODEPAGE
  3
ANSI_1252
  9
$EXTMAX
 10
22.0
 20
17.0
 30
0.0
  9
$EXTMIN
 10
0.0
 20
0.0
 30
0.0
  9
$LIMMIN
 10
0.0
 20
0.0
  9
$LIMMAX
 10
22.0
 20
17.0
  9
$VIEWCTR
 10
11.0
 20
8.5
  9
$VIEWSIZE
 40
17.0
  9
$CLAYER
  8
0
  9
$LTSCALE
 40
1.21
  9
$CELTYPE
  6
BYLAYER
  9
$DIMSCALE
 40
1.0
  9
$DIMASZ
 40
0.1
  9
$DIMEXO
 40
0.0625
  9
$DIMDLI
 40
0.836
  9
$DIMEXE
 40
0.125
  9
$DIMCEN
 40
0.198
  9
$DIMLFAC
 40
1.0
  9
$DIMBLK
  1
_FILLED
  9
$DIMALT
 70
1
  9
$DIMALTD
 70
2
  9
$DIMALTTD
 70
2
  9
$DIMALTF
 40
25.4
  9
$DIMTXT
 40
0.08
  9
$DIMTOL
 70
1
  9
$DIMLIM
 70
0
  9
$DIMTFAC
 40
1.0
  9
$DIMTP
 40
0.001
  9
$DIMTM
 40
0.001
  9
$DIMGAP
 40
0.09
  9
$DIMDSEP
 70
46
  9
$AUNITS
 70
0
  9
$PDMODE
 70
3
  9
$PDSIZE
 40
0.06
  9
$HANDSEED
  5
260
  9
$TILEMODE
 70
1
  9
$MEASUREMENT
 70
0
  9
$INSUNITS
 70
1
  0
ENDSEC
  0
SECTION
  2
CLASSES
  0
CLASS
  1
ACDBDICTIONARYWDFLT
  2
AcDbDictionaryWithDefault
  3
AutoCAD 2000
 90
0
 91
1
280
0
281
0
  0
CLASS
  1
ACDBPLACEHOLDER
  2
AcDbPlaceHolder
  3
AutoCAD 2000
 90
0
 91
1
280
0
281
0
  0
CLASS
  1
LAYOUT
  2
AcDbLayout
  3
AutoCAD 2000
 90
0
 91
0
280
0
281
0
  0
ENDSEC
  0
SECTION
  2
TABLES
  0
TABLE
  2
VPORT
  5
8
100
AcDbSymbolTable
 70
2
  0
VPORT
  5
1F4
100
AcDbSymbolTableRecord
100
AcDbViewportTableRecord
  2
*ACTIVE
 70
0
 10
0.0
 20
0.0
 11
1.0
 21
1.0
 12
11.0
 22
8.5
 13
0.0
 23
0.0
 14
1.0
 24
1.0
 15
0.0
 25
0.0
 16
0.0
 26
0.0
 36
1.0
 17
0.0
 27
0.0
 37
0.0
 40
17.0
 41
1.2941176471
 42
50.0
 43
0.0
 44
0.0
 50
0.0
 51
0.0
 71
0
 72
100
 73
1
 74
1
 75
0
 76
0
 77
0
 78
0
  0
ENDTAB
  0
TABLE
  2
LTYPE
  5
5
100
AcDbSymbolTable
 70
6
  0
LTYPE
  5
14
100
AcDbSymbolTableRecord
100
AcDbLinetypeTableRecord
  2
BYBLOCK
 70
0
  3

 72
65
 73
0
 40
0.0
  0
LTYPE
  5
15
100
AcDbSymbolTableRecord
100
AcDbLinetypeTableRecord
  2
BYLAYER
 70
0
  3

 72
65
 73
0
 40
0.0
  0
LTYPE
  5
16
100
AcDbSymbolTableRecord
100
AcDbLinetypeTableRecord
  2
CONTINUOUS
 70
64
  3
Solid line
 72
65
 73
0
 40
0.0
  0
LTYPE
  5
1F5
100
AcDbSymbolTableRecord
100
AcDbLinetypeTableRecord
  2
CENTER
 70
64
  3
____ _ ____ _ ____ _ ____ _ ____ _ ____ _ ____
 72
65
 73
4
 40
0.6
 49
0.375
 74
0
 49
-0.075
 74
0
 49
0.075
 74
0
 49
-0.075
 74
0
  0
LTYPE
  5
1F6
100
AcDbSymbolTableRecord
100
AcDbLinetypeTableRecord
  2
HIDDEN
 70
64
  3
- - - - - - - - - - - - - - - - - - - -
 72
65
 73
2
 40
0.2
 49
0.1
 74
0
 49
-0.1
 74
0
  0
LTYPE
  5
1F7
100
AcDbSymbolTableRecord
100
AcDbLinetypeTableRecord
  2
PHANTOM
 70
64
  3
_____ _ _ _____ _ _ _____ _ _ _____
 72
65
 73
6
 40
0.8
 49
0.45
 74
0
 49
-0.05
 74
0
 49
0.1
 74
0
 49
-0.05
 74
0
 49
0.1
 74
0
 49
-0.05
 74
0
  0
LTYPE
  5
1F8
100
AcDbSymbolTableRecord
100
AcDbLinetypeTableRecord
  2
DOT
 70
64
  3
. . . . . . . . . . . . . . . . . . . .
 72
65
 73
2
 40
0.2
 49
0.1
 74
0
 49
-0.1
 74
0
  0
LTYPE
  5
1F9
100
AcDbSymbolTableRecord
100
AcDbLinetypeTableRecord
  2
DASHED
 70
64
  3
- - - - - - - - - - - - - - - - - - - -
 72
65
 73
2
 40
0.2
 49
0.1
 74
0
 49
-0.1
 74
0
  0
ENDTAB
  0
TABLE
  2
LAYER
  5
2
100
AcDbSymbolTable
 70
36
  0
LAYER
  5
10
100
AcDbSymbolTableRecord
100
AcDbLayerTableRecord
  2
0
 70
0
 62
7
  6
CONTINUOUS
370
-3
390
F
  0
LAYER
  5
1FA
100
AcDbSymbolTableRecord
100
AcDbLayerTableRecord
  2
DEFAULT_1
 70
0
 62
7
  6
CENTER
370
-3
390
F
  0
LAYER
  5
1FB
100
AcDbSymbolTableRecord
100
AcDbLayerTableRecord
  2
DEFAULT_2
 70
0
 62
8
  6
HIDDEN
370
-3
390
F
  0
LAYER
  5
1FC
100
AcDbSymbolTableRecord
100
AcDbLayerTableRecord
  2
DEFAULT_3
 70
0
 62
7
  6
PHANTOM
370
-3
390
F
  0
LAYER
  5
1FD
100
AcDbSymbolTableRecord
100
AcDbLayerTableRecord
  2
ALL_FEATURES
 70
0
 62
7
  6
CONTINUOUS
370
-3
390
F
  0
LAYER
  5
1FE
100
AcDbSymbolTableRecord
100
AcDbLayerTableRecord
  2
AXES_FEATURES
 70
0
 62
7
  6
CONTINUOUS
370
-3
390
F
  0
LAYER
  5
1FF
100
AcDbSymbolTableRecord
100
AcDbLayerTableRecord
  2
DEFAULT_COORDINATE_SYSTEM
 70
0
 62
7
  6
CONTINUOUS
370
-3
390
F
  0
LAYER
  5
200
100
AcDbSymbolTableRecord
100
AcDbLayerTableRecord
  2
DEFAULT_DATUM_AXES
 70
0
 62
7
  6
CONTINUOUS
370
-3
390
F
  0
LAYER
  5
201
100
AcDbSymbolTableRecord
100
AcDbLayerTableRecord
  2
DEFAULT_DATUM_PLANES
 70
0
 62
7
  6
CONTINUOUS
370
-3
390
F
  0
LAYER
  5
202
100
AcDbSymbolTableRecord
100
AcDbLayerTableRecord
  2
DIMENSIONS
 70
0
 62
7
  6
CONTINUOUS
370
-3
390
F
  0
ENDTAB
  0
TABLE
  2
STYLE
  5
3
100
AcDbSymbolTable
 70
1
  0
STYLE
  5
11
100
AcDbSymbolTableRecord
100
AcDbTextStyleTableRecord
  2
STANDARD
 70
0
 40
0.0
 41
0.8
 50
0.0
 71
0
 42
0.2
  3
txt
  4

  0
STYLE
  5
203
100
AcDbSymbolTableRecord
100
AcDbTextStyleTableRecord
  2
TEXTSTYLE_1
 70
0
 40
0.0
 41
0.8
 50
0.0
 71
0
 42
0.2
  3
gdt
  4

  0
ENDTAB
  0
TABLE
  2
VIEW
  5
6
100
AcDbSymbolTable
 70
0
  0
ENDTAB
  0
TABLE
  2
UCS
  5
7
100
AcDbSymbolTable
 70
0
  0
ENDTAB
  0
TABLE
  2
APPID
  5
9
100
AcDbSymbolTable
 70
1
  0
APPID
  5
204
100
AcDbSymbolTableRecord
100
AcDbRegAppTableRecord
  2
ACAD
 70
0
  0
ENDTAB
  0
TABLE
  2
BLOCK_RECORD
  5
1
100
AcDbSymbolTable
 70
0
  0
BLOCK_RECORD
  5
205
100
AcDbSymbolTableRecord
100
AcDbBlockTableRecord
  2
*Model_Space
  0
BLOCK_RECORD
  5
206
100
AcDbSymbolTableRecord
100
AcDbBlockTableRecord
  2
*Paper_Space
  0
BLOCK_RECORD
  5
207
100
AcDbSymbolTableRecord
100
AcDbBlockTableRecord
  2
_FILLED
  0
ENDTAB
  0
TABLE
  2
DIMSTYLE
  5
A
100
AcDbSymbolTable
 70
1
100
AcDbDimStyleTable
 71
0
  0
DIMSTYLE
105
208
100
AcDbSymbolTableRecord
100
AcDbDimStyleTableRecord
  2
STANDARD
 70
0
  3

  4

 40
1.0
 41
0.1
 42
0.0625
 43
0.38
 44
0.125
 45
0.0
 46
0.0
 47
0.001
 48
0.001
140
0.08
141
0.09
142
0.0
143
25.4
144
1.0
145
0.0
146
1.0
147
0.09
 71
1.0
 72
0.0
 73
1
 74
1
 75
0
 76
0
 77
0
 78
4
 79
1
170
1
171
2
172
0
173
0
174
0
175
0
176
0
177
0
178
0
270
2
179
3
271
3
272
3
273
2
274
2
275
0
280
0
281
0
282
0
283
1
284
4
285
0
286
0
287
3
288
0
340
11
278
46
341
207
342
207
343
207
344
207
  0
ENDTAB
  0
ENDSEC
  0
SECTION
  2
BLOCKS
  0
BLOCK
  5
20
100
AcDbEntity
  8
0
100
AcDbBlockBegin
  2
*Model_Space
 70
0
 10
0.0
 20
0.0
 30
0.0
  3
*Model_Space
  1

  0
ENDBLK
  5
21
100
AcDbEntity
  8
0
100
AcDbBlockEnd
  0
BLOCK
  5
1C
100
AcDbEntity
  8
0
100
AcDbBlockBegin
  2
*Paper_Space
 70
0
 10
0.0
 20
0.0
 30
0.0
  3
*Paper_Space
  1

  0
ENDBLK
  5
1D
100
AcDbEntity
  8
0
100
AcDbBlockEnd
  0
BLOCK
  5
209
100
AcDbEntity
  8
0
100
AcDbBlockBegin
  2
_FILLED
 70
64
 10
0.0
 20
0.0
  3
_FILLED
  1

  0
SOLID
  5
20A
100
AcDbEntity
  8
0
  6
BYBLOCK
 62
0
100
AcDbTrace
 10
0.0
 20
0.0
 11
-1.0
 21
0.2
 12
-1.0
 22
-0.2
 13
-1.0
 23
-0.2
  0
ENDBLK
  5
20B
100
AcDbEntity
  8
0
  6
BYBLOCK
 62
0
100
AcDbBlockEnd
  0
ENDSEC
  0
SECTION
  2
ENTITIES
  0
LINE
  5
20C
100
AcDbEntity
  8
0
100
AcDbLine
 62
7
  6
CONTINUOUS
 10
-6.5623076573
 20
10.6426695021
 11
-6.5623076573
 21
7.8926695021
  0
LINE
  5
20D
100
AcDbEntity
  8
0
100
AcDbLine
 62
9
  6
CONTINUOUS
 10
-6.5123076573
 20
10.6426695021
 11
-6.5123076573
 21
7.8926695021
  0
LINE
  5
20E
100
AcDbEntity
  8
0
100
AcDbLine
 62
9
  6
CONTINUOUS
 10
-6.4373076573
 20
7.8176695021
 11
-6.4373076573
 21
7.7676695021
  0
LINE
  5
20F
100
AcDbEntity
  8
0
100
AcDbLine
 62
9
  6
CONTINUOUS
 10
-6.4373076573
 20
10.7176695021
 11
-6.4373076569
 21
10.7676695021
  0
LINE
  5
210
100
AcDbEntity
  8
0
100
AcDbLine
 62
7
  6
CONTINUOUS
 10
-3.9573076573
 20
8.6426695021
 11
-3.9573076573
 21
9.8926695021
  0
LINE
  5
211
100
AcDbEntity
  8
0
100
AcDbLine
 62
7
  6
CONTINUOUS
 10
-3.9373076573
 20
8.6626695021
 11
-3.9373076573
 21
9.8726695021
  0
LINE
  5
212
100
AcDbEntity
  8
0
100
AcDbLine
 62
7
  6
CONTINUOUS
 10
-3.9173076573
 20
8.6426695021
 11
-3.9173076573
 21
9.8926695021
  0
LINE
  5
213
100
AcDbEntity
  8
0
100
AcDbLine
 62
9
  6
CONTINUOUS
 10
-3.6873076573
 20
7.8176695021
 11
-3.6873076576
 21
7.7676695021
  0
LINE
  5
214
100
AcDbEntity
  8
0
100
AcDbLine
 62
9
  6
CONTINUOUS
 10
-3.6873076573
 20
10.7176695021
 11
-3.6873076573
 21
10.7676695021
  0
LINE
  5
215
100
AcDbEntity
  8
0
100
AcDbLine
 62
9
  6
CONTINUOUS
 10
-3.6123076573
 20
7.8926695021
 11
-3.6123076573
 21
8.6426695021
  0
LINE
  5
216
100
AcDbEntity
  8
0
100
AcDbLine
 62
9
  6
CONTINUOUS
 10
-3.6123076573
 20
9.8926695021
 11
-3.6123076573
 21
10.6426695021
  0
LINE
  5
217
100
AcDbEntity
  8
0
100
AcDbLine
 62
7
  6
CONTINUOUS
 10
-3.5623076573
 20
7.8926695021
 11
-3.5623076573
 21
8.6426695021
  0
LINE
  5
218
100
AcDbEntity
  8
0
100
AcDbLine
 62
7
  6
CONTINUOUS
 10
-3.5623076573
 20
9.8926695021
 11
-3.5623076573
 21
10.6426695021
  0
LINE
  5
219
100
AcDbEntity
  8
0
100
AcDbLine
 62
7
  6
CONTINUOUS
 10
-3.9373076573
 20
9.8726695021
 11
-3.917307661
 21
9.8926694984
  0
LINE
  5
21A
100
AcDbEntity
  8
0
100
AcDbLine
 62
7
  6
CONTINUOUS
 10
-3.9373076573
 20
8.6626695021
 11
-3.917307661
 21
8.6426695059
  0
LINE
  5
21B
100
AcDbEntity
  8
0
100
AcDbLine
 62
7
  6
CONTINUOUS
 10
-3.9373076573
 20
8.6626695021
 11
-3.9573076573
 21
8.6426695021
  0
LINE
  5
21C
100
AcDbEntity
  8
0
100
AcDbLine
 62
7
  6
CONTINUOUS
 10
-3.9373076573
 20
9.8726695021
 11
-3.9573076573
 21
9.8926695021
  0
LINE
  5
21D
100
AcDbEntity
  8
0
100
AcDbLine
 62
7
  6
CONTINUOUS
 10
-6.4373076573
 20
7.7676695021
 11
-3.6873076573
 21
7.7676695021
  0
LINE
  5
21E
100
AcDbEntity
  8
0
100
AcDbLine
 62
7
  6
CONTINUOUS
 10
25.5626923427
 20
7.7676695021
 11
28.3126923427
 21
7.7676695021
  0
LINE
  5
21F
100
AcDbEntity
  8
0
100
AcDbLine
 62
9
  6
CONTINUOUS
 10
-6.4373076573
 20
7.8176695021
 11
-3.6873076573
 21
7.8176695021
  0
LINE
  5
220
100
AcDbEntity
  8
0
100
AcDbLine
 62
9
  6
CONTINUOUS
 10
25.5626923427
 20
7.8176695021
 11
28.3126923427
 21
7.8176695021
  0
LINE
  5
221
100
AcDbEntity
  8
0
100
AcDbLine
 62
9
  6
CONTINUOUS
 10
-6.5123076573
 20
7.8926695021
 11
-6.5623076573
 21
7.8926695025
  0
LINE
  5
222
100
AcDbEntity
  8
0
100
AcDbLine
 62
9
  6
CONTINUOUS
 10
-3.6123076573
 20
7.8926695021
 11
-3.5623076573
 21
7.8926695021
  0
LINE
  5
223
100
AcDbEntity
  8
0
100
AcDbLine
 62
9
  6
CONTINUOUS
 10
28.3876923427
 20
7.8926695021
 11
28.4376923427
 21
7.8926695021
  0
LINE
  5
224
100
AcDbEntity
  8
0
100
AcDbLine
 62
9
  6
CONTINUOUS
 10
25.4876923427
 20
7.8926695021
 11
25.4376923427
 21
7.8926695025
  0
LINE
  5
225
100
AcDbEntity
  8
0
100
AcDbLine
 62
7
  6
CONTINUOUS
 10
-3.9173076573
 20
8.6426695021
 11
25.7926923427
 21
8.6426695021
  0
LINE
  5
226
100
AcDbEntity
  8
0
100
AcDbLine
 62
7
  6
CONTINUOUS
 10
-3.9573076573
 20
8.6426695021
 11
-5.0622991182
 21
8.6426695021
  0
LINE
  5
227
100
AcDbEntity
  8
0
100
AcDbLine
 62
7
  6
CONTINUOUS
 10
25.8326923427
 20
8.6426695021
 11
26.9376826505
 21
8.6426695021
  0
LINE
  5
228
100
AcDbEntity
  8
0
100
AcDbLine
 62
7
  6
CONTINUOUS
 10
-3.9173076573
 20
9.8926695021
 11
25.7926923427
 21
9.8926695021
  0
LINE
  5
229
100
AcDbEntity
  8
0
100
AcDbLine
 62
7
  6
CONTINUOUS
 10
-3.9573076573
 20
9.8926695021
 11
-5.062297965
 21
9.8926695021
  0
LINE
  5
22A
100
AcDbEntity
  8
0
100
AcDbLine
 62
7
  6
CONTINUOUS
 10
25.8326923427
 20
9.8926695021
 11
26.9376838037
 21
9.8926695021
  0
LINE
  5
22B
100
AcDbEntity
  8
0
100
AcDbLine
 62
9
  6
CONTINUOUS
 10
-3.6123076573
 20
10.6426695021
 11
-3.5623076573
 21
10.6426695018
  0
LINE
  5
22C
100
AcDbEntity
  8
0
100
AcDbLine
 62
9
  6
CONTINUOUS
 10
25.4876923427
 20
10.6426695021
 11
25.4376923427
 21
10.6426695021
  0
LINE
  5
22D
100
AcDbEntity
  8
0
100
AcDbLine
 62
9
  6
CONTINUOUS
 10
-6.5123076573
 20
10.6426695021
 11
-6.5623076573
 21
10.6426695021
  0
LINE
  5
22E
100
AcDbEntity
  8
0
100
AcDbLine
 62
9
  6
CONTINUOUS
 10
28.3876923427
 20
10.6426695021
 11
28.4376923427
 21
10.6426695018
  0
LINE
  5
22F
100
AcDbEntity
  8
0
100
AcDbLine
 62
9
  6
CONTINUOUS
 10
28.3126923427
 20
10.7176695021
 11
25.5626923427
 21
10.7176695021
  0
LINE
  5
230
100
AcDbEntity
  8
0
100
AcDbLine
 62
9
  6
CONTINUOUS
 10
-3.6873076573
 20
10.7176695021
 11
-6.4373076573
 21
10.7176695021
  0
LINE
  5
231
100
AcDbEntity
  8
0
100
AcDbLine
 62
7
  6
CONTINUOUS
 10
28.3126923427
 20
10.7676695021
 11
25.5626923427
 21
10.7676695021
  0
LINE
  5
232
100
AcDbEntity
  8
0
100
AcDbLine
 62
7
  6
CONTINUOUS
 10
-3.6873076573
 20
10.7676695021
 11
-6.4373076573
 21
10.7676695021
  0
LINE
  5
233
100
AcDbEntity
  8
0
100
AcDbLine
 62
7
  6
CONTINUOUS
 10
25.8126923427
 20
9.8726695021
 11
25.8326923427
 21
9.8926695021
  0
LINE
  5
234
100
AcDbEntity
  8
0
100
AcDbLine
 62
7
  6
CONTINUOUS
 10
25.8126923427
 20
8.6626695021
 11
25.8326923427
 21
8.6426695021
  0
LINE
  5
235
100
AcDbEntity
  8
0
100
AcDbLine
 62
7
  6
CONTINUOUS
 10
25.8126923427
 20
8.6626695021
 11
25.7926923466
 21
8.642669506
  0
LINE
  5
236
100
AcDbEntity
  8
0
100
AcDbLine
 62
7
  6
CONTINUOUS
 10
25.8126923427
 20
9.8726695021
 11
25.7926923466
 21
9.8926694982
  0
LINE
  5
237
100
AcDbEntity
  8
0
100
AcDbLine
 62
7
  6
CONTINUOUS
 10
25.4376923427
 20
10.6426695021
 11
25.4376923427
 21
9.8926695021
  0
LINE
  5
238
100
AcDbEntity
  8
0
100
AcDbLine
 62
7
  6
CONTINUOUS
 10
25.4376923427
 20
8.6426695021
 11
25.4376923427
 21
7.8926695021
  0
LINE
  5
239
100
AcDbEntity
  8
0
100
AcDbLine
 62
9
  6
CONTINUOUS
 10
25.4876923427
 20
10.6426695021
 11
25.4876923427
 21
9.8926695021
  0
LINE
  5
23A
100
AcDbEntity
  8
0
100
AcDbLine
 62
9
  6
CONTINUOUS
 10
25.4876923427
 20
8.6426695021
 11
25.4876923427
 21
7.8926695021
  0
LINE
  5
23B
100
AcDbEntity
  8
0
100
AcDbLine
 62
9
  6
CONTINUOUS
 10
25.5626923427
 20
7.8176695021
 11
25.5626923427
 21
7.7676695021
  0
LINE
  5
23C
100
AcDbEntity
  8
0
100
AcDbLine
 62
9
  6
CONTINUOUS
 10
25.5626923427
 20
10.7176695021
 11
25.5626923431
 21
10.7676695021
  0
LINE
  5
23D
100
AcDbEntity
  8
0
100
AcDbLine
 62
7
  6
CONTINUOUS
 10
25.7926923427
 20
9.8926695021
 11
25.7926923427
 21
8.6426695021
  0
LINE
  5
23E
100
AcDbEntity
  8
0
100
AcDbLine
 62
7
  6
CONTINUOUS
 10
25.8126923427
 20
9.8726695021
 11
25.8126923427
 21
8.6626695021
  0
LINE
  5
23F
100
AcDbEntity
  8
0
100
AcDbLine
 62
7
  6
CONTINUOUS
 10
25.8326923427
 20
9.8926695021
 11
25.8326923427
 21
8.6426695021
  0
LINE
  5
240
100
AcDbEntity
  8
0
100
AcDbLine
 62
9
  6
CONTINUOUS
 10
28.3126923427
 20
7.8176695021
 11
28.3126923424
 21
7.7676695021
  0
LINE
  5
241
100
AcDbEntity
  8
0
100
AcDbLine
 62
9
  6
CONTINUOUS
 10
28.3126923427
 20
10.7176695021
 11
28.3126923427
 21
10.7676695021
  0
LINE
  5
242
100
AcDbEntity
  8
0
100
AcDbLine
 62
9
  6
CONTINUOUS
 10
28.3876923427
 20
7.8926695021
 11
28.3876923427
 21
10.6426695021
  0
LINE
  5
243
100
AcDbEntity
  8
0
100
AcDbLine
 62
7
  6
CONTINUOUS
 10
28.4376923427
 20
7.8926695021
 11
28.4376923427
 21
10.6426695021
  0
ARC
  5
244
100
AcDbEntity
  8
0
100
AcDbCircle
 62
7
  6
CONTINUOUS
 10
-5.0623076573
 20
9.2676695021
 40
0.875
100
AcDbArc
 50
45.7334028339
 51
314.2665971598
  0
ARC
  5
245
100
AcDbEntity
  8
0
100
AcDbCircle
 62
7
  6
CONTINUOUS
 10
26.9376923427
 20
9.2676695021
 40
0.875
100
AcDbArc
 50
225.6090280797
 51
134.3909719159
  0
ARC
  5
246
100
AcDbEntity
  8
0
100
AcDbCircle
 62
9
  6
CONTINUOUS
 10
-5.0623076573
 20
9.2676695021
 40
0.815
100
AcDbArc
 50
50.1691154926
 51
309.8308844891
  0
ARC
  5
247
100
AcDbEntity
  8
0
100
AcDbCircle
 62
9
  6
CONTINUOUS
 10
26.9376923427
 20
9.2676695021
 40
0.815
100
AcDbArc
 50
230.0786130909
 51
129.9213869252
  0
ARC
  5
248
100
AcDbEntity
  8
0
100
AcDbCircle
 62
7
  6
CONTINUOUS
 10
-5.0623076573
 20
9.2676695021
 40
0.625
100
AcDbArc
 50
90.0
 51
270.0
  0
ARC
  5
249
100
AcDbEntity
  8
0
100
AcDbCircle
 62
7
  6
CONTINUOUS
 10
26.9376923427
 20
9.2676695021
 40
0.625
100
AcDbArc
 50
270.0
 51
90.0
  0
ARC
  5
24A
100
AcDbEntity
  8
0
100
AcDbCircle
 62
7
  6
CONTINUOUS
 10
25.5626923427
 20
10.6426695021
 40
0.125
100
AcDbArc
 50
90.0
 51
180.0
  0
ARC
  5
24B
100
AcDbEntity
  8
0
100
AcDbCircle
 62
7
  6
CONTINUOUS
 10
28.3126923427
 20
10.6426695021
 40
0.125
100
AcDbArc
 50
0.0
 51
90.0
  0
ARC
  5
24C
100
AcDbEntity
  8
0
100
AcDbCircle
 62
7
  6
CONTINUOUS
 10
28.3126923427
 20
7.8926695021
 40
0.125
100
AcDbArc
 50
270.0
 51
360.0
  0
ARC
  5
24D
100
AcDbEntity
  8
0
100
AcDbCircle
 62
7
  6
CONTINUOUS
 10
25.5626923427
 20
7.8926695021
 40
0.125
100
AcDbArc
 50
180.0
 51
270.0
  0
ARC
  5
24E
100
AcDbEntity
  8
0
100
AcDbCircle
 62
7
  6
CONTINUOUS
 10
-6.4373076573
 20
7.8926695021
 40
0.125
100
AcDbArc
 50
180.0
 51
270.0
  0
ARC
  5
24F
100
AcDbEntity
  8
0
100
AcDbCircle
 62
7
  6
CONTINUOUS
 10
-3.6873076573
 20
7.8926695021
 40
0.125
100
AcDbArc
 50
270.0
 51
360.0
  0
ARC
  5
250
100
AcDbEntity
  8
0
100
AcDbCircle
 62
7
  6
CONTINUOUS
 10
-3.6873076573
 20
10.6426695021
 40
0.125
100
AcDbArc
 50
0.0
 51
90.0
  0
ARC
  5
251
100
AcDbEntity
  8
0
100
AcDbCircle
 62
7
  6
CONTINUOUS
 10
-6.4373076573
 20
10.6426695021
 40
0.125
100
AcDbArc
 50
90.0
 51
180.0
  0
ARC
  5
252
100
AcDbEntity
  8
0
100
AcDbCircle
 62
9
  6
CONTINUOUS
 10
28.3126923427
 20
10.6426695021
 40
0.075
100
AcDbArc
 50
0.0
 51
90.0
  0
ARC
  5
253
100
AcDbEntity
  8
0
100
AcDbCircle
 62
9
  6
CONTINUOUS
 10
25.5626923427
 20
7.8926695021
 40
0.075
100
AcDbArc
 50
180.0
 51
270.0
  0
ARC
  5
254
100
AcDbEntity
  8
0
100
AcDbCircle
 62
9
  6
CONTINUOUS
 10
25.5626923427
 20
10.6426695021
 40
0.075
100
AcDbArc
 50
90.0
 51
180.0
  0
ARC
  5
255
100
AcDbEntity
  8
0
100
AcDbCircle
 62
9
  6
CONTINUOUS
 10
28.3126923427
 20
7.8926695021
 40
0.075
100
AcDbArc
 50
270.0
 51
360.0
  0
ARC
  5
256
100
AcDbEntity
  8
0
100
AcDbCircle
 62
9
  6
CONTINUOUS
 10
-6.4373076573
 20
7.8926695021
 40
0.075
100
AcDbArc
 50
180.0
 51
270.0
  0
ARC
  5
257
100
AcDbEntity
  8
0
100
AcDbCircle
 62
9
  6
CONTINUOUS
 10
-3.6873076573
 20
7.8926695021
 40
0.075
100
AcDbArc
 50
270.0
 51
360.0
  0
ARC
  5
258
100
AcDbEntity
  8
0
100
AcDbCircle
 62
9
  6
CONTINUOUS
 10
-6.4373076573
 20
10.6426695021
 40
0.075
100
AcDbArc
 50
90.0
 51
180.0
  0
ARC
  5
259
100
AcDbEntity
  8
0
100
AcDbCircle
 62
9
  6
CONTINUOUS
 10
-3.6873076573
 20
10.6426695021
 40
0.075
100
AcDbArc
 50
0.0
 51
90.0
  0
SPLINE
  5
25A
100
AcDbEntity
  8
0
100
AcDbSpline
 62
9
  6
CONTINUOUS
 70
0
 71
3
 72
38
 73
34
 74
0
 42
0.0000001
 43
0.0000001
 44
0.0000000001
 40
0.0
 40
0.0
 40
0.0
 40
0.0
 40
0.0442984747
 40
0.0884894713
 40
0.1324480478
 40
0.1760659892
 40
0.2192365879
 40
0.2618522734
 40
0.3038127643
 40
0.34502523
 40
0.3854006044
 40
0.4248552965
 40
0.4633164115
 40
0.5007177062
 40
0.5369959146
 40
0.5721001611
 40
0.6386166634
 40
0.6699678028
 40
0.7000181486
 40
0.7287610787
 40
0.7561941797
 40
0.7823229645
 40
0.8071684589
 40
0.8307629591
 40
0.8531510741
 40
0.8743930096
 40
0.8945716865
 40
0.9137856014
 40
0.9321423573
 40
0.9497676921
 40
0.96681229
 40
0.9834662752
 40
1.0
 40
1.0
 40
1.0
 40
1.0
 10
-5.3123076573
 20
9.2676695021
 30
0.0
 10
-5.312308184
 20
9.2782876065
 30
0.0
 10
-5.3120860462
 20
9.2994986648
 30
0.0
 10
-5.3111163948
 20
9.331232883
 30
0.0
 10
-5.3095179106
 20
9.3627787116
 30
0.0
 10
-5.3072530417
 20
9.3940386253
 30
0.0
 10
-5.3043574876
 20
9.4249228147
 30
0.0
 10
-5.3008850914
 20
9.4553477292
 30
0.0
 10
-5.2968013931
 20
9.4852235337
 30
0.0
 10
-5.2920957633
 20
9.5144638504
 30
0.0
 10
-5.2868425198
 20
9.5429999733
 30
0.0
 10
-5.2810674201
 20
9.5707622222
 30
0.0
 10
-5.274743693
 20
9.5976733643
 30
0.0
 10
-5.2679015374
 20
9.6236705547
 30
0.0
 10
-5.2605981854
 20
9.648705497
 30
0.0
 10
-5.2504380935
 20
9.6801621659
 30
0.0
 10
-5.239247222
 20
9.7100345011
 30
0.0
 10
-5.227022644
 20
9.7381591133
 30
0.0
 10
-5.2176761176
 20
9.7576464782
 30
0.0
 10
-5.2079819088
 20
9.7759068398
 30
0.0
 10
-5.1979759966
 20
9.7929169075
 30
0.0
 10
-5.1876893175
 20
9.8086547125
 30
0.0
 10
-5.1771433674
 20
9.8230965844
 30
0.0
 10
-5.1663596737
 20
9.8362220163
 30
0.0
 10
-5.1553633449
 20
9.8480158534
 30
0.0
 10
-5.1441755476
 20
9.8584643034
 30
0.0
 10
-5.1328130136
 20
9.8675517027
 30
0.0
 10
-5.1212961613
 20
9.8752631331
 30
0.0
 10
-5.109655428
 20
9.8815929429
 30
0.0
 10
-5.0979197794
 20
9.8865323745
 30
0.0
 10
-5.0861110571
 20
9.8900710922
 30
0.0
 10
-5.0742336205
 20
9.8921981205
 30
0.0
 10
-5.0662707012
 20
9.8926678972
 30
0.0
 10
-5.0623076573
 20
9.8926695021
 30
0.0
  0
SPLINE
  5
25B
100
AcDbEntity
  8
0
100
AcDbSpline
 62
9
  6
CONTINUOUS
 70
0
 71
3
 72
38
 73
34
 74
0
 42
0.0000001
 43
0.0000001
 44
0.0000000001
 40
0.0
 40
0.0
 40
0.0
 40
0.0
 40
0.0165357821
 40
0.0331891649
 40
0.0502328702
 40
0.0678575948
 40
0.0862140335
 40
0.1054280152
 40
0.1256071513
 40
0.1468493791
 40
0.1692371301
 40
0.1928311851
 40
0.2176768168
 40
0.2438059345
 40
0.2712390332
 40
0.2999818188
 40
0.3300321757
 40
0.3613833996
 40
0.4278998752
 40
0.4630040591
 40
0.499282268
 40
0.5366836021
 40
0.5751446942
 40
0.6145993456
 40
0.6549747518
 40
0.6961872273
 40
0.7381476663
 40
0.7807633767
 40
0.8239340346
 40
0.8675519303
 40
0.9115105021
 40
0.9557015494
 40
1.0
 40
1.0
 40
1.0
 40
1.0
 10
26.9376923427
 20
9.8926695021
 30
0.0
 10
26.9416558798
 20
9.8926678069
 30
0.0
 10
26.9496191467
 20
9.8921981589
 30
0.0
 10
26.9614967429
 20
9.8900711789
 30
0.0
 10
26.9733049254
 20
9.8865324
 30
0.0
 10
26.9850400645
 20
9.8815928879
 30
0.0
 10
26.9966805207
 20
9.8752630095
 30
0.0
 10
27.0081974134
 20
9.8675515677
 30
0.0
 10
27.0195603638
 20
9.8584643876
 30
0.0
 10
27.0307485059
 20
9.848016149
 30
0.0
 10
27.0417443858
 20
9.8362220385
 30
0.0
 10
27.0525273971
 20
9.8230962706
 30
0.0
 10
27.0630736145
 20
9.80865461
 30
0.0
 10
27.073360993
 20
9.7929171196
 30
0.0
 10
27.0833668402
 20
9.7759069463
 30
0.0
 10
27.0930606225
 20
9.7576463992
 30
0.0
 10
27.1024072437
 20
9.7381591011
 30
0.0
 10
27.114632302
 20
9.7100346784
 30
0.0
 10
27.125823117
 20
9.6801623001
 30
0.0
 10
27.1359826604
 20
9.6487054778
 30
0.0
 10
27.1432859759
 20
9.6236705374
 30
0.0
 10
27.150128731
 20
9.5976735012
 30
0.0
 10
27.1564524277
 20
9.5707623475
 30
0.0
 10
27.1622267078
 20
9.5429999369
 30
0.0
 10
27.1674802077
 20
9.5144638723
 30
0.0
 10
27.1721866504
 20
9.4852236802
 30
0.0
 10
27.1762690785
 20
9.4553476916
 30
0.0
 10
27.1797402945
 20
9.4249226537
 30
0.0
 10
27.18263825
 20
9.3940386945
 30
0.0
 10
27.1849042508
 20
9.3627788299
 30
0.0
 10
27.186499918
 20
9.331232853
 30
0.0
 10
27.1874697516
 20
9.2994986634
 30
0.0
 10
27.1876930888
 20
9.2782876008
 30
0.0
 10
27.1876923427
 20
9.2676695021
 30
0.0
  0
SPLINE
  5
25C
100
AcDbEntity
  8
0
100
AcDbSpline
 62
9
  6
CONTINUOUS
 70
0
 71
3
 72
38
 73
34
 74
0
 42
0.0000001
 43
0.0000001
 44
0.0000000001
 40
0.0
 40
0.0
 40
0.0
 40
0.0
 40
0.0442984747
 40
0.0884894713
 40
0.1324480478
 40
0.1760659892
 40
0.2192365879
 40
0.2618522734
 40
0.3038127643
 40
0.34502523
 40
0.3854006044
 40
0.4248552965
 40
0.4633164115
 40
0.5007177062
 40
0.5369959146
 40
0.5721001611
 40
0.6386166634
 40
0.6699678028
 40
0.7000181486
 40
0.7287610787
 40
0.7561941797
 40
0.7823229645
 40
0.8071684589
 40
0.8307629591
 40
0.8531510741
 40
0.8743930096
 40
0.8945716865
 40
0.9137856014
 40
0.9321423573
 40
0.9497676921
 40
0.96681229
 40
0.9834662752
 40
1.0
 40
1.0
 40
1.0
 40
1.0
 10
27.1876923427
 20
9.2676695021
 30
0.0
 10
27.1876928695
 20
9.2570513978
 30
0.0
 10
27.1874707316
 20
9.2358403395
 30
0.0
 10
27.1865010803
 20
9.2041061213
 30
0.0
 10
27.1849025961
 20
9.1725602927
 30
0.0
 10
27.1826377272
 20
9.1413003789
 30
0.0
 10
27.1797421731
 20
9.1104161896
 30
0.0
 10
27.1762697769
 20
9.0799912751
 30
0.0
 10
27.1721860785
 20
9.0501154706
 30
0.0
 10
27.1674804487
 20
9.0208751539
 30
0.0
 10
27.1622272053
 20
8.992339031
 30
0.0
 10
27.1564521056
 20
8.9645767821
 30
0.0
 10
27.1501283784
 20
8.93766564
 30
0.0
 10
27.1432862229
 20
8.9116684496
 30
0.0
 10
27.1359828709
 20
8.8866335073
 30
0.0
 10
27.1258227789
 20
8.8551768384
 30
0.0
 10
27.1146319075
 20
8.8253045032
 30
0.0
 10
27.1024073295
 20
8.7971798909
 30
0.0
 10
27.0930608031
 20
8.7776925261
 30
0.0
 10
27.0833665943
 20
8.7594321645
 30
0.0
 10
27.073360682
 20
8.7424220968
 30
0.0
 10
27.0630740029
 20
8.7266842918
 30
0.0
 10
27.0525280529
 20
8.7122424199
 30
0.0
 10
27.0417443592
 20
8.6991169879
 30
0.0
 10
27.0307480304
 20
8.6873231509
 30
0.0
 10
27.0195602331
 20
8.6768747008
 30
0.0
 10
27.0081976991
 20
8.6677873016
 30
0.0
 10
26.9966808468
 20
8.6600758712
 30
0.0
 10
26.9850401134
 20
8.6537460614
 30
0.0
 10
26.9733044648
 20
8.6488066298
 30
0.0
 10
26.9614957426
 20
8.6452679121
 30
0.0
 10
26.949618306
 20
8.6431408838
 30
0.0
 10
26.9416553867
 20
8.6426711071
 30
0.0
 10
26.9376923427
 20
8.6426695021
 30
0.0
  0
SPLINE
  5
25D
100
AcDbEntity
  8
0
100
AcDbSpline
 62
9
  6
CONTINUOUS
 70
0
 71
3
 72
38
 73
34
 74
0
 42
0.0000001
 43
0.0000001
 44
0.0000000001
 40
0.0
 40
0.0
 40
0.0
 40
0.0
 40
0.0165357821
 40
0.0331891649
 40
0.0502328702
 40
0.0678575948
 40
0.0862140335
 40
0.1054280152
 40
0.1256071513
 40
0.1468493791
 40
0.1692371301
 40
0.1928311851
 40
0.2176768168
 40
0.2438059345
 40
0.2712390332
 40
0.2999818188
 40
0.3300321757
 40
0.3613833996
 40
0.4278998752
 40
0.4630040591
 40
0.499282268
 40
0.5366836021
 40
0.5751446942
 40
0.6145993456
 40
0.6549747518
 40
0.6961872273
 40
0.7381476663
 40
0.7807633767
 40
0.8239340346
 40
0.8675519303
 40
0.9115105021
 40
0.9557015494
 40
1.0
 40
1.0
 40
1.0
 40
1.0
 10
-5.0623076573
 20
8.6426695021
 30
0.0
 10
-5.0662711943
 20
8.6426711974
 30
0.0
 10
-5.0742344612
 20
8.6431408454
 30
0.0
 10
-5.0861120574
 20
8.6452678254
 30
0.0
 10
-5.09792024
 20
8.6488066042
 30
0.0
 10
-5.109655379
 20
8.6537461164
 30
0.0
 10
-5.1212958353
 20
8.6600759948
 30
0.0
 10
-5.1328127279
 20
8.6677874366
 30
0.0
 10
-5.1441756784
 20
8.6768746167
 30
0.0
 10
-5.1553638204
 20
8.6873228553
 30
0.0
 10
-5.1663597003
 20
8.6991169658
 30
0.0
 10
-5.1771427116
 20
8.7122427337
 30
0.0
 10
-5.187688929
 20
8.7266843943
 30
0.0
 10
-5.1979763076
 20
8.7424218847
 30
0.0
 10
-5.2079821547
 20
8.759432058
 30
0.0
 10
-5.217675937
 20
8.777692605
 30
0.0
 10
-5.2270225582
 20
8.7971799032
 30
0.0
 10
-5.2392476165
 20
8.8253043259
 30
0.0
 10
-5.2504384315
 20
8.8551767042
 30
0.0
 10
-5.2605979749
 20
8.8866335265
 30
0.0
 10
-5.2679012905
 20
8.9116684669
 30
0.0
 10
-5.2747440455
 20
8.9376655031
 30
0.0
 10
-5.2810677423
 20
8.9645766567
 30
0.0
 10
-5.2868420223
 20
8.9923390673
 30
0.0
 10
-5.2920955222
 20
9.020875132
 30
0.0
 10
-5.2968019649
 20
9.0501153241
 30
0.0
 10
-5.300884393
 20
9.0799913126
 30
0.0
 10
-5.3043556091
 20
9.1104163506
 30
0.0
 10
-5.3072535645
 20
9.1413003098
 30
0.0
 10
-5.3095195654
 20
9.1725601743
 30
0.0
 10
-5.3111152325
 20
9.2041061513
 30
0.0
 10
-5.3120850662
 20
9.2358403409
 30
0.0
 10
-5.3123084034
 20
9.2570514035
 30
0.0
 10
-5.3123076573
 20
9.2676695021
 30
0.0
  0
ENDSEC
  0
SECTION
  2
OBJECTS
  0
DICTIONARY
  5
C
100
AcDbDictionary
280
0
281
1
  3
ACAD_GROUP
350
D
  3
ACAD_MLINESTYLE
350
17
  3
ACAD_LAYOUT
350
1A
  3
ACAD_PLOTSETTINGS
350
19
  3
ACAD_PLOTSTYLENAME
350
E
  0
DICTIONARY
  5
D
102
{ACAD_REACTORS
330
C
102
}
100
AcDbDictionary
280
0
281
1
  0
ACDBDICTIONARYWDFLT
  5
E
102
{ACAD_REACTORS
330
C
102
}
100
AcDbDictionary
281
1
  3
Normal
350
F
100
AcDbDictionaryWithDefault
340
F
  0
DICTIONARY
  5
17
102
{ACAD_REACTORS
330
C
102
}
100
AcDbDictionary
280
0
281
1
  3
Standard
350
18
  0
DICTIONARY
  5
19
102
{ACAD_REACTORS
330
C
102
}
100
AcDbDictionary
281
1
  0
DICTIONARY
  5
1A
102
{ACAD_REACTORS
330
C
102
}
100
AcDbDictionary
281
1
  3
Model
350
25E
  3
Layout1
350
25F
  0
ACDBPLACEHOLDER
  5
F
102
{ACAD_REACTORS
330
E
102
}
  0
MLINESTYLE
  5
18
102
{ACAD_REACTORS
330
17
102
}
100
AcDbMlineStyle
  2
STANDARD
 70
0
  3

 62
256
 51
90.0
 52
90.0
 71
2
 49
0.5
 62
256
  6
BYLAYER
 49
-0.5
 62
256
  6
BYLAYER
  0
LAYOUT
  5
25E
102
{ACAD_REACTORS
330
1A
102
}
100
AcDbPlotSettings
  1

  2
none_device
  4
ANSI_C_(22.00_x_17.00_Inches)
  6

 40
0.0
 41
0.0
 42
0.0
 43
0.0
 44
558.8
 45
431.8
 46
0.0
 47
0.0
 48
0.0
 49
0.0
140
0.0
141
0.0
142
1.0
143
1.0
 70
1024
 72
0
 73
0
 74
0
  7

 75
0
147
1.0
148
0.0
149
0.0
100
AcDbLayout
  1
Model
 70
0
 71
0
 10
0.0
 20
0.0
 11
22.0
 21
17.0
 12
0.0
 22
0.0
 32
0.0
 14
0.0
 24
0.0
 34
0.0
 15
0.0
 25
0.0
 35
0.0
146
0.0
 13
0.0
 23
0.0
 33
0.0
 16
1.0
 26
0.0
 36
0.0
 17
0.0
 27
1.0
 37
0.0
 76
0
330
205
345
0
346
0
  0
LAYOUT
  5
25F
102
{ACAD_REACTORS
330
1A
102
}
100
AcDbPlotSettings
  1

  2
none_device
  4
ANSI_C_(22.00_x_17.00_Inches)
  6

 40
0.0
 41
0.0
 42
0.0
 43
0.0
 44
558.8
 45
431.8
 46
0.0
 47
0.0
 48
0.0
 49
0.0
140
0.0
141
0.0
142
1.0
143
1.0
 70
0
 72
0
 73
0
 74
0
  7

 75
0
147
1.0
148
0.0
149
0.0
100
AcDbLayout
  1
Layout1
 70
0
 71
1
 10
0.0
 20
0.0
 11
22.0
 21
17.0
 12
0.0
 22
0.0
 32
0.0
 14
0.0
 24
0.0
 34
0.0
 15
0.0
 25
0.0
 35
0.0
146
0.0
 13
0.0
 23
0.0
 33
0.0
 16
1.0
 26
0.0
 36
0.0
 17
0.0
 27
1.0
 37
0.0
 76
0
330
206
345
0
346
0
  0
ENDSEC
  0
EOF
