999
DXF file: E:\BT Custom\CADOUTPUT\_FRONT.dxf
999
Pro/ENGINEER 2018400 by Parametric Technology Corporation
  0
SECTION
  2
HEADER
  9
$ACADVER
  1
AC1018
  9
$DWGCODEPAGE
  3
ANSI_1252
  9
$EXTMAX
 10
22.0
 20
17.0
 30
0.0
  9
$EXTMIN
 10
0.0
 20
0.0
 30
0.0
  9
$LIMMIN
 10
0.0
 20
0.0
  9
$LIMMAX
 10
22.0
 20
17.0
  9
$VIEWCTR
 10
11.0
 20
8.5
  9
$VIEWSIZE
 40
17.0
  9
$CLAYER
  8
0
  9
$LTSCALE
 40
1.21
  9
$CELTYPE
  6
BYLAYER
  9
$DIMSCALE
 40
1.0
  9
$DIMASZ
 40
0.1
  9
$DIMEXO
 40
0.0625
  9
$DIMDLI
 40
0.836
  9
$DIMEXE
 40
0.125
  9
$DIMCEN
 40
0.198
  9
$DIMLFAC
 40
1.0
  9
$DIMBLK
  1
_FILLED
  9
$DIMALT
 70
1
  9
$DIMALTD
 70
2
  9
$DIMALTTD
 70
2
  9
$DIMALTF
 40
25.4
  9
$DIMTXT
 40
0.08
  9
$DIMTOL
 70
1
  9
$DIMLIM
 70
0
  9
$DIMTFAC
 40
1.0
  9
$DIMTP
 40
0.001
  9
$DIMTM
 40
0.001
  9
$DIMGAP
 40
0.09
  9
$DIMDSEP
 70
46
  9
$AUNITS
 70
0
  9
$PDMODE
 70
3
  9
$PDSIZE
 40
0.06
  9
$HANDSEED
  5
228
  9
$TILEMODE
 70
1
  9
$MEASUREMENT
 70
0
  9
$INSUNITS
 70
1
  0
ENDSEC
  0
SECTION
  2
CLASSES
  0
CLASS
  1
ACDBDICTIONARYWDFLT
  2
AcDbDictionaryWithDefault
  3
AutoCAD 2000
 90
0
 91
1
280
0
281
0
  0
CLASS
  1
ACDBPLACEHOLDER
  2
AcDbPlaceHolder
  3
AutoCAD 2000
 90
0
 91
1
280
0
281
0
  0
CLASS
  1
LAYOUT
  2
AcDbLayout
  3
AutoCAD 2000
 90
0
 91
0
280
0
281
0
  0
ENDSEC
  0
SECTION
  2
TABLES
  0
TABLE
  2
VPORT
  5
8
100
AcDbSymbolTable
 70
2
  0
VPORT
  5
1F4
100
AcDbSymbolTableRecord
100
AcDbViewportTableRecord
  2
*ACTIVE
 70
0
 10
0.0
 20
0.0
 11
1.0
 21
1.0
 12
11.0
 22
8.5
 13
0.0
 23
0.0
 14
1.0
 24
1.0
 15
0.0
 25
0.0
 16
0.0
 26
0.0
 36
1.0
 17
0.0
 27
0.0
 37
0.0
 40
17.0
 41
1.2941176471
 42
50.0
 43
0.0
 44
0.0
 50
0.0
 51
0.0
 71
0
 72
100
 73
1
 74
1
 75
0
 76
0
 77
0
 78
0
  0
ENDTAB
  0
TABLE
  2
LTYPE
  5
5
100
AcDbSymbolTable
 70
6
  0
LTYPE
  5
14
100
AcDbSymbolTableRecord
100
AcDbLinetypeTableRecord
  2
BYBLOCK
 70
0
  3

 72
65
 73
0
 40
0.0
  0
LTYPE
  5
15
100
AcDbSymbolTableRecord
100
AcDbLinetypeTableRecord
  2
BYLAYER
 70
0
  3

 72
65
 73
0
 40
0.0
  0
LTYPE
  5
16
100
AcDbSymbolTableRecord
100
AcDbLinetypeTableRecord
  2
CONTINUOUS
 70
64
  3
Solid line
 72
65
 73
0
 40
0.0
  0
LTYPE
  5
1F5
100
AcDbSymbolTableRecord
100
AcDbLinetypeTableRecord
  2
CENTER
 70
64
  3
____ _ ____ _ ____ _ ____ _ ____ _ ____ _ ____
 72
65
 73
4
 40
0.6
 49
0.375
 74
0
 49
-0.075
 74
0
 49
0.075
 74
0
 49
-0.075
 74
0
  0
LTYPE
  5
1F6
100
AcDbSymbolTableRecord
100
AcDbLinetypeTableRecord
  2
HIDDEN
 70
64
  3
- - - - - - - - - - - - - - - - - - - -
 72
65
 73
2
 40
0.2
 49
0.1
 74
0
 49
-0.1
 74
0
  0
LTYPE
  5
1F7
100
AcDbSymbolTableRecord
100
AcDbLinetypeTableRecord
  2
PHANTOM
 70
64
  3
_____ _ _ _____ _ _ _____ _ _ _____
 72
65
 73
6
 40
0.8
 49
0.45
 74
0
 49
-0.05
 74
0
 49
0.1
 74
0
 49
-0.05
 74
0
 49
0.1
 74
0
 49
-0.05
 74
0
  0
LTYPE
  5
1F8
100
AcDbSymbolTableRecord
100
AcDbLinetypeTableRecord
  2
DOT
 70
64
  3
. . . . . . . . . . . . . . . . . . . .
 72
65
 73
2
 40
0.2
 49
0.1
 74
0
 49
-0.1
 74
0
  0
LTYPE
  5
1F9
100
AcDbSymbolTableRecord
100
AcDbLinetypeTableRecord
  2
DASHED
 70
64
  3
- - - - - - - - - - - - - - - - - - - -
 72
65
 73
2
 40
0.2
 49
0.1
 74
0
 49
-0.1
 74
0
  0
ENDTAB
  0
TABLE
  2
LAYER
  5
2
100
AcDbSymbolTable
 70
36
  0
LAYER
  5
10
100
AcDbSymbolTableRecord
100
AcDbLayerTableRecord
  2
0
 70
0
 62
7
  6
CONTINUOUS
370
-3
390
F
  0
LAYER
  5
1FA
100
AcDbSymbolTableRecord
100
AcDbLayerTableRecord
  2
DEFAULT_1
 70
0
 62
7
  6
CENTER
370
-3
390
F
  0
LAYER
  5
1FB
100
AcDbSymbolTableRecord
100
AcDbLayerTableRecord
  2
DEFAULT_2
 70
0
 62
8
  6
HIDDEN
370
-3
390
F
  0
LAYER
  5
1FC
100
AcDbSymbolTableRecord
100
AcDbLayerTableRecord
  2
DEFAULT_3
 70
0
 62
7
  6
PHANTOM
370
-3
390
F
  0
LAYER
  5
1FD
100
AcDbSymbolTableRecord
100
AcDbLayerTableRecord
  2
ALL_FEATURES
 70
0
 62
7
  6
CONTINUOUS
370
-3
390
F
  0
LAYER
  5
1FE
100
AcDbSymbolTableRecord
100
AcDbLayerTableRecord
  2
AXES_FEATURES
 70
0
 62
7
  6
CONTINUOUS
370
-3
390
F
  0
LAYER
  5
1FF
100
AcDbSymbolTableRecord
100
AcDbLayerTableRecord
  2
DEFAULT_COORDINATE_SYSTEM
 70
0
 62
7
  6
CONTINUOUS
370
-3
390
F
  0
LAYER
  5
200
100
AcDbSymbolTableRecord
100
AcDbLayerTableRecord
  2
DEFAULT_DATUM_AXES
 70
0
 62
7
  6
CONTINUOUS
370
-3
390
F
  0
LAYER
  5
201
100
AcDbSymbolTableRecord
100
AcDbLayerTableRecord
  2
DEFAULT_DATUM_PLANES
 70
0
 62
7
  6
CONTINUOUS
370
-3
390
F
  0
LAYER
  5
202
100
AcDbSymbolTableRecord
100
AcDbLayerTableRecord
  2
DIMENSIONS
 70
0
 62
7
  6
CONTINUOUS
370
-3
390
F
  0
ENDTAB
  0
TABLE
  2
STYLE
  5
3
100
AcDbSymbolTable
 70
1
  0
STYLE
  5
11
100
AcDbSymbolTableRecord
100
AcDbTextStyleTableRecord
  2
STANDARD
 70
0
 40
0.0
 41
0.8
 50
0.0
 71
0
 42
0.2
  3
txt
  4

  0
STYLE
  5
203
100
AcDbSymbolTableRecord
100
AcDbTextStyleTableRecord
  2
TEXTSTYLE_1
 70
0
 40
0.0
 41
0.8
 50
0.0
 71
0
 42
0.2
  3
gdt
  4

  0
ENDTAB
  0
TABLE
  2
VIEW
  5
6
100
AcDbSymbolTable
 70
0
  0
ENDTAB
  0
TABLE
  2
UCS
  5
7
100
AcDbSymbolTable
 70
0
  0
ENDTAB
  0
TABLE
  2
APPID
  5
9
100
AcDbSymbolTable
 70
1
  0
APPID
  5
204
100
AcDbSymbolTableRecord
100
AcDbRegAppTableRecord
  2
ACAD
 70
0
  0
ENDTAB
  0
TABLE
  2
BLOCK_RECORD
  5
1
100
AcDbSymbolTable
 70
0
  0
BLOCK_RECORD
  5
205
100
AcDbSymbolTableRecord
100
AcDbBlockTableRecord
  2
*Model_Space
  0
BLOCK_RECORD
  5
206
100
AcDbSymbolTableRecord
100
AcDbBlockTableRecord
  2
*Paper_Space
  0
BLOCK_RECORD
  5
207
100
AcDbSymbolTableRecord
100
AcDbBlockTableRecord
  2
_FILLED
  0
ENDTAB
  0
TABLE
  2
DIMSTYLE
  5
A
100
AcDbSymbolTable
 70
1
100
AcDbDimStyleTable
 71
0
  0
DIMSTYLE
105
208
100
AcDbSymbolTableRecord
100
AcDbDimStyleTableRecord
  2
STANDARD
 70
0
  3

  4

 40
1.0
 41
0.1
 42
0.0625
 43
0.38
 44
0.125
 45
0.0
 46
0.0
 47
0.001
 48
0.001
140
0.08
141
0.09
142
0.0
143
25.4
144
1.0
145
0.0
146
1.0
147
0.09
 71
1.0
 72
0.0
 73
1
 74
1
 75
0
 76
0
 77
0
 78
4
 79
1
170
1
171
2
172
0
173
0
174
0
175
0
176
0
177
0
178
0
270
2
179
3
271
3
272
3
273
2
274
2
275
0
280
0
281
0
282
0
283
1
284
4
285
0
286
0
287
3
288
0
340
11
278
46
341
207
342
207
343
207
344
207
  0
ENDTAB
  0
ENDSEC
  0
SECTION
  2
BLOCKS
  0
BLOCK
  5
20
100
AcDbEntity
  8
0
100
AcDbBlockBegin
  2
*Model_Space
 70
0
 10
0.0
 20
0.0
 30
0.0
  3
*Model_Space
  1

  0
ENDBLK
  5
21
100
AcDbEntity
  8
0
100
AcDbBlockEnd
  0
BLOCK
  5
1C
100
AcDbEntity
  8
0
100
AcDbBlockBegin
  2
*Paper_Space
 70
0
 10
0.0
 20
0.0
 30
0.0
  3
*Paper_Space
  1

  0
ENDBLK
  5
1D
100
AcDbEntity
  8
0
100
AcDbBlockEnd
  0
BLOCK
  5
209
100
AcDbEntity
  8
0
100
AcDbBlockBegin
  2
_FILLED
 70
64
 10
0.0
 20
0.0
  3
_FILLED
  1

  0
SOLID
  5
20A
100
AcDbEntity
  8
0
  6
BYBLOCK
 62
0
100
AcDbTrace
 10
0.0
 20
0.0
 11
-1.0
 21
0.2
 12
-1.0
 22
-0.2
 13
-1.0
 23
-0.2
  0
ENDBLK
  5
20B
100
AcDbEntity
  8
0
  6
BYBLOCK
 62
0
100
AcDbBlockEnd
  0
ENDSEC
  0
SECTION
  2
ENTITIES
  0
LINE
  5
20C
100
AcDbEntity
  8
0
100
AcDbLine
 62
9
  6
CONTINUOUS
 10
-5.4373076573
 20
9.8926695021
 11
-5.4373076573
 21
8.6426695021
  0
LINE
  5
20D
100
AcDbEntity
  8
0
100
AcDbLine
 62
7
  6
CONTINUOUS
 10
-7.0592278156
 20
8.6426695021
 11
28.9346125011
 21
8.6426695021
  0
LINE
  5
20E
100
AcDbEntity
  8
0
100
AcDbLine
 62
7
  6
CONTINUOUS
 10
-7.0592278156
 20
9.8926695021
 11
28.9346125011
 21
9.8926695021
  0
LINE
  5
20F
100
AcDbEntity
  8
0
100
AcDbLine
 62
9
  6
CONTINUOUS
 10
27.3126923427
 20
9.8926695021
 11
27.3126923427
 21
8.6426695021
  0
ARC
  5
210
100
AcDbEntity
  8
0
100
AcDbCircle
 62
7
  6
CONTINUOUS
 10
-7.0623076573
 20
9.2676695021
 40
1.5768473281
100
AcDbArc
 50
23.3559099899
 51
336.6440900101
  0
ARC
  5
211
100
AcDbEntity
  8
0
100
AcDbCircle
 62
7
  6
CONTINUOUS
 10
28.9376923427
 20
9.2676695021
 40
1.5768473281
100
AcDbArc
 50
203.3559099899
 51
156.6440900101
  0
ARC
  5
212
100
AcDbEntity
  8
0
100
AcDbCircle
 62
9
  6
CONTINUOUS
 10
28.9376923427
 20
9.2676695021
 40
1.5669212462
100
AcDbArc
 50
203.5148292929
 51
156.4851707071
  0
ARC
  5
213
100
AcDbEntity
  8
0
100
AcDbCircle
 62
9
  6
CONTINUOUS
 10
-7.0623076573
 20
9.2676695021
 40
1.5669212462
100
AcDbArc
 50
23.5148292929
 51
336.4851707071
  0
ARC
  5
214
100
AcDbEntity
  8
0
100
AcDbCircle
 62
9
  6
CONTINUOUS
 10
28.9376923427
 20
9.2676695021
 40
1.3575279156
100
AcDbArc
 50
207.4328134455
 51
152.5671863989
  0
ARC
  5
215
100
AcDbEntity
  8
0
100
AcDbCircle
 62
9
  6
CONTINUOUS
 10
-7.0623076573
 20
9.2676695021
 40
1.3575279156
100
AcDbArc
 50
27.4328134455
 51
332.5671863989
  0
ARC
  5
216
100
AcDbEntity
  8
0
100
AcDbCircle
 62
7
  6
CONTINUOUS
 10
-7.0623076573
 20
9.2676695021
 40
1.3525921213
100
AcDbArc
 50
27.5417157944
 51
332.4582842056
  0
ARC
  5
217
100
AcDbEntity
  8
0
100
AcDbCircle
 62
7
  6
CONTINUOUS
 10
28.9376923427
 20
9.2676695021
 40
1.3525921213
100
AcDbArc
 50
207.5417157944
 51
152.4582842056
  0
ARC
  5
218
100
AcDbEntity
  8
0
100
AcDbCircle
 62
9
  6
CONTINUOUS
 10
28.9376923427
 20
9.2676695021
 40
1.3347637982
100
AcDbArc
 50
207.9417841219
 51
152.0582158781
  0
ARC
  5
219
100
AcDbEntity
  8
0
100
AcDbCircle
 62
9
  6
CONTINUOUS
 10
-7.0623076573
 20
9.2676695021
 40
1.3347637982
100
AcDbArc
 50
27.9417841219
 51
332.0582158781
  0
ARC
  5
21A
100
AcDbEntity
  8
0
100
AcDbCircle
 62
9
  6
CONTINUOUS
 10
28.9376923427
 20
9.2676695021
 40
1.2320153386
100
AcDbArc
 50
210.508700219
 51
149.491299781
  0
ARC
  5
21B
100
AcDbEntity
  8
0
100
AcDbCircle
 62
9
  6
CONTINUOUS
 10
-7.0623076573
 20
9.2676695021
 40
1.2320153386
100
AcDbArc
 50
30.508700219
 51
329.491299781
  0
ARC
  5
21C
100
AcDbEntity
  8
0
100
AcDbCircle
 62
9
  6
CONTINUOUS
 10
28.9376923427
 20
9.2676695021
 40
1.1620722021
100
AcDbArc
 50
212.5563960248
 51
147.4436039752
  0
ARC
  5
21D
100
AcDbEntity
  8
0
100
AcDbCircle
 62
9
  6
CONTINUOUS
 10
-7.0623076573
 20
9.2676695021
 40
1.1620722021
100
AcDbArc
 50
32.5563960248
 51
327.4436039752
  0
ARC
  5
21E
100
AcDbEntity
  8
0
100
AcDbCircle
 62
7
  6
CONTINUOUS
 10
-7.0623076573
 20
9.2676695021
 40
0.875
100
AcDbArc
 50
45.7334028339
 51
314.2665971598
  0
ARC
  5
21F
100
AcDbEntity
  8
0
100
AcDbCircle
 62
7
  6
CONTINUOUS
 10
28.9376923427
 20
9.2676695021
 40
0.875
100
AcDbArc
 50
225.6347633303
 51
134.3652366667
  0
ARC
  5
220
100
AcDbEntity
  8
0
100
AcDbCircle
 62
9
  6
CONTINUOUS
 10
28.9376923427
 20
9.2676695021
 40
0.815
100
AcDbArc
 50
230.1263723226
 51
129.8736276834
  0
ARC
  5
221
100
AcDbEntity
  8
0
100
AcDbCircle
 62
9
  6
CONTINUOUS
 10
-7.0623076573
 20
9.2676695021
 40
0.815
100
AcDbArc
 50
50.1691154926
 51
309.8308844891
  0
SPLINE
  5
222
100
AcDbEntity
  8
0
100
AcDbSpline
 62
7
  6
CONTINUOUS
 70
0
 71
3
 72
29
 73
25
 74
0
 42
0.0000001
 43
0.0000001
 44
0.0000000001
 40
0.0
 40
0.0
 40
0.0
 40
0.0
 40
0.0624932797
 40
0.0937493877
 40
0.1250044716
 40
0.1874975796
 40
0.2499904002
 40
0.2812462873
 40
0.3125021868
 40
0.3437580818
 40
0.3750139525
 40
0.4375068688
 40
0.4999997823
 40
0.5624927298
 40
0.6249856785
 40
0.6874786516
 40
0.7187345467
 40
0.7499904298
 40
0.8124834241
 40
0.8749764513
 40
0.9062323302
 40
0.9374882212
 40
0.9687441276
 40
1.0
 40
1.0
 40
1.0
 40
1.0
 10
29.560469022
 20
9.2676695021
 30
0.0
 10
29.560469022
 20
9.2881291404
 30
0.0
 10
29.558957196
 20
9.318849701
 30
0.0
 10
29.5539367796
 20
9.3594775409
 30
0.0
 10
29.546926272
 20
9.3998130268
 30
0.0
 10
29.5344570792
 20
9.4495115675
 30
0.0
 10
29.5171665565
 20
9.4977460865
 30
0.0
 10
29.5005515911
 20
9.5351618825
 30
0.0
 10
29.4867234662
 20
9.5625838961
 30
0.0
 10
29.4715651088
 20
9.5892936576
 30
0.0
 10
29.4496342192
 20
9.6238626565
 30
0.0
 10
29.4190730013
 20
9.6649932844
 30
0.0
 10
29.3777443385
 20
9.7105025958
 30
0.0
 10
29.3321500555
 20
9.7517429649
 30
0.0
 10
29.2827360877
 20
9.7883136204
 30
0.0
 10
29.2387588952
 20
9.8146132733
 30
0.0
 10
29.2021735615
 20
9.8329855639
 30
0.0
 10
29.1647318899
 20
9.8495438692
 30
0.0
 10
29.1164749415
 20
9.8667688125
 30
0.0
 10
29.0667631654
 20
9.8791868464
 30
0.0
 10
29.0264237909
 20
9.8861670423
 30
0.0
 10
28.9959419307
 20
9.8899158208
 30
0.0
 10
28.965314615
 20
9.892168672
 30
0.0
 10
28.9448453428
 20
9.8926693994
 30
0.0
 10
28.9346125011
 20
9.8926693988
 30
0.0
  0
SPLINE
  5
223
100
AcDbEntity
  8
0
100
AcDbSpline
 62
7
  6
CONTINUOUS
 70
0
 71
3
 72
29
 73
25
 74
0
 42
0.0000001
 43
0.0000001
 44
0.0000000001
 40
0.0
 40
0.0
 40
0.0
 40
0.0
 40
0.0312558724
 40
0.0625117788
 40
0.0937676698
 40
0.1250235487
 40
0.1875165759
 40
0.2500095702
 40
0.2812654533
 40
0.3125213484
 40
0.3750143215
 40
0.4375072702
 40
0.5000002177
 40
0.5624931312
 40
0.6249860475
 40
0.6562419182
 40
0.6874978132
 40
0.7187537127
 40
0.7500095998
 40
0.8125024204
 40
0.8749955284
 40
0.9062506123
 40
0.9375067203
 40
1.0
 40
1.0
 40
1.0
 40
1.0
 10
-7.0592278156
 20
9.8926693988
 30
0.0
 10
-7.0694606574
 20
9.8926693994
 30
0.0
 10
-7.0899299295
 20
9.892168672
 30
0.0
 10
-7.1205572452
 20
9.8899158208
 30
0.0
 10
-7.1510391054
 20
9.8861670423
 30
0.0
 10
-7.1913784799
 20
9.8791868464
 30
0.0
 10
-7.241090256
 20
9.8667688125
 30
0.0
 10
-7.2893472044
 20
9.8495438692
 30
0.0
 10
-7.3267888761
 20
9.8329855639
 30
0.0
 10
-7.3633742097
 20
9.8146132733
 30
0.0
 10
-7.4073514023
 20
9.7883136204
 30
0.0
 10
-7.45676537
 20
9.7517429649
 30
0.0
 10
-7.502359653
 20
9.7105025958
 30
0.0
 10
-7.5436883158
 20
9.6649932844
 30
0.0
 10
-7.5742495337
 20
9.6238626565
 30
0.0
 10
-7.5961804233
 20
9.5892936576
 30
0.0
 10
-7.6113387807
 20
9.5625838961
 30
0.0
 10
-7.6251669056
 20
9.5351618825
 30
0.0
 10
-7.641781871
 20
9.4977460865
 30
0.0
 10
-7.6590723938
 20
9.4495115675
 30
0.0
 10
-7.6715415865
 20
9.3998130268
 30
0.0
 10
-7.6785520942
 20
9.3594775409
 30
0.0
 10
-7.6835725106
 20
9.318849701
 30
0.0
 10
-7.6850843366
 20
9.2881291404
 30
0.0
 10
-7.6850843366
 20
9.2676695021
 30
0.0
  0
SPLINE
  5
224
100
AcDbEntity
  8
0
100
AcDbSpline
 62
7
  6
CONTINUOUS
 70
0
 71
3
 72
29
 73
25
 74
0
 42
0.0000001
 43
0.0000001
 44
0.0000000001
 40
0.0
 40
0.0
 40
0.0
 40
0.0
 40
0.0624932753
 40
0.0937493816
 40
0.1250044661
 40
0.1874975752
 40
0.249990395
 40
0.2812462832
 40
0.3125021822
 40
0.3437580764
 40
0.3750139477
 40
0.4375068641
 40
0.4999997777
 40
0.5624927254
 40
0.6249856739
 40
0.6874786475
 40
0.7187345422
 40
0.7499904251
 40
0.812483421
 40
0.8749764491
 40
0.9062323281
 40
0.9374882199
 40
0.9687441272
 40
1.0
 40
1.0
 40
1.0
 40
1.0
 10
-7.6850843366
 20
9.2676695021
 30
0.0
 10
-7.6850843366
 20
9.2472098653
 30
0.0
 10
-7.6835725107
 20
9.2164893068
 30
0.0
 10
-7.678552095
 20
9.1758614685
 30
0.0
 10
-7.6715415874
 20
9.1355259827
 30
0.0
 10
-7.6590723955
 20
9.0858274415
 30
0.0
 10
-7.6417818724
 20
9.0375929221
 30
0.0
 10
-7.6251669076
 20
9.0001771259
 30
0.0
 10
-7.6113387831
 20
8.9727551122
 30
0.0
 10
-7.5961804258
 20
8.9460453509
 30
0.0
 10
-7.5742495364
 20
8.9114763519
 30
0.0
 10
-7.5436883189
 20
8.8703457234
 30
0.0
 10
-7.5023596562
 20
8.8248364117
 30
0.0
 10
-7.4567653736
 20
8.7835960421
 30
0.0
 10
-7.4073514059
 20
8.7470253862
 30
0.0
 10
-7.3633742134
 20
8.7207257331
 30
0.0
 10
-7.32678888
 20
8.7023534421
 30
0.0
 10
-7.2893472081
 20
8.6857951367
 30
0.0
 10
-7.2410902592
 20
8.6685701927
 30
0.0
 10
-7.1913784823
 20
8.6561521584
 30
0.0
 10
-7.1510391072
 20
8.6491719622
 30
0.0
 10
-7.1205572464
 20
8.6454231837
 30
0.0
 10
-7.0899299301
 20
8.6431703322
 30
0.0
 10
-7.0694606575
 20
8.6426696049
 30
0.0
 10
-7.0592278156
 20
8.6426696055
 30
0.0
  0
SPLINE
  5
225
100
AcDbEntity
  8
0
100
AcDbSpline
 62
7
  6
CONTINUOUS
 70
0
 71
3
 72
29
 73
25
 74
0
 42
0.0000001
 43
0.0000001
 44
0.0000000001
 40
0.0
 40
0.0
 40
0.0
 40
0.0
 40
0.0312558728
 40
0.0625117801
 40
0.0937676719
 40
0.1250235509
 40
0.187516579
 40
0.2500095749
 40
0.2812654578
 40
0.3125213525
 40
0.3750143261
 40
0.4375072746
 40
0.5000002223
 40
0.5624931359
 40
0.6249860523
 40
0.6562419236
 40
0.6874978178
 40
0.7187537168
 40
0.750009605
 40
0.8125024248
 40
0.8749955339
 40
0.9062506184
 40
0.9375067247
 40
1.0
 40
1.0
 40
1.0
 40
1.0
 10
28.9346125011
 20
8.6426696055
 30
0.0
 10
28.944845343
 20
8.6426696049
 30
0.0
 10
28.9653146156
 20
8.6431703322
 30
0.0
 10
28.9959419319
 20
8.6454231837
 30
0.0
 10
29.0264237927
 20
8.6491719622
 30
0.0
 10
29.0667631677
 20
8.6561521584
 30
0.0
 10
29.1164749447
 20
8.6685701927
 30
0.0
 10
29.1647318936
 20
8.6857951367
 30
0.0
 10
29.2021735655
 20
8.7023534421
 30
0.0
 10
29.2387588989
 20
8.7207257331
 30
0.0
 10
29.2827360913
 20
8.7470253862
 30
0.0
 10
29.332150059
 20
8.7835960421
 30
0.0
 10
29.3777443417
 20
8.8248364117
 30
0.0
 10
29.4190730044
 20
8.8703457234
 30
0.0
 10
29.4496342219
 20
8.9114763519
 30
0.0
 10
29.4715651113
 20
8.9460453509
 30
0.0
 10
29.4867234685
 20
8.9727551122
 30
0.0
 10
29.500551593
 20
9.0001771259
 30
0.0
 10
29.5171665579
 20
9.0375929221
 30
0.0
 10
29.5344570809
 20
9.0858274415
 30
0.0
 10
29.5469262729
 20
9.1355259827
 30
0.0
 10
29.5539367805
 20
9.1758614685
 30
0.0
 10
29.5589571962
 20
9.2164893068
 30
0.0
 10
29.560469022
 20
9.2472098653
 30
0.0
 10
29.560469022
 20
9.2676695021
 30
0.0
  0
ENDSEC
  0
SECTION
  2
OBJECTS
  0
DICTIONARY
  5
C
100
AcDbDictionary
280
0
281
1
  3
ACAD_GROUP
350
D
  3
ACAD_MLINESTYLE
350
17
  3
ACAD_LAYOUT
350
1A
  3
ACAD_PLOTSETTINGS
350
19
  3
ACAD_PLOTSTYLENAME
350
E
  0
DICTIONARY
  5
D
102
{ACAD_REACTORS
330
C
102
}
100
AcDbDictionary
280
0
281
1
  0
ACDBDICTIONARYWDFLT
  5
E
102
{ACAD_REACTORS
330
C
102
}
100
AcDbDictionary
281
1
  3
Normal
350
F
100
AcDbDictionaryWithDefault
340
F
  0
DICTIONARY
  5
17
102
{ACAD_REACTORS
330
C
102
}
100
AcDbDictionary
280
0
281
1
  3
Standard
350
18
  0
DICTIONARY
  5
19
102
{ACAD_REACTORS
330
C
102
}
100
AcDbDictionary
281
1
  0
DICTIONARY
  5
1A
102
{ACAD_REACTORS
330
C
102
}
100
AcDbDictionary
281
1
  3
Model
350
226
  3
Layout1
350
227
  0
ACDBPLACEHOLDER
  5
F
102
{ACAD_REACTORS
330
E
102
}
  0
MLINESTYLE
  5
18
102
{ACAD_REACTORS
330
17
102
}
100
AcDbMlineStyle
  2
STANDARD
 70
0
  3

 62
256
 51
90.0
 52
90.0
 71
2
 49
0.5
 62
256
  6
BYLAYER
 49
-0.5
 62
256
  6
BYLAYER
  0
LAYOUT
  5
226
102
{ACAD_REACTORS
330
1A
102
}
100
AcDbPlotSettings
  1

  2
none_device
  4
ANSI_C_(22.00_x_17.00_Inches)
  6

 40
0.0
 41
0.0
 42
0.0
 43
0.0
 44
558.8
 45
431.8
 46
0.0
 47
0.0
 48
0.0
 49
0.0
140
0.0
141
0.0
142
1.0
143
1.0
 70
1024
 72
0
 73
0
 74
0
  7

 75
0
147
1.0
148
0.0
149
0.0
100
AcDbLayout
  1
Model
 70
0
 71
0
 10
0.0
 20
0.0
 11
22.0
 21
17.0
 12
0.0
 22
0.0
 32
0.0
 14
0.0
 24
0.0
 34
0.0
 15
0.0
 25
0.0
 35
0.0
146
0.0
 13
0.0
 23
0.0
 33
0.0
 16
1.0
 26
0.0
 36
0.0
 17
0.0
 27
1.0
 37
0.0
 76
0
330
205
345
0
346
0
  0
LAYOUT
  5
227
102
{ACAD_REACTORS
330
1A
102
}
100
AcDbPlotSettings
  1

  2
none_device
  4
ANSI_C_(22.00_x_17.00_Inches)
  6

 40
0.0
 41
0.0
 42
0.0
 43
0.0
 44
558.8
 45
431.8
 46
0.0
 47
0.0
 48
0.0
 49
0.0
140
0.0
141
0.0
142
1.0
143
1.0
 70
0
 72
0
 73
0
 74
0
  7

 75
0
147
1.0
148
0.0
149
0.0
100
AcDbLayout
  1
Layout1
 70
0
 71
1
 10
0.0
 20
0.0
 11
22.0
 21
17.0
 12
0.0
 22
0.0
 32
0.0
 14
0.0
 24
0.0
 34
0.0
 15
0.0
 25
0.0
 35
0.0
146
0.0
 13
0.0
 23
0.0
 33
0.0
 16
1.0
 26
0.0
 36
0.0
 17
0.0
 27
1.0
 37
0.0
 76
0
330
206
345
0
346
0
  0
ENDSEC
  0
EOF
