999
DXF file: E:\BT Custom\CADOUTPUT\_RIGHT.dxf
999
Pro/ENGINEER 2018400 by Parametric Technology Corporation
  0
SECTION
  2
HEADER
  9
$ACADVER
  1
AC1018
  9
$DWGCODEPAGE
  3
ANSI_1252
  9
$EXTMAX
 10
22.0
 20
17.0
 30
0.0
  9
$EXTMIN
 10
0.0
 20
0.0
 30
0.0
  9
$LIMMIN
 10
0.0
 20
0.0
  9
$LIMMAX
 10
22.0
 20
17.0
  9
$VIEWCTR
 10
11.0
 20
8.5
  9
$VIEWSIZE
 40
17.0
  9
$CLAYER
  8
0
  9
$LTSCALE
 40
1.21
  9
$CELTYPE
  6
BYLAYER
  9
$DIMSCALE
 40
1.0
  9
$DIMASZ
 40
0.1
  9
$DIMEXO
 40
0.0625
  9
$DIMDLI
 40
0.836
  9
$DIMEXE
 40
0.125
  9
$DIMCEN
 40
0.198
  9
$DIMLFAC
 40
1.0
  9
$DIMBLK
  1
_FILLED
  9
$DIMALT
 70
1
  9
$DIMALTD
 70
2
  9
$DIMALTTD
 70
2
  9
$DIMALTF
 40
25.4
  9
$DIMTXT
 40
0.08
  9
$DIMTOL
 70
1
  9
$DIMLIM
 70
0
  9
$DIMTFAC
 40
1.0
  9
$DIMTP
 40
0.001
  9
$DIMTM
 40
0.001
  9
$DIMGAP
 40
0.09
  9
$DIMDSEP
 70
46
  9
$AUNITS
 70
0
  9
$PDMODE
 70
3
  9
$PDSIZE
 40
0.06
  9
$HANDSEED
  5
53C
  9
$TILEMODE
 70
1
  9
$MEASUREMENT
 70
0
  9
$INSUNITS
 70
1
  0
ENDSEC
  0
SECTION
  2
CLASSES
  0
CLASS
  1
ACDBDICTIONARYWDFLT
  2
AcDbDictionaryWithDefault
  3
AutoCAD 2000
 90
0
 91
1
280
0
281
0
  0
CLASS
  1
ACDBPLACEHOLDER
  2
AcDbPlaceHolder
  3
AutoCAD 2000
 90
0
 91
1
280
0
281
0
  0
CLASS
  1
LAYOUT
  2
AcDbLayout
  3
AutoCAD 2000
 90
0
 91
0
280
0
281
0
  0
ENDSEC
  0
SECTION
  2
TABLES
  0
TABLE
  2
VPORT
  5
8
100
AcDbSymbolTable
 70
2
  0
VPORT
  5
1F4
100
AcDbSymbolTableRecord
100
AcDbViewportTableRecord
  2
*ACTIVE
 70
0
 10
0.0
 20
0.0
 11
1.0
 21
1.0
 12
11.0
 22
8.5
 13
0.0
 23
0.0
 14
1.0
 24
1.0
 15
0.0
 25
0.0
 16
0.0
 26
0.0
 36
1.0
 17
0.0
 27
0.0
 37
0.0
 40
17.0
 41
1.2941176471
 42
50.0
 43
0.0
 44
0.0
 50
0.0
 51
0.0
 71
0
 72
100
 73
1
 74
1
 75
0
 76
0
 77
0
 78
0
  0
ENDTAB
  0
TABLE
  2
LTYPE
  5
5
100
AcDbSymbolTable
 70
6
  0
LTYPE
  5
14
100
AcDbSymbolTableRecord
100
AcDbLinetypeTableRecord
  2
BYBLOCK
 70
0
  3

 72
65
 73
0
 40
0.0
  0
LTYPE
  5
15
100
AcDbSymbolTableRecord
100
AcDbLinetypeTableRecord
  2
BYLAYER
 70
0
  3

 72
65
 73
0
 40
0.0
  0
LTYPE
  5
16
100
AcDbSymbolTableRecord
100
AcDbLinetypeTableRecord
  2
CONTINUOUS
 70
64
  3
Solid line
 72
65
 73
0
 40
0.0
  0
LTYPE
  5
1F5
100
AcDbSymbolTableRecord
100
AcDbLinetypeTableRecord
  2
CENTER
 70
64
  3
____ _ ____ _ ____ _ ____ _ ____ _ ____ _ ____
 72
65
 73
4
 40
0.6
 49
0.375
 74
0
 49
-0.075
 74
0
 49
0.075
 74
0
 49
-0.075
 74
0
  0
LTYPE
  5
1F6
100
AcDbSymbolTableRecord
100
AcDbLinetypeTableRecord
  2
HIDDEN
 70
64
  3
- - - - - - - - - - - - - - - - - - - -
 72
65
 73
2
 40
0.2
 49
0.1
 74
0
 49
-0.1
 74
0
  0
LTYPE
  5
1F7
100
AcDbSymbolTableRecord
100
AcDbLinetypeTableRecord
  2
PHANTOM
 70
64
  3
_____ _ _ _____ _ _ _____ _ _ _____
 72
65
 73
6
 40
0.8
 49
0.45
 74
0
 49
-0.05
 74
0
 49
0.1
 74
0
 49
-0.05
 74
0
 49
0.1
 74
0
 49
-0.05
 74
0
  0
LTYPE
  5
1F8
100
AcDbSymbolTableRecord
100
AcDbLinetypeTableRecord
  2
DOT
 70
64
  3
. . . . . . . . . . . . . . . . . . . .
 72
65
 73
2
 40
0.2
 49
0.1
 74
0
 49
-0.1
 74
0
  0
LTYPE
  5
1F9
100
AcDbSymbolTableRecord
100
AcDbLinetypeTableRecord
  2
DASHED
 70
64
  3
- - - - - - - - - - - - - - - - - - - -
 72
65
 73
2
 40
0.2
 49
0.1
 74
0
 49
-0.1
 74
0
  0
ENDTAB
  0
TABLE
  2
LAYER
  5
2
100
AcDbSymbolTable
 70
36
  0
LAYER
  5
10
100
AcDbSymbolTableRecord
100
AcDbLayerTableRecord
  2
0
 70
0
 62
7
  6
CONTINUOUS
370
-3
390
F
  0
LAYER
  5
1FA
100
AcDbSymbolTableRecord
100
AcDbLayerTableRecord
  2
DEFAULT_1
 70
0
 62
7
  6
CENTER
370
-3
390
F
  0
LAYER
  5
1FB
100
AcDbSymbolTableRecord
100
AcDbLayerTableRecord
  2
DEFAULT_2
 70
0
 62
8
  6
HIDDEN
370
-3
390
F
  0
LAYER
  5
1FC
100
AcDbSymbolTableRecord
100
AcDbLayerTableRecord
  2
DEFAULT_3
 70
0
 62
7
  6
PHANTOM
370
-3
390
F
  0
LAYER
  5
1FD
100
AcDbSymbolTableRecord
100
AcDbLayerTableRecord
  2
ALL_FEATURES
 70
0
 62
7
  6
CONTINUOUS
370
-3
390
F
  0
LAYER
  5
1FE
100
AcDbSymbolTableRecord
100
AcDbLayerTableRecord
  2
AXES_FEATURES
 70
0
 62
7
  6
CONTINUOUS
370
-3
390
F
  0
LAYER
  5
1FF
100
AcDbSymbolTableRecord
100
AcDbLayerTableRecord
  2
DIMENSIONS
 70
0
 62
7
  6
CONTINUOUS
370
-3
390
F
  0
ENDTAB
  0
TABLE
  2
STYLE
  5
3
100
AcDbSymbolTable
 70
1
  0
STYLE
  5
11
100
AcDbSymbolTableRecord
100
AcDbTextStyleTableRecord
  2
STANDARD
 70
0
 40
0.0
 41
0.8
 50
0.0
 71
0
 42
0.2
  3
txt
  4

  0
STYLE
  5
200
100
AcDbSymbolTableRecord
100
AcDbTextStyleTableRecord
  2
TEXTSTYLE_1
 70
0
 40
0.0
 41
0.8
 50
0.0
 71
0
 42
0.2
  3
gdt
  4

  0
ENDTAB
  0
TABLE
  2
VIEW
  5
6
100
AcDbSymbolTable
 70
0
  0
ENDTAB
  0
TABLE
  2
UCS
  5
7
100
AcDbSymbolTable
 70
0
  0
ENDTAB
  0
TABLE
  2
APPID
  5
9
100
AcDbSymbolTable
 70
1
  0
APPID
  5
201
100
AcDbSymbolTableRecord
100
AcDbRegAppTableRecord
  2
ACAD
 70
0
  0
ENDTAB
  0
TABLE
  2
BLOCK_RECORD
  5
1
100
AcDbSymbolTable
 70
0
  0
BLOCK_RECORD
  5
202
100
AcDbSymbolTableRecord
100
AcDbBlockTableRecord
  2
*Model_Space
  0
BLOCK_RECORD
  5
203
100
AcDbSymbolTableRecord
100
AcDbBlockTableRecord
  2
*Paper_Space
  0
BLOCK_RECORD
  5
204
100
AcDbSymbolTableRecord
100
AcDbBlockTableRecord
  2
_FILLED
  0
ENDTAB
  0
TABLE
  2
DIMSTYLE
  5
A
100
AcDbSymbolTable
 70
1
100
AcDbDimStyleTable
 71
0
  0
DIMSTYLE
105
205
100
AcDbSymbolTableRecord
100
AcDbDimStyleTableRecord
  2
STANDARD
 70
0
  3

  4

 40
1.0
 41
0.1
 42
0.0625
 43
0.38
 44
0.125
 45
0.0
 46
0.0
 47
0.001
 48
0.001
140
0.08
141
0.09
142
0.0
143
25.4
144
1.0
145
0.0
146
1.0
147
0.09
 71
1.0
 72
0.0
 73
1
 74
1
 75
0
 76
0
 77
0
 78
4
 79
1
170
1
171
2
172
0
173
0
174
0
175
0
176
0
177
0
178
0
270
2
179
3
271
3
272
3
273
2
274
2
275
0
280
0
281
0
282
0
283
1
284
4
285
0
286
0
287
3
288
0
340
11
278
46
341
204
342
204
343
204
344
204
  0
ENDTAB
  0
ENDSEC
  0
SECTION
  2
BLOCKS
  0
BLOCK
  5
20
100
AcDbEntity
  8
0
100
AcDbBlockBegin
  2
*Model_Space
 70
0
 10
0.0
 20
0.0
 30
0.0
  3
*Model_Space
  1

  0
ENDBLK
  5
21
100
AcDbEntity
  8
0
100
AcDbBlockEnd
  0
BLOCK
  5
1C
100
AcDbEntity
  8
0
100
AcDbBlockBegin
  2
*Paper_Space
 70
0
 10
0.0
 20
0.0
 30
0.0
  3
*Paper_Space
  1

  0
ENDBLK
  5
1D
100
AcDbEntity
  8
0
100
AcDbBlockEnd
  0
BLOCK
  5
206
100
AcDbEntity
  8
0
100
AcDbBlockBegin
  2
_FILLED
 70
64
 10
0.0
 20
0.0
  3
_FILLED
  1

  0
SOLID
  5
207
100
AcDbEntity
  8
0
  6
BYBLOCK
 62
0
100
AcDbTrace
 10
0.0
 20
0.0
 11
-1.0
 21
0.2
 12
-1.0
 22
-0.2
 13
-1.0
 23
-0.2
  0
ENDBLK
  5
208
100
AcDbEntity
  8
0
  6
BYBLOCK
 62
0
100
AcDbBlockEnd
  0
ENDSEC
  0
SECTION
  2
ENTITIES
  0
LINE
  5
209
100
AcDbEntity
  8
0
100
AcDbLine
 62
9
  6
CONTINUOUS
 10
13.2409972687
 20
-1.6049743377
 11
13.7809972687
 21
-1.6049743377
  0
LINE
  5
20A
100
AcDbEntity
  8
0
100
AcDbLine
 62
7
  6
CONTINUOUS
 10
13.904549729
 20
19.917434327
 11
13.9045429755
 21
19.9174283849
  0
LINE
  5
20B
100
AcDbEntity
  8
0
100
AcDbLine
 62
7
  6
CONTINUOUS
 10
13.1257888764
 20
18.8262522787
 11
13.1048896659
 21
18.8096616253
  0
LINE
  5
20C
100
AcDbEntity
  8
0
100
AcDbLine
 62
7
  6
CONTINUOUS
 10
13.1388971886
 20
17.4128088232
 11
13.2409972687
 21
17.4717563319
  0
LINE
  5
20D
100
AcDbEntity
  8
0
100
AcDbLine
 62
7
  6
CONTINUOUS
 10
13.8816171602
 20
19.8957970194
 11
13.9045403242
 21
19.9174260514
  0
LINE
  5
20E
100
AcDbEntity
  8
0
100
AcDbLine
 62
7
  6
CONTINUOUS
 10
13.1048681622
 20
18.8096428161
 11
13.1002991361
 21
18.8053632722
  0
LINE
  5
20F
100
AcDbEntity
  8
0
100
AcDbLine
 62
7
  6
CONTINUOUS
 10
13.1195922982
 20
18.8189623917
 11
13.1195190383
 21
18.8188986504
  0
LINE
  5
210
100
AcDbEntity
  8
0
100
AcDbLine
 62
7
  6
CONTINUOUS
 10
13.8830973487
 20
16.8032425014
 11
13.7809972687
 21
16.7442949927
  0
LINE
  5
211
100
AcDbEntity
  8
0
100
AcDbLine
 62
7
  6
CONTINUOUS
 10
6.0234972687
 20
9.041538337
 11
6.0234972687
 21
9.0661362007
  0
LINE
  5
212
100
AcDbEntity
  8
0
100
AcDbLine
 62
9
  6
CONTINUOUS
 10
6.5109972687
 20
9.041538337
 11
6.5109972687
 21
9.2684680275
  0
LINE
  5
213
100
AcDbEntity
  8
0
100
AcDbLine
 62
7
  6
CONTINUOUS
 10
13.1298994225
 20
18.8310872822
 11
13.1195883778
 21
18.818958982
  0
LINE
  5
214
100
AcDbEntity
  8
0
100
AcDbLine
 62
7
  6
CONTINUOUS
 10
13.8416795092
 20
19.8496426859
 11
13.8816171602
 21
19.8957970194
  0
LINE
  5
215
100
AcDbEntity
  8
0
100
AcDbLine
 62
7
  6
CONTINUOUS
 10
12.9936280997
 20
14.6726381597
 11
12.9348187208
 21
14.6452148959
  0
LINE
  5
216
100
AcDbEntity
  8
0
100
AcDbLine
 62
7
  6
CONTINUOUS
 10
6.9984972687
 20
9.041538337
 11
6.9984972687
 21
9.0661372846
  0
LINE
  5
217
100
AcDbEntity
  8
0
100
AcDbLine
 62
7
  6
CONTINUOUS
 10
13.1335620609
 20
18.8366597922
 11
13.129549439
 21
18.8306025093
  0
LINE
  5
218
100
AcDbEntity
  8
0
100
AcDbLine
 62
7
  6
CONTINUOUS
 10
13.8304457887
 20
19.8339487641
 11
13.8415312601
 21
19.849446329
  0
LINE
  5
219
100
AcDbEntity
  8
0
100
AcDbLine
 62
7
  6
CONTINUOUS
 10
13.8325548683
 20
19.8370186213
 11
13.8416676429
 21
19.8496234903
  0
LINE
  5
21A
100
AcDbEntity
  8
0
100
AcDbLine
 62
7
  6
CONTINUOUS
 10
13.8415312601
 20
19.849446329
 11
13.8416786632
 21
19.8496415613
  0
LINE
  5
21B
100
AcDbEntity
  8
0
100
AcDbLine
 62
7
  6
CONTINUOUS
 10
13.1002991361
 20
18.8053632722
 11
13.0857536262
 21
18.7799037161
  0
LINE
  5
21C
100
AcDbEntity
  8
0
100
AcDbLine
 62
7
  6
CONTINUOUS
 10
13.8092752417
 20
19.7994240817
 11
13.8304457887
 21
19.8339487641
  0
LINE
  5
21D
100
AcDbEntity
  8
0
100
AcDbLine
 62
7
  6
CONTINUOUS
 10
13.8128565619
 20
19.8057792324
 11
13.8325548683
 21
19.8370186213
  0
LINE
  5
21E
100
AcDbEntity
  8
0
100
AcDbLine
 62
7
  6
CONTINUOUS
 10
9.8967138543
 20
13.3519931918
 11
9.8992246944
 21
13.3586198413
  0
LWPOLYLINE
  5
21F
100
AcDbEntity
  8
0
100
AcDbPolyline
 62
7
  6
CONTINUOUS
 90
3
 70
0
 10
13.1575309302
 20
18.8898701851
 10
13.1339828025
 20
18.8373186588
 10
13.1298994225
 20
18.8310872822
  0
LINE
  5
220
100
AcDbEntity
  8
0
100
AcDbLine
 62
7
  6
CONTINUOUS
 10
13.1568697415
 20
18.8879384791
 11
13.1335620609
 21
18.8366597922
  0
LINE
  5
221
100
AcDbEntity
  8
0
100
AcDbLine
 62
7
  6
CONTINUOUS
 10
13.7916786337
 20
19.7641573322
 11
13.8092752417
 21
19.7994240817
  0
LINE
  5
222
100
AcDbEntity
  8
0
100
AcDbLine
 62
7
  6
CONTINUOUS
 10
13.7913894166
 20
19.763505754
 11
13.8128565619
 21
19.8057792324
  0
LINE
  5
223
100
AcDbEntity
  8
0
100
AcDbLine
 62
7
  6
CONTINUOUS
 10
13.8147261531
 20
17.9708491283
 11
13.9386573857
 21
18.1616864913
  0
LINE
  5
224
100
AcDbEntity
  8
0
100
AcDbLine
 62
7
  6
CONTINUOUS
 10
14.1464697096
 20
13.6297579458
 11
14.2633831391
 21
13.6972579458
  0
LINE
  5
225
100
AcDbEntity
  8
0
100
AcDbLine
 62
9
  6
CONTINUOUS
 10
9.7941344656
 20
12.8339514942
 11
9.7941344656
 21
13.2855643974
  0
LINE
  5
226
100
AcDbEntity
  8
0
100
AcDbLine
 62
9
  6
CONTINUOUS
 10
9.8698578243
 20
13.3397579458
 11
9.8698578243
 21
12.7797579458
  0
LINE
  5
227
100
AcDbEntity
  8
0
100
AcDbLine
 62
9
  6
CONTINUOUS
 10
9.8767138543
 20
12.7797579458
 11
9.8767138543
 21
13.3397579458
  0
LINE
  5
228
100
AcDbEntity
  8
0
100
AcDbLine
 62
7
  6
CONTINUOUS
 10
9.8769858044
 20
13.866840348
 11
9.8769858044
 21
13.8562556832
  0
LINE
  5
229
100
AcDbEntity
  8
0
100
AcDbLine
 62
7
  6
CONTINUOUS
 10
9.8769858044
 20
12.2526755436
 11
9.8769858044
 21
12.2632602083
  0
LINE
  5
22A
100
AcDbEntity
  8
0
100
AcDbLine
 62
7
  6
CONTINUOUS
 10
9.8967138543
 20
13.3519333963
 11
9.8967138543
 21
12.7675824952
  0
LINE
  5
22B
100
AcDbEntity
  8
0
100
AcDbLine
 62
7
  6
CONTINUOUS
 10
13.7911791924
 20
19.7630339681
 11
13.7913894166
 21
19.763505754
  0
LINE
  5
22C
100
AcDbEntity
  8
0
100
AcDbLine
 62
7
  6
CONTINUOUS
 10
12.9409972687
 20
14.4980256623
 11
12.8734972687
 21
14.3811122328
  0
LINE
  5
22D
100
AcDbEntity
  8
0
100
AcDbLine
 62
7
  6
CONTINUOUS
 10
14.9681876873
 20
13.9140587258
 11
15.0924697096
 21
14.0111584835
  0
LINE
  5
22E
100
AcDbEntity
  8
0
100
AcDbLine
 62
7
  6
CONTINUOUS
 10
14.7264697096
 20
12.4897579458
 11
14.6095562801
 21
12.4222579458
  0
LINE
  5
22F
100
AcDbEntity
  8
0
100
AcDbLine
 62
7
  6
CONTINUOUS
 10
10.5969858044
 20
13.866840348
 11
10.5969858044
 21
13.8562556832
  0
LINE
  5
230
100
AcDbEntity
  8
0
100
AcDbLine
 62
7
  6
CONTINUOUS
 10
10.5969858044
 20
12.2526755436
 11
10.5969858044
 21
12.2632602083
  0
LINE
  5
231
100
AcDbEntity
  8
0
100
AcDbLine
 62
7
  6
CONTINUOUS
 10
10.5974854576
 20
13.3307927831
 11
10.5974854576
 21
12.7896687494
  0
LINE
  5
232
100
AcDbEntity
  8
0
100
AcDbLine
 62
7
  6
CONTINUOUS
 10
13.1808491568
 20
18.9773406
 11
13.1568697415
 21
18.8879384791
  0
LINE
  5
233
100
AcDbEntity
  8
0
100
AcDbLine
 62
7
  6
CONTINUOUS
 10
13.7809972687
 20
19.7339383916
 11
13.7912493795
 21
19.7631963573
  0
LINE
  5
234
100
AcDbEntity
  8
0
100
AcDbLine
 62
7
  6
CONTINUOUS
 10
6.0234972687
 20
9.041538337
 11
6.9984972687
 21
9.041538337
  0
LINE
  5
235
100
AcDbEntity
  8
0
100
AcDbLine
 62
9
  6
CONTINUOUS
 10
6.9984972687
 20
9.0661361389
 11
6.0234972687
 21
9.0661362007
  0
LINE
  5
236
100
AcDbEntity
  8
0
100
AcDbLine
 62
7
  6
CONTINUOUS
 10
10.8404736466
 20
13.3847579458
 11
10.8404736466
 21
12.7347579458
  0
LINE
  5
237
100
AcDbEntity
  8
0
100
AcDbLine
 62
7
  6
CONTINUOUS
 10
10.9204736466
 20
13.4497579458
 11
10.9204736466
 21
12.6697579458
  0
LINE
  5
238
100
AcDbEntity
  8
0
100
AcDbLine
 62
9
  6
CONTINUOUS
 10
10.9804736466
 20
13.5097579458
 11
10.9804736466
 21
12.6097579458
  0
LINE
  5
239
100
AcDbEntity
  8
0
100
AcDbLine
 62
9
  6
CONTINUOUS
 10
10.986312849
 20
12.6097579458
 11
10.986312849
 21
13.5097579458
  0
LINE
  5
23A
100
AcDbEntity
  8
0
100
AcDbLine
 62
9
  6
CONTINUOUS
 10
11.0350908538
 20
13.4846965526
 11
11.0350908538
 21
12.634819339
  0
LINE
  5
23B
100
AcDbEntity
  8
0
100
AcDbLine
 62
9
  6
CONTINUOUS
 10
11.0838688587
 20
13.4596351593
 11
11.0838688587
 21
12.6598807322
  0
LINE
  5
23C
100
AcDbEntity
  8
0
100
AcDbLine
 62
7
  6
CONTINUOUS
 10
11.4574539616
 20
13.5797444753
 11
11.4574539616
 21
13.474878803
  0
LINE
  5
23D
100
AcDbEntity
  8
0
100
AcDbLine
 62
7
  6
CONTINUOUS
 10
11.4574539616
 20
12.6446370886
 11
11.4574539616
 21
12.5397579458
  0
LINE
  5
23E
100
AcDbEntity
  8
0
100
AcDbLine
 62
9
  6
CONTINUOUS
 10
11.4874539616
 20
13.6097579458
 11
11.4874539616
 21
13.4761135119
  0
LINE
  5
23F
100
AcDbEntity
  8
0
100
AcDbLine
 62
9
  6
CONTINUOUS
 10
11.4874539616
 20
12.6434023796
 11
11.4874539616
 21
12.5097579458
  0
LINE
  5
240
100
AcDbEntity
  8
0
100
AcDbLine
 62
7
  6
CONTINUOUS
 10
12.6707038627
 20
19.6413843598
 11
12.7186822958
 21
20.0676566435
  0
LWPOLYLINE
  5
241
100
AcDbEntity
  8
0
100
AcDbPolyline
 62
7
  6
CONTINUOUS
 90
4
 70
0
 10
13.2409972687
 20
19.297734607
 10
13.2276871996
 20
19.2181532225
 10
13.2037480735
 20
19.0898310008
 10
13.1808491568
 20
18.9773406
  0
LINE
  5
242
100
AcDbEntity
  8
0
100
AcDbLine
 62
7
  6
CONTINUOUS
 10
12.8674300117
 20
13.9034408865
 11
12.8431450265
 21
13.8049056136
  0
LINE
  5
243
100
AcDbEntity
  8
0
100
AcDbLine
 62
7
  6
CONTINUOUS
 10
14.0809972687
 20
13.9180256623
 11
14.146658601
 21
14.031754426
  0
LINE
  5
244
100
AcDbEntity
  8
0
100
AcDbLine
 62
9
  6
CONTINUOUS
 10
6.9315647713
 20
9.1595111879
 11
6.0904297661
 21
9.1595111879
  0
LINE
  5
245
100
AcDbEntity
  8
0
100
AcDbLine
 62
9
  6
CONTINUOUS
 10
6.5181672654
 20
9.2684193631
 11
6.5110258393
 21
9.2684677104
  0
LINE
  5
246
100
AcDbEntity
  8
0
100
AcDbLine
 62
7
  6
CONTINUOUS
 10
9.8967138543
 20
12.7675226998
 11
9.8992246944
 21
12.7608960502
  0
LINE
  5
247
100
AcDbEntity
  8
0
100
AcDbLine
 62
7
  6
CONTINUOUS
 10
12.2574539616
 20
12.5097579458
 11
12.2574539616
 21
12.5603702505
  0
LINE
  5
248
100
AcDbEntity
  8
0
100
AcDbLine
 62
7
  6
CONTINUOUS
 10
12.2574539616
 20
13.559145641
 11
12.2574539616
 21
13.6097579458
  0
LINE
  5
249
100
AcDbEntity
  8
0
100
AcDbLine
 62
7
  6
CONTINUOUS
 10
12.2960366387
 20
13.6097579458
 11
12.2960366387
 21
13.5671947042
  0
LINE
  5
24A
100
AcDbEntity
  8
0
100
AcDbLine
 62
7
  6
CONTINUOUS
 10
12.2960366387
 20
12.5523211873
 11
12.2960366387
 21
12.5097579458
  0
LINE
  5
24B
100
AcDbEntity
  8
0
100
AcDbLine
 62
7
  6
CONTINUOUS
 10
12.4709972687
 20
19.0997579458
 11
12.4709972687
 21
19.1807823535
  0
LINE
  5
24C
100
AcDbEntity
  8
0
100
AcDbLine
 62
7
  6
CONTINUOUS
 10
13.0857536262
 20
18.7799037161
 11
13.0842958307
 21
18.7543047306
  0
LINE
  5
24D
100
AcDbEntity
  8
0
100
AcDbLine
 62
9
  6
CONTINUOUS
 10
12.9510546207
 20
20.9066460636
 11
12.9510364518
 21
20.906438208
  0
LINE
  5
24E
100
AcDbEntity
  8
0
100
AcDbLine
 62
9
  6
CONTINUOUS
 10
12.9709580855
 20
20.9082026583
 11
12.9709762544
 21
20.9084105139
  0
LINE
  5
24F
100
AcDbEntity
  8
0
100
AcDbLine
 62
9
  6
CONTINUOUS
 10
7.3887482642
 20
10.12417702
 11
12.9657725297
 21
11.2519093264
  0
LINE
  5
250
100
AcDbEntity
  8
0
100
AcDbLine
 62
7
  6
CONTINUOUS
 10
7.4876092238
 20
9.8065284309
 11
13.02654035
 21
10.6838089374
  0
LINE
  5
251
100
AcDbEntity
  8
0
100
AcDbLine
 62
7
  6
CONTINUOUS
 10
13.0956402428
 20
18.227662086
 11
13.0865221235
 21
18.7291586434
  0
LINE
  5
252
100
AcDbEntity
  8
0
100
AcDbLine
 62
7
  6
CONTINUOUS
 10
12.6859972687
 20
19.082392219
 11
12.6859972687
 21
19.0877579458
  0
LINE
  5
253
100
AcDbEntity
  8
0
100
AcDbLine
 62
9
  6
CONTINUOUS
 10
12.7971901691
 20
12.4477712509
 11
12.7971901691
 21
13.6717446407
  0
LINE
  5
254
100
AcDbEntity
  8
0
100
AcDbLine
 62
9
  6
CONTINUOUS
 10
12.8415027697
 20
12.4006544042
 11
12.8415027697
 21
13.7188614873
  0
LINE
  5
255
100
AcDbEntity
  8
0
100
AcDbLine
 62
7
  6
CONTINUOUS
 10
12.8734972687
 20
14.3811122328
 11
12.8734972687
 21
14.0349390918
  0
LINE
  5
256
100
AcDbEntity
  8
0
100
AcDbLine
 62
7
  6
CONTINUOUS
 10
12.8735536772
 20
20.8219775089
 11
12.8735536772
 21
20.8170945557
  0
LINE
  5
257
100
AcDbEntity
  8
0
100
AcDbLine
 62
7
  6
CONTINUOUS
 10
12.8808519394
 20
14.3811122328
 11
12.8808519394
 21
14.0349390918
  0
LINE
  5
258
100
AcDbEntity
  8
0
100
AcDbLine
 62
7
  6
CONTINUOUS
 10
12.8809972687
 20
19.0236382191
 11
12.8809972687
 21
19.0312264652
  0
LINE
  5
259
100
AcDbEntity
  8
0
100
AcDbLine
 62
7
  6
CONTINUOUS
 10
12.9174972687
 20
14.6180256623
 11
12.9174972687
 21
14.5030256623
  0
LINE
  5
25A
100
AcDbEntity
  8
0
100
AcDbLine
 62
7
  6
CONTINUOUS
 10
12.9304736466
 20
12.3597579458
 11
12.9304736466
 21
13.7597579458
  0
LINE
  5
25B
100
AcDbEntity
  8
0
100
AcDbLine
 62
7
  6
CONTINUOUS
 10
12.9409972687
 20
11.911902625
 11
12.9409972687
 21
11.8684193631
  0
LINE
  5
25C
100
AcDbEntity
  8
0
100
AcDbLine
 62
9
  6
CONTINUOUS
 10
12.9510364518
 20
20.906438208
 11
12.9510364518
 21
20.9015552548
  0
LINE
  5
25D
100
AcDbEntity
  8
0
100
AcDbLine
 62
9
  6
CONTINUOUS
 10
12.9709580855
 20
20.9033197051
 11
12.9709580855
 21
20.9082026583
  0
LINE
  5
25E
100
AcDbEntity
  8
0
100
AcDbLine
 62
7
  6
CONTINUOUS
 10
13.0559972687
 20
18.9684107588
 11
13.0559972687
 21
18.9759990049
  0
LINE
  5
25F
100
AcDbEntity
  8
0
100
AcDbLine
 62
7
  6
CONTINUOUS
 10
13.0609972687
 20
16.938147265
 11
13.0609972687
 21
17.277910853
  0
LINE
  5
260
100
AcDbEntity
  8
0
100
AcDbLine
 62
9
  6
CONTINUOUS
 10
13.0631422544
 20
20.831240873
 11
13.0631422544
 21
20.8263579198
  0
LINE
  5
261
100
AcDbEntity
  8
0
100
AcDbLine
 62
7
  6
CONTINUOUS
 10
13.1123044183
 20
14.0349390918
 11
13.1123044183
 21
14.3811122328
  0
LINE
  5
262
100
AcDbEntity
  8
0
100
AcDbLine
 62
7
  6
CONTINUOUS
 10
13.2409972687
 20
20.3980256623
 11
13.2409972687
 21
-2.6423551111
  0
LINE
  5
263
100
AcDbEntity
  8
0
100
AcDbLine
 62
7
  6
CONTINUOUS
 10
13.9344393121
 20
20.5520630206
 11
13.9588522829
 21
20.831240873
  0
LINE
  5
264
100
AcDbEntity
  8
0
100
AcDbLine
 62
9
  6
CONTINUOUS
 10
14.0435192264
 20
20.8129297058
 11
13.9990772959
 21
20.313596996
  0
LINE
  5
265
100
AcDbEntity
  8
0
100
AcDbLine
 62
9
  6
CONTINUOUS
 10
14.0189989297
 20
20.3118325457
 11
14.0634408602
 21
20.8111652555
  0
LINE
  5
266
100
AcDbEntity
  8
0
100
AcDbLine
 62
7
  6
CONTINUOUS
 10
14.1481078037
 20
20.8095956419
 11
14.1036658732
 21
20.3102629322
  0
LINE
  5
267
100
AcDbEntity
  8
0
100
AcDbLine
 62
7
  6
CONTINUOUS
 10
12.5364017663
 20
11.3776057714
 11
7.2713118913
 21
10.3541759738
  0
LWPOLYLINE
  5
268
100
AcDbEntity
  8
0
100
AcDbPolyline
 62
7
  6
CONTINUOUS
 90
3
 70
0
 10
13.084295827
 20
18.7543048162
 10
13.0863602535
 20
18.7341959714
 10
13.0865219368
 20
18.7291689143
  0
LINE
  5
269
100
AcDbEntity
  8
0
100
AcDbLine
 62
7
  6
CONTINUOUS
 10
12.9183286641
 20
20.3102629322
 11
12.8738867336
 21
20.8095956419
  0
LINE
  5
26A
100
AcDbEntity
  8
0
100
AcDbLine
 62
9
  6
CONTINUOUS
 10
13.0029956076
 20
20.3118325457
 11
12.9585536772
 21
20.8111652555
  0
LINE
  5
26B
100
AcDbEntity
  8
0
100
AcDbLine
 62
9
  6
CONTINUOUS
 10
12.9784753109
 20
20.8129297058
 11
13.0229172414
 21
20.313596996
  0
LINE
  5
26C
100
AcDbEntity
  8
0
100
AcDbLine
 62
7
  6
CONTINUOUS
 10
13.0875552252
 20
20.5520630206
 11
13.0631422544
 21
20.831240873
  0
LINE
  5
26D
100
AcDbEntity
  8
0
100
AcDbLine
 62
7
  6
CONTINUOUS
 10
12.8738867336
 20
20.8095956419
 11
12.8735536772
 21
20.8170945557
  0
LINE
  5
26E
100
AcDbEntity
  8
0
100
AcDbLine
 62
9
  6
CONTINUOUS
 10
13.0631406355
 20
20.8312773968
 11
13.0631422544
 21
20.831240873
  0
LINE
  5
26F
100
AcDbEntity
  8
0
100
AcDbLine
 62
7
  6
CONTINUOUS
 10
13.7809972687
 20
20.3980256623
 11
13.7809972687
 21
-2.6423551111
  0
LINE
  5
270
100
AcDbEntity
  8
0
100
AcDbLine
 62
7
  6
CONTINUOUS
 10
13.909690119
 20
14.3811122328
 11
13.909690119
 21
14.0349390918
  0
LINE
  5
271
100
AcDbEntity
  8
0
100
AcDbLine
 62
9
  6
CONTINUOUS
 10
13.9588522829
 20
20.8263579198
 11
13.9588522829
 21
20.831240873
  0
LINE
  5
272
100
AcDbEntity
  8
0
100
AcDbLine
 62
7
  6
CONTINUOUS
 10
13.9609972687
 20
17.2779040596
 11
13.9609972687
 21
16.9381404717
  0
LINE
  5
273
100
AcDbEntity
  8
0
100
AcDbLine
 62
7
  6
CONTINUOUS
 10
13.9659972687
 20
18.9684107588
 11
13.9659972687
 21
18.9759990049
  0
LINE
  5
274
100
AcDbEntity
  8
0
100
AcDbLine
 62
9
  6
CONTINUOUS
 10
14.0510364518
 20
20.9082026583
 11
14.0510364518
 21
20.9033197051
  0
LINE
  5
275
100
AcDbEntity
  8
0
100
AcDbLine
 62
9
  6
CONTINUOUS
 10
14.0709580855
 20
20.9015552548
 11
14.0709580855
 21
20.906438208
  0
LINE
  5
276
100
AcDbEntity
  8
0
100
AcDbLine
 62
9
  6
CONTINUOUS
 10
14.0980145073
 20
13.5784257926
 11
14.0980137328
 21
12.5410899813
  0
LINE
  5
277
100
AcDbEntity
  8
0
100
AcDbLine
 62
7
  6
CONTINUOUS
 10
14.1044972687
 20
14.6180256623
 11
14.1044972687
 21
14.5030256623
  0
LINE
  5
278
100
AcDbEntity
  8
0
100
AcDbLine
 62
7
  6
CONTINUOUS
 10
14.1409972687
 20
19.0236382191
 11
14.1409972687
 21
19.0312264652
  0
LINE
  5
279
100
AcDbEntity
  8
0
100
AcDbLine
 62
7
  6
CONTINUOUS
 10
14.141142598
 20
14.0349390918
 11
14.141142598
 21
14.3811122328
  0
LINE
  5
27A
100
AcDbEntity
  8
0
100
AcDbLine
 62
7
  6
CONTINUOUS
 10
14.1415090797
 20
12.5924620666
 11
14.1415090797
 21
13.5277623495
  0
LINE
  5
27B
100
AcDbEntity
  8
0
100
AcDbLine
 62
7
  6
CONTINUOUS
 10
14.1464697096
 20
13.6297546793
 11
14.1464697096
 21
12.4897612123
  0
LINE
  5
27C
100
AcDbEntity
  8
0
100
AcDbLine
 62
7
  6
CONTINUOUS
 10
14.1484408602
 20
20.8170945557
 11
14.1484408602
 21
20.8219775089
  0
LINE
  5
27D
100
AcDbEntity
  8
0
100
AcDbLine
 62
7
  6
CONTINUOUS
 10
14.1484972687
 20
14.3811122328
 11
14.1484972687
 21
14.0349390918
  0
LINE
  5
27E
100
AcDbEntity
  8
0
100
AcDbLine
 62
7
  6
CONTINUOUS
 10
13.9263542945
 20
18.227662086
 11
13.9354725984
 21
18.7291688005
  0
LINE
  5
27F
100
AcDbEntity
  8
0
100
AcDbLine
 62
7
  6
CONTINUOUS
 10
13.9376986627
 20
18.7543044029
 11
13.9381649222
 21
18.7696164899
  0
LWPOLYLINE
  5
280
100
AcDbEntity
  8
0
100
AcDbPolyline
 62
7
  6
CONTINUOUS
 90
3
 70
0
 10
13.9354725984
 20
18.7291687973
 10
13.9356345176
 20
18.7342009651
 10
13.9376986779
 20
18.7543045094
  0
LINE
  5
281
100
AcDbEntity
  8
0
100
AcDbLine
 62
9
  6
CONTINUOUS
 10
13.9588522829
 20
20.831240873
 11
13.9588539019
 21
20.8312773968
  0
LINE
  5
282
100
AcDbEntity
  8
0
100
AcDbLine
 62
7
  6
CONTINUOUS
 10
14.1484408602
 20
20.8170945557
 11
14.1481078037
 21
20.8095956419
  0
LINE
  5
283
100
AcDbEntity
  8
0
100
AcDbLine
 62
7
  6
CONTINUOUS
 10
14.0359972687
 20
12.2684193631
 11
13.7809972687
 21
12.2684193631
  0
LINE
  5
284
100
AcDbEntity
  8
0
100
AcDbLine
 62
7
  6
CONTINUOUS
 10
13.23811884
 20
12.2684193631
 11
12.9859972687
 21
12.2684193631
  0
LINE
  5
285
100
AcDbEntity
  8
0
100
AcDbLine
 62
9
  6
CONTINUOUS
 10
14.0378061045
 20
12.2803353485
 11
13.7935681309
 21
12.2803353485
  0
LINE
  5
286
100
AcDbEntity
  8
0
100
AcDbLine
 62
9
  6
CONTINUOUS
 10
13.2284269788
 20
12.2803353485
 11
12.9841884328
 21
12.2803353485
  0
LINE
  5
287
100
AcDbEntity
  8
0
100
AcDbLine
 62
7
  6
CONTINUOUS
 10
14.2633831391
 20
12.4222579458
 11
14.6095562801
 21
12.4222579458
  0
LINE
  5
288
100
AcDbEntity
  8
0
100
AcDbLine
 62
7
  6
CONTINUOUS
 10
14.2633831391
 20
12.4296126165
 11
14.6095562801
 21
12.4296126165
  0
LINE
  5
289
100
AcDbEntity
  8
0
100
AcDbLine
 62
7
  6
CONTINUOUS
 10
12.5000608543
 20
12.5097579458
 11
12.2960366387
 21
12.5097579458
  0
LINE
  5
28A
100
AcDbEntity
  8
0
100
AcDbLine
 62
7
  6
CONTINUOUS
 10
11.4874539616
 20
12.5097579458
 11
12.2574539616
 21
12.5097579458
  0
LINE
  5
28B
100
AcDbEntity
  8
0
100
AcDbLine
 62
7
  6
CONTINUOUS
 10
12.9550045763
 20
12.351281103
 11
12.9841884328
 21
12.2803353485
  0
LINE
  5
28C
100
AcDbEntity
  8
0
100
AcDbLine
 62
9
  6
CONTINUOUS
 10
14.0510182829
 20
20.9084105139
 11
14.0510364518
 21
20.9082026583
  0
LINE
  5
28D
100
AcDbEntity
  8
0
100
AcDbLine
 62
9
  6
CONTINUOUS
 10
14.0709580855
 20
20.906438208
 11
14.0709399167
 21
20.9066460636
  0
LINE
  5
28E
100
AcDbEntity
  8
0
100
AcDbLine
 62
7
  6
CONTINUOUS
 10
14.2633831391
 20
13.6972579458
 11
14.2633831391
 21
13.6899032751
  0
LINE
  5
28F
100
AcDbEntity
  8
0
100
AcDbLine
 62
7
  6
CONTINUOUS
 10
14.2633831391
 20
13.4584507962
 11
14.2633831391
 21
13.2912104247
  0
LINE
  5
290
100
AcDbEntity
  8
0
100
AcDbLine
 62
7
  6
CONTINUOUS
 10
14.2633831391
 20
12.8283054669
 11
14.2633831391
 21
12.6610650954
  0
LINE
  5
291
100
AcDbEntity
  8
0
100
AcDbLine
 62
7
  6
CONTINUOUS
 10
14.2633831391
 20
12.4296126165
 11
14.2633831391
 21
12.4222579458
  0
LINE
  5
292
100
AcDbEntity
  8
0
100
AcDbLine
 62
7
  6
CONTINUOUS
 10
14.3359972687
 20
19.082392219
 11
14.3359972687
 21
19.0877579458
  0
LINE
  5
293
100
AcDbEntity
  8
0
100
AcDbLine
 62
7
  6
CONTINUOUS
 10
14.5509972687
 20
19.0997579458
 11
14.5509972687
 21
19.1807823535
  0
LINE
  5
294
100
AcDbEntity
  8
0
100
AcDbLine
 62
7
  6
CONTINUOUS
 10
14.6095562801
 20
12.4222579458
 11
14.6095562801
 21
12.4296126165
  0
LINE
  5
295
100
AcDbEntity
  8
0
100
AcDbLine
 62
7
  6
CONTINUOUS
 10
14.6095562801
 20
12.6610650954
 11
14.6095562801
 21
12.8283054669
  0
LINE
  5
296
100
AcDbEntity
  8
0
100
AcDbLine
 62
7
  6
CONTINUOUS
 10
14.6095562801
 20
13.2912104247
 11
14.6095562801
 21
13.4584507962
  0
LINE
  5
297
100
AcDbEntity
  8
0
100
AcDbLine
 62
7
  6
CONTINUOUS
 10
14.6095562801
 20
13.6899032751
 11
14.6095562801
 21
13.6972579458
  0
LINE
  5
298
100
AcDbEntity
  8
0
100
AcDbLine
 62
7
  6
CONTINUOUS
 10
14.7264697096
 20
13.6436441972
 11
14.7264697096
 21
12.4758716944
  0
LINE
  5
299
100
AcDbEntity
  8
0
100
AcDbLine
 62
9
  6
CONTINUOUS
 10
14.7401437286
 20
12.4377416081
 11
14.7401437286
 21
13.6817412947
  0
LINE
  5
29A
100
AcDbEntity
  8
0
100
AcDbLine
 62
7
  6
CONTINUOUS
 10
14.9414697096
 20
13.8639936742
 11
14.9414697096
 21
12.2555222173
  0
LINE
  5
29B
100
AcDbEntity
  8
0
100
AcDbLine
 62
9
  6
CONTINUOUS
 10
14.9681876873
 20
13.9140587258
 11
14.9681876873
 21
12.2054571657
  0
LINE
  5
29C
100
AcDbEntity
  8
0
100
AcDbLine
 62
9
  6
CONTINUOUS
 10
15.0924697096
 20
12.1083574081
 11
15.0924697096
 21
14.0111584835
  0
LINE
  5
29D
100
AcDbEntity
  8
0
100
AcDbLine
 62
7
  6
CONTINUOUS
 10
11.0838412874
 20
12.6598807259
 11
11.0870579363
 21
12.6598814649
  0
LINE
  5
29E
100
AcDbEntity
  8
0
100
AcDbLine
 62
7
  6
CONTINUOUS
 10
10.9804736466
 20
12.6097579458
 11
10.986312849
 21
12.6097579458
  0
LINE
  5
29F
100
AcDbEntity
  8
0
100
AcDbLine
 62
7
  6
CONTINUOUS
 10
14.1464697096
 20
12.6497579458
 11
14.1415090797
 21
12.6497579458
  0
LINE
  5
2A0
100
AcDbEntity
  8
0
100
AcDbLine
 62
7
  6
CONTINUOUS
 10
14.6095562801
 20
12.6610650954
 11
14.2633831391
 21
12.6610650954
  0
LINE
  5
2A1
100
AcDbEntity
  8
0
100
AcDbLine
 62
7
  6
CONTINUOUS
 10
10.8404736466
 20
12.7347579458
 11
10.9204736466
 21
12.7347579458
  0
LINE
  5
2A2
100
AcDbEntity
  8
0
100
AcDbLine
 62
7
  6
CONTINUOUS
 10
9.8698578243
 20
12.7797579458
 11
9.8767138543
 21
12.7797579458
  0
LINE
  5
2A3
100
AcDbEntity
  8
0
100
AcDbLine
 62
7
  6
CONTINUOUS
 10
10.5974854576
 20
12.8012579458
 11
10.8404736466
 21
12.8012579458
  0
LINE
  5
2A4
100
AcDbEntity
  8
0
100
AcDbLine
 62
7
  6
CONTINUOUS
 10
14.2633831391
 20
12.8283054669
 11
14.6095562801
 21
12.8283054669
  0
LINE
  5
2A5
100
AcDbEntity
  8
0
100
AcDbLine
 62
7
  6
CONTINUOUS
 10
14.6095562801
 20
13.2912104247
 11
14.2633831391
 21
13.2912104247
  0
LINE
  5
2A6
100
AcDbEntity
  8
0
100
AcDbLine
 62
7
  6
CONTINUOUS
 10
10.5974854576
 20
13.3182579458
 11
10.8404736466
 21
13.3182579458
  0
LINE
  5
2A7
100
AcDbEntity
  8
0
100
AcDbLine
 62
7
  6
CONTINUOUS
 10
9.8698578243
 20
13.3397579458
 11
9.8767138543
 21
13.3397579458
  0
LINE
  5
2A8
100
AcDbEntity
  8
0
100
AcDbLine
 62
7
  6
CONTINUOUS
 10
10.8404736466
 20
13.3847579458
 11
10.9204736466
 21
13.3847579458
  0
LINE
  5
2A9
100
AcDbEntity
  8
0
100
AcDbLine
 62
7
  6
CONTINUOUS
 10
12.9409972687
 20
13.9180256623
 11
12.8734972687
 21
14.0349390918
  0
LINE
  5
2AA
100
AcDbEntity
  8
0
100
AcDbLine
 62
9
  6
CONTINUOUS
 10
15.1431954631
 20
12.1019072149
 11
15.1431954631
 21
14.0176086767
  0
LINE
  5
2AB
100
AcDbEntity
  8
0
100
AcDbLine
 62
9
  6
CONTINUOUS
 10
15.1850569021
 20
12.0957030482
 11
15.1850569021
 21
14.0238128434
  0
LINE
  5
2AC
100
AcDbEntity
  8
0
100
AcDbLine
 62
9
  6
CONTINUOUS
 10
15.3452123697
 20
14.1718238537
 11
15.3452123697
 21
11.9476920379
  0
LINE
  5
2AD
100
AcDbEntity
  8
0
100
AcDbLine
 62
7
  6
CONTINUOUS
 10
15.3964697096
 20
11.9688610129
 11
15.3964697096
 21
14.1506548787
  0
LINE
  5
2AE
100
AcDbEntity
  8
0
100
AcDbLine
 62
7
  6
CONTINUOUS
 10
14.2633831391
 20
13.4584507962
 11
14.6095562801
 21
13.4584507962
  0
LINE
  5
2AF
100
AcDbEntity
  8
0
100
AcDbLine
 62
7
  6
CONTINUOUS
 10
14.1464697096
 20
13.4697579458
 11
14.1415090797
 21
13.4697579458
  0
LINE
  5
2B0
100
AcDbEntity
  8
0
100
AcDbLine
 62
7
  6
CONTINUOUS
 10
10.9804736466
 20
13.5097579458
 11
10.986312849
 21
13.5097579458
  0
LINE
  5
2B1
100
AcDbEntity
  8
0
100
AcDbLine
 62
7
  6
CONTINUOUS
 10
12.5000608543
 20
13.6097579458
 11
12.2960366387
 21
13.6097579458
  0
LINE
  5
2B2
100
AcDbEntity
  8
0
100
AcDbLine
 62
7
  6
CONTINUOUS
 10
11.4874539616
 20
13.6097579458
 11
12.2574539616
 21
13.6097579458
  0
LINE
  5
2B3
100
AcDbEntity
  8
0
100
AcDbLine
 62
7
  6
CONTINUOUS
 10
14.6095562801
 20
13.6899032751
 11
14.2633831391
 21
13.6899032751
  0
LINE
  5
2B4
100
AcDbEntity
  8
0
100
AcDbLine
 62
7
  6
CONTINUOUS
 10
14.2633831391
 20
13.6972579458
 11
14.6095562801
 21
13.6972579458
  0
LINE
  5
2B5
100
AcDbEntity
  8
0
100
AcDbLine
 62
9
  6
CONTINUOUS
 10
12.8674300117
 20
13.9034408865
 11
13.2409972687
 21
13.9034408865
  0
LINE
  5
2B6
100
AcDbEntity
  8
0
100
AcDbLine
 62
9
  6
CONTINUOUS
 10
13.7809972687
 20
13.9034408865
 11
14.1545645256
 21
13.9034408865
  0
LINE
  5
2B7
100
AcDbEntity
  8
0
100
AcDbLine
 62
7
  6
CONTINUOUS
 10
14.1355487536
 20
13.9180256623
 11
13.7809972687
 21
13.9180256623
  0
LINE
  5
2B8
100
AcDbEntity
  8
0
100
AcDbLine
 62
7
  6
CONTINUOUS
 10
13.2409972687
 20
13.9180256623
 11
12.8864457837
 21
13.9180256623
  0
LINE
  5
2B9
100
AcDbEntity
  8
0
100
AcDbLine
 62
7
  6
CONTINUOUS
 10
12.8734972687
 20
14.0349390918
 11
12.8808519394
 21
14.0349390918
  0
LINE
  5
2BA
100
AcDbEntity
  8
0
100
AcDbLine
 62
7
  6
CONTINUOUS
 10
13.1123044183
 20
14.0349390918
 11
13.2409972687
 21
14.0349390918
  0
LINE
  5
2BB
100
AcDbEntity
  8
0
100
AcDbLine
 62
7
  6
CONTINUOUS
 10
13.7809972687
 20
14.0349390918
 11
13.909690119
 21
14.0349390918
  0
LINE
  5
2BC
100
AcDbEntity
  8
0
100
AcDbLine
 62
7
  6
CONTINUOUS
 10
14.141142598
 20
14.0349390918
 11
14.1484972687
 21
14.0349390918
  0
LINE
  5
2BD
100
AcDbEntity
  8
0
100
AcDbLine
 62
7
  6
CONTINUOUS
 10
11.0838412874
 20
13.4596351657
 11
11.0870579363
 21
13.4596344266
  0
LINE
  5
2BE
100
AcDbEntity
  8
0
100
AcDbLine
 62
7
  6
CONTINUOUS
 10
14.1464697096
 20
12.4897579458
 11
14.2601984733
 21
12.4240966134
  0
LINE
  5
2BF
100
AcDbEntity
  8
0
100
AcDbLine
 62
7
  6
CONTINUOUS
 10
14.9681876873
 20
12.2054571657
 11
15.0924697096
 21
12.1083574081
  0
LINE
  5
2C0
100
AcDbEntity
  8
0
100
AcDbLine
 62
7
  6
CONTINUOUS
 10
14.3512906746
 20
19.6413843598
 11
14.3033122416
 21
20.0676566435
  0
LINE
  5
2C1
100
AcDbEntity
  8
0
100
AcDbLine
 62
7
  6
CONTINUOUS
 10
14.1484972687
 20
14.3811122328
 11
14.141142598
 21
14.3811122328
  0
LINE
  5
2C2
100
AcDbEntity
  8
0
100
AcDbLine
 62
7
  6
CONTINUOUS
 10
13.909690119
 20
14.3811122328
 11
13.7809972687
 21
14.3811122328
  0
LINE
  5
2C3
100
AcDbEntity
  8
0
100
AcDbLine
 62
7
  6
CONTINUOUS
 10
13.2409972687
 20
14.3811122328
 11
13.1123044183
 21
14.3811122328
  0
LINE
  5
2C4
100
AcDbEntity
  8
0
100
AcDbLine
 62
7
  6
CONTINUOUS
 10
12.8808519394
 20
14.3811122328
 11
12.8734972687
 21
14.3811122328
  0
LINE
  5
2C5
100
AcDbEntity
  8
0
100
AcDbLine
 62
7
  6
CONTINUOUS
 10
14.0809940022
 20
14.4980256623
 11
13.7809972687
 21
14.4980256623
  0
LINE
  5
2C6
100
AcDbEntity
  8
0
100
AcDbLine
 62
7
  6
CONTINUOUS
 10
13.2409972687
 20
14.4980256623
 11
12.9410005352
 21
14.4980256623
  0
LINE
  5
2C7
100
AcDbEntity
  8
0
100
AcDbLine
 62
7
  6
CONTINUOUS
 10
12.9175006698
 20
14.5030256623
 11
13.2409972687
 21
14.5030256623
  0
LINE
  5
2C8
100
AcDbEntity
  8
0
100
AcDbLine
 62
7
  6
CONTINUOUS
 10
13.7809972687
 20
14.5030256623
 11
14.1044938675
 21
14.5030256623
  0
LINE
  5
2C9
100
AcDbEntity
  8
0
100
AcDbLine
 62
9
  6
CONTINUOUS
 10
14.1044972687
 20
14.6180256623
 11
13.7809972687
 21
14.6180256623
  0
LINE
  5
2CA
100
AcDbEntity
  8
0
100
AcDbLine
 62
9
  6
CONTINUOUS
 10
13.2409972687
 20
14.6180256623
 11
12.9174972687
 21
14.6180256623
  0
LINE
  5
2CB
100
AcDbEntity
  8
0
100
AcDbLine
 62
9
  6
CONTINUOUS
 10
12.9348187208
 20
14.6452148959
 11
13.2409972687
 21
14.6452148959
  0
LINE
  5
2CC
100
AcDbEntity
  8
0
100
AcDbLine
 62
9
  6
CONTINUOUS
 10
13.7809972687
 20
14.6452148959
 11
14.0871758165
 21
14.6452148959
  0
LINE
  5
2CD
100
AcDbEntity
  8
0
100
AcDbLine
 62
9
  6
CONTINUOUS
 10
14.0283664376
 20
14.6726381597
 11
13.7809972687
 21
14.6726381597
  0
LINE
  5
2CE
100
AcDbEntity
  8
0
100
AcDbLine
 62
9
  6
CONTINUOUS
 10
13.2409972687
 20
14.6726381597
 11
12.9936280997
 21
14.6726381597
  0
LINE
  5
2CF
100
AcDbEntity
  8
0
100
AcDbLine
 62
9
  6
CONTINUOUS
 10
13.9516249955
 20
14.7659204183
 11
13.7809972687
 21
14.7659204183
  0
LINE
  5
2D0
100
AcDbEntity
  8
0
100
AcDbLine
 62
9
  6
CONTINUOUS
 10
13.0703695418
 20
14.7659204183
 11
13.2409972687
 21
14.7659204183
  0
LINE
  5
2D1
100
AcDbEntity
  8
0
100
AcDbLine
 62
7
  6
CONTINUOUS
 10
14.7264697096
 20
13.6297579458
 11
14.6127409459
 21
13.6954192781
  0
LINE
  5
2D2
100
AcDbEntity
  8
0
100
AcDbLine
 62
7
  6
CONTINUOUS
 10
14.0809972687
 20
14.4980256623
 11
14.146658601
 21
14.3842968986
  0
LINE
  5
2D3
100
AcDbEntity
  8
0
100
AcDbLine
 62
7
  6
CONTINUOUS
 10
13.2307581752
 20
19.7631671288
 11
13.2409972687
 21
19.7341033347
  0
LINE
  5
2D4
100
AcDbEntity
  8
0
100
AcDbLine
 62
9
  6
CONTINUOUS
 10
13.9599409306
 20
15.4651348809
 11
13.7809972687
 21
15.4651348809
  0
LINE
  5
2D5
100
AcDbEntity
  8
0
100
AcDbLine
 62
9
  6
CONTINUOUS
 10
13.0620536067
 20
15.4651348809
 11
13.2409972687
 21
15.4651348809
  0
LINE
  5
2D6
100
AcDbEntity
  8
0
100
AcDbLine
 62
9
  6
CONTINUOUS
 10
13.9429577608
 20
15.5005383254
 11
13.7809972687
 21
15.5005383254
  0
LINE
  5
2D7
100
AcDbEntity
  8
0
100
AcDbLine
 62
9
  6
CONTINUOUS
 10
13.0790367766
 20
15.5005383254
 11
13.2409972687
 21
15.5005383254
  0
LINE
  5
2D8
100
AcDbEntity
  8
0
100
AcDbLine
 62
9
  6
CONTINUOUS
 10
13.9149445502
 20
15.5605719837
 11
13.7809972687
 21
15.5605719837
  0
LINE
  5
2D9
100
AcDbEntity
  8
0
100
AcDbLine
 62
9
  6
CONTINUOUS
 10
13.2409972687
 20
15.5605719837
 11
13.1070499871
 21
15.5605719837
  0
LINE
  5
2DA
100
AcDbEntity
  8
0
100
AcDbLine
 62
7
  6
CONTINUOUS
 10
14.0283664376
 20
14.6726381597
 11
14.0871758165
 21
14.6452148959
  0
LINE
  5
2DB
100
AcDbEntity
  8
0
100
AcDbLine
 62
7
  6
CONTINUOUS
 10
13.2308026982
 20
19.7630623978
 11
13.2303729563
 21
19.7640252455
  0
LINE
  5
2DC
100
AcDbEntity
  8
0
100
AcDbLine
 62
9
  6
CONTINUOUS
 10
13.1088544115
 20
16.1337725959
 11
13.2409972687
 21
16.1337725959
  0
LINE
  5
2DD
100
AcDbEntity
  8
0
100
AcDbLine
 62
9
  6
CONTINUOUS
 10
13.7809972687
 20
16.1337725959
 11
13.9131401258
 21
16.1337725959
  0
LINE
  5
2DE
100
AcDbEntity
  8
0
100
AcDbLine
 62
9
  6
CONTINUOUS
 10
13.9340741917
 20
16.190385911
 11
13.7809972687
 21
16.190385911
  0
LINE
  5
2DF
100
AcDbEntity
  8
0
100
AcDbLine
 62
9
  6
CONTINUOUS
 10
13.0879203456
 20
16.190385911
 11
13.2409972687
 21
16.190385911
  0
LINE
  5
2E0
100
AcDbEntity
  8
0
100
AcDbLine
 62
9
  6
CONTINUOUS
 10
13.9338304622
 20
16.2158178896
 11
13.7809972687
 21
16.2158178896
  0
LINE
  5
2E1
100
AcDbEntity
  8
0
100
AcDbLine
 62
9
  6
CONTINUOUS
 10
13.0881640752
 20
16.2158178896
 11
13.2409972687
 21
16.2158178896
  0
LINE
  5
2E2
100
AcDbEntity
  8
0
100
AcDbLine
 62
9
  6
CONTINUOUS
 10
13.9178725789
 20
16.5631839626
 11
13.7809972687
 21
16.5631666498
  0
LINE
  5
2E3
100
AcDbEntity
  8
0
100
AcDbLine
 62
9
  6
CONTINUOUS
 10
13.2409972687
 20
16.5631664226
 11
13.1041184613
 21
16.5631865704
  0
LINE
  5
2E4
100
AcDbEntity
  8
0
100
AcDbLine
 62
7
  6
CONTINUOUS
 10
13.2072683842
 20
17.9708491283
 11
13.0833371516
 21
18.1616864913
  0
LWPOLYLINE
  5
2E5
100
AcDbEntity
  8
0
100
AcDbPolyline
 62
7
  6
CONTINUOUS
 90
3
 70
0
 10
13.1915828092
 20
19.8338948463
 10
13.2127716086
 20
19.7993251409
 10
13.2303730943
 20
19.764024927
  0
LWPOLYLINE
  5
2E6
100
AcDbEntity
  8
0
100
AcDbPolyline
 62
7
  6
CONTINUOUS
 90
7
 70
0
 10
13.8952985153
 20
18.826741209
 10
13.8771159834
 20
18.8578364333
 10
13.8559704195
 20
18.9175387365
 10
13.8346961934
 20
19.0071086991
 10
13.8128452743
 20
19.1183228401
 10
13.7895236278
 20
19.2447129664
 10
13.7809972687
 20
19.2977042785
  0
LINE
  5
2E7
100
AcDbEntity
  8
0
100
AcDbLine
 62
7
  6
CONTINUOUS
 10
13.2090908639
 20
19.8058655189
 11
13.2305476689
 21
19.7636391583
  0
LINE
  5
2E8
100
AcDbEntity
  8
0
100
AcDbLine
 62
9
  6
CONTINUOUS
 10
13.7809972687
 20
17.1080256623
 11
13.2409972687
 21
17.1080256623
  0
LINE
  5
2E9
100
AcDbEntity
  8
0
100
AcDbLine
 62
7
  6
CONTINUOUS
 10
13.2409972687
 20
16.7442949927
 11
13.1388723778
 21
16.8032568259
  0
LINE
  5
2EA
100
AcDbEntity
  8
0
100
AcDbLine
 62
7
  6
CONTINUOUS
 10
13.1803154564
 20
19.8496421198
 11
13.180312315
 21
19.8496462782
  0
LINE
  5
2EB
100
AcDbEntity
  8
0
100
AcDbLine
 62
7
  6
CONTINUOUS
 10
13.1803157655
 20
19.8496417051
 11
13.1894129222
 21
19.8370609473
  0
LINE
  5
2EC
100
AcDbEntity
  8
0
100
AcDbLine
 62
7
  6
CONTINUOUS
 10
13.1804750127
 20
19.8494272845
 11
13.1915828092
 21
19.8338948463
  0
LINE
  5
2ED
100
AcDbEntity
  8
0
100
AcDbLine
 62
7
  6
CONTINUOUS
 10
13.1894129222
 20
19.8370609473
 11
13.2090908639
 21
19.8058655189
  0
LINE
  5
2EE
100
AcDbEntity
  8
0
100
AcDbLine
 62
7
  6
CONTINUOUS
 10
12.8488551147
 20
19.0494036089
 11
12.8496388207
 21
19.0495654046
  0
LINE
  5
2EF
100
AcDbEntity
  8
0
100
AcDbLine
 62
7
  6
CONTINUOUS
 10
13.0549984021
 20
18.9903851185
 11
13.0565506026
 21
18.9906864511
  0
LINE
  5
2F0
100
AcDbEntity
  8
0
100
AcDbLine
 62
7
  6
CONTINUOUS
 10
12.8036388207
 20
19.057368118
 11
12.8044225267
 21
19.05751465
  0
LINE
  5
2F1
100
AcDbEntity
  8
0
100
AcDbLine
 62
7
  6
CONTINUOUS
 10
12.9173368544
 20
19.0494036089
 11
12.9204182701
 21
19.0499639679
  0
LINE
  5
2F2
100
AcDbEntity
  8
0
100
AcDbLine
 62
7
  6
CONTINUOUS
 10
13.8475874908
 20
18.9391409239
 11
13.9577337504
 21
18.9585626813
  0
LINE
  5
2F3
100
AcDbEntity
  8
0
100
AcDbLine
 62
7
  6
CONTINUOUS
 10
13.9742607869
 20
18.9858470824
 11
13.9894690775
 21
18.9885287144
  0
LINE
  5
2F4
100
AcDbEntity
  8
0
100
AcDbLine
 62
7
  6
CONTINUOUS
 10
14.0349766109
 20
18.9965529203
 11
14.1327337504
 21
19.0137901416
  0
LINE
  5
2F5
100
AcDbEntity
  8
0
100
AcDbLine
 62
7
  6
CONTINUOUS
 10
14.1492607869
 20
19.0410745427
 11
14.1964972687
 21
19.0494036089
  0
LINE
  5
2F6
100
AcDbEntity
  8
0
100
AcDbLine
 62
7
  6
CONTINUOUS
 10
14.2424972687
 20
19.05751465
 11
14.3277337504
 21
19.0725441415
  0
LINE
  5
2F7
100
AcDbEntity
  8
0
100
AcDbLine
 62
7
  6
CONTINUOUS
 10
13.0105506026
 20
18.9982245696
 11
13.0121028032
 21
18.9984961596
  0
LINE
  5
2F8
100
AcDbEntity
  8
0
100
AcDbLine
 62
9
  6
CONTINUOUS
 10
13.1445480128
 20
17.6808387682
 11
13.2409972687
 21
17.6808605876
  0
LINE
  5
2F9
100
AcDbEntity
  8
0
100
AcDbLine
 62
9
  6
CONTINUOUS
 10
13.7809972687
 20
17.6808629562
 11
13.8774068838
 21
17.6808642032
  0
LINE
  5
2FA
100
AcDbEntity
  8
0
100
AcDbLine
 62
9
  6
CONTINUOUS
 10
13.2072683842
 20
17.9708491283
 11
13.2409972687
 21
17.9708491283
  0
LINE
  5
2FB
100
AcDbEntity
  8
0
100
AcDbLine
 62
9
  6
CONTINUOUS
 10
13.7809972687
 20
17.9708491283
 11
13.8147261531
 21
17.9708491283
  0
LINE
  5
2FC
100
AcDbEntity
  8
0
100
AcDbLine
 62
9
  6
CONTINUOUS
 10
13.9386573857
 20
18.1616864913
 11
13.7809972687
 21
18.1616864913
  0
LINE
  5
2FD
100
AcDbEntity
  8
0
100
AcDbLine
 62
9
  6
CONTINUOUS
 10
13.2409972687
 20
18.1616864913
 11
13.0833371516
 21
18.1616864913
  0
LINE
  5
2FE
100
AcDbEntity
  8
0
100
AcDbLine
 62
7
  6
CONTINUOUS
 10
13.913443484
 20
18.2080256623
 11
13.7809972687
 21
18.2080256623
  0
LINE
  5
2FF
100
AcDbEntity
  8
0
100
AcDbLine
 62
7
  6
CONTINUOUS
 10
13.2409972687
 20
18.2080256623
 11
13.1085510533
 21
18.2080256623
  0
LINE
  5
300
100
AcDbEntity
  8
0
100
AcDbLine
 62
9
  6
CONTINUOUS
 10
13.0956402428
 20
18.227662086
 11
13.2409972687
 21
18.227662086
  0
LINE
  5
301
100
AcDbEntity
  8
0
100
AcDbLine
 62
9
  6
CONTINUOUS
 10
13.7809972687
 20
18.227662086
 11
13.9263542945
 21
18.227662086
  0
LINE
  5
302
100
AcDbEntity
  8
0
100
AcDbLine
 62
7
  6
CONTINUOUS
 10
13.7809972687
 20
17.4717563319
 11
13.8831221595
 21
17.4127944987
  0
LINE
  5
303
100
AcDbEntity
  8
0
100
AcDbLine
 62
7
  6
CONTINUOUS
 10
13.9022195847
 20
18.8191221931
 11
13.9025080614
 21
18.8188703107
  0
LINE
  5
304
100
AcDbEntity
  8
0
100
AcDbLine
 62
7
  6
CONTINUOUS
 10
13.9022195847
 20
18.8191221931
 11
13.8952985153
 21
18.826741209
  0
LINE
  5
305
100
AcDbEntity
  8
0
100
AcDbLine
 62
7
  6
CONTINUOUS
 10
13.1386815897
 20
19.8975026466
 11
13.180312315
 21
19.8496462782
  0
LINE
  5
306
100
AcDbEntity
  8
0
100
AcDbLine
 62
9
  6
CONTINUOUS
 10
13.9577337504
 20
18.9585626813
 11
13.8483244503
 21
18.9585626813
  0
LINE
  5
307
100
AcDbEntity
  8
0
100
AcDbLine
 62
9
  6
CONTINUOUS
 10
13.1758432612
 20
18.9585626813
 11
13.0642860279
 21
18.9585626813
  0
LINE
  5
308
100
AcDbEntity
  8
0
100
AcDbLine
 62
9
  6
CONTINUOUS
 10
13.0559972687
 20
18.9684107588
 11
13.1784686027
 21
18.9684107588
  0
LINE
  5
309
100
AcDbEntity
  8
0
100
AcDbLine
 62
9
  6
CONTINUOUS
 10
13.8438506739
 20
18.9684107588
 11
13.9659972687
 21
18.9684107588
  0
LINE
  5
30A
100
AcDbEntity
  8
0
100
AcDbLine
 62
9
  6
CONTINUOUS
 10
13.9659972687
 20
18.9759990049
 11
13.8420497787
 21
18.9759990049
  0
LINE
  5
30B
100
AcDbEntity
  8
0
100
AcDbLine
 62
9
  6
CONTINUOUS
 10
13.1804915088
 20
18.9759990049
 11
13.0559972687
 21
18.9759990049
  0
LINE
  5
30C
100
AcDbEntity
  8
0
100
AcDbLine
 62
9
  6
CONTINUOUS
 10
13.0477337504
 20
18.9858470824
 11
13.1825807644
 21
18.9858470824
  0
LINE
  5
30D
100
AcDbEntity
  8
0
100
AcDbLine
 62
9
  6
CONTINUOUS
 10
13.8397125648
 20
18.9858470824
 11
13.9742483197
 21
18.9858470824
  0
LINE
  5
30E
100
AcDbEntity
  8
0
100
AcDbLine
 62
9
  6
CONTINUOUS
 10
14.1327337504
 20
19.0137901416
 11
13.8333059396
 21
19.0137901416
  0
LINE
  5
30F
100
AcDbEntity
  8
0
100
AcDbLine
 62
9
  6
CONTINUOUS
 10
13.1882689456
 20
19.0137901416
 11
12.8892762561
 21
19.0137901416
  0
LINE
  5
310
100
AcDbEntity
  8
0
100
AcDbLine
 62
9
  6
CONTINUOUS
 10
12.8809972687
 20
19.0236382191
 11
13.1902736527
 21
19.0236382191
  0
LINE
  5
311
100
AcDbEntity
  8
0
100
AcDbLine
 62
9
  6
CONTINUOUS
 10
13.8313709882
 20
19.0236382191
 11
14.1409972687
 21
19.0236382191
  0
LINE
  5
312
100
AcDbEntity
  8
0
100
AcDbLine
 62
9
  6
CONTINUOUS
 10
14.1409972687
 20
19.0312264652
 11
13.8303372998
 21
19.0312264652
  0
LINE
  5
313
100
AcDbEntity
  8
0
100
AcDbLine
 62
9
  6
CONTINUOUS
 10
13.1918183411
 20
19.0312264652
 11
12.8809972687
 21
19.0312264652
  0
LINE
  5
314
100
AcDbEntity
  8
0
100
AcDbLine
 62
9
  6
CONTINUOUS
 10
12.8727337504
 20
19.0410745427
 11
13.190858037
 21
19.0410745427
  0
LINE
  5
315
100
AcDbEntity
  8
0
100
AcDbLine
 62
9
  6
CONTINUOUS
 10
13.8281109022
 20
19.0410745427
 11
14.1492512353
 21
19.0410745427
  0
LINE
  5
316
100
AcDbEntity
  8
0
100
AcDbLine
 62
9
  6
CONTINUOUS
 10
14.3277337504
 20
19.0725441415
 11
13.8217619471
 21
19.0725441415
  0
LINE
  5
317
100
AcDbEntity
  8
0
100
AcDbLine
 62
9
  6
CONTINUOUS
 10
13.2002291034
 20
19.0725441415
 11
12.6942720869
 21
19.0725441415
  0
LINE
  5
318
100
AcDbEntity
  8
0
100
AcDbLine
 62
9
  6
CONTINUOUS
 10
12.6859972687
 20
19.082392219
 11
13.2022338105
 21
19.082392219
  0
LINE
  5
319
100
AcDbEntity
  8
0
100
AcDbLine
 62
9
  6
CONTINUOUS
 10
13.8198269957
 20
19.082392219
 11
14.3359972687
 21
19.082392219
  0
LINE
  5
31A
100
AcDbEntity
  8
0
100
AcDbLine
 62
9
  6
CONTINUOUS
 10
14.3359972687
 20
19.0877579458
 11
13.8187727371
 21
19.0877579458
  0
LINE
  5
31B
100
AcDbEntity
  8
0
100
AcDbLine
 62
9
  6
CONTINUOUS
 10
13.2033260756
 20
19.0877579458
 11
12.6859972687
 21
19.0877579458
  0
LINE
  5
31C
100
AcDbEntity
  8
0
100
AcDbLine
 62
7
  6
CONTINUOUS
 10
12.4710676505
 20
19.0997579458
 11
13.2055999927
 21
19.0997579458
  0
LINE
  5
31D
100
AcDbEntity
  8
0
100
AcDbLine
 62
7
  6
CONTINUOUS
 10
13.8164149758
 20
19.0997579458
 11
14.5509268869
 21
19.0997579458
  0
LINE
  5
31E
100
AcDbEntity
  8
0
100
AcDbLine
 62
9
  6
CONTINUOUS
 10
14.5509972687
 20
19.1807823535
 11
13.8012370802
 21
19.1807823535
  0
LINE
  5
31F
100
AcDbEntity
  8
0
100
AcDbLine
 62
9
  6
CONTINUOUS
 10
13.2207154847
 20
19.1807823535
 11
12.4709972687
 21
19.1807823535
  0
LINE
  5
320
100
AcDbEntity
  8
0
100
AcDbLine
 62
9
  6
CONTINUOUS
 10
14.5387865902
 20
19.2135232634
 11
13.7952031298
 21
19.2135232634
  0
LINE
  5
321
100
AcDbEntity
  8
0
100
AcDbLine
 62
9
  6
CONTINUOUS
 10
13.2268234585
 20
19.2135232634
 11
12.4832079471
 21
19.2135232634
  0
LINE
  5
322
100
AcDbEntity
  8
0
100
AcDbLine
 62
7
  6
CONTINUOUS
 10
13.1708336972
 20
18.9397710018
 11
13.0642607869
 21
18.9585626813
  0
LINE
  5
323
100
AcDbEntity
  8
0
100
AcDbLine
 62
7
  6
CONTINUOUS
 10
13.0477337504
 20
18.9858470824
 11
12.8892607869
 21
19.0137901416
  0
LINE
  5
324
100
AcDbEntity
  8
0
100
AcDbLine
 62
7
  6
CONTINUOUS
 10
12.8727337504
 20
19.0410745427
 11
12.8254972687
 21
19.0494036089
  0
LINE
  5
325
100
AcDbEntity
  8
0
100
AcDbLine
 62
7
  6
CONTINUOUS
 10
12.7794972687
 20
19.05751465
 11
12.6942607869
 21
19.0725441415
  0
LINE
  5
326
100
AcDbEntity
  8
0
100
AcDbLine
 62
7
  6
CONTINUOUS
 10
13.9171072021
 20
18.8096596601
 11
13.8951224439
 21
18.827042321
  0
LINE
  5
327
100
AcDbEntity
  8
0
100
AcDbLine
 62
7
  6
CONTINUOUS
 10
13.1174507692
 20
19.9174290822
 11
13.1174447647
 21
19.9174343653
  0
LINE
  5
328
100
AcDbEntity
  8
0
100
AcDbLine
 62
7
  6
CONTINUOUS
 10
13.117453444
 20
19.9174267299
 11
13.1403911866
 21
19.8957818862
  0
LINE
  5
329
100
AcDbEntity
  8
0
100
AcDbLine
 62
9
  6
CONTINUOUS
 10
12.6707038627
 20
19.6413843598
 11
13.2409972687
 21
19.6413843598
  0
LINE
  5
32A
100
AcDbEntity
  8
0
100
AcDbLine
 62
9
  6
CONTINUOUS
 10
13.7809972687
 20
19.6413843598
 11
14.3512747046
 21
19.6413843598
  0
LINE
  5
32B
100
AcDbEntity
  8
0
100
AcDbLine
 62
9
  6
CONTINUOUS
 10
14.3033122416
 20
20.0676566435
 11
14.0214398198
 21
20.0676566435
  0
LINE
  5
32C
100
AcDbEntity
  8
0
100
AcDbLine
 62
9
  6
CONTINUOUS
 10
13.0005528961
 20
20.0676566435
 11
12.7186822958
 21
20.0676566435
  0
LINE
  5
32D
100
AcDbEntity
  8
0
100
AcDbLine
 62
7
  6
CONTINUOUS
 10
13.9642220881
 20
18.9978765303
 11
13.9605485937
 21
18.9984961596
  0
LINE
  5
32E
100
AcDbEntity
  8
0
100
AcDbLine
 62
7
  6
CONTINUOUS
 10
14.104657683
 20
19.0494036089
 11
14.1015762672
 21
19.0499638439
  0
LINE
  5
32F
100
AcDbEntity
  8
0
100
AcDbLine
 62
7
  6
CONTINUOUS
 10
13.9218955826
 20
18.9903851185
 11
13.9182220881
 21
18.9910571066
  0
LINE
  5
330
100
AcDbEntity
  8
0
100
AcDbLine
 62
7
  6
CONTINUOUS
 10
14.2183557166
 20
19.0573657162
 11
14.2175720106
 21
19.05751465
  0
LINE
  5
331
100
AcDbEntity
  8
0
100
AcDbLine
 62
7
  6
CONTINUOUS
 10
14.0351224812
 20
18.9983990805
 11
14.0346339653
 21
18.9984961596
  0
LINE
  5
332
100
AcDbEntity
  8
0
100
AcDbLine
 62
7
  6
CONTINUOUS
 10
14.1731394226
 20
19.0494036089
 11
14.1723557166
 21
19.0495641657
  0
LINE
  5
333
100
AcDbEntity
  8
0
100
AcDbLine
 62
7
  6
CONTINUOUS
 10
13.989610997
 20
18.9903851185
 11
13.9891224812
 21
18.9904943596
  0
LINE
  5
334
100
AcDbEntity
  8
0
100
AcDbLine
 62
9
  6
CONTINUOUS
 10
12.9784753109
 20
20.8129297058
 11
12.9585536772
 21
20.8111652555
  0
LINE
  5
335
100
AcDbEntity
  8
0
100
AcDbLine
 62
9
  6
CONTINUOUS
 10
12.9510364518
 20
20.9015552548
 11
12.9709580855
 21
20.9033197051
  0
LINE
  5
336
100
AcDbEntity
  8
0
100
AcDbLine
 62
9
  6
CONTINUOUS
 10
12.9709580855
 20
20.9082026583
 11
12.9510364518
 21
20.906438208
  0
LINE
  5
337
100
AcDbEntity
  8
0
100
AcDbLine
 62
7
  6
CONTINUOUS
 10
12.9709762544
 20
20.9084105139
 11
12.9510546207
 21
20.9066460636
  0
LINE
  5
338
100
AcDbEntity
  8
0
100
AcDbLine
 62
7
  6
CONTINUOUS
 10
13.3252980906
 20
20.7730256623
 11
13.6966934771
 21
20.7730256623
  0
LINE
  5
339
100
AcDbEntity
  8
0
100
AcDbLine
 62
9
  6
CONTINUOUS
 10
14.0634408602
 20
20.8111652555
 11
14.0435192264
 21
20.8129297058
  0
LINE
  5
33A
100
AcDbEntity
  8
0
100
AcDbLine
 62
9
  6
CONTINUOUS
 10
14.0510364518
 20
20.9033197051
 11
14.0709580855
 21
20.9015552548
  0
LINE
  5
33B
100
AcDbEntity
  8
0
100
AcDbLine
 62
9
  6
CONTINUOUS
 10
14.0709580855
 20
20.906438208
 11
14.0510364518
 21
20.9082026583
  0
LINE
  5
33C
100
AcDbEntity
  8
0
100
AcDbLine
 62
7
  6
CONTINUOUS
 10
14.0709399167
 20
20.9066460636
 11
14.0510182829
 21
20.9084105139
  0
ARC
  5
33D
100
AcDbEntity
  8
0
100
AcDbCircle
 62
9
  6
CONTINUOUS
 10
9.6326350999
 20
12.1493366755
 40
3.6104631908
100
AcDbArc
 50
23.4711136078
 51
24.0199295649
  0
ARC
  5
33E
100
AcDbEntity
  8
0
100
AcDbCircle
 62
7
  6
CONTINUOUS
 10
8.6213073821
 20
14.0648956811
 40
1.9415751547
100
AcDbArc
 50
340.1788819873
 51
349.0397021336
  0
ARC
  5
33F
100
AcDbEntity
  8
0
100
AcDbCircle
 62
7
  6
CONTINUOUS
 10
8.6388586491
 20
12.0594490646
 40
1.9234268228
100
AcDbArc
 50
10.907793208
 51
19.8630777294
  0
ARC
  5
340
100
AcDbEntity
  8
0
100
AcDbCircle
 62
7
  6
CONTINUOUS
 10
7.5391008908
 20
8.9779477311
 40
1.4020396301
100
AcDbArc
 50
101.0111250739
 51
116.1939332303
  0
ARC
  5
341
100
AcDbEntity
  8
0
100
AcDbCircle
 62
7
  6
CONTINUOUS
 10
7.5384535295
 20
8.9798933434
 40
1.3999987061
100
AcDbArc
 50
116.2050583041
 51
167.727575842
  0
ARC
  5
342
100
AcDbEntity
  8
0
100
AcDbCircle
 62
9
  6
CONTINUOUS
 10
7.6127505257
 20
9.0163807894
 40
1.1302193563
100
AcDbArc
 50
101.4313762069
 51
167.1118475276
  0
ARC
  5
343
100
AcDbEntity
  8
0
100
AcDbCircle
 62
7
  6
CONTINUOUS
 10
7.6127585851
 20
9.0163771695
 40
0.79999589
100
AcDbArc
 50
99.0001199719
 51
159.6674447387
  0
ARC
  5
344
100
AcDbEntity
  8
0
100
AcDbCircle
 62
7
  6
CONTINUOUS
 10
6.9565980238
 20
9.2596232445
 40
0.1001970444
100
AcDbArc
 50
159.7215876373
 51
215.9888606008
  0
ARC
  5
345
100
AcDbEntity
  8
0
100
AcDbCircle
 62
7
  6
CONTINUOUS
 10
6.2683045582
 20
9.2561983746
 40
0.1001546477
100
AcDbArc
 50
167.7320884121
 51
176.7400623328
  0
ARC
  5
346
100
AcDbEntity
  8
0
100
AcDbCircle
 62
7
  6
CONTINUOUS
 10
9.8698578243
 20
13.2597579458
 40
0.08
100
AcDbArc
 50
90.0
 51
161.180936631
  0
ARC
  5
347
100
AcDbEntity
  8
0
100
AcDbCircle
 62
7
  6
CONTINUOUS
 10
9.8698578243
 20
12.8597579458
 40
0.08
100
AcDbArc
 50
198.819063369
 51
270.0
  0
ARC
  5
348
100
AcDbEntity
  8
0
100
AcDbCircle
 62
7
  6
CONTINUOUS
 10
9.8767138543
 20
13.3197579458
 40
0.02
100
AcDbArc
 50
0.0
 51
90.0
  0
ARC
  5
349
100
AcDbEntity
  8
0
100
AcDbCircle
 62
7
  6
CONTINUOUS
 10
9.8767138543
 20
12.7997579458
 40
0.02
100
AcDbArc
 50
270.0
 51
360.0
  0
ARC
  5
34A
100
AcDbEntity
  8
0
100
AcDbCircle
 62
9
  6
CONTINUOUS
 10
13.2495042432
 20
-12.3015612976
 40
24.2202453431
100
AcDbArc
 50
88.0675691066
 51
88.5629662062
  0
ARC
  5
34B
100
AcDbEntity
  8
0
100
AcDbCircle
 62
7
  6
CONTINUOUS
 10
13.5109972687
 20
-2.6499743377
 40
0.27
100
AcDbArc
 50
180.0
 51
360.0
  0
ARC
  5
34C
100
AcDbEntity
  8
0
100
AcDbCircle
 62
7
  6
CONTINUOUS
 10
11.0870579363
 20
5.6598814649
 40
7.0
100
AcDbArc
 50
75.8592582374
 51
90.0
  0
ARC
  5
34D
100
AcDbEntity
  8
0
100
AcDbCircle
 62
7
  6
CONTINUOUS
 10
10.4567138543
 20
13.0597579458
 40
0.7
100
AcDbArc
 50
161.180936631
 51
198.819063369
  0
ARC
  5
34E
100
AcDbEntity
  8
0
100
AcDbCircle
 62
7
  6
CONTINUOUS
 10
10.236983257
 20
12.4657777264
 40
0.482305285
100
AcDbArc
 50
270.0003026116
 51
270.8096421283
  0
ARC
  5
34F
100
AcDbEntity
  8
0
100
AcDbCircle
 62
7
  6
CONTINUOUS
 10
10.2380919096
 20
13.0616687569
 40
0.4531927325
100
AcDbArc
 50
238.8254024744
 51
239.8898119538
  0
ARC
  5
350
100
AcDbEntity
  8
0
100
AcDbCircle
 62
7
  6
CONTINUOUS
 10
10.2374052965
 20
13.0589189288
 40
0.4519303034
100
AcDbArc
 50
120.0581881623
 51
120.9911072001
  0
ARC
  5
351
100
AcDbEntity
  8
0
100
AcDbCircle
 62
7
  6
CONTINUOUS
 10
10.237396454
 20
13.059366217
 40
0.4515585046
100
AcDbArc
 50
126.1282364991
 51
138.4939303771
  0
ARC
  5
352
100
AcDbEntity
  8
0
100
AcDbCircle
 62
7
  6
CONTINUOUS
 10
10.2370403956
 20
13.0596695923
 40
0.4508961382
100
AcDbArc
 50
302.0540391369
 51
323.0713592687
  0
ARC
  5
353
100
AcDbEntity
  8
0
100
AcDbCircle
 62
7
  6
CONTINUOUS
 10
10.237193289
 20
13.060056958
 40
0.4506360827
100
AcDbArc
 50
36.933983795
 51
59.9941806014
  0
ARC
  5
354
100
AcDbEntity
  8
0
100
AcDbCircle
 62
7
  6
CONTINUOUS
 10
10.2364747253
 20
13.060428577
 40
0.4501570064
100
AcDbArc
 50
120.9885101677
 51
126.1132024724
  0
ARC
  5
355
100
AcDbEntity
  8
0
100
AcDbCircle
 62
7
  6
CONTINUOUS
 10
10.2363044583
 20
13.0589717817
 40
0.4499599667
100
AcDbArc
 50
221.4859529186
 51
238.8423698094
  0
ARC
  5
356
100
AcDbEntity
  8
0
100
AcDbCircle
 62
7
  6
CONTINUOUS
 10
10.2380163605
 20
13.0580972826
 40
0.4490455674
100
AcDbArc
 50
299.9855690664
 51
302.0549676969
  0
ARC
  5
357
100
AcDbEntity
  8
0
100
AcDbCircle
 62
9
  6
CONTINUOUS
 10
10.2369857293
 20
11.9962270068
 40
0.4423254535
100
AcDbArc
 50
89.9999902709
 51
90.6984635988
  0
ARC
  5
358
100
AcDbEntity
  8
0
100
AcDbCircle
 62
9
  6
CONTINUOUS
 10
10.2369858795
 20
12.4385237032
 40
0.4423254535
100
AcDbArc
 50
269.9999902687
 51
270.6984635968
  0
ARC
  5
359
100
AcDbEntity
  8
0
100
AcDbCircle
 62
9
  6
CONTINUOUS
 10
10.2283592679
 20
12.1482750168
 40
0.3860261684
100
AcDbArc
 50
104.6939017754
 51
109.1481948917
  0
ARC
  5
35A
100
AcDbEntity
  8
0
100
AcDbCircle
 62
9
  6
CONTINUOUS
 10
10.2369857515
 20
12.0450893553
 40
0.311456574
100
AcDbArc
 50
89.9999902707
 51
90.6984635986
  0
ARC
  5
35B
100
AcDbEntity
  8
0
100
AcDbCircle
 62
9
  6
CONTINUOUS
 10
10.2369858573
 20
12.3565256804
 40
0.311456574
100
AcDbArc
 50
269.9999902694
 51
270.6984635974
  0
ARC
  5
35C
100
AcDbEntity
  8
0
100
AcDbCircle
 62
9
  6
CONTINUOUS
 10
10.2369907632
 20
13.4863058739
 40
0.2540114855
100
AcDbArc
 50
263.0326117053
 51
276.5007481317
  0
ARC
  5
35D
100
AcDbEntity
  8
0
100
AcDbCircle
 62
7
  6
CONTINUOUS
 10
10.2370103386
 20
12.6408762326
 40
0.2526404718
100
AcDbArc
 50
84.6814271193
 51
98.5485552553
  0
ARC
  5
35E
100
AcDbEntity
  8
0
100
AcDbCircle
 62
9
  6
CONTINUOUS
 10
10.2371114931
 20
12.6368771185
 40
0.2503468042
100
AcDbArc
 50
78.1926056801
 51
90.0287658235
  0
ARC
  5
35F
100
AcDbEntity
  8
0
100
AcDbCircle
 62
7
  6
CONTINUOUS
 10
10.2366582849
 20
12.6456515353
 40
0.2445015074
100
AcDbArc
 50
89.9232500149
 51
103.0768539913
  0
ARC
  5
360
100
AcDbEntity
  8
0
100
AcDbCircle
 62
9
  6
CONTINUOUS
 10
10.240453135
 20
12.6533620858
 40
0.2335268902
100
AcDbArc
 50
75.1326168348
 51
78.1675169171
  0
ARC
  5
361
100
AcDbEntity
  8
0
100
AcDbCircle
 62
9
  6
CONTINUOUS
 10
10.4177012645
 20
12.2526594923
 40
0.1792845158
100
AcDbArc
 50
0.0051296817
 51
3.2502291116
  0
ARC
  5
362
100
AcDbEntity
  8
0
100
AcDbCircle
 62
9
  6
CONTINUOUS
 10
10.1773359046
 20
12.7450349417
 40
0.1242218625
100
AcDbArc
 50
139.1983169645
 51
143.5159853677
  0
ARC
  5
363
100
AcDbEntity
  8
0
100
AcDbCircle
 62
7
  6
CONTINUOUS
 10
10.3128504656
 20
13.3566103651
 40
0.103701718
100
AcDbArc
 50
331.891055689
 51
336.2043668428
  0
ARC
  5
364
100
AcDbEntity
  8
0
100
AcDbCircle
 62
7
  6
CONTINUOUS
 10
10.3143482513
 20
12.763604668
 40
0.1020487103
100
AcDbArc
 50
22.1733152592
 51
27.6377323109
  0
ARC
  5
365
100
AcDbEntity
  8
0
100
AcDbCircle
 62
7
  6
CONTINUOUS
 10
10.3153142336
 20
13.3554900821
 40
0.1009953918
100
AcDbArc
 50
336.2219410447
 51
337.7487796635
  0
ARC
  5
366
100
AcDbEntity
  8
0
100
AcDbCircle
 62
7
  6
CONTINUOUS
 10
10.1516831444
 20
12.7599141537
 40
0.0946978782
100
AcDbArc
 50
175.7031136623
 51
177.8618653853
  0
ARC
  5
367
100
AcDbEntity
  8
0
100
AcDbCircle
 62
7
  6
CONTINUOUS
 10
10.3222942825
 20
12.7599141657
 40
0.0946920582
100
AcDbArc
 50
2.1271200804
 51
4.2969720232
  0
ARC
  5
368
100
AcDbEntity
  8
0
100
AcDbCircle
 62
9
  6
CONTINUOUS
 10
10.2433803133
 20
13.9795369587
 40
0.3946128759
100
AcDbArc
 50
283.032231523
 51
287.5292538832
  0
ARC
  5
369
100
AcDbEntity
  8
0
100
AcDbCircle
 62
9
  6
CONTINUOUS
 10
10.2288440006
 20
13.9734370249
 40
0.3882726444
100
AcDbArc
 50
253.4413055904
 51
255.0638733738
  0
ARC
  5
36A
100
AcDbEntity
  8
0
100
AcDbCircle
 62
9
  6
CONTINUOUS
 10
10.2219145327
 20
13.9515290862
 40
0.3652986024
100
AcDbArc
 50
247.2254480906
 51
253.5037908522
  0
ARC
  5
36B
100
AcDbEntity
  8
0
100
AcDbCircle
 62
9
  6
CONTINUOUS
 10
10.0806190211
 20
13.902140749
 40
0.1564248787
100
AcDbArc
 50
180.0000778166
 51
181.3967780232
  0
ARC
  5
36C
100
AcDbEntity
  8
0
100
AcDbCircle
 62
9
  6
CONTINUOUS
 10
10.3933525877
 20
13.902140324
 40
0.1564248787
100
AcDbArc
 50
0.0000778194
 51
1.396778026
  0
ARC
  5
36D
100
AcDbEntity
  8
0
100
AcDbCircle
 62
9
  6
CONTINUOUS
 10
10.126882571
 20
13.9187085233
 40
0.1101441403
100
AcDbArc
 50
180.0000778171
 51
181.3967780239
  0
ARC
  5
36E
100
AcDbEntity
  8
0
100
AcDbCircle
 62
9
  6
CONTINUOUS
 10
10.3470890377
 20
13.9187082241
 40
0.1101441403
100
AcDbArc
 50
0.0000778186
 51
1.3967780255
  0
ARC
  5
36F
100
AcDbEntity
  8
0
100
AcDbCircle
 62
7
  6
CONTINUOUS
 10
11.7566249236
 20
13.2601848616
 40
2.4827188018
100
AcDbArc
 50
9.2965967709
 51
15.0162737825
  0
ARC
  5
370
100
AcDbEntity
  8
0
100
AcDbCircle
 62
7
  6
CONTINUOUS
 10
11.7566249236
 20
13.2601848616
 40
2.4827188018
100
AcDbArc
 50
336.7547341089
 51
344.3390810972
  0
ARC
  5
371
100
AcDbEntity
  8
0
100
AcDbCircle
 62
7
  6
CONTINUOUS
 10
11.3774539616
 20
12.6147579458
 40
0.08
100
AcDbArc
 50
0.0
 51
22.1406846144
  0
ARC
  5
372
100
AcDbEntity
  8
0
100
AcDbCircle
 62
7
  6
CONTINUOUS
 10
11.3774539616
 20
13.5047579458
 40
0.08
100
AcDbArc
 50
337.8593153856
 51
360.0
  0
ARC
  5
373
100
AcDbEntity
  8
0
100
AcDbCircle
 62
7
  6
CONTINUOUS
 10
11.0838688587
 20
12.5998807322
 40
0.06
100
AcDbArc
 50
90.0
 51
144.3868117512
  0
ARC
  5
374
100
AcDbEntity
  8
0
100
AcDbCircle
 62
7
  6
CONTINUOUS
 10
11.0838688587
 20
13.5196351593
 40
0.06
100
AcDbArc
 50
215.6131882493
 51
270.0
  0
ARC
  5
375
100
AcDbEntity
  8
0
100
AcDbCircle
 62
7
  6
CONTINUOUS
 10
10.986312849
 20
12.6697579458
 40
0.06
100
AcDbArc
 50
270.0
 51
324.3868117512
  0
ARC
  5
376
100
AcDbEntity
  8
0
100
AcDbCircle
 62
7
  6
CONTINUOUS
 10
10.986312849
 20
13.4497579458
 40
0.06
100
AcDbArc
 50
35.6131882488
 51
90.0
  0
ARC
  5
377
100
AcDbEntity
  8
0
100
AcDbCircle
 62
7
  6
CONTINUOUS
 10
10.9804736466
 20
13.4497579458
 40
0.06
100
AcDbArc
 50
90.0
 51
180.0
  0
ARC
  5
378
100
AcDbEntity
  8
0
100
AcDbCircle
 62
7
  6
CONTINUOUS
 10
10.9804736466
 20
12.6697579458
 40
0.06
100
AcDbArc
 50
180.0
 51
270.0
  0
ARC
  5
379
100
AcDbEntity
  8
0
100
AcDbCircle
 62
7
  6
CONTINUOUS
 10
11.4874539616
 20
12.5397579458
 40
0.03
100
AcDbArc
 50
180.0
 51
270.0
  0
ARC
  5
37A
100
AcDbEntity
  8
0
100
AcDbCircle
 62
7
  6
CONTINUOUS
 10
11.7209972687
 20
15.0995286744
 40
1.39
100
AcDbArc
 50
346.1131090765
 51
15.2496931708
  0
ARC
  5
37B
100
AcDbEntity
  8
0
100
AcDbCircle
 62
7
  6
CONTINUOUS
 10
11.4874539616
 20
13.5797579458
 40
0.03
100
AcDbArc
 50
90.0
 51
180.0
  0
ARC
  5
37C
100
AcDbEntity
  8
0
100
AcDbCircle
 62
7
  6
CONTINUOUS
 10
13.5109972687
 20
9.7134492692
 40
3.9093008025
100
AcDbArc
 50
93.9719799467
 51
98.539897511
  0
ARC
  5
37D
100
AcDbEntity
  8
0
100
AcDbCircle
 62
7
  6
CONTINUOUS
 10
13.5109972687
 20
9.7134492692
 40
3.9093008025
100
AcDbArc
 50
81.3638693749
 51
86.0278829389
  0
ARC
  5
37E
100
AcDbEntity
  8
0
100
AcDbCircle
 62
7
  6
CONTINUOUS
 10
13.4816522419
 20
10.091878564
 40
2.63
100
AcDbArc
 50
44.8806654062
 51
49.6329096604
  0
ARC
  5
37F
100
AcDbEntity
  8
0
100
AcDbCircle
 62
7
  6
CONTINUOUS
 10
12.8304763787
 20
11.9197827464
 40
1.2514281191
100
AcDbArc
 50
279.0137900908
 51
289.2044457875
  0
ARC
  5
380
100
AcDbEntity
  8
0
100
AcDbCircle
 62
7
  6
CONTINUOUS
 10
12.8309878115
 20
11.9184228483
 40
1.25
100
AcDbArc
 50
319.4790737315
 51
359.7503849747
  0
ARC
  5
381
100
AcDbEntity
  8
0
100
AcDbCircle
 62
9
  6
CONTINUOUS
 10
12.8306783404
 20
11.91890922
 40
0.680582767
100
AcDbArc
 50
281.4409571471
 51
307.3242347711
  0
ARC
  5
382
100
AcDbEntity
  8
0
100
AcDbCircle
 62
7
  6
CONTINUOUS
 10
12.4409899468
 20
11.8684253988
 40
0.5
100
AcDbArc
 50
281.000691627
 51
359.999308373
  0
ARC
  5
383
100
AcDbEntity
  8
0
100
AcDbCircle
 62
7
  6
CONTINUOUS
 10
12.690756923
 20
11.9118193273
 40
0.2502375487
100
AcDbArc
 50
0.0190721027
 51
38.105940627
  0
ARC
  5
384
100
AcDbEntity
  8
0
100
AcDbCircle
 62
7
  6
CONTINUOUS
 10
12.024403863
 20
14.6368054495
 40
4.4847341426
100
AcDbArc
 50
80.0087607098
 51
80.1586691742
  0
ARC
  5
385
100
AcDbEntity
  8
0
100
AcDbCircle
 62
7
  6
CONTINUOUS
 10
12.0683140593
 20
14.8882740574
 40
4.229460938
100
AcDbArc
 50
79.8450727893
 51
80.0035461066
  0
ARC
  5
386
100
AcDbEntity
  8
0
100
AcDbCircle
 62
7
  6
CONTINUOUS
 10
11.8527245641
 20
12.0546028784
 40
1.9416377945
100
AcDbArc
 50
160.1790045755
 51
169.0492970054
  0
ARC
  5
387
100
AcDbEntity
  8
0
100
AcDbCircle
 62
7
  6
CONTINUOUS
 10
11.8351249605
 20
14.0600707328
 40
1.9234394368
100
AcDbArc
 50
190.9052915722
 51
199.8630656905
  0
ARC
  5
388
100
AcDbEntity
  8
0
100
AcDbCircle
 62
7
  6
CONTINUOUS
 10
12.5979846419
 20
13.8608635502
 40
0.2516471378
100
AcDbArc
 50
308.728033875
 51
327.8950139495
  0
ARC
  5
389
100
AcDbEntity
  8
0
100
AcDbCircle
 62
7
  6
CONTINUOUS
 10
12.5988516939
 20
13.8599087082
 40
0.2504091101
100
AcDbArc
 50
328.8585244281
 51
347.3113339373
  0
ARC
  5
38A
100
AcDbEntity
  8
0
100
AcDbCircle
 62
7
  6
CONTINUOUS
 10
12.6043025594
 20
13.8568291281
 40
0.2441512072
100
AcDbArc
 50
327.9090151689
 51
328.8155461673
  0
ARC
  5
38B
100
AcDbEntity
  8
0
100
AcDbCircle
 62
7
  6
CONTINUOUS
 10
12.6035726037
 20
13.8543435207
 40
0.2430648998
100
AcDbArc
 50
307.4934409975
 51
308.6619808313
  0
ARC
  5
38C
100
AcDbEntity
  8
0
100
AcDbCircle
 62
7
  6
CONTINUOUS
 10
12.7209104839
 20
12.2589427648
 40
0.25165405
100
AcDbArc
 50
25.987658497
 51
32.735297899
  0
ARC
  5
38D
100
AcDbEntity
  8
0
100
AcDbCircle
 62
7
  6
CONTINUOUS
 10
12.7230093115
 20
12.2599516928
 40
0.2493253489
100
AcDbArc
 50
21.4880393645
 51
25.9905874247
  0
ARC
  5
38E
100
AcDbEntity
  8
0
100
AcDbCircle
 62
7
  6
CONTINUOUS
 10
12.9344615431
 20
14.7995212499
 40
0.14
100
AcDbArc
 50
295.0
 51
346.1131090765
  0
ARC
  5
38F
100
AcDbEntity
  8
0
100
AcDbCircle
 62
7
  6
CONTINUOUS
 10
12.9859972687
 20
12.1434193631
 40
0.125
100
AcDbArc
 50
90.0
 51
218.124911622
  0
ARC
  5
390
100
AcDbEntity
  8
0
100
AcDbCircle
 62
7
  6
CONTINUOUS
 10
12.9004736466
 20
12.41171947
 40
0.06
100
AcDbArc
 50
190.6271886146
 51
300.0
  0
ARC
  5
391
100
AcDbEntity
  8
0
100
AcDbCircle
 62
7
  6
CONTINUOUS
 10
12.9004736466
 20
13.7077964215
 40
0.06
100
AcDbArc
 50
60.0
 51
169.3728113854
  0
ARC
  5
392
100
AcDbEntity
  8
0
100
AcDbCircle
 62
7
  6
CONTINUOUS
 10
12.7825318929
 20
12.3895893384
 40
0.06
100
AcDbArc
 50
10.6271886146
 51
75.8592582374
  0
ARC
  5
393
100
AcDbEntity
  8
0
100
AcDbCircle
 62
7
  6
CONTINUOUS
 10
12.7825318929
 20
13.7299265531
 40
0.06
100
AcDbArc
 50
284.1407417626
 51
349.3728113854
  0
ARC
  5
394
100
AcDbEntity
  8
0
100
AcDbCircle
 62
7
  6
CONTINUOUS
 10
12.9474972687
 20
14.6180256623
 40
0.03
100
AcDbArc
 50
115.0
 51
180.0
  0
ARC
  5
395
100
AcDbEntity
  8
0
100
AcDbCircle
 62
7
  6
CONTINUOUS
 10
13.0022755159
 20
12.2881044025
 40
0.0196850394
100
AcDbArc
 50
203.2452658911
 51
270.0
  0
ARC
  5
396
100
AcDbEntity
  8
0
100
AcDbCircle
 62
7
  6
CONTINUOUS
 10
12.8864428517
 20
13.8983406229
 40
0.0196850394
100
AcDbArc
 50
90.0
 51
164.9837262175
  0
ARC
  5
397
100
AcDbEntity
  8
0
100
AcDbCircle
 62
7
  6
CONTINUOUS
 10
12.9559972687
 20
15.8441563826
 40
1.0
100
AcDbArc
 50
343.5257501351
 51
16.8349806732
  0
ARC
  5
398
100
AcDbEntity
  8
0
100
AcDbCircle
 62
7
  6
CONTINUOUS
 10
12.9785016587
 20
16.3949053281
 40
0.2099956099
100
AcDbArc
 50
301.4808058443
 51
53.250856315
  0
ARC
  5
399
100
AcDbEntity
  8
0
100
AcDbCircle
 62
7
  6
CONTINUOUS
 10
13.0609972687
 20
16.1482534066
 40
0.05
100
AcDbArc
 50
343.1650193268
 51
57.4210296069
  0
ARC
  5
39A
100
AcDbEntity
  8
0
100
AcDbCircle
 62
7
  6
CONTINUOUS
 10
13.0591026231
 20
15.5463927638
 40
0.05
100
AcDbArc
 50
293.4958766063
 51
16.4742498649
  0
ARC
  5
39B
100
AcDbEntity
  8
0
100
AcDbCircle
 62
7
  6
CONTINUOUS
 10
13.0909972687
 20
15.4730256623
 40
0.03
100
AcDbArc
 50
113.4958766065
 51
195.2496931702
  0
ARC
  5
39C
100
AcDbEntity
  8
0
100
AcDbCircle
 62
7
  6
CONTINUOUS
 10
13.0959972687
 20
16.2030256623
 40
0.015
100
AcDbArc
 50
121.4808058442
 51
237.421029607
  0
ARC
  5
39D
100
AcDbEntity
  8
0
100
AcDbCircle
 62
7
  6
CONTINUOUS
 10
13.0319288796
 20
17.8569823226
 40
0.2090683891
100
AcDbArc
 50
302.6049200261
 51
32.9999999999
  0
ARC
  5
39E
100
AcDbEntity
  8
0
100
AcDbCircle
 62
7
  6
CONTINUOUS
 10
13.1084972687
 20
18.1780256623
 40
0.03
100
AcDbArc
 50
90.0
 51
212.9999999993
  0
ARC
  5
39F
100
AcDbEntity
  8
0
100
AcDbCircle
 62
7
  6
CONTINUOUS
 10
13.1156369378
 20
18.2280256623
 40
0.02
100
AcDbArc
 50
181.041626676
 51
270.0
  0
ARC
  5
3A0
100
AcDbEntity
  8
0
100
AcDbCircle
 62
7
  6
CONTINUOUS
 10
13.5109972687
 20
16.4060666223
 40
3.9093008025
100
AcDbArc
 50
261.460102489
 51
266.0280200533
  0
ARC
  5
3A1
100
AcDbEntity
  8
0
100
AcDbCircle
 62
7
  6
CONTINUOUS
 10
13.5109972687
 20
16.4060666223
 40
3.9093008025
100
AcDbArc
 50
273.972117061
 51
278.636130625
  0
ARC
  5
3A2
100
AcDbEntity
  8
0
100
AcDbCircle
 62
7
  6
CONTINUOUS
 10
13.4816522419
 20
16.0276373276
 40
2.63
100
AcDbArc
 50
310.3670903396
 51
315.1193345938
  0
ARC
  5
3A3
100
AcDbEntity
  8
0
100
AcDbCircle
 62
7
  6
CONTINUOUS
 10
13.5109952285
 20
17.1080233157
 40
0.6799977721
100
AcDbArc
 50
306.7493996433
 51
57.3950422228
  0
ARC
  5
3A4
100
AcDbEntity
  8
0
100
AcDbCircle
 62
7
  6
CONTINUOUS
 10
13.5109929573
 20
17.1080293728
 40
0.679991637
100
AcDbArc
 50
122.6047643027
 51
233.2513442281
  0
ARC
  5
3A5
100
AcDbEntity
  8
0
100
AcDbCircle
 62
7
  6
CONTINUOUS
 10
13.5109972687
 20
17.1080256623
 40
0.5172452508
100
AcDbArc
 50
301.5724179702
 51
58.5382163266
  0
ARC
  5
3A6
100
AcDbEntity
  8
0
100
AcDbCircle
 62
7
  6
CONTINUOUS
 10
13.5109972687
 20
17.1080256623
 40
0.5172452508
100
AcDbArc
 50
121.5123431806
 51
238.5472138893
  0
ARC
  5
3A7
100
AcDbEntity
  8
0
100
AcDbCircle
 62
7
  6
CONTINUOUS
 10
13.5109972687
 20
17.1080256623
 40
0.5
100
AcDbArc
 50
303.0595487442
 51
56.9404512558
  0
ARC
  5
3A8
100
AcDbEntity
  8
0
100
AcDbCircle
 62
7
  6
CONTINUOUS
 10
13.5109972687
 20
17.1080256623
 40
0.5
100
AcDbArc
 50
123.0595487442
 51
236.9404512558
  0
ARC
  5
3A9
100
AcDbEntity
  8
0
100
AcDbCircle
 62
7
  6
CONTINUOUS
 10
13.5109972687
 20
17.1080256623
 40
0.481
100
AcDbArc
 50
140.6826645581
 51
159.3173354419
  0
ARC
  5
3AA
100
AcDbEntity
  8
0
100
AcDbCircle
 62
7
  6
CONTINUOUS
 10
13.5109972687
 20
17.1080256623
 40
0.481
100
AcDbArc
 50
200.6826645581
 51
219.317335442
  0
ARC
  5
3AB
100
AcDbEntity
  8
0
100
AcDbCircle
 62
7
  6
CONTINUOUS
 10
13.5109972687
 20
17.1080256623
 40
0.481
100
AcDbArc
 50
320.6826645581
 51
339.3173354419
  0
ARC
  5
3AC
100
AcDbEntity
  8
0
100
AcDbCircle
 62
7
  6
CONTINUOUS
 10
13.5109972687
 20
17.1080256623
 40
0.481
100
AcDbArc
 50
20.6826645581
 51
39.317335442
  0
ARC
  5
3AD
100
AcDbEntity
  8
0
100
AcDbCircle
 62
7
  6
CONTINUOUS
 10
13.5109972687
 20
17.1080256623
 40
0.4165551275
100
AcDbArc
 50
130.9199922388
 51
229.0943347759
  0
ARC
  5
3AE
100
AcDbEntity
  8
0
100
AcDbCircle
 62
7
  6
CONTINUOUS
 10
13.5109972687
 20
17.1080256623
 40
0.4165551275
100
AcDbArc
 50
310.9199922387
 51
49.0943347758
  0
ARC
  5
3AF
100
AcDbEntity
  8
0
100
AcDbCircle
 62
7
  6
CONTINUOUS
 10
13.5109972687
 20
17.1080256623
 40
0.3
100
AcDbArc
 50
155.5552320955
 51
204.4970793227
  0
ARC
  5
3B0
100
AcDbEntity
  8
0
100
AcDbCircle
 62
7
  6
CONTINUOUS
 10
13.5109972687
 20
17.1080256623
 40
0.3
100
AcDbArc
 50
335.5552320955
 51
24.4970793227
  0
ARC
  5
3B1
100
AcDbEntity
  8
0
100
AcDbCircle
 62
9
  6
CONTINUOUS
 10
0.8927239446
 20
21.983778833
 40
13.2028142539
100
AcDbArc
 50
354.9122243463
 51
355.0549952705
  0
ARC
  5
3B2
100
AcDbEntity
  8
0
100
AcDbCircle
 62
9
  6
CONTINUOUS
 10
12.6830346761
 20
19.5444555448
 40
0.6369202616
100
AcDbArc
 50
28.7646474767
 51
30.2757660524
  0
ARC
  5
3B3
100
AcDbEntity
  8
0
100
AcDbCircle
 62
7
  6
CONTINUOUS
 10
12.5209972687
 20
19.1807823535
 40
0.05
100
AcDbArc
 50
139.0941338576
 51
180.0
  0
ARC
  5
3B4
100
AcDbEntity
  8
0
100
AcDbCircle
 62
7
  6
CONTINUOUS
 10
12.6959972687
 20
19.082392219
 40
0.01
100
AcDbArc
 50
180.0
 51
260.0000000007
  0
ARC
  5
3B5
100
AcDbEntity
  8
0
100
AcDbCircle
 62
7
  6
CONTINUOUS
 10
12.6759972687
 20
19.0877579458
 40
0.01
100
AcDbArc
 50
0.0
 51
90.0
  0
ARC
  5
3B6
100
AcDbEntity
  8
0
100
AcDbCircle
 62
7
  6
CONTINUOUS
 10
11.8876482399
 20
19.7295200028
 40
0.788
100
AcDbArc
 50
319.0941338575
 51
353.5781868592
  0
ARC
  5
3B7
100
AcDbEntity
  8
0
100
AcDbCircle
 62
7
  6
CONTINUOUS
 10
12.7755358939
 20
19.5585758511
 40
0.4991063772
100
AcDbArc
 50
28.3295960253
 51
33.90361173
  0
ARC
  5
3B8
100
AcDbEntity
  8
0
100
AcDbCircle
 62
7
  6
CONTINUOUS
 10
12.7857820698
 20
19.5638695009
 40
0.487540771
100
AcDbArc
 50
24.2373739386
 51
28.3778280933
  0
ARC
  5
3B9
100
AcDbEntity
  8
0
100
AcDbCircle
 62
7
  6
CONTINUOUS
 10
12.7873205961
 20
19.564890923
 40
0.4857363294
100
AcDbArc
 50
24.1520258331
 51
28.3335613578
  0
ARC
  5
3BA
100
AcDbEntity
  8
0
100
AcDbCircle
 62
9
  6
CONTINUOUS
 10
12.7200265054
 20
18.982802302
 40
0.4796734049
100
AcDbArc
 50
339.0490710211
 51
340.5991062399
  0
ARC
  5
3BB
100
AcDbEntity
  8
0
100
AcDbCircle
 62
7
  6
CONTINUOUS
 10
12.7994060173
 20
19.5620655448
 40
0.477136227
100
AcDbArc
 50
35.1559402864
 51
37.0518411688
  0
ARC
  5
3BC
100
AcDbEntity
  8
0
100
AcDbCircle
 62
7
  6
CONTINUOUS
 10
12.8012385225
 20
19.5633258191
 40
0.4749123228
100
AcDbArc
 50
31.8871643217
 51
35.1589296634
  0
ARC
  5
3BD
100
AcDbEntity
  8
0
100
AcDbCircle
 62
9
  6
CONTINUOUS
 10
12.7790701087
 20
18.9602441289
 40
0.4164672668
100
AcDbArc
 50
336.6919003416
 51
339.0428342613
  0
ARC
  5
3BE
100
AcDbEntity
  8
0
100
AcDbCircle
 62
9
  6
CONTINUOUS
 10
13.3756956334
 20
18.7676636573
 40
0.2917286917
100
AcDbArc
 50
188.0629009623
 51
192.2449532143
  0
ARC
  5
3BF
100
AcDbEntity
  8
0
100
AcDbCircle
 62
7
  6
CONTINUOUS
 10
12.8709972687
 20
19.0312264652
 40
0.01
100
AcDbArc
 50
0.0
 51
79.9999999997
  0
ARC
  5
3C0
100
AcDbEntity
  8
0
100
AcDbCircle
 62
7
  6
CONTINUOUS
 10
12.8909972687
 20
19.0236382191
 40
0.01
100
AcDbArc
 50
180.0
 51
259.9999999997
  0
ARC
  5
3C1
100
AcDbEntity
  8
0
100
AcDbCircle
 62
7
  6
CONTINUOUS
 10
13.0659972687
 20
18.9684107588
 40
0.01
100
AcDbArc
 50
180.0
 51
259.9999999997
  0
ARC
  5
3C2
100
AcDbEntity
  8
0
100
AcDbCircle
 62
7
  6
CONTINUOUS
 10
13.0459972687
 20
18.9759990049
 40
0.01
100
AcDbArc
 50
0.0
 51
79.9999999997
  0
ARC
  5
3C3
100
AcDbEntity
  8
0
100
AcDbCircle
 62
7
  6
CONTINUOUS
 10
13.4818634104
 20
19.9817579458
 40
0.768
100
AcDbArc
 50
139.3785239994
 51
173.5781868591
  0
ARC
  5
3C4
100
AcDbEntity
  8
0
100
AcDbCircle
 62
7
  6
CONTINUOUS
 10
13.5401311269
 20
19.9817579458
 40
0.768
100
AcDbArc
 50
6.4218131409
 51
40.621475991
  0
ARC
  5
3C5
100
AcDbEntity
  8
0
100
AcDbCircle
 62
7
  6
CONTINUOUS
 10
13.5117547685
 20
20.3635723934
 40
0.5944088589
100
AcDbArc
 50
311.3614521548
 51
311.7444232086
  0
ARC
  5
3C6
100
AcDbEntity
  8
0
100
AcDbCircle
 62
7
  6
CONTINUOUS
 10
13.5102373037
 20
20.3635696956
 40
0.5944052155
100
AcDbArc
 50
228.2555818936
 51
228.6385471539
  0
ARC
  5
3C7
100
AcDbEntity
  8
0
100
AcDbCircle
 62
7
  6
CONTINUOUS
 10
13.5127328711
 20
20.3629328326
 40
0.5932769295
100
AcDbArc
 50
311.7150685438
 51
354.9031548094
  0
ARC
  5
3C8
100
AcDbEntity
  8
0
100
AcDbCircle
 62
7
  6
CONTINUOUS
 10
13.5091788344
 20
20.3628904977
 40
0.5931866134
100
AcDbArc
 50
185.0934830459
 51
228.2881835969
  0
ARC
  5
3C9
100
AcDbEntity
  8
0
100
AcDbCircle
 62
9
  6
CONTINUOUS
 10
13.5092959404
 20
20.3570208927
 40
0.5083142288
100
AcDbArc
 50
185.1002521701
 51
237.7914438727
  0
ARC
  5
3CA
100
AcDbEntity
  8
0
100
AcDbCircle
 62
9
  6
CONTINUOUS
 10
13.5127042712
 20
20.3570178309
 40
0.5083079749
100
AcDbArc
 50
302.2085301478
 51
354.9000347335
  0
ARC
  5
3CB
100
AcDbEntity
  8
0
100
AcDbCircle
 62
9
  6
CONTINUOUS
 10
13.5095570043
 20
20.3571051899
 40
0.4885885683
100
AcDbArc
 50
185.1089650724
 51
236.3611558979
  0
ARC
  5
3CC
100
AcDbEntity
  8
0
100
AcDbCircle
 62
9
  6
CONTINUOUS
 10
13.5124437557
 20
20.3571014295
 40
0.4885815728
100
AcDbArc
 50
303.6385357311
 51
354.8914091846
  0
ARC
  5
3CD
100
AcDbEntity
  8
0
100
AcDbCircle
 62
7
  6
CONTINUOUS
 10
12.7971716841
 20
19.5690088158
 40
0.4750452665
100
AcDbArc
 50
22.0611339889
 51
24.1089237949
  0
ARC
  5
3CE
100
AcDbEntity
  8
0
100
AcDbCircle
 62
7
  6
CONTINUOUS
 10
12.7999299184
 20
19.5701810997
 40
0.4720486781
100
AcDbArc
 50
20.0926661459
 51
24.078226962
  0
ARC
  5
3CF
100
AcDbEntity
  8
0
100
AcDbCircle
 62
7
  6
CONTINUOUS
 10
12.8052241736
 20
19.5657942779
 40
0.4702241874
100
AcDbArc
 50
29.2806164365
 51
31.8883181019
  0
ARC
  5
3D0
100
AcDbEntity
  8
0
100
AcDbCircle
 62
7
  6
CONTINUOUS
 10
12.8146434314
 20
19.5709536848
 40
0.4594849947
100
AcDbArc
 50
24.8797229245
 51
29.2939122449
  0
ARC
  5
3D1
100
AcDbEntity
  8
0
100
AcDbCircle
 62
7
  6
CONTINUOUS
 10
12.8199826712
 20
19.573567175
 40
0.4535417571
100
AcDbArc
 50
20.3612241184
 51
24.8639768437
  0
ARC
  5
3D2
100
AcDbEntity
  8
0
100
AcDbCircle
 62
7
  6
CONTINUOUS
 10
11.0870579363
 20
20.4596344266
 40
7.0
100
AcDbArc
 50
270.0
 51
284.1407417626
  0
ARC
  5
3D3
100
AcDbEntity
  8
0
100
AcDbCircle
 62
7
  6
CONTINUOUS
 10
12.9784753437
 20
20.8237420079
 40
0.0849999543
100
AcDbArc
 50
5.1071623394
 51
95.0614793865
  0
ARC
  5
3D4
100
AcDbEntity
  8
0
100
AcDbCircle
 62
7
  6
CONTINUOUS
 10
12.9585448111
 20
20.8219799284
 40
0.084991134
100
AcDbArc
 50
95.0644475577
 51
180.0016310495
  0
ARC
  5
3D5
100
AcDbEntity
  8
0
100
AcDbCircle
 62
9
  6
CONTINUOUS
 10
12.9785536481
 20
20.8187123973
 40
0.084940704
100
AcDbArc
 50
5.1646329321
 51
95.129937052
  0
ARC
  5
3D6
100
AcDbEntity
  8
0
100
AcDbCircle
 62
7
  6
CONTINUOUS
 10
12.9584104248
 20
20.817009831
 40
0.0848587779
100
AcDbArc
 50
94.9846702855
 51
179.9427934305
  0
ARC
  5
3D7
100
AcDbEntity
  8
0
100
AcDbCircle
 62
9
  6
CONTINUOUS
 10
12.9787493713
 20
20.8237078973
 40
0.0847284158
100
AcDbArc
 50
5.100748666
 51
95.0703168657
  0
ARC
  5
3D8
100
AcDbEntity
  8
0
100
AcDbCircle
 62
9
  6
CONTINUOUS
 10
12.9581704452
 20
20.8219921525
 40
0.0846115284
100
AcDbArc
 50
95.0470330977
 51
180.0099196874
  0
ARC
  5
3D9
100
AcDbEntity
  8
0
100
AcDbCircle
 62
9
  6
CONTINUOUS
 10
13.433248959
 20
20.5323874609
 40
0.6957605763
100
AcDbArc
 50
248.5349052727
 51
249.6681992874
  0
ARC
  5
3DA
100
AcDbEntity
  8
0
100
AcDbCircle
 62
9
  6
CONTINUOUS
 10
13.6195069998
 20
20.3819609305
 40
0.5434708475
100
AcDbArc
 50
287.2981074308
 51
288.1618658847
  0
ARC
  5
3DB
100
AcDbEntity
  8
0
100
AcDbCircle
 62
9
  6
CONTINUOUS
 10
13.4024813852
 20
20.381940818
 40
0.5434498193
100
AcDbArc
 50
251.8380895062
 51
252.701849634
  0
ARC
  5
3DC
100
AcDbEntity
  8
0
100
AcDbCircle
 62
7
  6
CONTINUOUS
 10
13.5109972687
 20
20.3997579458
 40
0.54
100
AcDbArc
 50
35.64232984
 51
144.2885995271
  0
ARC
  5
3DD
100
AcDbEntity
  8
0
100
AcDbCircle
 62
7
  6
CONTINUOUS
 10
13.5109972687
 20
20.3980256623
 40
0.45
100
AcDbArc
 50
307.2240652511
 51
232.7816773979
  0
ARC
  5
3DE
100
AcDbEntity
  8
0
100
AcDbCircle
 62
7
  6
CONTINUOUS
 10
13.5109972687
 20
20.3997579458
 40
0.45
100
AcDbArc
 50
19.7362337178
 51
160.2637662822
  0
ARC
  5
3DF
100
AcDbEntity
  8
0
100
AcDbCircle
 62
7
  6
CONTINUOUS
 10
13.5109972687
 20
20.3980256623
 40
0.4290186125
100
AcDbArc
 50
309.4716690467
 51
230.5345767392
  0
ARC
  5
3E0
100
AcDbEntity
  8
0
100
AcDbCircle
 62
7
  6
CONTINUOUS
 10
13.5109972687
 20
20.3980256623
 40
0.4262436548
100
AcDbArc
 50
309.7787508711
 51
230.2132620092
  0
ARC
  5
3E1
100
AcDbEntity
  8
0
100
AcDbCircle
 62
7
  6
CONTINUOUS
 10
13.5109972687
 20
20.3980256623
 40
0.4184602369
100
AcDbArc
 50
63.6555586134
 51
116.3444413866
  0
ARC
  5
3E2
100
AcDbEntity
  8
0
100
AcDbCircle
 62
9
  6
CONTINUOUS
 10
13.5109972687
 20
20.3980256623
 40
0.4106539279
100
AcDbArc
 50
311.1953908563
 51
65.9483224696
  0
ARC
  5
3E3
100
AcDbEntity
  8
0
100
AcDbCircle
 62
9
  6
CONTINUOUS
 10
13.5109972687
 20
20.3980256623
 40
0.4106539279
100
AcDbArc
 50
114.0520582568
 51
228.8046021546
  0
ARC
  5
3E4
100
AcDbEntity
  8
0
100
AcDbCircle
 62
9
  6
CONTINUOUS
 10
13.5109972687
 20
20.3980256623
 40
0.3906653701
100
AcDbArc
 50
106.2804921621
 51
225.7982183496
  0
ARC
  5
3E5
100
AcDbEntity
  8
0
100
AcDbCircle
 62
9
  6
CONTINUOUS
 10
13.5109972687
 20
20.3980256623
 40
0.3906653701
100
AcDbArc
 50
314.2019388065
 51
73.7195078379
  0
ARC
  5
3E6
100
AcDbEntity
  8
0
100
AcDbCircle
 62
7
  6
CONTINUOUS
 10
13.5109972687
 20
20.3980256623
 40
0.27
100
AcDbArc
 50
0.0
 51
180.0
  0
ARC
  5
3E7
100
AcDbEntity
  8
0
100
AcDbCircle
 62
9
  6
CONTINUOUS
 10
12.8556584801
 20
21.9714700106
 40
1.1648581658
100
AcDbArc
 50
273.4695299525
 51
275.0677022161
  0
ARC
  5
3E8
100
AcDbEntity
  8
0
100
AcDbCircle
 62
7
  6
CONTINUOUS
 10
14.3312201366
 20
11.9118018698
 40
0.2502347194
100
AcDbArc
 50
141.8902043583
 51
179.731705059
  0
ARC
  5
3E9
100
AcDbEntity
  8
0
100
AcDbCircle
 62
7
  6
CONTINUOUS
 10
14.0875329943
 20
14.7995212499
 40
0.14
100
AcDbArc
 50
193.8868909235
 51
245.0
  0
ARC
  5
3EA
100
AcDbEntity
  8
0
100
AcDbCircle
 62
7
  6
CONTINUOUS
 10
14.0359972687
 20
12.1434193631
 40
0.125
100
AcDbArc
 50
321.8715656423
 51
90.0
  0
ARC
  5
3EB
100
AcDbEntity
  8
0
100
AcDbCircle
 62
7
  6
CONTINUOUS
 10
14.0903279773
 20
13.527825175
 40
0.0511811024
100
AcDbArc
 50
0.0
 51
81.3638693749
  0
ARC
  5
3EC
100
AcDbEntity
  8
0
100
AcDbCircle
 62
7
  6
CONTINUOUS
 10
14.0903279773
 20
12.5916907165
 40
0.0511811024
100
AcDbArc
 50
278.636130625
 51
360.0
  0
ARC
  5
3ED
100
AcDbEntity
  8
0
100
AcDbCircle
 62
7
  6
CONTINUOUS
 10
14.0744972687
 20
14.6180256623
 40
0.03
100
AcDbArc
 50
0.0
 51
65.0
  0
ARC
  5
3EE
100
AcDbEntity
  8
0
100
AcDbCircle
 62
7
  6
CONTINUOUS
 10
14.1355516856
 20
13.8983406229
 40
0.0196850394
100
AcDbArc
 50
15.0162737825
 51
90.0
  0
ARC
  5
3EF
100
AcDbEntity
  8
0
100
AcDbCircle
 62
7
  6
CONTINUOUS
 10
14.0197190214
 20
12.2881044025
 40
0.0196850394
100
AcDbArc
 50
270.0
 51
336.7547341089
  0
ARC
  5
3F0
100
AcDbEntity
  8
0
100
AcDbCircle
 62
7
  6
CONTINUOUS
 10
14.0659972687
 20
15.8441563826
 40
1.0
100
AcDbArc
 50
163.1650193268
 51
196.4742498649
  0
ARC
  5
3F1
100
AcDbEntity
  8
0
100
AcDbCircle
 62
7
  6
CONTINUOUS
 10
14.0434928786
 20
16.3949053281
 40
0.2099956099
100
AcDbArc
 50
126.749143685
 51
238.5191941557
  0
ARC
  5
3F2
100
AcDbEntity
  8
0
100
AcDbCircle
 62
7
  6
CONTINUOUS
 10
13.9900656577
 20
17.8569823226
 40
0.2090683891
100
AcDbArc
 50
147.0000000001
 51
237.3950799739
  0
ARC
  5
3F3
100
AcDbEntity
  8
0
100
AcDbCircle
 62
7
  6
CONTINUOUS
 10
13.9609972687
 20
16.1482534066
 40
0.05
100
AcDbArc
 50
122.5789703931
 51
196.8349806732
  0
ARC
  5
3F4
100
AcDbEntity
  8
0
100
AcDbCircle
 62
7
  6
CONTINUOUS
 10
13.9628919143
 20
15.5463927638
 40
0.05
100
AcDbArc
 50
163.5257501351
 51
246.5041233937
  0
ARC
  5
3F5
100
AcDbEntity
  8
0
100
AcDbCircle
 62
7
  6
CONTINUOUS
 10
13.9134972687
 20
18.1780256623
 40
0.03
100
AcDbArc
 50
327.0000000007
 51
90.0
  0
ARC
  5
3F6
100
AcDbEntity
  8
0
100
AcDbCircle
 62
7
  6
CONTINUOUS
 10
13.9309972687
 20
15.4730256623
 40
0.03
100
AcDbArc
 50
344.7503068298
 51
66.5041233935
  0
ARC
  5
3F7
100
AcDbEntity
  8
0
100
AcDbCircle
 62
7
  6
CONTINUOUS
 10
13.9063575995
 20
18.2280256623
 40
0.02
100
AcDbArc
 50
270.0
 51
358.958373324
  0
ARC
  5
3F8
100
AcDbEntity
  8
0
100
AcDbCircle
 62
7
  6
CONTINUOUS
 10
13.9259972687
 20
16.2030256623
 40
0.015
100
AcDbArc
 50
302.578970393
 51
58.5191941558
  0
ARC
  5
3F9
100
AcDbEntity
  8
0
100
AcDbCircle
 62
7
  6
CONTINUOUS
 10
14.983266291
 20
14.7187491603
 40
4.4015479212
100
AcDbArc
 50
99.8400373208
 51
99.9926775014
  0
ARC
  5
3FA
100
AcDbEntity
  8
0
100
AcDbCircle
 62
7
  6
CONTINUOUS
 10
14.9550786921
 20
14.8804434215
 40
4.237415405
100
AcDbArc
 50
99.9967010822
 51
100.1546760515
  0
ARC
  5
3FB
100
AcDbEntity
  8
0
100
AcDbCircle
 62
7
  6
CONTINUOUS
 10
15.4581964346
 20
13.0287579458
 40
0.93
100
AcDbArc
 50
219.4571851443
 51
236.2465612779
  0
ARC
  5
3FC
100
AcDbEntity
  8
0
100
AcDbCircle
 62
7
  6
CONTINUOUS
 10
15.4581964346
 20
13.0907579458
 40
0.93
100
AcDbArc
 50
123.7534387221
 51
140.5428148557
  0
ARC
  5
3FD
100
AcDbEntity
  8
0
100
AcDbCircle
 62
7
  6
CONTINUOUS
 10
15.0112839906
 20
13.8588979731
 40
0.07
100
AcDbArc
 50
128.0000000002
 51
175.8254193094
  0
ARC
  5
3FE
100
AcDbEntity
  8
0
100
AcDbCircle
 62
7
  6
CONTINUOUS
 10
15.0112839906
 20
12.2606179185
 40
0.07
100
AcDbArc
 50
184.1745806906
 51
231.9999999998
  0
ARC
  5
3FF
100
AcDbEntity
  8
0
100
AcDbCircle
 62
7
  6
CONTINUOUS
 10
14.7864697096
 20
12.4758716944
 40
0.06
100
AcDbArc
 50
180.0
 51
219.4571851441
  0
ARC
  5
400
100
AcDbEntity
  8
0
100
AcDbCircle
 62
7
  6
CONTINUOUS
 10
14.7864697096
 20
13.6436441972
 40
0.06
100
AcDbArc
 50
140.5428148559
 51
180.0
  0
ARC
  5
401
100
AcDbEntity
  8
0
100
AcDbCircle
 62
7
  6
CONTINUOUS
 10
15.1232527834
 20
13.9717579458
 40
0.05
100
AcDbArc
 50
66.493469286
 51
127.9999999998
  0
ARC
  5
402
100
AcDbEntity
  8
0
100
AcDbCircle
 62
7
  6
CONTINUOUS
 10
15.1232527834
 20
12.1477579458
 40
0.05
100
AcDbArc
 50
232.0000000002
 51
293.506530714
  0
ARC
  5
403
100
AcDbEntity
  8
0
100
AcDbCircle
 62
7
  6
CONTINUOUS
 10
15.1591496069
 20
12.0652266302
 40
0.04
100
AcDbArc
 50
49.6329096607
 51
113.506530714
  0
ARC
  5
404
100
AcDbEntity
  8
0
100
AcDbCircle
 62
7
  6
CONTINUOUS
 10
15.1591496069
 20
14.0542892614
 40
0.04
100
AcDbArc
 50
246.493469286
 51
310.3670903393
  0
ARC
  5
405
100
AcDbEntity
  8
0
100
AcDbCircle
 62
7
  6
CONTINUOUS
 10
15.3664697096
 20
14.1506548787
 40
0.03
100
AcDbArc
 50
0.0
 51
135.1193345944
  0
ARC
  5
406
100
AcDbEntity
  8
0
100
AcDbCircle
 62
7
  6
CONTINUOUS
 10
15.3664697096
 20
11.9688610129
 40
0.03
100
AcDbArc
 50
224.8806654056
 51
360.0
  0
ARC
  5
407
100
AcDbEntity
  8
0
100
AcDbCircle
 62
7
  6
CONTINUOUS
 10
15.3009972687
 20
15.0995286744
 40
1.39
100
AcDbArc
 50
164.7503068292
 51
193.8868909235
  0
ARC
  5
408
100
AcDbEntity
  8
0
100
AcDbCircle
 62
9
  6
CONTINUOUS
 10
14.3386817
 20
19.5446231128
 40
0.6365964437
100
AcDbArc
 50
149.7247666838
 51
151.2365306725
  0
ARC
  5
409
100
AcDbEntity
  8
0
100
AcDbCircle
 62
7
  6
CONTINUOUS
 10
14.249598974
 20
19.5566858224
 40
0.5027345704
100
AcDbArc
 50
146.1146375618
 51
151.6153638478
  0
ARC
  5
40A
100
AcDbEntity
  8
0
100
AcDbCircle
 62
7
  6
CONTINUOUS
 10
14.2362632861
 20
19.5638410995
 40
0.4876006181
100
AcDbArc
 50
151.6101244473
 51
155.7450884248
  0
ARC
  5
40B
100
AcDbEntity
  8
0
100
AcDbCircle
 62
7
  6
CONTINUOUS
 10
14.2346277045
 20
19.5649175108
 40
0.4856813666
100
AcDbArc
 50
151.6784359432
 51
155.8657371563
  0
ARC
  5
40C
100
AcDbEntity
  8
0
100
AcDbCircle
 62
7
  6
CONTINUOUS
 10
14.2226067206
 20
19.5620619321
 40
0.4771509136
100
AcDbArc
 50
142.9516794833
 51
144.840514117
  0
ARC
  5
40D
100
AcDbEntity
  8
0
100
AcDbCircle
 62
7
  6
CONTINUOUS
 10
14.2256361691
 20
19.5690513169
 40
0.4757855742
100
AcDbArc
 50
155.9395008484
 51
156.5234664056
  0
ARC
  5
40E
100
AcDbEntity
  8
0
100
AcDbCircle
 62
7
  6
CONTINUOUS
 10
14.2210071799
 20
19.5631660655
 40
0.4752057592
100
AcDbArc
 50
144.8400271054
 51
148.1117618643
  0
ARC
  5
40F
100
AcDbEntity
  8
0
100
AcDbCircle
 62
7
  6
CONTINUOUS
 10
14.2230900426
 20
19.5702243523
 40
0.4729842248
100
AcDbArc
 50
158.0034758594
 51
159.5906228104
  0
ARC
  5
410
100
AcDbEntity
  8
0
100
AcDbCircle
 62
7
  6
CONTINUOUS
 10
14.2218593852
 20
19.5702654841
 40
0.4718288575
100
AcDbArc
 50
155.8656704434
 51
159.5432603012
  0
ARC
  5
411
100
AcDbEntity
  8
0
100
AcDbCircle
 62
7
  6
CONTINUOUS
 10
14.2171067966
 20
19.5655822044
 40
0.4706176619
100
AcDbArc
 50
148.1106738625
 51
150.6793251412
  0
ARC
  5
412
100
AcDbEntity
  8
0
100
AcDbCircle
 62
7
  6
CONTINUOUS
 10
14.2075736375
 20
19.5708057111
 40
0.4597478489
100
AcDbArc
 50
150.6651150424
 51
155.1761789047
  0
ARC
  5
413
100
AcDbEntity
  8
0
100
AcDbCircle
 62
7
  6
CONTINUOUS
 10
14.2018915128
 20
19.5735696055
 40
0.4534303878
100
AcDbArc
 50
155.1917207073
 51
159.6330623925
  0
ARC
  5
414
100
AcDbEntity
  8
0
100
AcDbCircle
 62
7
  6
CONTINUOUS
 10
14.1506491342
 20
18.9100538716
 40
0.1476543285
100
AcDbArc
 50
94.1921217582
 51
95.6756912645
  0
ARC
  5
415
100
AcDbEntity
  8
0
100
AcDbCircle
 62
7
  6
CONTINUOUS
 10
14.5009972687
 20
19.1807823535
 40
0.05
100
AcDbArc
 50
0.0
 51
40.9058661424
  0
ARC
  5
416
100
AcDbEntity
  8
0
100
AcDbCircle
 62
7
  6
CONTINUOUS
 10
14.3459972687
 20
19.0877579458
 40
0.01
100
AcDbArc
 50
90.0
 51
180.0
  0
ARC
  5
417
100
AcDbEntity
  8
0
100
AcDbCircle
 62
7
  6
CONTINUOUS
 10
14.3259972687
 20
19.082392219
 40
0.01
100
AcDbArc
 50
279.9999999993
 51
360.0
  0
ARC
  5
418
100
AcDbEntity
  8
0
100
AcDbCircle
 62
7
  6
CONTINUOUS
 10
14.1309972687
 20
19.0236382191
 40
0.01
100
AcDbArc
 50
280.0000000003
 51
360.0
  0
ARC
  5
419
100
AcDbEntity
  8
0
100
AcDbCircle
 62
7
  6
CONTINUOUS
 10
14.1509972687
 20
19.0312264652
 40
0.01
100
AcDbArc
 50
100.0000000003
 51
180.0
  0
ARC
  5
41A
100
AcDbEntity
  8
0
100
AcDbCircle
 62
7
  6
CONTINUOUS
 10
13.9759972687
 20
18.9759990049
 40
0.01
100
AcDbArc
 50
100.0000000003
 51
180.0
  0
ARC
  5
41B
100
AcDbEntity
  8
0
100
AcDbCircle
 62
7
  6
CONTINUOUS
 10
13.9559972687
 20
18.9684107588
 40
0.01
100
AcDbArc
 50
280.0000000003
 51
360.0
  0
ARC
  5
41C
100
AcDbEntity
  8
0
100
AcDbCircle
 62
9
  6
CONTINUOUS
 10
14.1630220129
 20
21.9270693634
 40
1.1203385132
100
AcDbArc
 50
264.900541772
 51
266.5622260593
  0
ARC
  5
41D
100
AcDbEntity
  8
0
100
AcDbCircle
 62
7
  6
CONTINUOUS
 10
14.0435188361
 20
20.8237423068
 40
0.0849995804
100
AcDbArc
 50
84.9420232137
 51
174.9141358062
  0
ARC
  5
41E
100
AcDbEntity
  8
0
100
AcDbCircle
 62
7
  6
CONTINUOUS
 10
14.0634452569
 20
20.8219808909
 40
0.0849945013
100
AcDbArc
 50
0.0180058474
 51
84.9384639512
  0
ARC
  5
41F
100
AcDbEntity
  8
0
100
AcDbCircle
 62
9
  6
CONTINUOUS
 10
14.04344089
 20
20.8187123979
 40
0.084940704
100
AcDbArc
 50
84.8700634299
 51
174.8353675541
  0
ARC
  5
420
100
AcDbEntity
  8
0
100
AcDbCircle
 62
7
  6
CONTINUOUS
 10
14.0635841172
 20
20.8170098332
 40
0.0848587836
100
AcDbArc
 50
0.0572051226
 51
85.0153327688
  0
ARC
  5
421
100
AcDbEntity
  8
0
100
AcDbCircle
 62
9
  6
CONTINUOUS
 10
14.0636524289
 20
20.8219034633
 40
0.0848000682
100
AcDbArc
 50
0.0548936987
 51
84.9533495981
  0
ARC
  5
422
100
AcDbEntity
  8
0
100
AcDbCircle
 62
9
  6
CONTINUOUS
 10
14.0432450745
 20
20.8237083687
 40
0.0847282827
100
AcDbArc
 50
84.9308282804
 51
174.8995633207
  0
ARC
  5
423
100
AcDbEntity
  8
0
100
AcDbCircle
 62
7
  6
CONTINUOUS
 10
15.1343462975
 20
19.7295200028
 40
0.788
100
AcDbArc
 50
186.4218131409
 51
220.9058661425
  0
ARC
  5
424
100
AcDbEntity
  8
0
100
AcDbCircle
 62
9
  6
CONTINUOUS
 10
13.8843203695
 20
49.083521806
 40
37.018482835
100
AcDbArc
 50
269.840503392
 51
270.0095284856
  0
ARC
  5
425
100
AcDbEntity
  8
0
100
AcDbCircle
 62
9
  6
CONTINUOUS
 10
13.8321101331
 20
40.3351274576
 40
28.4240652215
100
AcDbArc
 50
269.8997146434
 51
270.0499851677
  0
ARC
  5
426
100
AcDbEntity
  8
0
100
AcDbCircle
 62
9
  6
CONTINUOUS
 10
26.4459331689
 20
22.0115744997
 40
13.5206941574
100
AcDbArc
 50
184.9466830469
 51
185.0860973364
  0
SPLINE
  5
427
100
AcDbEntity
  8
0
100
AcDbSpline
 62
7
  6
CONTINUOUS
 70
0
 71
3
 72
13
 73
9
 74
0
 42
0.0000001
 43
0.0000001
 44
0.0000000001
 40
0.0
 40
0.0
 40
0.0
 40
0.0
 40
0.058180107
 40
0.1439862525
 40
0.2539445333
 40
0.3839414888
 40
0.6837756862
 40
1.0
 40
1.0
 40
1.0
 40
1.0
 10
14.1731358934
 20
19.0499626667
 30
0.0
 10
14.1736580073
 20
19.0501464213
 30
0.0
 10
14.1749784095
 20
19.0505172841
 30
0.0
 10
14.1773239642
 20
19.0510943554
 30
0.0
 10
14.1803508761
 20
19.051762026
 30
0.0
 10
14.1853821844
 20
19.0527906462
 30
0.0
 10
14.192362254
 20
19.0540813115
 30
0.0
 10
14.1981443085
 20
19.0550419219
 30
0.0
 10
14.2011168116
 20
19.0555056055
 30
0.0
  0
LINE
  5
428
100
AcDbEntity
  8
0
100
AcDbLine
 62
7
  6
CONTINUOUS
 10
14.2011168116
 20
19.0555056055
 11
14.2115948435
 21
19.0569843423
  0
LINE
  5
429
100
AcDbEntity
  8
0
100
AcDbLine
 62
7
  6
CONTINUOUS
 10
14.2115948435
 20
19.0569843423
 11
14.2175720106
 21
19.05751465
  0
SPLINE
  5
42A
100
AcDbEntity
  8
0
100
AcDbSpline
 62
7
  6
CONTINUOUS
 70
0
 71
3
 72
14
 73
10
 74
0
 42
0.0000001
 43
0.0000001
 44
0.0000000001
 40
0.0
 40
0.0
 40
0.0
 40
0.0
 40
0.0300663417
 40
0.0872438388
 40
0.1739180577
 40
0.2894637187
 40
0.4324808092
 40
0.6004682053
 40
1.0
 40
1.0
 40
1.0
 40
1.0
 10
14.1015762445
 20
19.0499639
 30
0.0
 10
14.10157405
 20
19.0500834363
 30
0.0
 10
14.1018575345
 20
19.0503699498
 30
0.0
 10
14.1024440014
 20
19.0506785505
 30
0.0
 10
14.1034112905
 20
19.0510801753
 30
0.0
 10
14.104710226
 20
19.0515079537
 30
0.0
 10
14.1063427671
 20
19.0519768938
 30
0.0
 10
14.1090799749
 20
19.0526745948
 30
0.0
 10
14.1112854175
 20
19.0531580704
 30
0.0
 10
14.1128417712
 20
19.0534770565
 30
0.0
  0
LINE
  5
42B
100
AcDbEntity
  8
0
100
AcDbLine
 62
7
  6
CONTINUOUS
 10
14.1128417712
 20
19.0534770565
 11
14.1243779892
 21
19.0555056055
  0
LINE
  5
42C
100
AcDbEntity
  8
0
100
AcDbLine
 62
7
  6
CONTINUOUS
 10
14.1243779892
 20
19.0555056055
 11
14.1360464798
 21
19.0569843423
  0
LINE
  5
42D
100
AcDbEntity
  8
0
100
AcDbLine
 62
7
  6
CONTINUOUS
 10
14.1398554457
 20
19.0573131566
 11
14.1444948515
 21
19.05751465
  0
SPLINE
  5
42E
100
AcDbEntity
  8
0
100
AcDbSpline
 62
7
  6
CONTINUOUS
 70
0
 71
3
 72
10
 73
6
 74
0
 42
0.0000001
 43
0.0000001
 44
0.0000000001
 40
0.0
 40
0.0
 40
0.0
 40
0.0
 40
0.3023355727
 40
0.5990526497
 40
1.0
 40
1.0
 40
1.0
 40
1.0
 10
14.1475759579
 20
19.0569872535
 30
0.0
 10
14.1475722703
 20
19.0571476424
 30
0.0
 10
14.1471696029
 20
19.0573078376
 30
0.0
 10
14.1466947683
 20
19.0573999916
 30
0.0
 10
14.1463132304
 20
19.0574430933
 30
0.0
 10
14.1461011712
 20
19.0574603321
 30
0.0
  0
LINE
  5
42F
100
AcDbEntity
  8
0
100
AcDbLine
 62
7
  6
CONTINUOUS
 10
14.1461011712
 20
19.0574603321
 11
14.1444948515
 21
19.05751465
  0
SPLINE
  5
430
100
AcDbEntity
  8
0
100
AcDbSpline
 62
7
  6
CONTINUOUS
 70
0
 71
3
 72
16
 73
12
 74
0
 42
0.0000001
 43
0.0000001
 44
0.0000000001
 40
0.0
 40
0.0
 40
0.0
 40
0.0
 40
0.0128625583
 40
0.0326344296
 40
0.0610088173
 40
0.0981566931
 40
0.1973089222
 40
0.3262704356
 40
0.4789138469
 40
0.6476651138
 40
1.0
 40
1.0
 40
1.0
 40
1.0
 10
13.9889834716
 20
19.0506251838
 30
0.0
 10
13.9889838485
 20
19.0507536841
 30
0.0
 10
13.9891579824
 20
19.0510631378
 30
0.0
 10
13.9896458331
 20
19.0514275139
 30
0.0
 10
13.9903998166
 20
19.0518326616
 30
0.0
 10
13.9919226773
 20
19.0524571212
 30
0.0
 10
13.9944611861
 20
19.0532339094
 30
0.0
 10
13.9981605224
 20
19.054122059
 30
0.0
 10
14.0025773011
 20
19.0549865668
 30
0.0
 10
14.0092223318
 20
19.0560608088
 30
0.0
 10
14.0143959002
 20
19.0566731097
 30
0.0
 10
14.0179020453
 20
19.0569843423
 30
0.0
  0
SPLINE
  5
431
100
AcDbEntity
  8
0
100
AcDbSpline
 62
7
  6
CONTINUOUS
 70
0
 71
3
 72
9
 73
5
 74
0
 42
0.0000001
 43
0.0000001
 44
0.0000000001
 40
0.0
 40
0.0
 40
0.0
 40
0.0
 40
0.5393174251
 40
1.0
 40
1.0
 40
1.0
 40
1.0
 10
14.0179020453
 20
19.0569843423
 30
0.0
 10
14.0197571421
 20
19.057149015
 30
0.0
 10
14.0232020153
 20
19.0573975918
 30
0.0
 10
14.0266550327
 20
19.05751465
 30
0.0
 10
14.0282458791
 20
19.05751465
 30
0.0
  0
SPLINE
  5
432
100
AcDbEntity
  8
0
100
AcDbSpline
 62
7
  6
CONTINUOUS
 70
0
 71
3
 72
10
 73
6
 74
0
 42
0.0000001
 43
0.0000001
 44
0.0000000001
 40
0.0
 40
0.0
 40
0.0
 40
0.0
 40
0.3392286111
 40
0.6227253192
 40
1.0
 40
1.0
 40
1.0
 40
1.0
 10
14.0349816207
 20
19.0563588528
 30
0.0
 10
14.034982253
 20
19.056542009
 30
0.0
 10
14.0346735414
 20
19.0568189195
 30
0.0
 10
14.0341857228
 20
19.0569998986
 30
0.0
 10
14.0338349544
 20
19.0570927906
 30
0.0
 10
14.0336357951
 20
19.0571355568
 30
0.0
  0
SPLINE
  5
433
100
AcDbEntity
  8
0
100
AcDbSpline
 62
7
  6
CONTINUOUS
 70
0
 71
3
 72
9
 73
5
 74
0
 42
0.0000001
 43
0.0000001
 44
0.0000000001
 40
0.0
 40
0.0
 40
0.0
 40
0.0
 40
0.4169968963
 40
1.0
 40
1.0
 40
1.0
 40
1.0
 10
14.0336357951
 20
19.0571355568
 30
0.0
 10
14.0329006867
 20
19.0572934092
 30
0.0
 10
14.031098787
 20
19.0574703981
 30
0.0
 10
14.0292970618
 20
19.05751465
 30
0.0
 10
14.0282458791
 20
19.05751465
 30
0.0
  0
SPLINE
  5
434
100
AcDbEntity
  8
0
100
AcDbSpline
 62
7
  6
CONTINUOUS
 70
0
 71
3
 72
14
 73
10
 74
0
 42
0.0000001
 43
0.0000001
 44
0.0000000001
 40
0.0
 40
0.0
 40
0.0
 40
0.0
 40
0.0355846096
 40
0.0633170507
 40
0.0986221402
 40
0.1922735895
 40
0.314917935
 40
0.6296379528
 40
1.0
 40
1.0
 40
1.0
 40
1.0
 10
13.8422472811
 20
19.0514814655
 30
0.0
 10
13.8422478654
 20
19.0517665414
 30
0.0
 10
13.8426345092
 20
19.0522121549
 30
0.0
 10
13.8432754295
 20
19.0526379079
 30
0.0
 10
13.8444045618
 20
19.0532131202
 30
0.0
 10
13.8463059232
 20
19.0538813197
 30
0.0
 10
13.8504215547
 20
19.0549763948
 30
0.0
 10
13.8568012753
 20
19.0561051401
 30
0.0
 10
13.862256678
 20
19.0567308776
 30
0.0
 10
13.8652128879
 20
19.0569843423
 30
0.0
  0
SPLINE
  5
435
100
AcDbEntity
  8
0
100
AcDbSpline
 62
7
  6
CONTINUOUS
 70
0
 71
3
 72
9
 73
5
 74
0
 42
0.0000001
 43
0.0000001
 44
0.0000000001
 40
0.0
 40
0.0
 40
0.0
 40
0.0
 40
0.2618094867
 40
1.0
 40
1.0
 40
1.0
 40
1.0
 10
13.8652128879
 20
19.0569843423
 30
0.0
 10
13.866217028
 20
19.057070437
 30
0.0
 10
13.8700554873
 20
19.0573598831
 30
0.0
 10
13.8739056366
 20
19.05751465
 30
0.0
 10
13.8767472687
 20
19.05751465
 30
0.0
  0
SPLINE
  5
436
100
AcDbEntity
  8
0
100
AcDbSpline
 62
7
  6
CONTINUOUS
 70
0
 71
3
 72
10
 73
6
 74
0
 42
0.0000001
 43
0.0000001
 44
0.0000000001
 40
0.0
 40
0.0
 40
0.0
 40
0.0
 40
0.3229557797
 40
0.6129638913
 40
1.0
 40
1.0
 40
1.0
 40
1.0
 10
13.8882473856
 20
19.0555354642
 30
0.0
 10
13.8882479618
 20
19.0559059482
 30
0.0
 10
13.8874945817
 20
19.0564032181
 30
0.0
 10
13.8864639434
 20
19.0567264481
 30
0.0
 10
13.8856858287
 20
19.0568964879
 30
0.0
 10
13.8852484668
 20
19.0569729498
 30
0.0
  0
SPLINE
  5
437
100
AcDbEntity
  8
0
100
AcDbSpline
 62
7
  6
CONTINUOUS
 70
0
 71
3
 72
9
 73
5
 74
0
 42
0.0000001
 43
0.0000001
 44
0.0000000001
 40
0.0
 40
0.0
 40
0.0
 40
0.0
 40
0.4364052376
 40
1.0
 40
1.0
 40
1.0
 40
1.0
 10
13.8852484668
 20
19.0569729498
 30
0.0
 10
13.8840268641
 20
19.0571865166
 30
0.0
 10
13.8811899134
 20
19.057444406
 30
0.0
 10
13.8783488331
 20
19.05751465
 30
0.0
 10
13.8767472687
 20
19.05751465
 30
0.0
  0
SPLINE
  5
438
100
AcDbEntity
  8
0
100
AcDbSpline
 62
7
  6
CONTINUOUS
 70
0
 71
3
 72
10
 73
6
 74
0
 42
0.0000001
 43
0.0000001
 44
0.0000000001
 40
0.0
 40
0.0
 40
0.0
 40
0.0
 40
0.3219814789
 40
0.6123696063
 40
1.0
 40
1.0
 40
1.0
 40
1.0
 10
13.1337471951
 20
19.0555354731
 30
0.0
 10
13.1337464589
 20
19.0559118173
 30
0.0
 10
13.1345200838
 20
19.0564126099
 30
0.0
 10
13.1355699376
 20
19.0567371166
 30
0.0
 10
13.1363649531
 20
19.0569077851
 30
0.0
 10
13.1368115163
 20
19.0569843423
 30
0.0
  0
SPLINE
  5
439
100
AcDbEntity
  8
0
100
AcDbSpline
 62
7
  6
CONTINUOUS
 70
0
 71
3
 72
9
 73
5
 74
0
 42
0.0000001
 43
0.0000001
 44
0.0000000001
 40
0.0
 40
0.0
 40
0.0
 40
0.0
 40
0.4374159198
 40
1.0
 40
1.0
 40
1.0
 40
1.0
 10
13.1368115163
 20
19.0569843423
 30
0.0
 10
13.1380271178
 20
19.0571927408
 30
0.0
 10
13.1408419427
 20
19.05744581
 30
0.0
 10
13.1436610094
 20
19.05751465
 30
0.0
 10
13.1452472687
 20
19.05751465
 30
0.0
  0
SPLINE
  5
43A
100
AcDbEntity
  8
0
100
AcDbSpline
 62
7
  6
CONTINUOUS
 70
0
 71
3
 72
14
 73
10
 74
0
 42
0.0000001
 43
0.0000001
 44
0.0000000001
 40
0.0
 40
0.0
 40
0.0
 40
0.0
 40
0.0356101367
 40
0.0633226774
 40
0.0985923825
 40
0.1921442196
 40
0.3146671666
 40
0.6292617174
 40
1.0
 40
1.0
 40
1.0
 40
1.0
 10
13.1797472488
 20
19.0514815446
 30
0.0
 10
13.1797466176
 20
19.051765256
 30
0.0
 10
13.1793634286
 20
19.0522090792
 30
0.0
 10
13.1787267146
 20
19.0526334717
 30
0.0
 10
13.1776057352
 20
19.0532064159
 30
0.0
 10
13.1757173554
 20
19.053872224
 30
0.0
 10
13.1716280434
 20
19.0549642365
 30
0.0
 10
13.1652831574
 20
19.0560915993
 30
0.0
 10
13.1598562639
 20
19.0567181587
 30
0.0
 10
13.1569135373
 20
19.0569729498
 30
0.0
  0
SPLINE
  5
43B
100
AcDbEntity
  8
0
100
AcDbSpline
 62
7
  6
CONTINUOUS
 70
0
 71
3
 72
9
 73
5
 74
0
 42
0.0000001
 43
0.0000001
 44
0.0000000001
 40
0.0
 40
0.0
 40
0.0
 40
0.0
 40
0.261751521
 40
1.0
 40
1.0
 40
1.0
 40
1.0
 10
13.1569135373
 20
19.0569729498
 30
0.0
 10
13.1558981894
 20
19.057060862
 30
0.0
 10
13.1520159593
 20
19.0573563906
 30
0.0
 10
13.1481216873
 20
19.05751465
 30
0.0
 10
13.1452472687
 20
19.05751465
 30
0.0
  0
SPLINE
  5
43C
100
AcDbEntity
  8
0
100
AcDbSpline
 62
7
  6
CONTINUOUS
 70
0
 71
3
 72
10
 73
6
 74
0
 42
0.0000001
 43
0.0000001
 44
0.0000000001
 40
0.0
 40
0.0
 40
0.0
 40
0.0
 40
0.3394139051
 40
0.6228247346
 40
1.0
 40
1.0
 40
1.0
 40
1.0
 10
12.9870132384
 20
19.0563588211
 30
0.0
 10
12.9870126904
 20
19.0565419527
 30
0.0
 10
12.9873210537
 20
19.056818739
 30
0.0
 10
12.9878084633
 20
19.0569999351
 30
0.0
 10
12.988158867
 20
19.0570928193
 30
0.0
 10
12.9883578311
 20
19.0571355776
 30
0.0
  0
SPLINE
  5
43D
100
AcDbEntity
  8
0
100
AcDbSpline
 62
7
  6
CONTINUOUS
 70
0
 71
3
 72
9
 73
5
 74
0
 42
0.0000001
 43
0.0000001
 44
0.0000000001
 40
0.0
 40
0.0
 40
0.0
 40
0.0
 40
0.4169227236
 40
1.0
 40
1.0
 40
1.0
 40
1.0
 10
12.9883578311
 20
19.0571355776
 30
0.0
 10
12.9890929069
 20
19.0572935488
 30
0.0
 10
12.9908951486
 20
19.057470422
 30
0.0
 10
12.9926971645
 20
19.05751465
 30
0.0
 10
12.9937486582
 20
19.05751465
 30
0.0
  0
SPLINE
  5
43E
100
AcDbEntity
  8
0
100
AcDbSpline
 62
7
  6
CONTINUOUS
 70
0
 71
3
 72
16
 73
12
 74
0
 42
0.0000001
 43
0.0000001
 44
0.0000000001
 40
0.0
 40
0.0
 40
0.0
 40
0.0
 40
0.0128709687
 40
0.0326293273
 40
0.0609670205
 40
0.0980592646
 40
0.1970687216
 40
0.3258829993
 40
0.4784169689
 40
0.6471567677
 40
1.0
 40
1.0
 40
1.0
 40
1.0
 10
13.0330112405
 20
19.0506252024
 30
0.0
 10
13.0330108554
 20
19.0507532383
 30
0.0
 10
13.0328379985
 20
19.0510614768
 30
0.0
 10
13.0323530133
 20
19.0514247897
 30
0.0
 10
13.0316036179
 20
19.051828485
 30
0.0
 10
13.0300899519
 20
19.0524507504
 30
0.0
 10
13.0275660619
 20
19.0532248759
 30
0.0
 10
13.023886866
 20
19.0541103902
 30
0.0
 10
13.0194920096
 20
19.0549730736
 30
0.0
 10
13.0128720843
 20
19.056046878
 30
0.0
 10
13.0077160344
 20
19.0566600358
 30
0.0
 10
13.0042200349
 20
19.0569729498
 30
0.0
  0
SPLINE
  5
43F
100
AcDbEntity
  8
0
100
AcDbSpline
 62
7
  6
CONTINUOUS
 70
0
 71
3
 72
9
 73
5
 74
0
 42
0.0000001
 43
0.0000001
 44
0.0000000001
 40
0.0
 40
0.0
 40
0.0
 40
0.0
 40
0.5394859719
 40
1.0
 40
1.0
 40
1.0
 40
1.0
 10
13.0042200349
 20
19.0569729498
 30
0.0
 10
13.0023415491
 20
19.0571410861
 30
0.0
 10
12.9988542498
 20
19.0573947846
 30
0.0
 10
12.9953585747
 20
19.05751465
 30
0.0
 10
12.9937486582
 20
19.05751465
 30
0.0
  0
SPLINE
  5
440
100
AcDbEntity
  8
0
100
AcDbSpline
 62
7
  6
CONTINUOUS
 70
0
 71
3
 72
10
 73
6
 74
0
 42
0.0000001
 43
0.0000001
 44
0.0000000001
 40
0.0
 40
0.0
 40
0.0
 40
0.0
 40
0.3019505587
 40
0.5987898087
 40
1.0
 40
1.0
 40
1.0
 40
1.0
 10
12.8744183272
 20
19.0569872863
 30
0.0
 10
12.874421495
 20
19.0571480561
 30
0.0
 10
12.8748262982
 20
19.0573086298
 30
0.0
 10
12.8753025478
 20
19.0574005795
 30
0.0
 10
12.8756857924
 20
19.0574436559
 30
0.0
 10
12.8758987606
 20
19.0574608453
 30
0.0
  0
LINE
  5
441
100
AcDbEntity
  8
0
100
AcDbLine
 62
7
  6
CONTINUOUS
 10
12.8758987606
 20
19.0574608453
 11
12.8774996858
 21
19.05751465
  0
SPLINE
  5
442
100
AcDbEntity
  8
0
100
AcDbSpline
 62
7
  6
CONTINUOUS
 70
0
 71
3
 72
13
 73
9
 74
0
 42
0.0000001
 43
0.0000001
 44
0.0000000001
 40
0.0
 40
0.0
 40
0.0
 40
0.0
 40
0.119850984
 40
0.2440494255
 40
0.497924996
 40
0.7529648965
 40
0.8784517348
 40
1.0
 40
1.0
 40
1.0
 40
1.0
 10
6.0904297661
 20
9.1595111879
 30
0.0
 10
6.0955795735
 20
9.1612575696
 30
0.0
 10
6.1058038514
 20
9.1656390061
 30
0.0
 10
6.1251498428
 20
9.1773984288
 30
0.0
 10
6.1463856285
 20
9.1974620154
 30
0.0
 10
6.160176961
 20
9.2232864106
 30
0.0
 10
6.1664713403
 20
9.2452304703
 30
0.0
 10
6.1679990362
 20
9.2563877773
 30
0.0
 10
6.168311974
 20
9.2618937644
 30
0.0
  0
SPLINE
  5
443
100
AcDbEntity
  8
0
100
AcDbSpline
 62
7
  6
CONTINUOUS
 70
0
 71
3
 72
14
 73
10
 74
0
 42
0.0000001
 43
0.0000001
 44
0.0000000001
 40
0.0
 40
0.0
 40
0.0
 40
0.0
 40
0.0301029923
 40
0.0872771909
 40
0.1739264652
 40
0.2894313935
 40
0.4324031729
 40
0.6003657438
 40
1.0
 40
1.0
 40
1.0
 40
1.0
 10
12.9204182422
 20
19.0499638973
 30
0.0
 10
12.9204205375
 20
19.0500828094
 30
0.0
 10
12.9201395736
 20
19.0503682029
 30
0.0
 10
12.919556956
 20
19.0506755239
 30
0.0
 10
12.9185965872
 20
19.0510753042
 30
0.0
 10
12.917306641
 20
19.0515010913
 30
0.0
 10
12.9156852862
 20
19.0519678563
 30
0.0
 10
12.9129658606
 20
19.0526625036
 30
0.0
 10
12.9107744825
 20
19.0531439161
 30
0.0
 10
12.9092278603
 20
19.0534616349
 30
0.0
  0
LINE
  5
444
100
AcDbEntity
  8
0
100
AcDbLine
 62
7
  6
CONTINUOUS
 10
12.9092278603
 20
19.0534616349
 11
12.8977489556
 21
19.0554855646
  0
LINE
  5
445
100
AcDbEntity
  8
0
100
AcDbLine
 62
7
  6
CONTINUOUS
 10
12.8977489556
 20
19.0554855646
 11
12.8860625635
 21
19.0569729498
  0
LINE
  5
446
100
AcDbEntity
  8
0
100
AcDbLine
 62
7
  6
CONTINUOUS
 10
12.8860625635
 20
19.0569729498
 11
12.8821383135
 21
19.057313138
  0
LINE
  5
447
100
AcDbEntity
  8
0
100
AcDbLine
 62
7
  6
CONTINUOUS
 10
12.8821383135
 20
19.057313138
 11
12.8774996858
 21
19.05751465
  0
SPLINE
  5
448
100
AcDbEntity
  8
0
100
AcDbSpline
 62
7
  6
CONTINUOUS
 70
0
 71
3
 72
13
 73
9
 74
0
 42
0.0000001
 43
0.0000001
 44
0.0000000001
 40
0.0
 40
0.0
 40
0.0
 40
0.0
 40
0.0583242003
 40
0.1441577776
 40
0.254050972
 40
0.3839268633
 40
0.6835621132
 40
1.0
 40
1.0
 40
1.0
 40
1.0
 10
12.8488509424
 20
19.0499653538
 30
0.0
 10
12.8483299234
 20
19.0501482677
 30
0.0
 10
12.8470143686
 20
19.0505177587
 30
0.0
 10
12.8446791684
 20
19.0510923274
 30
0.0
 10
12.8416684416
 20
19.051756782
 30
0.0
 10
12.8366651515
 20
19.0527803117
 30
0.0
 10
12.8297200276
 20
19.0540656537
 30
0.0
 10
12.8239660088
 20
19.0550229344
 30
0.0
 10
12.8210060157
 20
19.0554855646
 30
0.0
  0
LINE
  5
449
100
AcDbEntity
  8
0
100
AcDbLine
 62
7
  6
CONTINUOUS
 10
12.8210060157
 20
19.0554855646
 11
12.8104933594
 21
19.0569729498
  0
LINE
  5
44A
100
AcDbEntity
  8
0
100
AcDbLine
 62
7
  6
CONTINUOUS
 10
12.8104933594
 20
19.0569729498
 11
12.8044225267
 21
19.05751465
  0
SPLINE
  5
44B
100
AcDbEntity
  8
0
100
AcDbSpline
 62
7
  6
CONTINUOUS
 70
0
 71
3
 72
13
 73
9
 74
0
 42
0.0000001
 43
0.0000001
 44
0.0000000001
 40
0.0
 40
0.0
 40
0.0
 40
0.0
 40
0.1203093252
 40
0.2451721316
 40
0.4999988275
 40
0.7548261882
 40
0.879689722
 40
1.0
 40
1.0
 40
1.0
 40
1.0
 10
6.9984972687
 20
9.0661372855
 30
0.0
 10
6.9984972503
 20
9.0710394293
 30
0.0
 10
6.9976652447
 20
9.0810458275
 30
0.0
 10
6.9929832514
 20
9.1009207564
 30
0.0
 10
6.9814965105
 20
9.1246269199
 30
0.0
 10
6.9627350587
 20
9.1431184578
 30
0.0
 10
6.9454164841
 20
9.1539353317
 30
0.0
 10
6.9362072735
 20
9.1579368414
 30
0.0
 10
6.9315647713
 20
9.1595111879
 30
0.0
  0
SPLINE
  5
44C
100
AcDbEntity
  8
0
100
AcDbSpline
 62
7
  6
CONTINUOUS
 70
0
 71
3
 72
13
 73
9
 74
0
 42
0.0000001
 43
0.0000001
 44
0.0000000001
 40
0.0
 40
0.0
 40
0.0
 40
0.0
 40
0.1203094131
 40
0.2451723497
 40
0.4999992318
 40
0.7548265495
 40
0.8796899626
 40
1.0
 40
1.0
 40
1.0
 40
1.0
 10
6.0234972687
 20
9.0661362007
 30
0.0
 10
6.0234972331
 20
9.0710383911
 30
0.0
 10
6.0243291467
 20
9.0810448953
 30
0.0
 10
6.0290110134
 20
9.1009200556
 30
0.0
 10
6.0404977004
 20
9.1246265254
 30
0.0
 10
6.0592592619
 20
9.1431182957
 30
0.0
 10
6.0765779567
 20
9.153935285
 30
0.0
 10
6.0857872323
 20
9.1579368307
 30
0.0
 10
6.0904297661
 20
9.1595111879
 30
0.0
  0
SPLINE
  5
44D
100
AcDbEntity
  8
0
100
AcDbSpline
 62
7
  6
CONTINUOUS
 70
0
 71
3
 72
10
 73
6
 74
0
 42
0.0000001
 43
0.0000001
 44
0.0000000001
 40
0.0
 40
0.0
 40
0.0
 40
0.0
 40
0.2402470524
 40
0.4892403087
 40
1.0
 40
1.0
 40
1.0
 40
1.0
 10
6.9315647713
 20
9.1595111879
 30
0.0
 10
6.9262206511
 20
9.1613234641
 30
0.0
 10
6.9156167499
 20
9.1659002506
 30
0.0
 10
6.895604899
 20
9.1782794531
 30
0.0
 10
6.8825809174
 20
9.1910416645
 30
0.0
 10
6.8755206161
 20
9.2007411386
 30
0.0
  0
LINE
  5
44E
100
AcDbEntity
  8
0
100
AcDbLine
 62
7
  6
CONTINUOUS
 10
13.9891323985
 20
18.9904771904
 11
13.9902677837
 21
18.990951706
  0
LINE
  5
44F
100
AcDbEntity
  8
0
100
AcDbLine
 62
7
  6
CONTINUOUS
 10
13.9902677837
 20
18.990951706
 11
13.9967364497
 21
18.9924728342
  0
LINE
  5
450
100
AcDbEntity
  8
0
100
AcDbLine
 62
7
  6
CONTINUOUS
 10
13.9967364497
 20
18.9924728342
 11
14.0071179606
 21
18.994479555
  0
SPLINE
  5
451
100
AcDbEntity
  8
0
100
AcDbSpline
 62
7
  6
CONTINUOUS
 70
0
 71
3
 72
9
 73
5
 74
0
 42
0.0000001
 43
0.0000001
 44
0.0000000001
 40
0.0
 40
0.0
 40
0.0
 40
0.0
 40
0.5424515628
 40
1.0
 40
1.0
 40
1.0
 40
1.0
 10
14.0071179606
 20
18.994479555
 30
0.0
 10
14.0111016015
 20
18.9951988487
 30
0.0
 10
14.0184607177
 20
18.996439137
 30
0.0
 10
14.0258429151
 20
18.9975397326
 30
0.0
 10
14.029230055
 20
18.9979708559
 30
0.0
  0
LINE
  5
452
100
AcDbEntity
  8
0
100
AcDbLine
 62
7
  6
CONTINUOUS
 10
14.029230055
 20
18.9979708559
 11
14.0346339653
 21
18.9984961596
  0
SPLINE
  5
453
100
AcDbEntity
  8
0
100
AcDbSpline
 62
7
  6
CONTINUOUS
 70
0
 71
3
 72
15
 73
11
 74
0
 42
0.0000001
 43
0.0000001
 44
0.0000000001
 40
0.0
 40
0.0
 40
0.0
 40
0.0
 40
0.0113354469
 40
0.0294158528
 40
0.0898625876
 40
0.1828607048
 40
0.3056392108
 40
0.4539048776
 40
0.6230420004
 40
1.0
 40
1.0
 40
1.0
 40
1.0
 10
13.9182208882
 20
18.9910604738
 30
0.0
 10
13.9182204846
 20
18.991145584
 30
0.0
 10
13.9183468994
 20
18.9913523387
 30
0.0
 10
13.9188896869
 20
18.991746376
 30
0.0
 10
13.9200840533
 20
18.9922685543
 30
0.0
 10
13.9220494021
 20
18.9929152344
 30
0.0
 10
13.9246925114
 20
18.9936255409
 30
0.0
 10
13.9279122403
 20
18.9943697871
 30
0.0
 10
13.9330234121
 20
18.9954020959
 30
0.0
 10
13.9370683576
 20
18.996081265
 30
0.0
 10
13.9398672198
 20
18.9965023014
 30
0.0
  0
LINE
  5
454
100
AcDbEntity
  8
0
100
AcDbLine
 62
7
  6
CONTINUOUS
 10
13.9398672198
 20
18.9965023014
 11
13.9516841728
 21
18.9979708559
  0
LINE
  5
455
100
AcDbEntity
  8
0
100
AcDbLine
 62
7
  6
CONTINUOUS
 10
13.9516841728
 20
18.9979708559
 11
13.9605485937
 21
18.9984961596
  0
SPLINE
  5
456
100
AcDbEntity
  8
0
100
AcDbSpline
 62
7
  6
CONTINUOUS
 70
0
 71
3
 72
10
 73
6
 74
0
 42
0.0000001
 43
0.0000001
 44
0.0000000001
 40
0.0
 40
0.0
 40
0.0
 40
0.0
 40
0.3316145579
 40
0.6178692124
 40
1.0
 40
1.0
 40
1.0
 40
1.0
 10
13.1085258623
 20
18.9974860102
 30
0.0
 10
13.1085248814
 20
18.9976605469
 30
0.0
 10
13.1088413377
 20
18.9979172627
 30
0.0
 10
13.1093191739
 20
18.9980761008
 30
0.0
 10
13.1096679691
 20
18.9981595878
 30
0.0
 10
13.1098655167
 20
18.9981973685
 30
0.0
  0
LINE
  5
457
100
AcDbEntity
  8
0
100
AcDbLine
 62
7
  6
CONTINUOUS
 10
13.1098655167
 20
18.9981973685
 11
13.114478698
 21
18.9984961596
  0
SPLINE
  5
458
100
AcDbEntity
  8
0
100
AcDbSpline
 62
7
  6
CONTINUOUS
 70
0
 71
3
 72
15
 73
11
 74
0
 42
0.0000001
 43
0.0000001
 44
0.0000000001
 40
0.0
 40
0.0
 40
0.0
 40
0.0
 40
0.012466755
 40
0.032168865
 40
0.0980992751
 40
0.1983065596
 40
0.3283843905
 40
0.4819235234
 40
0.6508879746
 40
1.0
 40
1.0
 40
1.0
 40
1.0
 10
13.1545251631
 20
18.9914772752
 30
0.0
 10
13.1545245275
 20
18.9916055318
 30
0.0
 10
13.154335815
 20
18.9919152536
 30
0.0
 10
13.1535147868
 20
18.9924957192
 30
0.0
 10
13.1517234031
 20
18.9932276762
 30
0.0
 10
13.1488122888
 20
18.9941050592
 30
0.0
 10
13.1449636756
 20
18.9950127576
 30
0.0
 10
13.1403931392
 20
18.9958996947
 30
0.0
 10
13.1335704738
 20
18.9969996092
 30
0.0
 10
13.1282747255
 20
18.9976328835
 30
0.0
 10
13.124697569
 20
18.9979554462
 30
0.0
  0
SPLINE
  5
459
100
AcDbEntity
  8
0
100
AcDbSpline
 62
7
  6
CONTINUOUS
 70
0
 71
3
 72
9
 73
5
 74
0
 42
0.0000001
 43
0.0000001
 44
0.0000000001
 40
0.0
 40
0.0
 40
0.0
 40
0.0
 40
0.5440410957
 40
1.0
 40
1.0
 40
1.0
 40
1.0
 10
13.124697569
 20
18.9979554462
 30
0.0
 10
13.1228488969
 20
18.9981221463
 30
0.0
 10
13.1194458486
 20
18.9983738337
 30
0.0
 10
13.1160343498
 20
18.9984961596
 30
0.0
 10
13.114478698
 20
18.9984961596
 30
0.0
  0
SPLINE
  5
45A
100
AcDbEntity
  8
0
100
AcDbSpline
 62
7
  6
CONTINUOUS
 70
0
 71
3
 72
18
 73
14
 74
0
 42
0.0000001
 43
0.0000001
 44
0.0000000001
 40
0.0
 40
0.0
 40
0.0
 40
0.0
 40
0.0084015877
 40
0.0253979211
 40
0.0518194704
 40
0.0873859087
 40
0.1316601035
 40
0.1841617526
 40
0.3115871109
 40
0.46379396
 40
0.63425106
 40
0.8156793902
 40
1.0
 40
1.0
 40
1.0
 40
1.0
 10
13.0565415136
 20
18.9906728998
 30
0.0
 10
13.0565439473
 20
18.9907480302
 30
0.0
 10
13.056347368
 20
18.990930119
 30
0.0
 10
13.0559539401
 20
18.991126432
 30
0.0
 10
13.0552862665
 20
18.9913951903
 30
0.0
 10
13.0543871923
 20
18.9916893337
 30
0.0
 10
13.0532487618
 20
18.9920221465
 30
0.0
 10
13.0513100435
 20
18.9925345299
 30
0.0
 10
13.0484153456
 20
18.9932108447
 30
0.0
 10
13.0444740094
 20
18.9940370145
 30
0.0
 10
13.0400431102
 20
18.9948804815
 30
0.0
 10
13.0353167
 20
18.9957040058
 30
0.0
 10
13.0320852296
 20
18.9962207434
 30
0.0
 10
13.0304549212
 20
18.9964692109
 30
0.0
  0
LINE
  5
45B
100
AcDbEntity
  8
0
100
AcDbLine
 62
7
  6
CONTINUOUS
 10
13.0304549212
 20
18.9964692109
 11
13.0193054678
 21
18.9979554462
  0
LINE
  5
45C
100
AcDbEntity
  8
0
100
AcDbLine
 62
7
  6
CONTINUOUS
 10
13.0193054678
 20
18.9979554462
 11
13.0121028032
 21
18.9984961596
  0
SPLINE
  5
45D
100
AcDbEntity
  8
0
100
AcDbSpline
 62
7
  6
CONTINUOUS
 70
0
 71
3
 72
9
 73
5
 74
0
 42
0.0000001
 43
0.0000001
 44
0.0000000001
 40
0.0
 40
0.0
 40
0.0
 40
0.0
 40
0.2527117102
 40
1.0
 40
1.0
 40
1.0
 40
1.0
 10
13.8417928129
 20
19.8495553844
 30
0.0
 10
13.8464906331
 20
19.8557784359
 30
0.0
 10
13.8656798332
 20
19.8799439465
 30
0.0
 10
13.8872290186
 20
19.9022450215
 30
0.0
 10
13.9044777403
 20
19.9175453402
 30
0.0
  0
SPLINE
  5
45E
100
AcDbEntity
  8
0
100
AcDbSpline
 62
7
  6
CONTINUOUS
 70
0
 71
3
 72
9
 73
5
 74
0
 42
0.0000001
 43
0.0000001
 44
0.0000000001
 40
0.0
 40
0.0
 40
0.0
 40
0.0
 40
0.2528651978
 40
1.0
 40
1.0
 40
1.0
 40
1.0
 10
13.180200845
 20
19.8495621157
 30
0.0
 10
13.1755005229
 20
19.8557877954
 30
0.0
 10
13.1563123404
 20
19.8799484437
 30
0.0
 10
13.1347651751
 20
19.9022449228
 30
0.0
 10
13.1175227036
 20
19.9175401165
 30
0.0
  0
SPLINE
  5
45F
100
AcDbEntity
  8
0
100
AcDbSpline
 62
7
  6
CONTINUOUS
 70
0
 71
3
 72
9
 73
5
 74
0
 42
0.0000001
 43
0.0000001
 44
0.0000000001
 40
0.0
 40
0.0
 40
0.0
 40
0.0
 40
0.4979475603
 40
1.0
 40
1.0
 40
1.0
 40
1.0
 10
9.8769858044
 20
13.866840348
 30
0.0
 10
9.8769858044
 20
13.8808721778
 30
0.0
 10
9.8799333118
 20
13.9091219681
 30
0.0
 10
9.8884580236
 20
13.9361931177
 30
0.0
 10
9.8939736649
 20
13.9492211464
 30
0.0
  0
SPLINE
  5
460
100
AcDbEntity
  8
0
100
AcDbSpline
 62
7
  6
CONTINUOUS
 70
0
 71
3
 72
23
 73
19
 74
0
 42
0.0000001
 43
0.0000001
 44
0.0000000001
 40
0.0
 40
0.0
 40
0.0
 40
0.0
 40
0.0559082169
 40
0.1135326468
 40
0.1731802495
 40
0.2350463238
 40
0.2990792603
 40
0.3649537131
 40
0.4321778046
 40
0.5001033659
 40
0.5680224453
 40
0.6352309638
 40
0.7010794872
 40
0.7650799547
 40
0.826911262
 40
0.8865218141
 40
0.9441129494
 40
1.0
 40
1.0
 40
1.0
 40
1.0
 10
9.8939736649
 20
13.9492211464
 30
0.0
 10
9.8999671533
 20
13.963377857
 30
0.0
 10
9.91516794
 20
13.9909172863
 30
0.0
 10
9.9456484115
 20
14.0278092778
 30
0.0
 10
9.9831493332
 20
14.0600798248
 30
0.0
 10
10.0265671767
 20
14.0872098432
 30
0.0
 10
10.07485984
 20
14.1087690229
 30
0.0
 10
10.1268890689
 20
14.1244588706
 30
0.0
 10
10.1814750366
 20
14.1339427343
 30
0.0
 10
10.2373456956
 20
14.1371195578
 30
0.0
 10
10.2932074596
 20
14.1338610093
 30
0.0
 10
10.3477659119
 20
14.1242963094
 30
0.0
 10
10.3997517354
 20
14.1085324864
 30
0.0
 10
10.4479839982
 20
14.0869004316
 30
0.0
 10
10.4913286669
 20
14.059707195
 30
0.0
 10
10.5287437987
 20
14.0273809438
 30
0.0
 10
10.5591293716
 20
13.9904426987
 30
0.0
 10
10.5742563756
 20
13.962879243
 30
0.0
 10
10.5802123884
 20
13.9487130381
 30
0.0
  0
SPLINE
  5
461
100
AcDbEntity
  8
0
100
AcDbSpline
 62
7
  6
CONTINUOUS
 70
0
 71
3
 72
9
 73
5
 74
0
 42
0.0000001
 43
0.0000001
 44
0.0000000001
 40
0.0
 40
0.0
 40
0.0
 40
0.0
 40
0.5020559149
 40
1.0
 40
1.0
 40
1.0
 40
1.0
 10
10.5802123884
 20
13.9487130381
 30
0.0
 10
10.5856600518
 20
13.9357559276
 30
0.0
 10
10.5940759212
 20
13.9088463349
 30
0.0
 10
10.5969858044
 20
13.880780969
 30
0.0
 10
10.5969858044
 20
13.866840348
 30
0.0
  0
SPLINE
  5
462
100
AcDbEntity
  8
0
100
AcDbSpline
 62
7
  6
CONTINUOUS
 70
0
 71
3
 72
9
 73
5
 74
0
 42
0.0000001
 43
0.0000001
 44
0.0000000001
 40
0.0
 40
0.0
 40
0.0
 40
0.0
 40
0.4968200679
 40
1.0
 40
1.0
 40
1.0
 40
1.0
 10
10.5969858044
 20
13.8562556832
 30
0.0
 10
10.5969858044
 20
13.8393700811
 30
0.0
 10
10.5926992266
 20
13.8052596416
 30
0.0
 10
10.5804060193
 20
13.7732054633
 30
0.0
 10
10.5725452358
 20
13.75801737
 30
0.0
  0
SPLINE
  5
463
100
AcDbEntity
  8
0
100
AcDbSpline
 62
7
  6
CONTINUOUS
 70
0
 71
3
 72
23
 73
19
 74
0
 42
0.0000001
 43
0.0000001
 44
0.0000000001
 40
0.0
 40
0.0
 40
0.0
 40
0.0
 40
0.0561531231
 40
0.1140465268
 40
0.1739217103
 40
0.2359093949
 40
0.2999086764
 40
0.3655931271
 40
0.4325050953
 40
0.500051563
 40
0.5675945969
 40
0.6344998196
 40
0.7001726738
 40
0.7641563236
 40
0.8261283187
 40
0.8859851044
 40
0.9438589938
 40
1.0
 40
1.0
 40
1.0
 40
1.0
 10
10.5725452358
 20
13.75801737
 30
0.0
 10
10.5657517531
 20
13.7448914456
 30
0.0
 10
10.5493806187
 20
13.7195008515
 30
0.0
 10
10.518228964
 20
13.6856952004
 30
0.0
 10
10.4809901684
 20
13.6562225473
 30
0.0
 10
10.4386088706
 20
13.6314950079
 30
0.0
 10
10.3919923319
 20
13.6118701772
 30
0.0
 10
10.34213022
 20
13.5976042059
 30
0.0
 10
10.290051007
 20
13.5889810468
 30
0.0
 10
10.2368565941
 20
13.5860770266
 30
0.0
 10
10.183665304
 20
13.5890084218
 30
0.0
 10
10.1315968774
 20
13.5976607632
 30
0.0
 10
10.0817501799
 20
13.6119484745
 30
0.0
 10
10.0351568566
 20
13.631599493
 30
0.0
 10
9.9928013029
 20
13.6563451534
 30
0.0
 10
9.9555938015
 20
13.6858345787
 30
0.0
 10
9.9244724793
 20
13.7196503199
 30
0.0
 10
9.9081258714
 20
13.7450470547
 30
0.0
 10
9.9013442331
 20
13.758175513
 30
0.0
  0
SPLINE
  5
464
100
AcDbEntity
  8
0
100
AcDbSpline
 62
7
  6
CONTINUOUS
 70
0
 71
3
 72
9
 73
5
 74
0
 42
0.0000001
 43
0.0000001
 44
0.0000000001
 40
0.0
 40
0.0
 40
0.0
 40
0.0
 40
0.5031940195
 40
1.0
 40
1.0
 40
1.0
 40
1.0
 10
9.9013442331
 20
13.758175513
 30
0.0
 10
9.8935088702
 20
13.7733438588
 30
0.0
 10
9.8812579706
 20
13.8053492138
 30
0.0
 10
9.8769858044
 20
13.8393998787
 30
0.0
 10
9.8769858044
 20
13.8562556832
 30
0.0
  0
SPLINE
  5
465
100
AcDbEntity
  8
0
100
AcDbSpline
 62
7
  6
CONTINUOUS
 70
0
 71
3
 72
11
 73
7
 74
0
 42
0.0000001
 43
0.0000001
 44
0.0000000001
 40
0.0
 40
0.0
 40
0.0
 40
0.0
 40
0.2401225331
 40
0.4858846344
 40
0.7387678047
 40
1.0
 40
1.0
 40
1.0
 40
1.0
 10
10.4478555737
 20
13.4065372795
 30
0.0
 10
10.4445753083
 20
13.3974697606
 30
0.0
 10
10.43596128
 20
13.3797873426
 30
0.0
 10
10.4180090389
 20
13.3559687683
 30
0.0
 10
10.3955425832
 20
13.3351122898
 30
0.0
 10
10.3783087566
 20
13.3235806141
 30
0.0
 10
10.3691990353
 20
13.3183787156
 30
0.0
  0
SPLINE
  5
466
100
AcDbEntity
  8
0
100
AcDbSpline
 62
7
  6
CONTINUOUS
 70
0
 71
3
 72
13
 73
9
 74
0
 42
0.0000001
 43
0.0000001
 44
0.0000000001
 40
0.0
 40
0.0
 40
0.0
 40
0.0
 40
0.2449087444
 40
0.3719463144
 40
0.5003187966
 40
0.628643763
 40
0.7555492876
 40
1.0
 40
1.0
 40
1.0
 40
1.0
 10
10.3691990353
 20
13.3183787156
 30
0.0
 10
10.3495444497
 20
13.307155413
 30
0.0
 10
10.3169435233
 20
13.2945877656
 30
0.0
 10
10.2713850878
 20
13.2863407389
 30
0.0
 10
10.235884167
 20
13.2843048768
 30
0.0
 10
10.2004113911
 20
13.2866062473
 30
0.0
 10
10.154976039
 20
13.2951937479
 30
0.0
 10
10.1225272628
 20
13.308012516
 30
0.0
 10
10.1030130902
 20
13.3193944324
 30
0.0
  0
SPLINE
  5
467
100
AcDbEntity
  8
0
100
AcDbSpline
 62
7
  6
CONTINUOUS
 70
0
 71
3
 72
11
 73
7
 74
0
 42
0.0000001
 43
0.0000001
 44
0.0000000001
 40
0.0
 40
0.0
 40
0.0
 40
0.0
 40
0.2609933069
 40
0.5138057291
 40
0.7596832235
 40
1.0
 40
1.0
 40
1.0
 40
1.0
 10
10.1030130902
 20
13.3193944324
 30
0.0
 10
10.09411196
 20
13.3245861421
 30
0.0
 10
10.0772759358
 20
13.3360589158
 30
0.0
 10
10.0553344649
 20
13.3567065772
 30
0.0
 10
10.037787496
 20
13.3802089286
 30
0.0
 10
10.0293437734
 20
13.3976149594
 30
0.0
 10
10.026116035
 20
13.4065372795
 30
0.0
  0
SPLINE
  5
468
100
AcDbEntity
  8
0
100
AcDbSpline
 62
7
  6
CONTINUOUS
 70
0
 71
3
 72
9
 73
5
 74
0
 42
0.0000001
 43
0.0000001
 44
0.0000000001
 40
0.0
 40
0.0
 40
0.0
 40
0.0
 40
0.4946859495
 40
1.0
 40
1.0
 40
1.0
 40
1.0
 10
10.4169161391
 20
13.355962207
 30
0.0
 10
10.4166468258
 20
13.3489791323
 30
0.0
 10
10.4145147053
 20
13.334885867
 30
0.0
 10
10.4094629726
 20
13.3215739572
 30
0.0
 10
10.4062838835
 20
13.3151825389
 30
0.0
  0
SPLINE
  5
469
100
AcDbEntity
  8
0
100
AcDbSpline
 62
7
  6
CONTINUOUS
 70
0
 71
3
 72
19
 73
15
 74
0
 42
0.0000001
 43
0.0000001
 44
0.0000000001
 40
0.0
 40
0.0
 40
0.0
 40
0.0
 40
0.0543981445
 40
0.1111505839
 40
0.1705545908
 40
0.2326309301
 40
0.3634959427
 40
0.5000552514
 40
0.6366040639
 40
0.7674404499
 40
0.8294978498
 40
0.8888823618
 40
0.9456165382
 40
1.0
 40
1.0
 40
1.0
 40
1.0
 10
10.4062838835
 20
13.3151825389
 30
0.0
 10
10.4030704865
 20
13.3087221462
 30
0.0
 10
10.3951636148
 20
13.2961575973
 30
0.0
 10
10.3798738215
 20
13.2793505861
 30
0.0
 10
10.3613139934
 20
13.2645564611
 30
0.0
 10
10.3323557172
 20
13.2475861226
 30
0.0
 10
10.2905882639
 20
13.2331778716
 30
0.0
 10
10.2369042769
 20
13.2274137516
 30
0.0
 10
10.1832277728
 20
13.2332120856
 30
0.0
 10
10.14147739
 20
13.2476472501
 30
0.0
 10
10.1125405899
 20
13.2646367632
 30
0.0
 10
10.09399948
 20
13.2794423686
 30
0.0
 10
10.0787304519
 20
13.2962589936
 30
0.0
 10
10.0708393543
 20
13.308828383
 30
0.0
 10
10.0676339852
 20
13.3152905887
 30
0.0
  0
SPLINE
  5
46A
100
AcDbEntity
  8
0
100
AcDbSpline
 62
7
  6
CONTINUOUS
 70
0
 71
3
 72
9
 73
5
 74
0
 42
0.0000001
 43
0.0000001
 44
0.0000000001
 40
0.0
 40
0.0
 40
0.0
 40
0.0
 40
0.505295295
 40
1.0
 40
1.0
 40
1.0
 40
1.0
 10
10.0676339852
 20
13.3152905887
 30
0.0
 10
10.0644609392
 20
13.3216876292
 30
0.0
 10
10.0594232797
 20
13.335010641
 30
0.0
 10
10.0573096165
 20
13.3491121568
 30
0.0
 10
10.0570503165
 20
13.3560984345
 30
0.0
  0
SPLINE
  5
46B
100
AcDbEntity
  8
0
100
AcDbSpline
 62
7
  6
CONTINUOUS
 70
0
 71
3
 72
10
 73
6
 74
0
 42
0.0000001
 43
0.0000001
 44
0.0000000001
 40
0.0
 40
0.0
 40
0.0
 40
0.0
 40
0.25634942
 40
0.5106281727
 40
1.0
 40
1.0
 40
1.0
 40
1.0
 10
10.2369858044
 20
12.8344876101
 30
0.0
 10
10.2488237595
 20
12.8344876101
 30
0.0
 10
10.2724378589
 20
12.8330378905
 30
0.0
 10
10.3179038169
 20
12.8246505484
 30
0.0
 10
10.350430101
 20
12.8119654616
 30
0.0
 10
10.3700057725
 20
12.8006741381
 30
0.0
  0
SPLINE
  5
46C
100
AcDbEntity
  8
0
100
AcDbSpline
 62
7
  6
CONTINUOUS
 70
0
 71
3
 72
11
 73
7
 74
0
 42
0.0000001
 43
0.0000001
 44
0.0000000001
 40
0.0
 40
0.0
 40
0.0
 40
0.0
 40
0.2610919605
 40
0.5139628864
 40
0.7597974167
 40
1.0
 40
1.0
 40
1.0
 40
1.0
 10
10.3700057725
 20
12.8006741381
 30
0.0
 10
10.3790180129
 20
12.7954758427
 30
0.0
 10
10.3960684434
 20
12.7839704093
 30
0.0
 10
10.4182966229
 20
12.7632110807
 30
0.0
 10
10.4360635848
 20
12.7395356929
 30
0.0
 10
10.4445994739
 20
12.7219793309
 30
0.0
 10
10.4478555737
 20
12.7129786121
 30
0.0
  0
SPLINE
  5
46D
100
AcDbEntity
  8
0
100
AcDbSpline
 62
7
  6
CONTINUOUS
 70
0
 71
3
 72
17
 73
13
 74
0
 42
0.0000001
 43
0.0000001
 44
0.0000000001
 40
0.0
 40
0.0
 40
0.0
 40
0.0
 40
0.0558050506
 40
0.1117512362
 40
0.1681257969
 40
0.2251828481
 40
0.3421188922
 40
0.463991804
 40
0.5913748928
 40
0.7240181354
 40
0.8609346499
 40
1.0
 40
1.0
 40
1.0
 40
1.0
 10
10.5969858044
 20
12.2526755436
 30
0.0
 10
10.5969858044
 20
12.2435632891
 30
0.0
 10
10.5957505005
 20
12.225292929
 30
0.0
 10
10.5902967171
 20
12.1983130578
 30
0.0
 10
10.5813648612
 20
12.172055379
 30
0.0
 10
10.5648487868
 20
12.1381669858
 30
0.0
 10
10.5360305603
 20
12.0988324637
 30
0.0
 10
10.4910626288
 20
12.0588523089
 30
0.0
 10
10.4373612204
 20
12.0265337836
 30
0.0
 10
10.3768401397
 20
12.0025882884
 30
0.0
 10
10.3115832181
 20
11.9876280652
 30
0.0
 10
10.2665037841
 20
11.9838413474
 30
0.0
 10
10.2437984481
 20
11.9835205947
 30
0.0
  0
SPLINE
  5
46E
100
AcDbEntity
  8
0
100
AcDbSpline
 62
7
  6
CONTINUOUS
 70
0
 71
3
 72
17
 73
13
 74
0
 42
0.0000001
 43
0.0000001
 44
0.0000000001
 40
0.0
 40
0.0
 40
0.0
 40
0.0
 40
0.1389214122
 40
0.275925731
 40
0.4087157287
 40
0.536227768
 40
0.6581588172
 40
0.7750657146
 40
0.8320805228
 40
0.8883977546
 40
0.9442745797
 40
1.0
 40
1.0
 40
1.0
 40
1.0
 10
10.2369858044
 20
11.9834724414
 30
0.0
 10
10.2139870213
 20
11.9834724414
 30
0.0
 10
10.168241897
 20
11.9867221319
 30
0.0
 10
10.1018859243
 20
12.0011033666
 30
0.0
 10
10.0402068366
 20
12.0247406797
 30
0.0
 10
9.9853896854
 20
12.0569998554
 30
0.0
 10
9.9394202979
 20
12.0971535968
 30
0.0
 10
9.9099161327
 20
12.1368300085
 30
0.0
 10
9.8929957396
 20
12.171080801
 30
0.0
 10
9.8838428007
 20
12.197641741
 30
0.0
 10
9.8782526937
 20
12.2249504101
 30
0.0
 10
9.8769858044
 20
12.2434500626
 30
0.0
 10
9.8769858044
 20
12.2526755436
 30
0.0
  0
SPLINE
  5
46F
100
AcDbEntity
  8
0
100
AcDbSpline
 62
7
  6
CONTINUOUS
 70
0
 71
3
 72
9
 73
5
 74
0
 42
0.0000001
 43
0.0000001
 44
0.0000000001
 40
0.0
 40
0.0
 40
0.0
 40
0.0
 40
0.4968251918
 40
1.0
 40
1.0
 40
1.0
 40
1.0
 10
9.8769858044
 20
12.2632602083
 30
0.0
 10
9.8769858044
 20
12.2801219249
 30
0.0
 10
9.8812602072
 20
12.3141834457
 30
0.0
 10
9.8935193734
 20
12.3461972439
 30
0.0
 10
9.9013587647
 20
12.3613687712
 30
0.0
  0
SPLINE
  5
470
100
AcDbEntity
  8
0
100
AcDbSpline
 62
7
  6
CONTINUOUS
 70
0
 71
3
 72
14
 73
10
 74
0
 42
0.0000001
 43
0.0000001
 44
0.0000000001
 40
0.0
 40
0.0
 40
0.0
 40
0.0
 40
0.1123431382
 40
0.228171285
 40
0.3479731898
 40
0.4719750216
 40
0.7309914124
 40
0.8650343306
 40
1.0
 40
1.0
 40
1.0
 40
1.0
 10
9.9013587647
 20
12.3613687712
 30
0.0
 10
9.9081434728
 20
12.3744991765
 30
0.0
 10
9.9244982863
 20
12.3999014272
 30
0.0
 10
9.9556363104
 20
12.433720879
 30
0.0
 10
9.9928688499
 20
12.4632104675
 30
0.0
 10
10.0501331006
 20
12.4966613868
 30
0.0
 10
10.1151880764
 20
12.5191485585
 30
0.0
 10
10.1838009386
 20
12.5305082185
 30
0.0
 10
10.2192299058
 20
12.5324633105
 30
0.0
 10
10.2369858044
 20
12.5324633105
 30
0.0
  0
SPLINE
  5
471
100
AcDbEntity
  8
0
100
AcDbSpline
 62
7
  6
CONTINUOUS
 70
0
 71
3
 72
14
 73
10
 74
0
 42
0.0000001
 43
0.0000001
 44
0.0000000001
 40
0.0
 40
0.0
 40
0.0
 40
0.0
 40
0.1349682762
 40
0.2690170267
 40
0.528037586
 40
0.6520377592
 40
0.7718367089
 40
0.8876599182
 40
1.0
 40
1.0
 40
1.0
 40
1.0
 10
10.2369858044
 20
12.5324633105
 30
0.0
 10
10.254741772
 20
12.5324633105
 30
0.0
 10
10.290171284
 20
12.530507777
 30
0.0
 10
10.3587847114
 20
12.5191481165
 30
0.0
 10
10.4238398092
 20
12.4966609895
 30
0.0
 10
10.4811028726
 20
12.4632101358
 30
0.0
 10
10.5183336637
 20
12.4337216575
 30
0.0
 10
10.5494713241
 20
12.3999048734
 30
0.0
 10
10.5658258811
 20
12.3745042017
 30
0.0
 10
10.5726104034
 20
12.3613744095
 30
0.0
  0
SPLINE
  5
472
100
AcDbEntity
  8
0
100
AcDbSpline
 62
7
  6
CONTINUOUS
 70
0
 71
3
 72
9
 73
5
 74
0
 42
0.0000001
 43
0.0000001
 44
0.0000000001
 40
0.0
 40
0.0
 40
0.0
 40
0.0
 40
0.5031872852
 40
1.0
 40
1.0
 40
1.0
 40
1.0
 10
10.5726104034
 20
12.3613744095
 30
0.0
 10
10.58045057
 20
12.3462016744
 30
0.0
 10
10.592709787
 20
12.3141858102
 30
0.0
 10
10.5969858044
 20
12.2801224941
 30
0.0
 10
10.5969858044
 20
12.2632602083
 30
0.0
  0
SPLINE
  5
473
100
AcDbEntity
  8
0
100
AcDbSpline
 62
7
  6
CONTINUOUS
 70
0
 71
3
 72
11
 73
7
 74
0
 42
0.0000001
 43
0.0000001
 44
0.0000000001
 40
0.0
 40
0.0
 40
0.0
 40
0.0
 40
0.2401697083
 40
0.4859821194
 40
0.7388660084
 40
1.0
 40
1.0
 40
1.0
 40
1.0
 10
10.026116035
 20
12.7129786121
 30
0.0
 10
10.0293812912
 20
12.7220046413
 30
0.0
 10
10.0379467399
 20
12.7396091216
 30
0.0
 10
10.0557844206
 20
12.7633394295
 30
0.0
 10
10.0781041015
 20
12.7841349067
 30
0.0
 10
10.0952238218
 20
12.7956505896
 30
0.0
 10
10.104272404
 20
12.8008506278
 30
0.0
  0
SPLINE
  5
474
100
AcDbEntity
  8
0
100
AcDbSpline
 62
7
  6
CONTINUOUS
 70
0
 71
3
 72
10
 73
6
 74
0
 42
0.0000001
 43
0.0000001
 44
0.0000000001
 40
0.0
 40
0.0
 40
0.0
 40
0.0
 40
0.4894326303
 40
0.7436851653
 40
1.0
 40
1.0
 40
1.0
 40
1.0
 10
10.104272404
 20
12.8008506278
 30
0.0
 10
10.1238187893
 20
12.8120835422
 30
0.0
 10
10.1562737664
 20
12.8247018888
 30
0.0
 10
10.2016282531
 20
12.8330458918
 30
0.0
 10
10.2251794708
 20
12.8344876101
 30
0.0
 10
10.2369858044
 20
12.8344876101
 30
0.0
  0
SPLINE
  5
475
100
AcDbEntity
  8
0
100
AcDbSpline
 62
7
  6
CONTINUOUS
 70
0
 71
3
 72
9
 73
5
 74
0
 42
0.0000001
 43
0.0000001
 44
0.0000000001
 40
0.0
 40
0.0
 40
0.0
 40
0.0
 40
0.2514056968
 40
1.0
 40
1.0
 40
1.0
 40
1.0
 10
10.2369858044
 20
12.8901528234
 30
0.0
 10
10.2416919639
 20
12.8901528234
 30
0.0
 10
10.2604064772
 20
12.8896164716
 30
0.0
 10
10.2790691266
 20
12.8869854217
 30
0.0
 10
10.292714028
 20
12.8837936988
 30
0.0
  0
SPLINE
  5
476
100
AcDbEntity
  8
0
100
AcDbSpline
 62
7
  6
CONTINUOUS
 70
0
 71
3
 72
11
 73
7
 74
0
 42
0.0000001
 43
0.0000001
 44
0.0000000001
 40
0.0
 40
0.0
 40
0.0
 40
0.0
 40
0.2735500406
 40
0.5322959081
 40
0.7740242925
 40
1.0
 40
1.0
 40
1.0
 40
1.0
 10
10.292714028
 20
12.8837936988
 30
0.0
 10
10.3058154889
 20
12.8807290939
 30
0.0
 10
10.3308643176
 20
12.8725368799
 30
0.0
 10
10.3643260669
 20
12.8538250228
 30
0.0
 10
10.3911520595
 20
12.8297308874
 30
0.0
 10
10.4038531508
 20
12.810100017
 30
0.0
 10
10.4083522997
 20
12.7999362324
 30
0.0
  0
SPLINE
  5
477
100
AcDbEntity
  8
0
100
AcDbSpline
 62
7
  6
CONTINUOUS
 70
0
 71
3
 72
9
 73
5
 74
0
 42
0.0000001
 43
0.0000001
 44
0.0000000001
 40
0.0
 40
0.0
 40
0.0
 40
0.0
 40
0.5041082956
 40
1.0
 40
1.0
 40
1.0
 40
1.0
 10
10.4083522997
 20
12.7999362324
 30
0.0
 10
10.4106715818
 20
12.7946968672
 30
0.0
 10
10.4144323102
 20
12.7839079124
 30
0.0
 10
10.4162979998
 20
12.7726295906
 30
0.0
 10
10.4167201704
 20
12.7670090655
 30
0.0
  0
SPLINE
  5
478
100
AcDbEntity
  8
0
100
AcDbSpline
 62
7
  6
CONTINUOUS
 70
0
 71
3
 72
9
 73
5
 74
0
 42
0.0000001
 43
0.0000001
 44
0.0000000001
 40
0.0
 40
0.0
 40
0.0
 40
0.0
 40
0.4958976558
 40
1.0
 40
1.0
 40
1.0
 40
1.0
 10
10.0572514423
 20
12.7670093483
 30
0.0
 10
10.0576732974
 20
12.7726257612
 30
0.0
 10
10.0595368171
 20
12.7838957317
 30
0.0
 10
10.0632927866
 20
12.7946772671
 30
0.0
 10
10.0656091102
 20
12.7999132077
 30
0.0
  0
SPLINE
  5
479
100
AcDbEntity
  8
0
100
AcDbSpline
 62
7
  6
CONTINUOUS
 70
0
 71
3
 72
11
 73
7
 74
0
 42
0.0000001
 43
0.0000001
 44
0.0000000001
 40
0.0
 40
0.0
 40
0.0
 40
0.0
 40
0.2259625905
 40
0.4676885846
 40
0.7264413136
 40
1.0
 40
1.0
 40
1.0
 40
1.0
 10
10.0656091102
 20
12.7999132077
 30
0.0
 10
10.0701089167
 20
12.8100848091
 30
0.0
 10
10.0828169431
 20
12.8297311198
 30
0.0
 10
10.1096642559
 20
12.8538406483
 30
0.0
 10
10.1431550354
 20
12.872559484
 30
0.0
 10
10.16822545
 20
12.8807501889
 30
0.0
 10
10.181337905
 20
12.8838124949
 30
0.0
  0
LINE
  5
47A
100
AcDbEntity
  8
0
100
AcDbLine
 62
7
  6
CONTINUOUS
 10
12.7794972687
 20
19.05751465
 11
12.7825348544
 21
19.0569948368
  0
LINE
  5
47B
100
AcDbEntity
  8
0
100
AcDbLine
 62
7
  6
CONTINUOUS
 10
12.7825348544
 20
19.0569948368
 11
12.7909359128
 21
19.0555461011
  0
LINE
  5
47C
100
AcDbEntity
  8
0
100
AcDbLine
 62
7
  6
CONTINUOUS
 10
12.8140122199
 20
19.0514788421
 11
12.8198460299
 21
19.0504291339
  0
LINE
  5
47D
100
AcDbEntity
  8
0
100
AcDbLine
 62
7
  6
CONTINUOUS
 10
12.8198460299
 20
19.0504291339
 11
12.8224766597
 21
19.0499528591
  0
LINE
  5
47E
100
AcDbEntity
  8
0
100
AcDbLine
 62
7
  6
CONTINUOUS
 10
12.8224766597
 20
19.0499528591
 11
12.8254972687
 21
19.0494036089
  0
LINE
  5
47F
100
AcDbEntity
  8
0
100
AcDbLine
 62
7
  6
CONTINUOUS
 10
14.2310503611
 20
19.0555446705
 11
14.2394482849
 21
19.0569928775
  0
LINE
  5
480
100
AcDbEntity
  8
0
100
AcDbLine
 62
7
  6
CONTINUOUS
 10
14.2394482849
 20
19.0569928775
 11
14.2424972687
 21
19.05751465
  0
LINE
  5
481
100
AcDbEntity
  8
0
100
AcDbLine
 62
7
  6
CONTINUOUS
 10
14.1964972687
 20
19.0494036089
 11
14.1995297506
 21
19.0499549893
  0
LINE
  5
482
100
AcDbEntity
  8
0
100
AcDbLine
 62
7
  6
CONTINUOUS
 10
14.1995297506
 20
19.0499549893
 11
14.2021578346
 21
19.0504307887
  0
LINE
  5
483
100
AcDbEntity
  8
0
100
AcDbLine
 62
7
  6
CONTINUOUS
 10
14.2021578346
 20
19.0504307887
 11
14.2079963598
 21
19.0514813383
  0
SPLINE
  5
484
100
AcDbEntity
  8
0
100
AcDbSpline
 62
9
  6
CONTINUOUS
 70
0
 71
3
 72
22
 73
18
 74
0
 42
0.0000001
 43
0.0000001
 44
0.0000000001
 40
0.0
 40
0.0
 40
0.0
 40
0.0
 40
0.0753143473
 40
0.1501440497
 40
0.2947399427
 40
0.363639823
 40
0.4297418652
 40
0.4928514507
 40
0.5529802561
 40
0.6104192725
 40
0.6656870882
 40
0.7195572426
 40
0.7729496479
 40
0.8268608908
 40
0.8822061413
 40
0.939750077
 40
1.0
 40
1.0
 40
1.0
 40
1.0
 10
10.2369858044
 20
11.9961982497
 30
0.0
 10
10.2227670924
 20
11.9961982497
 30
0.0
 10
10.1943974114
 20
11.9975863127
 30
0.0
 10
10.1392861223
 20
12.0056324479
 30
0.0
 10
10.0867035286
 20
12.0214910104
 30
0.0
 10
10.0393579427
 20
12.0450535945
 30
0.0
 10
10.0080377882
 20
12.0656814174
 30
0.0
 10
9.9809201471
 20
12.0891448821
 30
0.0
 10
9.9585659536
 20
12.1150837421
 30
0.0
 10
9.9413637928
 20
12.1429902869
 30
0.0
 10
9.9297339114
 20
12.1723952282
 30
0.0
 10
9.9238916419
 20
12.2027084188
 30
0.0
 10
9.9240209576
 20
12.233330871
 30
0.0
 10
9.9301062955
 20
12.2636180701
 30
0.0
 10
9.9419813217
 20
12.2929712342
 30
0.0
 10
9.9594038642
 20
12.3208006722
 30
0.0
 10
9.9740950866
 20
12.3376277166
 30
0.0
 10
9.9821656584
 20
12.345643272
 30
0.0
  0
SPLINE
  5
485
100
AcDbEntity
  8
0
100
AcDbSpline
 62
9
  6
CONTINUOUS
 70
0
 71
3
 72
12
 73
8
 74
0
 42
0.0000001
 43
0.0000001
 44
0.0000000001
 40
0.0
 40
0.0
 40
0.0
 40
0.0
 40
0.2282211102
 40
0.4737474487
 40
0.7330979164
 40
0.8662133737
 40
1.0
 40
1.0
 40
1.0
 40
1.0
 10
9.9821656584
 20
12.345643272
 30
0.0
 10
9.9968567019
 20
12.3602341679
 30
0.0
 10
10.0313195441
 20
12.386660745
 30
0.0
 10
10.0916779068
 20
12.4154859124
 30
0.0
 10
10.1479016062
 20
12.4305754154
 30
0.0
 10
10.1952419843
 20
12.4370643975
 30
0.0
 10
10.219456681
 20
12.4383716272
 30
0.0
 10
10.231593699
 20
12.4385195942
 30
0.0
  0
SPLINE
  5
486
100
AcDbEntity
  8
0
100
AcDbSpline
 62
9
  6
CONTINUOUS
 70
0
 71
3
 72
23
 73
19
 74
0
 42
0.0000001
 43
0.0000001
 44
0.0000000001
 40
0.0
 40
0.0
 40
0.0
 40
0.0
 40
0.0724215419
 40
0.1435673956
 40
0.2119259879
 40
0.2766543641
 40
0.3373202546
 40
0.3939752623
 40
0.4474075637
 40
0.4990533045
 40
0.5507844953
 40
0.604452419
 40
0.6614399965
 40
0.7224730727
 40
0.7875466277
 40
0.8561843551
 40
0.9275120262
 40
1.0
 40
1.0
 40
1.0
 40
1.0
 10
10.2331890374
 20
12.3565227871
 30
0.0
 10
10.2189423674
 20
12.3563491006
 30
0.0
 10
10.1906863062
 20
12.3540436545
 30
0.0
 10
10.1498636653
 20
12.3449217111
 30
0.0
 10
10.1122426469
 20
12.3303499497
 30
0.0
 10
10.0792454492
 20
12.3108950241
 30
0.0
 10
10.0520635104
 20
12.2872169676
 30
0.0
 10
10.0317864521
 20
12.2600729277
 30
0.0
 10
10.0192903475
 20
12.2304248571
 30
0.0
 10
10.0153228122
 20
12.1994301884
 30
0.0
 10
10.0200583257
 20
12.1684990297
 30
0.0
 10
10.0332751972
 20
12.1390300483
 30
0.0
 10
10.0541999821
 20
12.1121556016
 30
0.0
 10
10.081941539
 20
12.0888219401
 30
0.0
 10
10.1153967677
 20
12.0697745223
 30
0.0
 10
10.1533594641
 20
12.0556616454
 30
0.0
 10
10.1943944448
 20
12.0470345899
 30
0.0
 10
10.2227250063
 20
12.0450691065
 30
0.0
 10
10.2369858044
 20
12.0450691065
 30
0.0
  0
SPLINE
  5
487
100
AcDbEntity
  8
0
100
AcDbSpline
 62
9
  6
CONTINUOUS
 70
0
 71
3
 72
12
 73
8
 74
0
 42
0.0000001
 43
0.0000001
 44
0.0000000001
 40
0.0
 40
0.0
 40
0.0
 40
0.0
 40
0.1335290922
 40
0.2665224332
 40
0.5258777449
 40
0.7715768041
 40
1.0
 40
1.0
 40
1.0
 40
1.0
 10
10.2369858044
 20
12.4385524604
 30
0.0
 10
10.2492346123
 20
12.4385524604
 30
0.0
 10
10.2736972138
 20
12.4375204388
 30
0.0
 10
10.3215993302
 20
12.4315031797
 30
0.0
 10
10.3786136937
 20
12.416853905
 30
0.0
 10
10.4399668447
 20
12.388315845
 30
0.0
 10
10.4751058381
 20
12.3619248772
 30
0.0
 10
10.4901164027
 20
12.34730519
 30
0.0
  0
SPLINE
  5
488
100
AcDbEntity
  8
0
100
AcDbSpline
 62
9
  6
CONTINUOUS
 70
0
 71
3
 72
22
 73
18
 74
0
 42
0.0000001
 43
0.0000001
 44
0.0000000001
 40
0.0
 40
0.0
 40
0.0
 40
0.0
 40
0.0605554892
 40
0.1183825926
 40
0.1739677121
 40
0.2280553124
 40
0.2815452492
 40
0.3354279522
 40
0.3906285035
 40
0.4479345203
 40
0.5078852691
 40
0.5707938457
 40
0.6366985506
 40
0.7054265726
 40
0.8498027705
 40
0.9246131839
 40
1.0
 40
1.0
 40
1.0
 40
1.0
 10
10.4901164027
 20
12.34730519
 30
0.0
 10
10.4982625931
 20
12.3393711276
 30
0.0
 10
10.5131227503
 20
12.3227064672
 30
0.0
 10
10.5308693601
 20
12.2951082928
 30
0.0
 10
10.5431337511
 20
12.2659588057
 30
0.0
 10
10.5496670874
 20
12.235836868
 30
0.0
 10
10.5502970151
 20
12.2053311696
 30
0.0
 10
10.5449915006
 20
12.1750784085
 30
0.0
 10
10.5339241973
 20
12.1456740566
 30
0.0
 10
10.5172941543
 20
12.1177069861
 30
0.0
 10
10.495511952
 20
12.0916466478
 30
0.0
 10
10.4689532255
 20
12.0679984154
 30
0.0
 10
10.4381639746
 20
12.0471268376
 30
0.0
 10
10.3914692006
 20
12.0231445851
 30
0.0
 10
10.3394308479
 20
12.0067694447
 30
0.0
 10
10.2847432189
 20
11.9981213643
 30
0.0
 10
10.2565334116
 20
11.9964036909
 30
0.0
 10
10.2423779097
 20
11.9962311159
 30
0.0
  0
SPLINE
  5
489
100
AcDbEntity
  8
0
100
AcDbSpline
 62
9
  6
CONTINUOUS
 70
0
 71
3
 72
23
 73
19
 74
0
 42
0.0000001
 43
0.0000001
 44
0.0000000001
 40
0.0
 40
0.0
 40
0.0
 40
0.0
 40
0.0724215419
 40
0.1435673956
 40
0.2119259879
 40
0.2766543641
 40
0.3373202546
 40
0.3939752623
 40
0.4474075637
 40
0.4990533045
 40
0.5507844953
 40
0.604452419
 40
0.6614399965
 40
0.7224730727
 40
0.7875466277
 40
0.8561843551
 40
0.9275120262
 40
1.0
 40
1.0
 40
1.0
 40
1.0
 10
10.2407825713
 20
12.0450922487
 30
0.0
 10
10.2550292414
 20
12.0452659352
 30
0.0
 10
10.2832853025
 20
12.0475713813
 30
0.0
 10
10.3241079434
 20
12.0566933247
 30
0.0
 10
10.3617289618
 20
12.071265086
 30
0.0
 10
10.3947261596
 20
12.0907200117
 30
0.0
 10
10.4219080983
 20
12.1143980681
 30
0.0
 10
10.4421851566
 20
12.1415421081
 30
0.0
 10
10.4546812612
 20
12.1711901786
 30
0.0
 10
10.4586487965
 20
12.2021848474
 30
0.0
 10
10.4539132831
 20
12.2331160061
 30
0.0
 10
10.4406964116
 20
12.2625849874
 30
0.0
 10
10.4197716267
 20
12.2894594342
 30
0.0
 10
10.3920300697
 20
12.3127930957
 30
0.0
 10
10.358574841
 20
12.3318405134
 30
0.0
 10
10.3206121446
 20
12.3459533904
 30
0.0
 10
10.279577164
 20
12.3545804458
 30
0.0
 10
10.2512466025
 20
12.3565459293
 30
0.0
 10
10.2369858044
 20
12.3565459293
 30
0.0
  0
SPLINE
  5
48A
100
AcDbEntity
  8
0
100
AcDbSpline
 62
9
  6
CONTINUOUS
 70
0
 71
3
 72
12
 73
8
 74
0
 42
0.0000001
 43
0.0000001
 44
0.0000000001
 40
0.0
 40
0.0
 40
0.0
 40
0.0
 40
0.1336165445
 40
0.2666910978
 40
0.5261336517
 40
0.7717777751
 40
1.0
 40
1.0
 40
1.0
 40
1.0
 10
10.2369858044
 20
12.5072339848
 30
0.0
 10
10.2511600848
 20
12.5072339848
 30
0.0
 10
10.2794676827
 20
12.5060330419
 30
0.0
 10
10.3348862055
 20
12.4990330704
 30
0.0
 10
10.4008124694
 20
12.4819958008
 30
0.0
 10
10.4716671583
 20
12.4488143004
 30
0.0
 10
10.5121589117
 20
12.4181338377
 30
0.0
 10
10.5294101923
 20
12.401147725
 30
0.0
  0
SPLINE
  5
48B
100
AcDbEntity
  8
0
100
AcDbSpline
 62
9
  6
CONTINUOUS
 70
0
 71
3
 72
9
 73
5
 74
0
 42
0.0000001
 43
0.0000001
 44
0.0000000001
 40
0.0
 40
0.0
 40
0.0
 40
0.0
 40
0.5129818379
 40
1.0
 40
1.0
 40
1.0
 40
1.0
 10
10.5294101923
 20
12.401147725
 30
0.0
 10
10.540067193
 20
12.3906545323
 30
0.0
 10
10.5592329871
 20
12.3684717188
 30
0.0
 10
10.5740470565
 20
12.3431161987
 30
0.0
 10
10.5798952314
 20
12.3301775593
 30
0.0
  0
SPLINE
  5
48C
100
AcDbEntity
  8
0
100
AcDbSpline
 62
9
  6
CONTINUOUS
 70
0
 71
3
 72
9
 73
5
 74
0
 42
0.0000001
 43
0.0000001
 44
0.0000000001
 40
0.0
 40
0.0
 40
0.0
 40
0.0
 40
0.5055338559
 40
1.0
 40
1.0
 40
1.0
 40
1.0
 10
10.5798952314
 20
12.3301775593
 30
0.0
 10
10.5847337003
 20
12.319472817
 30
0.0
 10
10.5924884116
 20
12.2974181438
 30
0.0
 10
10.5960462874
 20
12.2742961341
 30
0.0
 10
10.5966973911
 20
12.262824347
 30
0.0
  0
SPLINE
  5
48D
100
AcDbEntity
  8
0
100
AcDbSpline
 62
9
  6
CONTINUOUS
 70
0
 71
3
 72
10
 73
6
 74
0
 42
0.0000001
 43
0.0000001
 44
0.0000000001
 40
0.0
 40
0.0
 40
0.0
 40
0.0
 40
0.4917279995
 40
0.7432172515
 40
1.0
 40
1.0
 40
1.0
 40
1.0
 10
13.2411572242
 20
11.1847790684
 30
0.0
 10
13.1963641593
 20
11.1971421995
 30
0.0
 10
13.1284350761
 20
11.2150328807
 30
0.0
 10
13.0365099498
 20
11.2369500805
 30
0.0
 10
12.9895678589
 20
11.2471543769
 30
0.0
 10
12.9657725297
 20
11.2519093264
 30
0.0
  0
SPLINE
  5
48E
100
AcDbEntity
  8
0
100
AcDbSpline
 62
9
  6
CONTINUOUS
 70
0
 71
3
 72
35
 73
31
 74
0
 42
0.0000001
 43
0.0000001
 44
0.0000000001
 40
0.0
 40
0.0
 40
0.0
 40
0.0
 40
0.2144545377
 40
0.3147602604
 40
0.4098053764
 40
0.4991072624
 40
0.5822137461
 40
0.6587435875
 40
0.7283256099
 40
0.7905908159
 40
0.8452244623
 40
0.8695986112
 40
0.891968385
 40
0.9123018361
 40
0.9305670138
 40
0.94673242
 40
0.9607773992
 40
0.9726923575
 40
0.9824682009
 40
0.986551114
 40
0.9900958408
 40
0.9931012474
 40
0.9955662022
 40
0.997489579
 40
0.9982478276
 40
0.9988702671
 40
0.9993567665
 40
0.9997072078
 40
0.9999215196
 40
1.0
 40
1.0
 40
1.0
 40
1.0
 10
13.239017237
 20
12.0651699427
 30
0.0
 10
13.2139005451
 20
12.0650960681
 30
0.0
 10
13.1770360293
 20
12.0650202494
 30
0.0
 10
13.1290398345
 20
12.0650125884
 30
0.0
 10
13.0957014675
 20
12.0650429443
 30
0.0
 10
13.0643775122
 20
12.0651035663
 30
0.0
 10
13.0352221203
 20
12.0651881331
 30
0.0
 10
13.0083763912
 20
12.0652932488
 30
0.0
 10
12.9839716786
 20
12.0654149325
 30
0.0
 10
12.9621315516
 20
12.0655501961
 30
0.0
 10
12.9455861864
 20
12.065673174
 30
0.0
 10
12.9337133028
 20
12.0657710371
 30
0.0
 10
12.9258575344
 20
12.0658394617
 30
0.0
 10
12.9187172436
 20
12.0659044736
 30
0.0
 10
12.9123035935
 20
12.0659648743
 30
0.0
 10
12.9066264219
 20
12.0660192584
 30
0.0
 10
12.9016929565
 20
12.0660671035
 30
0.0
 10
12.897507809
 20
12.0661089385
 30
0.0
 10
12.8944893747
 20
12.0661406962
 30
0.0
 10
12.8924512138
 20
12.0661637433
 30
0.0
 10
12.8912059776
 20
12.066178734
 30
0.0
 10
12.8901501936
 20
12.0661924432
 30
0.0
 10
12.8892844197
 20
12.0662051431
 30
0.0
 10
12.888681542
 20
12.0662149921
 30
0.0
 10
12.8882949517
 20
12.0662232331
 30
0.0
 10
12.888075691
 20
12.066227452
 30
0.0
 10
12.8879064892
 20
12.0662345789
 30
0.0
 10
12.8877796593
 20
12.0662337324
 30
0.0
 10
12.8877112493
 20
12.0662472174
 30
0.0
 10
12.88766961
 20
12.0662398864
 30
0.0
 10
12.8876639353
 20
12.0662471171
 30
0.0
  0
SPLINE
  5
48F
100
AcDbEntity
  8
0
100
AcDbSpline
 62
9
  6
CONTINUOUS
 70
0
 71
3
 72
31
 73
27
 74
0
 42
0.0000001
 43
0.0000001
 44
0.0000000001
 40
0.0
 40
0.0
 40
0.0
 40
0.0
 40
0.0005522783
 40
0.0011841291
 40
0.0024423461
 40
0.0043858876
 40
0.0070136465
 40
0.0103139474
 40
0.0142719744
 40
0.0188717074
 40
0.0240966061
 40
0.0299299041
 40
0.0433543008
 40
0.0590103553
 40
0.0767725692
 40
0.0965716897
 40
0.1183617561
 40
0.1677290616
 40
0.2245011922
 40
0.2883031563
 40
0.358741646
 40
0.4353921431
 40
0.5178293659
 40
0.6056308493
 40
0.7953408342
 40
1.0
 40
1.0
 40
1.0
 40
1.0
 10
12.955004571
 20
12.3512811164
 30
0.0
 10
12.9550176267
 20
12.3512479347
 30
0.0
 10
12.9550811552
 20
12.3511653359
 30
0.0
 10
12.9552257282
 20
12.3513053715
 30
0.0
 10
12.9553371345
 20
12.3515020785
 30
0.0
 10
12.9555086906
 20
12.3518495046
 30
0.0
 10
12.9557024293
 20
12.3523146547
 30
0.0
 10
12.9559359605
 20
12.3529105137
 30
0.0
 10
12.9562029348
 20
12.3536274726
 30
0.0
 10
12.9565065835
 20
12.3544641499
 30
0.0
 10
12.9568468602
 20
12.3554160493
 30
0.0
 10
12.9573761886
 20
12.3569055287
 30
0.0
 10
12.9581319917
 20
12.3590292344
 30
0.0
 10
12.9591629718
 20
12.3618725185
 30
0.0
 10
12.960365479
 20
12.365091245
 30
0.0
 10
12.9617326949
 20
12.3686710787
 30
0.0
 10
12.9638549333
 20
12.3741468089
 30
0.0
 10
12.9668783316
 20
12.3818333554
 30
0.0
 10
12.9709136255
 20
12.3920366025
 30
0.0
 10
12.9754395783
 20
12.4035088015
 30
0.0
 10
12.9803979133
 20
12.4161900961
 30
0.0
 10
12.9857225108
 20
12.4300199033
 30
0.0
 10
12.9913497042
 20
12.4449341502
 30
0.0
 10
12.9993641909
 20
12.4667489091
 30
0.0
 10
13.0097450878
 20
12.4960988289
 30
0.0
 10
13.0182676631
 20
12.5200927244
 30
0.0
 10
13.0227723956
 20
12.5325149433
 30
0.0
  0
SPLINE
  5
490
100
AcDbEntity
  8
0
100
AcDbSpline
 62
9
  6
CONTINUOUS
 70
0
 71
3
 72
13
 73
9
 74
0
 42
0.0000001
 43
0.0000001
 44
0.0000000001
 40
0.0
 40
0.0
 40
0.0
 40
0.0
 40
0.2506533634
 40
0.3757562802
 40
0.5006737234
 40
0.6255006124
 40
0.7503540325
 40
1.0
 40
1.0
 40
1.0
 40
1.0
 10
13.0332025762
 20
12.5320965327
 30
0.0
 10
13.0456209746
 20
12.5083656704
 30
0.0
 10
13.0654106258
 20
12.473369834
 30
0.0
 10
13.094734712
 20
12.4286027708
 30
0.0
 10
13.1182913382
 20
12.396187306
 30
0.0
 10
13.1434082338
 20
12.3649962007
 30
0.0
 10
13.1789278801
 20
12.3251668744
 30
0.0
 10
13.2079656424
 20
12.2974511134
 30
0.0
 10
13.2284269788
 20
12.2803353485
 30
0.0
  0
SPLINE
  5
491
100
AcDbEntity
  8
0
100
AcDbSpline
 62
9
  6
CONTINUOUS
 70
0
 71
3
 72
14
 73
10
 74
0
 42
0.0000001
 43
0.0000001
 44
0.0000000001
 40
0.0
 40
0.0
 40
0.0
 40
0.0
 40
0.124444195
 40
0.2493352078
 40
0.3745717569
 40
0.4997562945
 40
0.6247601604
 40
0.7497201454
 40
1.0
 40
1.0
 40
1.0
 40
1.0
 10
13.7935681309
 20
12.2803353485
 30
0.0
 10
13.8039958281
 20
12.288583766
 30
0.0
 10
13.8241308502
 20
12.3060842648
 30
0.0
 10
13.8522515819
 20
12.334599318
 30
0.0
 10
13.8785949229
 20
12.3648563083
 30
0.0
 10
13.9035083983
 20
12.3963060699
 30
0.0
 10
13.9270508302
 20
12.4287605506
 30
0.0
 10
13.9565449501
 20
12.4733451551
 30
0.0
 10
13.9765022792
 20
12.508188472
 30
0.0
 10
13.9888101676
 20
12.5319274132
 30
0.0
  0
SPLINE
  5
492
100
AcDbEntity
  8
0
100
AcDbSpline
 62
9
  6
CONTINUOUS
 70
0
 71
3
 72
14
 73
10
 74
0
 42
0.0000001
 43
0.0000001
 44
0.0000000001
 40
0.0
 40
0.0
 40
0.0
 40
0.0
 40
0.2489385765
 40
0.4980090143
 40
0.6227628368
 40
0.7478657621
 40
0.8735533413
 40
0.9367010309
 40
1.0
 40
1.0
 40
1.0
 40
1.0
 10
13.9995688722
 20
13.5872801179
 30
0.0
 10
13.9866486483
 20
13.6134237865
 30
0.0
 10
13.9584607328
 20
13.6646103976
 30
0.0
 10
13.916898994
 20
13.724761683
 30
0.0
 10
13.8795111078
 20
13.7697280026
 30
0.0
 10
13.8493791841
 20
13.8018195134
 30
0.0
 10
13.8225891078
 20
13.8270515422
 30
0.0
 10
13.800178548
 20
13.8462966291
 30
0.0
 10
13.788620384
 20
13.8555675608
 30
0.0
 10
13.7827413362
 20
13.8600866081
 30
0.0
  0
LINE
  5
493
100
AcDbEntity
  8
0
100
AcDbLine
 62
9
  6
CONTINUOUS
 10
13.7935637826
 20
12.2803360154
 11
13.7809972306
 21
12.2797045175
  0
SPLINE
  5
494
100
AcDbEntity
  8
0
100
AcDbSpline
 62
9
  6
CONTINUOUS
 70
0
 71
3
 72
24
 73
20
 74
0
 42
0.0000001
 43
0.0000001
 44
0.0000000001
 40
0.0
 40
0.0
 40
0.0
 40
0.0
 40
0.002321449
 40
0.0051638069
 40
0.0090608098
 40
0.0198197984
 40
0.0342014357
 40
0.0518103112
 40
0.0722529348
 40
0.120076301
 40
0.1749154727
 40
0.2354524124
 40
0.3007562929
 40
0.3699234396
 40
0.4420856549
 40
0.5164595974
 40
0.6707614
 40
0.832093997
 40
1.0
 40
1.0
 40
1.0
 40
1.0
 10
13.0842958264
 20
18.754304818
 30
0.0
 10
13.0843048029
 20
18.754321147
 30
0.0
 10
13.0843071084
 20
18.7542268808
 30
0.0
 10
13.0843276377
 20
18.75418343
 30
0.0
 10
13.0843587627
 20
18.7540320061
 30
0.0
 10
13.0844167325
 20
18.7538165523
 30
0.0
 10
13.0845025995
 20
18.7534796263
 30
0.0
 10
13.0846134799
 20
18.7530753136
 30
0.0
 10
13.0848028854
 20
18.7524118052
 30
0.0
 10
13.0850953821
 20
18.7514681917
 30
0.0
 10
13.085526526
 20
18.7502307647
 30
0.0
 10
13.0860503511
 20
18.7488781458
 30
0.0
 10
13.0866663819
 20
18.7474388
 30
0.0
 10
13.0873751648
 20
18.7459388477
 30
0.0
 10
13.0881770355
 20
18.7444037114
 30
0.0
 10
13.0893902156
 20
18.7423150072
 30
0.0
 10
13.091146634
 20
18.7397182285
 30
0.0
 10
13.0935915144
 20
18.7366983113
 30
0.0
 10
13.0954238174
 20
18.7347888028
 30
0.0
 10
13.0963960887
 20
18.7338554806
 30
0.0
  0
SPLINE
  5
495
100
AcDbEntity
  8
0
100
AcDbSpline
 62
9
  6
CONTINUOUS
 70
0
 71
3
 72
9
 73
5
 74
0
 42
0.0000001
 43
0.0000001
 44
0.0000000001
 40
0.0
 40
0.0
 40
0.0
 40
0.0
 40
0.4648161124
 40
1.0
 40
1.0
 40
1.0
 40
1.0
 10
13.0963960887
 20
18.7338554806
 30
0.0
 10
13.0986220273
 20
18.731718713
 30
0.0
 10
13.1038638309
 20
18.7275778877
 30
0.0
 10
13.1097429105
 20
18.7244280498
 30
0.0
 10
13.1129762552
 20
18.7229560212
 30
0.0
  0
SPLINE
  5
496
100
AcDbEntity
  8
0
100
AcDbSpline
 62
9
  6
CONTINUOUS
 70
0
 71
3
 72
9
 73
5
 74
0
 42
0.0000001
 43
0.0000001
 44
0.0000000001
 40
0.0
 40
0.0
 40
0.0
 40
0.0
 40
0.5063563136
 40
1.0
 40
1.0
 40
1.0
 40
1.0
 10
13.9213779589
 20
12.5244478564
 30
0.0
 10
13.9019171143
 20
12.4977735259
 30
0.0
 10
13.8594746407
 20
12.4478728812
 30
0.0
 10
13.8092555129
 20
12.4056778888
 30
0.0
 10
13.7828101596
 20
12.387324924
 30
0.0
  0
SPLINE
  5
497
100
AcDbEntity
  8
0
100
AcDbSpline
 62
9
  6
CONTINUOUS
 70
0
 71
3
 72
9
 73
5
 74
0
 42
0.0000001
 43
0.0000001
 44
0.0000000001
 40
0.0
 40
0.0
 40
0.0
 40
0.0
 40
0.4935376184
 40
1.0
 40
1.0
 40
1.0
 40
1.0
 10
13.2399104212
 20
12.3868259165
 30
0.0
 10
13.2130233474
 20
12.4054285698
 30
0.0
 10
13.162016232
 20
12.4483279328
 30
0.0
 10
13.1190081399
 20
12.4991217915
 30
0.0
 10
13.0993102525
 20
12.5262822103
 30
0.0
  0
SPLINE
  5
498
100
AcDbEntity
  8
0
100
AcDbSpline
 62
9
  6
CONTINUOUS
 70
0
 71
3
 72
38
 73
34
 74
0
 42
0.0000001
 43
0.0000001
 44
0.0000000001
 40
0.0
 40
0.0
 40
0.0
 40
0.0
 40
0.1179200373
 40
0.2274955527
 40
0.4270004448
 40
0.5170281863
 40
0.6002741859
 40
0.6764508949
 40
0.7452022304
 40
0.8061816765
 40
0.8591555281
 40
0.8825754379
 40
0.9039140145
 40
0.9231429132
 40
0.9402337009
 40
0.9551628178
 40
0.9679264332
 40
0.9734965284
 40
0.9785256782
 40
0.9830140438
 40
0.9869618083
 40
0.9903691942
 40
0.9932364962
 40
0.9955641532
 40
0.9973529287
 40
0.9980457236
 40
0.9986046021
 40
0.9990303559
 40
0.9993248425
 40
0.9994942753
 40
0.9995792236
 40
0.9997283664
 40
1.0
 40
1.0
 40
1.0
 40
1.0
 10
12.9657725297
 20
11.2519093264
 30
0.0
 10
12.9426306571
 20
11.2565336976
 30
0.0
 10
12.8980018665
 20
11.2655427917
 30
0.0
 10
12.8140961721
 20
11.281750064
 30
0.0
 10
12.7354570323
 20
11.2957751059
 30
0.0
 10
12.6618181465
 20
11.3077442933
 30
0.0
 10
12.6124691132
 20
11.3152950325
 30
0.0
 10
12.5672700116
 20
11.3218022471
 30
0.0
 10
12.5264354789
 20
11.3273432733
 30
0.0
 10
12.4901677035
 20
11.3319963357
 30
0.0
 10
12.4628759262
 20
11.3353144793
 30
0.0
 10
12.4434493542
 20
11.3375886592
 30
0.0
 10
12.4307266719
 20
11.3390456296
 30
0.0
 10
12.4192596918
 20
11.3403344344
 30
0.0
 10
12.409065661
 20
11.3414642319
 30
0.0
 10
12.4001569217
 20
11.3424448277
 30
0.0
 10
12.3935400883
 20
11.3431741408
 30
0.0
 10
12.3888932862
 20
11.3436924628
 30
0.0
 10
12.3858928917
 20
11.344031514
 30
0.0
 10
12.3832157834
 20
11.3443399573
 30
0.0
 10
12.3808620095
 20
11.344618893
 30
0.0
 10
12.3788315367
 20
11.344869373
 30
0.0
 10
12.3771245131
 20
11.3450923735
 30
0.0
 10
12.3757404404
 20
11.3452887195
 30
0.0
 10
12.3747905509
 20
11.3454411263
 30
0.0
 10
12.3741916175
 20
11.345553429
 30
0.0
 10
12.3738654416
 20
11.3456257434
 30
0.0
 10
12.3736127192
 20
11.3456874917
 30
0.0
 10
12.3734547513
 20
11.3457518996
 30
0.0
 10
12.373338044
 20
11.3457924273
 30
0.0
 10
12.3733273103
 20
11.3458886229
 30
0.0
 10
12.3734461041
 20
11.3459232375
 30
0.0
 10
12.3735185104
 20
11.3459444737
 30
0.0
 10
12.3735718737
 20
11.3459548465
 30
0.0
  0
SPLINE
  5
499
100
AcDbEntity
  8
0
100
AcDbSpline
 62
9
  6
CONTINUOUS
 70
0
 71
3
 72
16
 73
12
 74
0
 42
0.0000001
 43
0.0000001
 44
0.0000000001
 40
0.0
 40
0.0
 40
0.0
 40
0.0
 40
0.112925818
 40
0.2188412494
 40
0.413860067
 40
0.5855436736
 40
0.7310792429
 40
0.8472941238
 40
0.9318579551
 40
0.9829333662
 40
1.0
 40
1.0
 40
1.0
 40
1.0
 10
13.125983468
 20
11.3057460165
 30
0.0
 10
13.1038485652
 20
11.3089101394
 30
0.0
 10
13.060964959
 20
11.3151262474
 30
0.0
 10
12.9798182185
 20
11.3265486796
 30
0.0
 10
12.8870552403
 20
11.3389074374
 30
0.0
 10
12.7863856261
 20
11.3512827427
 30
0.0
 10
12.7011132386
 20
11.3609904146
 30
0.0
 10
12.6329260543
 20
11.3682503887
 30
0.0
 10
12.5833049819
 20
11.3732144733
 30
0.0
 10
12.5532040948
 20
11.3760761905
 30
0.0
 10
12.5397681523
 20
11.3773108045
 30
0.0
 10
12.5364017663
 20
11.3776057714
 30
0.0
  0
SPLINE
  5
49A
100
AcDbEntity
  8
0
100
AcDbSpline
 62
9
  6
CONTINUOUS
 70
0
 71
3
 72
9
 73
5
 74
0
 42
0.0000001
 43
0.0000001
 44
0.0000000001
 40
0.0
 40
0.0
 40
0.0
 40
0.0
 40
0.4935315883
 40
1.0
 40
1.0
 40
1.0
 40
1.0
 10
10.5969858044
 20
13.866840348
 30
0.0
 10
10.5969858044
 20
13.8535014964
 30
0.0
 10
10.593904135
 20
13.8263979987
 30
0.0
 10
10.585076194
 20
13.8006181397
 30
0.0
 10
10.5793661502
 20
13.7881774636
 30
0.0
  0
SPLINE
  5
49B
100
AcDbEntity
  8
0
100
AcDbSpline
 62
9
  6
CONTINUOUS
 70
0
 71
3
 72
9
 73
5
 74
0
 42
0.0000001
 43
0.0000001
 44
0.0000000001
 40
0.0
 40
0.0
 40
0.0
 40
0.0
 40
0.4870680689
 40
1.0
 40
1.0
 40
1.0
 40
1.0
 10
10.5793661502
 20
13.7881774636
 30
0.0
 10
10.5734172446
 20
13.7752163705
 30
0.0
 10
10.5583840087
 20
13.7498427108
 30
0.0
 10
10.5389963942
 20
13.7276873951
 30
0.0
 10
10.5282319224
 20
13.7172146504
 30
0.0
  0
SPLINE
  5
49C
100
AcDbEntity
  8
0
100
AcDbSpline
 62
9
  6
CONTINUOUS
 70
0
 71
3
 72
19
 73
15
 74
0
 42
0.0000001
 43
0.0000001
 44
0.0000000001
 40
0.0
 40
0.0
 40
0.0
 40
0.0
 40
0.1141899796
 40
0.2370607205
 40
0.3012374955
 40
0.3667325756
 40
0.4331375987
 40
0.5
 40
0.5668624013
 40
0.6332674244
 40
0.6987625045
 40
0.7629392795
 40
0.8858100204
 40
1.0
 40
1.0
 40
1.0
 40
1.0
 10
10.5282319224
 20
13.7172146504
 30
0.0
 10
10.510952227
 20
13.7004032507
 30
0.0
 10
10.4705191386
 20
13.6700418611
 30
0.0
 10
10.4124764859
 20
13.6430896793
 30
0.0
 10
10.3614723777
 20
13.6273584647
 30
0.0
 10
10.3209343065
 20
13.6187005403
 30
0.0
 10
10.2792503475
 20
13.6134604908
 30
0.0
 10
10.2369858044
 20
13.6116905922
 30
0.0
 10
10.1947212612
 20
13.6134604908
 30
0.0
 10
10.1530373022
 20
13.6187005403
 30
0.0
 10
10.1124992311
 20
13.6273584647
 30
0.0
 10
10.0614951229
 20
13.6430896793
 30
0.0
 10
10.0034524702
 20
13.6700418611
 30
0.0
 10
9.9630193818
 20
13.7004032507
 30
0.0
 10
9.9457396864
 20
13.7172146504
 30
0.0
  0
SPLINE
  5
49D
100
AcDbEntity
  8
0
100
AcDbSpline
 62
9
  6
CONTINUOUS
 70
0
 71
3
 72
9
 73
5
 74
0
 42
0.0000001
 43
0.0000001
 44
0.0000000001
 40
0.0
 40
0.0
 40
0.0
 40
0.0
 40
0.5129319311
 40
1.0
 40
1.0
 40
1.0
 40
1.0
 10
9.9457396864
 20
13.7172146504
 30
0.0
 10
9.9349752146
 20
13.7276873951
 30
0.0
 10
9.9155876001
 20
13.7498427108
 30
0.0
 10
9.9005543641
 20
13.7752163705
 30
0.0
 10
9.8946054585
 20
13.7881774636
 30
0.0
  0
SPLINE
  5
49E
100
AcDbEntity
  8
0
100
AcDbSpline
 62
9
  6
CONTINUOUS
 70
0
 71
3
 72
9
 73
5
 74
0
 42
0.0000001
 43
0.0000001
 44
0.0000000001
 40
0.0
 40
0.0
 40
0.0
 40
0.0
 40
0.5064684117
 40
1.0
 40
1.0
 40
1.0
 40
1.0
 10
9.8946054585
 20
13.7881774636
 30
0.0
 10
9.8888954148
 20
13.8006181397
 30
0.0
 10
9.8800674737
 20
13.8263979987
 30
0.0
 10
9.8769858044
 20
13.8535014964
 30
0.0
 10
9.8769858044
 20
13.866840348
 30
0.0
  0
SPLINE
  5
49F
100
AcDbEntity
  8
0
100
AcDbSpline
 62
9
  6
CONTINUOUS
 70
0
 71
3
 72
26
 73
22
 74
0
 42
0.0000001
 43
0.0000001
 44
0.0000000001
 40
0.0
 40
0.0
 40
0.0
 40
0.0
 40
0.0256816872
 40
0.0516763047
 40
0.0781587494
 40
0.1052892857
 40
0.1619959061
 40
0.2227184107
 40
0.3554409331
 40
0.4264342357
 40
0.4988441798
 40
0.5713145007
 40
0.6424841388
 40
0.7111266974
 40
0.776269374
 40
0.8373587808
 40
0.8943982777
 40
0.9216591738
 40
0.9482388636
 40
0.9742949132
 40
1.0
 40
1.0
 40
1.0
 40
1.0
 10
10.5497774664
 20
13.9021405365
 30
0.0
 10
10.5497774664
 20
13.8949514552
 30
0.0
 10
10.5487583031
 20
13.8804666659
 30
0.0
 10
10.5442537898
 20
13.8589931838
 30
0.0
 10
10.5368214177
 20
13.8379145529
 30
0.0
 10
10.5228686406
 20
13.8102839281
 30
0.0
 10
10.4980861335
 20
13.7777962072
 30
0.0
 10
10.4445767102
 20
13.7320275804
 30
0.0
 10
10.3757942755
 20
13.7005556964
 30
0.0
 10
10.3001366522
 20
13.6841087753
 30
0.0
 10
10.2396569916
 20
13.6795733116
 30
0.0
 10
10.179112821
 20
13.6833741991
 30
0.0
 10
10.1206949787
 20
13.6953203738
 30
0.0
 10
10.0665656163
 20
13.7150068335
 30
0.0
 10
10.018729975
 20
13.7417772948
 30
0.0
 10
9.9789406913
 20
13.7746475864
 30
0.0
 10
9.9533882463
 20
13.8068129423
 30
0.0
 10
9.9387587386
 20
13.8342686988
 30
0.0
 10
9.9308149246
 20
13.8552456529
 30
0.0
 10
9.9257893593
 20
13.8766550907
 30
0.0
 10
9.9244160193
 20
13.8911342487
 30
0.0
 10
9.9242406221
 20
13.8983277422
 30
0.0
  0
SPLINE
  5
4A0
100
AcDbEntity
  8
0
100
AcDbSpline
 62
7
  6
CONTINUOUS
 70
0
 71
3
 72
21
 73
17
 74
0
 42
0.0000001
 43
0.0000001
 44
0.0000000001
 40
0.0
 40
0.0
 40
0.0
 40
0.0
 40
0.1418036545
 40
0.2085173379
 40
0.2721412929
 40
0.3326751194
 40
0.3903572688
 40
0.4458028536
 40
0.5000001913
 40
0.5541975782
 40
0.6096432082
 40
0.6673252939
 40
0.727858953
 40
0.7914827906
 40
0.8581963584
 40
1.0
 40
1.0
 40
1.0
 40
1.0
 10
12.8808519394
 20
14.0349390918
 30
0.0
 10
12.8892453218
 20
14.0243828512
 30
0.0
 10
12.9023059389
 20
14.0093771554
 30
0.0
 10
12.92130579
 20
13.9917670415
 30
0.0
 10
12.935669584
 20
13.9806198008
 30
0.0
 10
12.9504265178
 20
13.971524629
 30
0.0
 10
12.9655511383
 20
13.9647499193
 30
0.0
 10
12.9809761385
 20
13.96054811
 30
0.0
 10
12.9965782374
 20
13.9591267273
 30
0.0
 10
13.0121803492
 20
13.960548101
 30
0.0
 10
13.0276053208
 20
13.9647500121
 30
0.0
 10
13.0427299585
 20
13.9715246352
 30
0.0
 10
13.0574868249
 20
13.9806198612
 30
0.0
 10
13.071850594
 20
13.9917670656
 30
0.0
 10
13.090850428
 20
14.0093771662
 30
0.0
 10
13.1039110366
 20
14.0243828521
 30
0.0
 10
13.1123044183
 20
14.0349390918
 30
0.0
  0
SPLINE
  5
4A1
100
AcDbEntity
  8
0
100
AcDbSpline
 62
7
  6
CONTINUOUS
 70
0
 71
3
 72
21
 73
17
 74
0
 42
0.0000001
 43
0.0000001
 44
0.0000000001
 40
0.0
 40
0.0
 40
0.0
 40
0.0
 40
0.1418036545
 40
0.2085173379
 40
0.2721412929
 40
0.3326751194
 40
0.3903572688
 40
0.4458028536
 40
0.5000001913
 40
0.5541975782
 40
0.6096432082
 40
0.6673252939
 40
0.727858953
 40
0.7914827906
 40
0.8581963584
 40
1.0
 40
1.0
 40
1.0
 40
1.0
 10
13.909690119
 20
14.0349390918
 30
0.0
 10
13.9180835015
 20
14.0243828512
 30
0.0
 10
13.9311441186
 20
14.0093771554
 30
0.0
 10
13.9501439697
 20
13.9917670415
 30
0.0
 10
13.9645077637
 20
13.9806198008
 30
0.0
 10
13.9792646975
 20
13.971524629
 30
0.0
 10
13.994389318
 20
13.9647499193
 30
0.0
 10
14.0098143182
 20
13.96054811
 30
0.0
 10
14.0254164171
 20
13.9591267273
 30
0.0
 10
14.0410185289
 20
13.960548101
 30
0.0
 10
14.0564435005
 20
13.9647500121
 30
0.0
 10
14.0715681382
 20
13.9715246352
 30
0.0
 10
14.0863250046
 20
13.9806198612
 30
0.0
 10
14.1006887737
 20
13.9917670656
 30
0.0
 10
14.1196886077
 20
14.0093771662
 30
0.0
 10
14.1327492163
 20
14.0243828521
 30
0.0
 10
14.141142598
 20
14.0349390918
 30
0.0
  0
SPLINE
  5
4A2
100
AcDbEntity
  8
0
100
AcDbSpline
 62
9
  6
CONTINUOUS
 70
0
 71
3
 72
22
 73
18
 74
0
 42
0.0000001
 43
0.0000001
 44
0.0000000001
 40
0.0
 40
0.0
 40
0.0
 40
0.0
 40
0.0516432375
 40
0.1054200156
 40
0.1624994483
 40
0.223605692
 40
0.357015178
 40
0.4282200863
 40
0.5007244105
 40
0.5731679677
 40
0.644195967
 40
0.7125943265
 40
0.7774296635
 40
0.838169252
 40
0.8949136936
 40
0.94844978
 40
1.0
 40
1.0
 40
1.0
 40
1.0
 10
10.0167711588
 20
13.916023654
 30
0.0
 10
10.0170191712
 20
13.9058520223
 30
0.0
 10
10.0205033116
 20
13.8850658519
 30
0.0
 10
10.0340153868
 20
13.8556828132
 30
0.0
 10
10.0552944161
 20
13.8289399999
 30
0.0
 10
10.0937140771
 20
13.7971845002
 30
0.0
 10
10.1426454966
 20
13.7756271022
 30
0.0
 10
10.1962248875
 20
13.7646609126
 30
0.0
 10
10.2388820398
 20
13.7620061416
 30
0.0
 10
10.2814456047
 20
13.7651708312
 30
0.0
 10
10.3223711733
 20
13.7740935948
 30
0.0
 10
10.3601508007
 20
13.7884142442
 30
0.0
 10
10.393382461
 20
13.8076663876
 30
0.0
 10
10.4208435005
 20
13.8311714237
 30
0.0
 10
10.4414745583
 20
13.8581845734
 30
0.0
 10
10.45426918
 20
13.8877507846
 30
0.0
 10
10.457233178
 20
13.9085520449
 30
0.0
 10
10.457233178
 20
13.9187083737
 30
0.0
  0
SPLINE
  5
4A3
100
AcDbEntity
  8
0
100
AcDbSpline
 62
9
  6
CONTINUOUS
 70
0
 71
3
 72
26
 73
22
 74
0
 42
0.0000001
 43
0.0000001
 44
0.0000000001
 40
0.0
 40
0.0
 40
0.0
 40
0.0
 40
0.0256816872
 40
0.0516763047
 40
0.0781587494
 40
0.1052892857
 40
0.1619959061
 40
0.2227184107
 40
0.3554409331
 40
0.4264342357
 40
0.4988441798
 40
0.5713145007
 40
0.6424841388
 40
0.7111266974
 40
0.776269374
 40
0.8373587808
 40
0.8943982777
 40
0.9216591738
 40
0.9482388636
 40
0.9742949132
 40
1.0
 40
1.0
 40
1.0
 40
1.0
 10
9.9241941424
 20
13.9021405365
 30
0.0
 10
9.9241941424
 20
13.9093296178
 30
0.0
 10
9.9252133057
 20
13.9238144071
 30
0.0
 10
9.929717819
 20
13.9452878892
 30
0.0
 10
9.9371501911
 20
13.9663665201
 30
0.0
 10
9.9511029681
 20
13.9939971449
 30
0.0
 10
9.9758854753
 20
14.0264848658
 30
0.0
 10
10.0293948986
 20
14.0722534926
 30
0.0
 10
10.0981773332
 20
14.1037253766
 30
0.0
 10
10.1738349565
 20
14.1201722977
 30
0.0
 10
10.2343146171
 20
14.1247077614
 30
0.0
 10
10.2948587877
 20
14.1209068739
 30
0.0
 10
10.3532766301
 20
14.1089606992
 30
0.0
 10
10.4074059924
 20
14.0892742395
 30
0.0
 10
10.4552416338
 20
14.0625037782
 30
0.0
 10
10.4950309174
 20
14.0296334866
 30
0.0
 10
10.5205833625
 20
13.9974681307
 30
0.0
 10
10.5352128701
 20
13.9700123742
 30
0.0
 10
10.5431566842
 20
13.9490354201
 30
0.0
 10
10.5481822494
 20
13.9276259823
 30
0.0
 10
10.5495555895
 20
13.9131468243
 30
0.0
 10
10.5497309866
 20
13.9059533308
 30
0.0
  0
SPLINE
  5
4A4
100
AcDbEntity
  8
0
100
AcDbSpline
 62
7
  6
CONTINUOUS
 70
0
 71
3
 72
21
 73
17
 74
0
 42
0.0000001
 43
0.0000001
 44
0.0000000001
 40
0.0
 40
0.0
 40
0.0
 40
0.0
 40
0.1418036545
 40
0.2085173378
 40
0.2721412929
 40
0.3326751194
 40
0.3903572688
 40
0.4458028536
 40
0.5000001913
 40
0.5541975782
 40
0.6096432082
 40
0.6673252939
 40
0.727858953
 40
0.7914827906
 40
0.8581963584
 40
1.0
 40
1.0
 40
1.0
 40
1.0
 10
14.141142598
 20
14.3811122328
 30
0.0
 10
14.1327492155
 20
14.3916684735
 30
0.0
 10
14.1196885985
 20
14.4066741692
 30
0.0
 10
14.1006887473
 20
14.4242842831
 30
0.0
 10
14.0863249533
 20
14.4354315238
 30
0.0
 10
14.0715680196
 20
14.4445266956
 30
0.0
 10
14.056443399
 20
14.4513014053
 30
0.0
 10
14.0410183988
 20
14.4555032147
 30
0.0
 10
14.0254162999
 20
14.4569245973
 30
0.0
 10
14.0098141881
 20
14.4555032237
 30
0.0
 10
13.9943892165
 20
14.4513013125
 30
0.0
 10
13.9792645788
 20
14.4445266895
 30
0.0
 10
13.9645077124
 20
14.4354314634
 30
0.0
 10
13.9501439433
 20
14.424284259
 30
0.0
 10
13.9311441093
 20
14.4066741584
 30
0.0
 10
13.9180835007
 20
14.3916684725
 30
0.0
 10
13.909690119
 20
14.3811122328
 30
0.0
  0
SPLINE
  5
4A5
100
AcDbEntity
  8
0
100
AcDbSpline
 62
7
  6
CONTINUOUS
 70
0
 71
3
 72
21
 73
17
 74
0
 42
0.0000001
 43
0.0000001
 44
0.0000000001
 40
0.0
 40
0.0
 40
0.0
 40
0.0
 40
0.1418036545
 40
0.2085173378
 40
0.2721412929
 40
0.3326751194
 40
0.3903572688
 40
0.4458028536
 40
0.5000001913
 40
0.5541975782
 40
0.6096432082
 40
0.6673252939
 40
0.727858953
 40
0.7914827906
 40
0.8581963584
 40
1.0
 40
1.0
 40
1.0
 40
1.0
 10
13.1123044183
 20
14.3811122328
 30
0.0
 10
13.1039110358
 20
14.3916684735
 30
0.0
 10
13.0908504188
 20
14.4066741692
 30
0.0
 10
13.0718505676
 20
14.4242842831
 30
0.0
 10
13.0574867736
 20
14.4354315238
 30
0.0
 10
13.0427298399
 20
14.4445266956
 30
0.0
 10
13.0276052193
 20
14.4513014053
 30
0.0
 10
13.0121802191
 20
14.4555032147
 30
0.0
 10
12.9965781202
 20
14.4569245973
 30
0.0
 10
12.9809760084
 20
14.4555032237
 30
0.0
 10
12.9655510368
 20
14.4513013125
 30
0.0
 10
12.9504263991
 20
14.4445266895
 30
0.0
 10
12.9356695327
 20
14.4354314634
 30
0.0
 10
12.9213057636
 20
14.424284259
 30
0.0
 10
12.9023059296
 20
14.4066741584
 30
0.0
 10
12.889245321
 20
14.3916684725
 30
0.0
 10
12.8808519394
 20
14.3811122328
 30
0.0
  0
SPLINE
  5
4A6
100
AcDbEntity
  8
0
100
AcDbSpline
 62
9
  6
CONTINUOUS
 70
0
 71
3
 72
22
 73
18
 74
0
 42
0.0000001
 43
0.0000001
 44
0.0000000001
 40
0.0
 40
0.0
 40
0.0
 40
0.0
 40
0.0516432375
 40
0.1054200156
 40
0.1624994483
 40
0.223605692
 40
0.357015178
 40
0.4282200863
 40
0.5007244105
 40
0.5731679677
 40
0.644195967
 40
0.7125943265
 40
0.7774296635
 40
0.838169252
 40
0.8949136936
 40
0.94844978
 40
1.0
 40
1.0
 40
1.0
 40
1.0
 10
10.45720045
 20
13.9213930933
 30
0.0
 10
10.4569524376
 20
13.9315647251
 30
0.0
 10
10.4534682971
 20
13.9523508954
 30
0.0
 10
10.439956222
 20
13.9817339341
 30
0.0
 10
10.4186771927
 20
14.0084767475
 30
0.0
 10
10.3802575316
 20
14.0402322472
 30
0.0
 10
10.3313261121
 20
14.0617896451
 30
0.0
 10
10.2777467212
 20
14.0727558347
 30
0.0
 10
10.235089569
 20
14.0754106057
 30
0.0
 10
10.1925260041
 20
14.0722459162
 30
0.0
 10
10.1516004354
 20
14.0633231526
 30
0.0
 10
10.1138208081
 20
14.0490025031
 30
0.0
 10
10.0805891478
 20
14.0297503597
 30
0.0
 10
10.0531281082
 20
14.0062453236
 30
0.0
 10
10.0324970505
 20
13.9792321739
 30
0.0
 10
10.0197024287
 20
13.9496659627
 30
0.0
 10
10.0167384308
 20
13.9288647025
 30
0.0
 10
10.0167384308
 20
13.9187083737
 30
0.0
  0
SPLINE
  5
4A7
100
AcDbEntity
  8
0
100
AcDbSpline
 62
9
  6
CONTINUOUS
 70
0
 71
3
 72
11
 73
7
 74
0
 42
0.0000001
 43
0.0000001
 44
0.0000000001
 40
0.0
 40
0.0
 40
0.0
 40
0.0
 40
0.3064208307
 40
0.4496991113
 40
0.5838608736
 40
1.0
 40
1.0
 40
1.0
 40
1.0
 10
13.2284312765
 20
12.2803361311
 30
0.0
 10
13.2288003966
 20
12.2787339557
 30
0.0
 10
13.229588814
 20
12.2764325525
 30
0.0
 10
13.2310944517
 20
12.273663396
 30
0.0
 10
13.2331949047
 20
12.2706627355
 30
0.0
 10
13.235899183
 20
12.2684206339
 30
0.0
 10
13.2381320385
 20
12.2684203544
 30
0.0
  0
SPLINE
  5
4A8
100
AcDbEntity
  8
0
100
AcDbSpline
 62
9
  6
CONTINUOUS
 70
0
 71
3
 72
31
 73
27
 74
0
 42
0.0000001
 43
0.0000001
 44
0.0000000001
 40
0.0
 40
0.0
 40
0.0
 40
0.0
 40
0.0672985914
 40
0.1304051333
 40
0.2476663543
 40
0.4538338679
 40
0.5442016095
 40
0.6263946213
 40
0.7004978074
 40
0.7664685336
 40
0.8242371666
 40
0.8500445983
 40
0.8738011157
 40
0.8955051201
 40
0.9151513176
 40
0.9327325274
 40
0.9482402938
 40
0.9616688678
 40
0.9730271174
 40
0.982326605
 40
0.9895776166
 40
0.9947891847
 40
0.997969225
 40
0.998799832
 40
0.9991267032
 40
1.0
 40
1.0
 40
1.0
 40
1.0
 10
12.2276818908
 20
11.1026597232
 30
0.0
 10
12.2150156217
 20
11.1065531766
 30
0.0
 10
12.1904921366
 20
11.1141625426
 30
0.0
 10
12.1438325575
 20
11.1283416575
 30
0.0
 10
12.0706911364
 20
11.1494006055
 30
0.0
 10
11.9915381359
 20
11.1689407825
 30
0.0
 10
11.9183895489
 20
11.1834886963
 30
0.0
 10
11.8704912308
 20
11.1915714778
 30
0.0
 10
11.8271366406
 20
11.1975929602
 30
0.0
 10
11.7884082088
 20
11.2018396858
 30
0.0
 10
11.7590540179
 20
11.2042168953
 30
0.0
 10
11.7379560315
 20
11.2054588817
 30
0.0
 10
11.7239368203
 20
11.2060857652
 30
0.0
 10
11.7111228632
 20
11.2064787469
 30
0.0
 10
11.6995204048
 20
11.2066727977
 30
0.0
 10
11.6891366629
 20
11.2067028752
 30
0.0
 10
11.679977079
 20
11.2066039649
 30
0.0
 10
11.6720465829
 20
11.2064107418
 30
0.0
 10
11.6653353323
 20
11.2061582525
 30
0.0
 10
11.6598584944
 20
11.2058807625
 30
0.0
 10
11.6555519772
 20
11.2056143918
 30
0.0
 10
11.6525479607
 20
11.2053895659
 30
0.0
 10
11.650619596
 20
11.2052509798
 30
0.0
 10
11.6498866311
 20
11.2051877255
 30
0.0
 10
11.649332984
 20
11.2051815686
 30
0.0
 10
11.6498784075
 20
11.2052830868
 30
0.0
 10
11.6500472013
 20
11.205315897
 30
0.0
  0
LINE
  5
4A9
100
AcDbEntity
  8
0
100
AcDbLine
 62
9
  6
CONTINUOUS
 10
12.8431450246
 20
13.8049056051
 11
12.8658527158
 21
13.7576280879
  0
LINE
  5
4AA
100
AcDbEntity
  8
0
100
AcDbLine
 62
9
  6
CONTINUOUS
 10
12.9443721487
 20
13.5873360399
 11
12.946490468
 21
13.5824593145
  0
LINE
  5
4AB
100
AcDbEntity
  8
0
100
AcDbLine
 62
9
  6
CONTINUOUS
 10
13.0865219373
 20
18.7291688903
 11
13.0868507721
 21
18.7267457438
  0
SPLINE
  5
4AC
100
AcDbEntity
  8
0
100
AcDbSpline
 62
9
  6
CONTINUOUS
 70
0
 71
3
 72
10
 73
6
 74
0
 42
0.0000001
 43
0.0000001
 44
0.0000000001
 40
0.0
 40
0.0
 40
0.0
 40
0.0
 40
0.2353113395
 40
0.4854899716
 40
1.0
 40
1.0
 40
1.0
 40
1.0
 10
13.0906038301
 20
18.7057904541
 30
0.0
 10
13.0927838224
 20
18.6957270047
 30
0.0
 10
13.0984664177
 20
18.675191959
 30
0.0
 10
13.114976541
 20
18.6346251766
 30
0.0
 10
13.1341077606
 20
18.6062804998
 30
0.0
 10
13.1497895758
 20
18.590125982
 30
0.0
  0
SPLINE
  5
4AD
100
AcDbEntity
  8
0
100
AcDbSpline
 62
9
  6
CONTINUOUS
 70
0
 71
3
 72
31
 73
27
 74
0
 42
0.0000001
 43
0.0000001
 44
0.0000000001
 40
0.0
 40
0.0
 40
0.0
 40
0.0
 40
0.0002746275
 40
0.0006171899
 40
0.0010962515
 40
0.0024628731
 40
0.0043724934
 40
0.0068231142
 40
0.0098127374
 40
0.0133393655
 40
0.0174010014
 40
0.0271213087
 40
0.0389576895
 40
0.05289418
 40
0.0689148224
 40
0.0870036658
 40
0.1071447653
 40
0.1535198924
 40
0.2078631735
 40
0.2698660026
 40
0.3391984317
 40
0.4155308941
 40
0.4985342428
 40
0.5878792198
 40
0.7839649304
 40
1.0
 40
1.0
 40
1.0
 40
1.0
 10
12.9409973717
 20
11.9118993867
 30
0.0
 10
12.9410226137
 20
11.9119099982
 30
0.0
 10
12.9410874575
 20
11.9118895376
 30
0.0
 10
12.9411949613
 20
11.9118950363
 30
0.0
 10
12.9414139855
 20
11.9118818752
 30
0.0
 10
12.9417874443
 20
11.9118725918
 30
0.0
 10
12.9423584456
 20
11.9118506844
 30
0.0
 10
12.9430906928
 20
11.9118261014
 30
0.0
 10
12.9439842684
 20
11.9117953399
 30
0.0
 10
12.9450383281
 20
11.9117599507
 30
0.0
 10
12.9467631453
 20
11.9117026666
 30
0.0
 10
12.9493160862
 20
11.9116198793
 30
0.0
 10
12.9528532009
 20
11.9115085121
 30
0.0
 10
12.9570183051
 20
11.911381421
 30
0.0
 10
12.9618066657
 20
11.9112399935
 30
0.0
 10
12.967213545
 20
11.9110856354
 30
0.0
 10
12.9756459373
 20
11.9108533376
 30
0.0
 10
12.9876922346
 20
11.9105402445
 30
0.0
 10
13.0039118223
 20
11.9101527604
 30
0.0
 10
13.0224208343
 20
11.9097592369
 30
0.0
 10
13.0431230152
 20
11.9093804501
 30
0.0
 10
13.0659199632
 20
11.9090378174
 30
0.0
 10
13.0907132133
 20
11.908752068
 30
0.0
 10
13.1274471101
 20
11.9084691013
 30
0.0
 10
13.1774463095
 20
11.9083726457
 30
0.0
 10
13.2185369198
 20
11.9085213901
 30
0.0
 10
13.240076434
 20
11.908647415
 30
0.0
  0
LINE
  5
4AE
100
AcDbEntity
  8
0
100
AcDbLine
 62
9
  6
CONTINUOUS
 10
13.2408759914
 20
11.8645562331
 11
12.9409972687
 21
11.8684193631
  0
SPLINE
  5
4AF
100
AcDbEntity
  8
0
100
AcDbSpline
 62
9
  6
CONTINUOUS
 70
0
 71
3
 72
19
 73
15
 74
0
 42
0.0000001
 43
0.0000001
 44
0.0000000001
 40
0.0
 40
0.0
 40
0.0
 40
0.0
 40
0.0792032214
 40
0.1478480218
 40
0.2100563123
 40
0.2674766789
 40
0.3719743717
 40
0.4655984923
 40
0.6270035076
 40
0.7585426718
 40
0.862008957
 40
0.9374672075
 40
0.9840447115
 40
1.0
 40
1.0
 40
1.0
 40
1.0
 10
7.7607940773
 20
10.1994085526
 30
0.0
 10
7.7475704067
 20
10.2023993575
 30
0.0
 10
7.7230024058
 20
10.2085026036
 30
0.0
 10
7.6883568728
 20
10.2181304399
 30
0.0
 10
7.6574568654
 20
10.2272906892
 30
0.0
 10
7.620825236
 20
10.2386945827
 30
0.0
 10
7.5792175211
 20
10.2521974252
 30
0.0
 10
7.5208588483
 20
10.2717359545
 30
0.0
 10
7.458233368
 20
10.2931060774
 30
0.0
 10
7.3939654382
 20
10.3148791742
 30
0.0
 10
7.3435194373
 20
10.3315986864
 30
0.0
 10
7.3067654825
 20
10.3433963352
 30
0.0
 10
7.2841972983
 20
10.3503715779
 30
0.0
 10
7.2739335087
 20
10.3534101212
 30
0.0
 10
7.2713118913
 20
10.3541759738
 30
0.0
  0
SPLINE
  5
4B0
100
AcDbEntity
  8
0
100
AcDbSpline
 62
9
  6
CONTINUOUS
 70
0
 71
3
 72
26
 73
22
 74
0
 42
0.0000001
 43
0.0000001
 44
0.0000000001
 40
0.0
 40
0.0
 40
0.0
 40
0.0
 40
0.0098668429
 40
0.0209908617
 40
0.0335145019
 40
0.0475108488
 40
0.0800006233
 40
0.1184262933
 40
0.1625424931
 40
0.2120742549
 40
0.2667269799
 40
0.3262331741
 40
0.3903498902
 40
0.4589156001
 40
0.5318724193
 40
0.6094712247
 40
0.6922294641
 40
0.781520328
 40
0.829452389
 40
0.8806327932
 40
1.0
 40
1.0
 40
1.0
 40
1.0
 10
8.344799666
 20
9.9422940594
 30
0.0
 10
8.3427151072
 20
9.9419638977
 30
0.0
 10
8.3382085325
 20
9.9416978636
 30
0.0
 10
8.3310487385
 20
9.942285748
 30
0.0
 10
8.3231252878
 20
9.9437838514
 30
0.0
 10
8.3109398727
 20
9.9471128347
 30
0.0
 10
8.2939101862
 20
9.9535205411
 30
0.0
 10
8.2715364861
 20
9.9637799085
 30
0.0
 10
8.2463991787
 20
9.976687459
 30
0.0
 10
8.2185695551
 20
9.9919150945
 30
0.0
 10
8.1880914024
 20
10.0091513472
 30
0.0
 10
8.1549784354
 20
10.0280641704
 30
0.0
 10
8.1192141459
 20
10.0483359249
 30
0.0
 10
8.0807248221
 20
10.0696317345
 30
0.0
 10
8.0393484867
 20
10.0916577338
 30
0.0
 10
7.9947409664
 20
10.1140501794
 30
0.0
 10
7.9463055616
 20
10.1365600684
 30
0.0
 10
7.9028637254
 20
10.1546845944
 30
0.0
 10
7.8651256764
 20
10.1688409458
 30
0.0
 10
7.8208832244
 20
10.1839002944
 30
0.0
 10
7.7856980169
 20
10.1937760147
 30
0.0
 10
7.7607940773
 20
10.1994085526
 30
0.0
  0
SPLINE
  5
4B1
100
AcDbEntity
  8
0
100
AcDbSpline
 62
9
  6
CONTINUOUS
 70
0
 71
3
 72
35
 73
31
 74
0
 42
0.0000001
 43
0.0000001
 44
0.0000000001
 40
0.0
 40
0.0
 40
0.0
 40
0.0
 40
0.000273206
 40
0.0008239766
 40
0.0016697128
 40
0.0028190893
 40
0.0042791353
 40
0.0060563825
 40
0.0105878153
 40
0.0164636655
 40
0.0237340397
 40
0.0324338693
 40
0.0425704175
 40
0.0541479406
 40
0.0671706666
 40
0.0976388338
 40
0.1344463156
 40
0.1782029769
 40
0.229610388
 40
0.2897820097
 40
0.3603190975
 40
0.4436717282
 40
0.4912149686
 40
0.5434628201
 40
0.6013009189
 40
0.6659498652
 40
0.7383335587
 40
0.8188170995
 40
0.9072032146
 40
1.0
 40
1.0
 40
1.0
 40
1.0
 10
6.8755206153
 20
9.2007411395
 30
0.0
 10
6.8755010758
 20
9.2007680128
 30
0.0
 10
6.875397456
 20
9.2008018747
 30
0.0
 10
6.8752071818
 20
9.2008518403
 30
0.0
 10
6.8748985989
 20
9.2009049939
 30
0.0
 10
6.874484574
 20
9.2009677573
 30
0.0
 10
6.8739552656
 20
9.2010388342
 30
0.0
 10
6.8730182865
 20
9.2011580467
 30
0.0
 10
6.8715471863
 20
9.2013375036
 30
0.0
 10
6.8694137886
 20
9.2016025791
 30
0.0
 10
6.8667791364
 20
9.2019454201
 30
0.0
 10
6.8636331719
 20
9.2023736978
 30
0.0
 10
6.8599691958
 20
9.2028800698
 30
0.0
 10
6.855784641
 20
9.2034598523
 30
0.0
 10
6.8491499099
 20
9.2043722447
 30
0.0
 10
6.8394712506
 20
9.2056719832
 30
0.0
 10
6.8260850641
 20
9.2074460607
 30
0.0
 10
6.8101722664
 20
9.2095386996
 30
0.0
 10
6.791431391
 20
9.2119176049
 30
0.0
 10
6.7694556457
 20
9.2146755095
 30
0.0
 10
6.7436306822
 20
9.2179613025
 30
0.0
 10
6.7193327474
 20
9.221081315
 30
0.0
 10
6.6972560371
 20
9.2240331205
 30
0.0
 10
6.6782684689
 20
9.226673443
 30
0.0
 10
6.6572607499
 20
9.2298862859
 30
0.0
 10
6.6339383767
 20
9.2341179655
 30
0.0
 10
6.6080774325
 20
9.2397120878
 30
0.0
 10
6.5796453302
 20
9.2469812107
 30
0.0
 10
6.5491138302
 20
9.2559832494
 30
0.0
 10
6.5284578085
 20
9.2637860405
 30
0.0
 10
6.5181672654
 20
9.2684193631
 30
0.0
  0
SPLINE
  5
4B2
100
AcDbEntity
  8
0
100
AcDbSpline
 62
7
  6
CONTINUOUS
 70
0
 71
3
 72
21
 73
17
 74
0
 42
0.0000001
 43
0.0000001
 44
0.0000000001
 40
0.0
 40
0.0
 40
0.0
 40
0.0
 40
0.1418036545
 40
0.2085173378
 40
0.2721412929
 40
0.3326751194
 40
0.3903572688
 40
0.4458028536
 40
0.5000001913
 40
0.5541975782
 40
0.6096432082
 40
0.6673252939
 40
0.727858953
 40
0.7914827906
 40
0.8581963584
 40
1.0
 40
1.0
 40
1.0
 40
1.0
 10
14.2633831391
 20
12.6610650954
 30
0.0
 10
14.2528268985
 20
12.652671713
 30
0.0
 10
14.2378212027
 20
12.6396110959
 30
0.0
 10
14.2202110888
 20
12.6206112447
 30
0.0
 10
14.2090638481
 20
12.6062474508
 30
0.0
 10
14.1999686763
 20
12.591490517
 30
0.0
 10
14.1931939666
 20
12.5763658964
 30
0.0
 10
14.1889921573
 20
12.5609408962
 30
0.0
 10
14.1875707746
 20
12.5453387973
 30
0.0
 10
14.1889921483
 20
12.5297366855
 30
0.0
 10
14.1931940594
 20
12.5143117139
 30
0.0
 10
14.1999686825
 20
12.4991870762
 30
0.0
 10
14.2090639085
 20
12.4844302099
 30
0.0
 10
14.2202111129
 20
12.4700664407
 30
0.0
 10
14.2378212135
 20
12.4510666067
 30
0.0
 10
14.2528268994
 20
12.4380059981
 30
0.0
 10
14.2633831391
 20
12.4296126165
 30
0.0
  0
SPLINE
  5
4B3
100
AcDbEntity
  8
0
100
AcDbSpline
 62
9
  6
CONTINUOUS
 70
0
 71
3
 72
11
 73
7
 74
0
 42
0.0000001
 43
0.0000001
 44
0.0000000001
 40
0.0
 40
0.0
 40
0.0
 40
0.0
 40
0.0687612939
 40
0.2693209056
 40
0.5870694538
 40
1.0
 40
1.0
 40
1.0
 40
1.0
 10
14.0787446342
 20
11.8434092849
 30
0.0
 10
14.0719303993
 20
11.8436918462
 30
0.0
 10
14.04523938
 20
11.8447643502
 30
0.0
 10
13.9870485187
 20
11.8468609457
 30
0.0
 10
13.8947337715
 20
11.8499032351
 30
0.0
 10
13.8222928202
 20
11.8520412277
 30
0.0
 10
13.7813524145
 20
11.853187697
 30
0.0
  0
SPLINE
  5
4B4
100
AcDbEntity
  8
0
100
AcDbSpline
 62
9
  6
CONTINUOUS
 70
0
 71
3
 72
11
 73
7
 74
0
 42
0.0000001
 43
0.0000001
 44
0.0000000001
 40
0.0
 40
0.0
 40
0.0
 40
0.0
 40
0.4008090919
 40
0.6978412847
 40
0.8967240273
 40
1.0
 40
1.0
 40
1.0
 40
1.0
 10
13.1195113211
 20
18.818878217
 30
0.0
 10
13.1177843385
 20
18.8173747736
 30
0.0
 10
13.1146636059
 20
18.8148818582
 30
0.0
 10
13.1103541842
 20
18.8120954602
 30
0.0
 10
13.1073006597
 20
18.8105370879
 30
0.0
 10
13.1056929686
 20
18.8098993227
 30
0.0
 10
13.1051304723
 20
18.8097213208
 30
0.0
  0
SPLINE
  5
4B5
100
AcDbEntity
  8
0
100
AcDbSpline
 62
9
  6
CONTINUOUS
 70
0
 71
3
 72
18
 73
14
 74
0
 42
0.0000001
 43
0.0000001
 44
0.0000000001
 40
0.0
 40
0.0
 40
0.0
 40
0.0
 40
0.2383831855
 40
0.4422154806
 40
0.613022551
 40
0.7519475637
 40
0.8597409367
 40
0.9020940049
 40
0.936777466
 40
0.9637982704
 40
0.9831814459
 40
0.995056002
 40
1.0
 40
1.0
 40
1.0
 40
1.0
 10
13.9024822947
 20
18.8189340031
 30
0.0
 10
13.9035318925
 20
18.8180362151
 30
0.0
 10
13.9055243985
 20
18.816422641
 30
0.0
 10
13.908411644
 20
18.8143507622
 30
0.0
 10
13.9109261458
 20
18.8127565431
 30
0.0
 10
13.913037385
 20
18.811573864
 30
0.0
 10
13.9145376135
 20
18.8108264512
 30
0.0
 10
13.9155079864
 20
18.8103759638
 30
0.0
 10
13.9160589386
 20
18.8101256096
 30
0.0
 10
13.9164811104
 20
18.8099331431
 30
0.0
 10
13.9167949728
 20
18.8097755744
 30
0.0
 10
13.9169534968
 20
18.8096790814
 30
0.0
 10
13.9170476568
 20
18.8095924856
 30
0.0
 10
13.9170375707
 20
18.8095656746
 30
0.0
  0
SPLINE
  5
4B6
100
AcDbEntity
  8
0
100
AcDbSpline
 62
7
  6
CONTINUOUS
 70
0
 71
3
 72
21
 73
17
 74
0
 42
0.0000001
 43
0.0000001
 44
0.0000000001
 40
0.0
 40
0.0
 40
0.0
 40
0.0
 40
0.1418036545
 40
0.2085173379
 40
0.2721412929
 40
0.3326751194
 40
0.3903572688
 40
0.4458028536
 40
0.5000001913
 40
0.5541975782
 40
0.6096432082
 40
0.6673252939
 40
0.727858953
 40
0.7914827906
 40
0.8581963584
 40
1.0
 40
1.0
 40
1.0
 40
1.0
 10
14.6095562801
 20
12.4296126165
 30
0.0
 10
14.6201125207
 20
12.4380059989
 30
0.0
 10
14.6351182165
 20
12.451066616
 30
0.0
 10
14.6527283304
 20
12.4700664671
 30
0.0
 10
14.6638755711
 20
12.4844302611
 30
0.0
 10
14.6729707429
 20
12.4991871949
 30
0.0
 10
14.6797454526
 20
12.5143118155
 30
0.0
 10
14.6839472619
 20
12.5297368156
 30
0.0
 10
14.6853686446
 20
12.5453389145
 30
0.0
 10
14.683947271
 20
12.5609410264
 30
0.0
 10
14.6797453598
 20
12.5763659979
 30
0.0
 10
14.6729707368
 20
12.5914906356
 30
0.0
 10
14.6638755107
 20
12.606247502
 30
0.0
 10
14.6527283063
 20
12.6206112712
 30
0.0
 10
14.6351182057
 20
12.6396111052
 30
0.0
 10
14.6201125198
 20
12.6526717137
 30
0.0
 10
14.6095562801
 20
12.6610650954
 30
0.0
  0
SPLINE
  5
4B7
100
AcDbEntity
  8
0
100
AcDbSpline
 62
7
  6
CONTINUOUS
 70
0
 71
3
 72
11
 73
7
 74
0
 42
0.0000001
 43
0.0000001
 44
0.0000000001
 40
0.0
 40
0.0
 40
0.0
 40
0.0
 40
0.2500737915
 40
0.500106671
 40
0.750074298
 40
1.0
 40
1.0
 40
1.0
 40
1.0
 10
14.6095562801
 20
12.8283054669
 30
0.0
 10
14.6204947849
 20
12.8457001165
 30
0.0
 10
14.6408624905
 20
12.8814784291
 30
0.0
 10
14.6651686484
 20
12.9382961189
 30
0.0
 10
14.6811491715
 20
12.9980592811
 30
0.0
 10
14.6849004902
 20
13.0392220065
 30
0.0
 10
14.6849004902
 20
13.0597579458
 30
0.0
  0
SPLINE
  5
4B8
100
AcDbEntity
  8
0
100
AcDbSpline
 62
9
  6
CONTINUOUS
 70
0
 71
3
 72
11
 73
7
 74
0
 42
0.0000001
 43
0.0000001
 44
0.0000000001
 40
0.0
 40
0.0
 40
0.0
 40
0.0
 40
0.3064212378
 40
0.4496994023
 40
0.5838609826
 40
1.0
 40
1.0
 40
1.0
 40
1.0
 10
13.7935631126
 20
12.2803361233
 30
0.0
 10
13.7931939981
 20
12.278733942
 30
0.0
 10
13.7924055844
 20
12.2764325313
 30
0.0
 10
13.7908999429
 20
12.2736633713
 30
0.0
 10
13.7887994815
 20
12.2706627115
 30
0.0
 10
13.7860951934
 20
12.2684206258
 30
0.0
 10
13.7838623355
 20
12.2684203445
 30
0.0
  0
LINE
  5
4B9
100
AcDbEntity
  8
0
100
AcDbLine
 62
9
  6
CONTINUOUS
 10
13.240997396
 20
12.2797046275
 11
13.2347703198
 21
12.2800175324
  0
LINE
  5
4BA
100
AcDbEntity
  8
0
100
AcDbLine
 62
9
  6
CONTINUOUS
 10
13.2347703198
 20
12.2800175324
 11
13.2284302999
 21
12.2803361552
  0
SPLINE
  5
4BB
100
AcDbEntity
  8
0
100
AcDbSpline
 62
9
  6
CONTINUOUS
 70
0
 71
3
 72
9
 73
5
 74
0
 42
0.0000001
 43
0.0000001
 44
0.0000000001
 40
0.0
 40
0.0
 40
0.0
 40
0.0
 40
0.5030908845
 40
1.0
 40
1.0
 40
1.0
 40
1.0
 10
13.1345596022
 20
13.5956605624
 30
0.0
 10
13.1502947899
 20
13.6142102111
 30
0.0
 10
13.183749844
 20
13.6492993046
 30
0.0
 10
13.2213861243
 20
13.6799026353
 30
0.0
 10
13.241008197
 20
13.6937665606
 30
0.0
  0
SPLINE
  5
4BC
100
AcDbEntity
  8
0
100
AcDbSpline
 62
9
  6
CONTINUOUS
 70
0
 71
3
 72
9
 73
5
 74
0
 42
0.0000001
 43
0.0000001
 44
0.0000000001
 40
0.0
 40
0.0
 40
0.0
 40
0.0
 40
0.4969599607
 40
1.0
 40
1.0
 40
1.0
 40
1.0
 10
13.7826169016
 20
13.6926624645
 30
0.0
 10
13.8018463551
 20
13.6789764582
 30
0.0
 10
13.8387377578
 20
13.6488244554
 30
0.0
 10
13.87156001
 20
13.614325308
 30
0.0
 10
13.8870245253
 20
13.5961142672
 30
0.0
  0
LINE
  5
4BD
100
AcDbEntity
  8
0
100
AcDbLine
 62
9
  6
CONTINUOUS
 10
9.8992246944
 20
12.8484306728
 11
9.8992246932
 21
12.8525352387
  0
LINE
  5
4BE
100
AcDbEntity
  8
0
100
AcDbLine
 62
9
  6
CONTINUOUS
 10
9.8992246932
 20
12.8525352387
 11
9.8992246529
 21
12.8738499707
  0
LINE
  5
4BF
100
AcDbEntity
  8
0
100
AcDbLine
 62
9
  6
CONTINUOUS
 10
9.8992246529
 20
12.8738499707
 11
9.8992244203
 21
12.9228482823
  0
LINE
  5
4C0
100
AcDbEntity
  8
0
100
AcDbLine
 62
9
  6
CONTINUOUS
 10
9.8992244203
 20
12.9228482823
 11
9.8992235216
 21
13.1931323516
  0
LINE
  5
4C1
100
AcDbEntity
  8
0
100
AcDbLine
 62
9
  6
CONTINUOUS
 10
9.8992235216
 20
13.1931323516
 11
9.8992244173
 21
13.2667799482
  0
LINE
  5
4C2
100
AcDbEntity
  8
0
100
AcDbLine
 62
9
  6
CONTINUOUS
 10
9.8992244173
 20
13.2667799482
 11
9.8992244647
 21
13.2693667253
  0
LINE
  5
4C3
100
AcDbEntity
  8
0
100
AcDbLine
 62
9
  6
CONTINUOUS
 10
9.8992244647
 20
13.2693667253
 11
9.8992257621
 21
13.3250464463
  0
LINE
  5
4C4
100
AcDbEntity
  8
0
100
AcDbLine
 62
9
  6
CONTINUOUS
 10
9.8992257621
 20
13.3250464463
 11
9.8992265342
 21
13.3546211254
  0
LINE
  5
4C5
100
AcDbEntity
  8
0
100
AcDbLine
 62
9
  6
CONTINUOUS
 10
9.8992265342
 20
13.3546211254
 11
9.8992265024
 21
13.358611092
  0
SPLINE
  5
4C6
100
AcDbEntity
  8
0
100
AcDbSpline
 62
7
  6
CONTINUOUS
 70
0
 71
3
 72
9
 73
5
 74
0
 42
0.0000001
 43
0.0000001
 44
0.0000000001
 40
0.0
 40
0.0
 40
0.0
 40
0.0
 40
0.2470595399
 40
1.0
 40
1.0
 40
1.0
 40
1.0
 10
10.4151376285
 20
12.7785001872
 30
0.0
 10
10.4148777851
 20
12.780499345
 30
0.0
 10
10.4135574999
 20
12.7885547028
 30
0.0
 10
10.4111678804
 20
12.7964288901
 30
0.0
 10
10.408850098
 20
12.8021188242
 30
0.0
  0
SPLINE
  5
4C7
100
AcDbEntity
  8
0
100
AcDbSpline
 62
7
  6
CONTINUOUS
 70
0
 71
3
 72
11
 73
7
 74
0
 42
0.0000001
 43
0.0000001
 44
0.0000000001
 40
0.0
 40
0.0
 40
0.0
 40
0.0
 40
0.2198961647
 40
0.461557752
 40
0.723724452
 40
1.0
 40
1.0
 40
1.0
 40
1.0
 10
10.4047530284
 20
12.8109429774
 30
0.0
 10
10.3989124188
 20
12.8221113028
 30
0.0
 10
10.3823528064
 20
12.8434107575
 30
0.0
 10
10.348376419
 20
12.8679294595
 30
0.0
 10
10.3067453028
 20
12.8851640369
 30
0.0
 10
10.2761944197
 20
12.8909552099
 30
0.0
 10
10.2604284315
 20
12.8924290122
 30
0.0
  0
SPLINE
  5
4C8
100
AcDbEntity
  8
0
100
AcDbSpline
 62
7
  6
CONTINUOUS
 70
0
 71
3
 72
14
 73
10
 74
0
 42
0.0000001
 43
0.0000001
 44
0.0000000001
 40
0.0
 40
0.0
 40
0.0
 40
0.0
 40
0.1414062028
 40
0.2794916903
 40
0.5412284985
 40
0.6641648331
 40
0.781319589
 40
0.8929380028
 40
1.0
 40
1.0
 40
1.0
 40
1.0
 10
10.1994559645
 20
12.8907099312
 30
0.0
 10
10.1915376958
 20
12.8895106972
 30
0.0
 10
10.1759884502
 20
12.886363879
 30
0.0
 10
10.146689496
 20
12.8772535617
 30
0.0
 10
10.1198913533
 20
12.8639180227
 30
0.0
 10
10.0972503618
 20
12.8466247393
 30
0.0
 10
10.0831759096
 20
12.832423797
 30
0.0
 10
10.0719969474
 20
12.81693828
 30
0.0
 10
10.0665058895
 20
12.8057538927
 30
0.0
 10
10.0643399754
 20
12.800090452
 30
0.0
  0
SPLINE
  5
4C9
100
AcDbEntity
  8
0
100
AcDbSpline
 62
7
  6
CONTINUOUS
 70
0
 71
3
 72
9
 73
5
 74
0
 42
0.0000001
 43
0.0000001
 44
0.0000000001
 40
0.0
 40
0.0
 40
0.0
 40
0.0
 40
0.5046981259
 40
1.0
 40
1.0
 40
1.0
 40
1.0
 10
10.0643399754
 20
12.800090452
 30
0.0
 10
10.0623086923
 20
12.794779045
 30
0.0
 10
10.0591773887
 20
12.783886736
 30
0.0
 10
10.0580863913
 20
12.7725964449
 30
0.0
 10
10.0580863913
 20
12.7670157384
 30
0.0
  0
SPLINE
  5
4CA
100
AcDbEntity
  8
0
100
AcDbSpline
 62
7
  6
CONTINUOUS
 70
0
 71
3
 72
9
 73
5
 74
0
 42
0.0000001
 43
0.0000001
 44
0.0000000001
 40
0.0
 40
0.0
 40
0.0
 40
0.0
 40
0.4925100662
 40
1.0
 40
1.0
 40
1.0
 40
1.0
 10
10.0580863913
 20
13.3525001532
 30
0.0
 10
10.0580863913
 20
13.3453331952
 30
0.0
 10
10.0598885995
 20
13.3307343507
 30
0.0
 10
10.0650086754
 20
13.3169666052
 30
0.0
 10
10.0683059689
 20
13.3103586368
 30
0.0
  0
SPLINE
  5
4CB
100
AcDbEntity
  8
0
100
AcDbSpline
 62
7
  6
CONTINUOUS
 70
0
 71
3
 72
19
 73
15
 74
0
 42
0.0000001
 43
0.0000001
 44
0.0000000001
 40
0.0
 40
0.0
 40
0.0
 40
0.0
 40
0.0530172368
 40
0.1088003211
 40
0.1676664077
 40
0.2295750794
 40
0.3608919408
 40
0.4985759154
 40
0.6365328557
 40
0.7685789418
 40
0.8309537346
 40
0.8903042688
 40
0.9465646126
 40
1.0
 40
1.0
 40
1.0
 40
1.0
 10
10.0683059689
 20
13.3103586368
 30
0.0
 10
10.0714002682
 20
13.3041574807
 30
0.0
 10
10.0790453931
 20
13.2920488032
 30
0.0
 10
10.0938699734
 20
13.2757779331
 30
0.0
 10
10.1119842365
 20
13.2613323865
 30
0.0
 10
10.1404594792
 20
13.2445701472
 30
0.0
 10
10.1817373137
 20
13.230165813
 30
0.0
 10
10.2349832996
 20
13.2240975599
 30
0.0
 10
10.2884124426
 20
13.2293372535
 30
0.0
 10
10.3301051804
 20
13.2430914246
 30
0.0
 10
10.35909711
 20
13.2593919736
 30
0.0
 10
10.3776657372
 20
13.2735557613
 30
0.0
 10
10.3930003123
 20
13.2895939614
 30
0.0
 10
10.401030637
 20
13.3015898729
 30
0.0
 10
10.404320911
 20
13.307751344
 30
0.0
  0
SPLINE
  5
4CC
100
AcDbEntity
  8
0
100
AcDbSpline
 62
7
  6
CONTINUOUS
 70
0
 71
3
 72
9
 73
5
 74
0
 42
0.0000001
 43
0.0000001
 44
0.0000000001
 40
0.0
 40
0.0
 40
0.0
 40
0.0
 40
0.5056792749
 40
1.0
 40
1.0
 40
1.0
 40
1.0
 10
10.408788745
 20
13.3172463257
 30
0.0
 10
10.4110948015
 20
13.3228831743
 30
0.0
 10
10.4146480252
 20
13.3344751499
 30
0.0
 10
10.4158852175
 20
13.3465466369
 30
0.0
 10
10.4158852175
 20
13.3525001532
 30
0.0
  0
SPLINE
  5
4CD
100
AcDbEntity
  8
0
100
AcDbSpline
 62
9
  6
CONTINUOUS
 70
0
 71
3
 72
11
 73
7
 74
0
 42
0.0000001
 43
0.0000001
 44
0.0000000001
 40
0.0
 40
0.0
 40
0.0
 40
0.0
 40
0.2331956992
 40
0.4821969426
 40
0.7404287325
 40
1.0
 40
1.0
 40
1.0
 40
1.0
 10
13.8904688671
 20
12.0650458343
 30
0.0
 10
13.885039703
 20
12.0539603173
 30
0.0
 10
13.8754117477
 20
12.0302367077
 30
0.0
 10
13.8649602299
 20
11.9923809945
 30
0.0
 10
13.8585679572
 20
11.9522227383
 30
0.0
 10
13.8569945863
 20
11.9248059806
 30
0.0
 10
13.8569095351
 20
11.9110665204
 30
0.0
  0
SPLINE
  5
4CE
100
AcDbEntity
  8
0
100
AcDbSpline
 62
7
  6
CONTINUOUS
 70
0
 71
3
 72
12
 73
8
 74
0
 42
0.0000001
 43
0.0000001
 44
0.0000000001
 40
0.0
 40
0.0
 40
0.0
 40
0.0
 40
0.2499358506
 40
0.3750548045
 40
0.5000966748
 40
0.7500688785
 40
1.0
 40
1.0
 40
1.0
 40
1.0
 10
14.6849004902
 20
13.0597579458
 30
0.0
 10
14.6849004902
 20
13.0802986584
 30
0.0
 10
14.6820614009
 20
13.1112010395
 30
0.0
 10
14.6731652482
 20
13.1513557388
 30
0.0
 10
14.6611101099
 20
13.1906933748
 30
0.0
 10
14.6408619338
 20
13.2380600841
 30
0.0
 10
14.6204906414
 20
13.2738223641
 30
0.0
 10
14.6095562801
 20
13.2912104247
 30
0.0
  0
SPLINE
  5
4CF
100
AcDbEntity
  8
0
100
AcDbSpline
 62
7
  6
CONTINUOUS
 70
0
 71
3
 72
21
 73
17
 74
0
 42
0.0000001
 43
0.0000001
 44
0.0000000001
 40
0.0
 40
0.0
 40
0.0
 40
0.0
 40
0.1418036545
 40
0.2085173379
 40
0.2721412929
 40
0.3326751194
 40
0.3903572688
 40
0.4458028536
 40
0.5000001913
 40
0.5541975782
 40
0.6096432082
 40
0.6673252939
 40
0.727858953
 40
0.7914827906
 40
0.8581963584
 40
1.0
 40
1.0
 40
1.0
 40
1.0
 10
14.6095562801
 20
13.4584507962
 30
0.0
 10
14.6201125207
 20
13.4668441786
 30
0.0
 10
14.6351182165
 20
13.4799047957
 30
0.0
 10
14.6527283304
 20
13.4989046468
 30
0.0
 10
14.6638755711
 20
13.5132684408
 30
0.0
 10
14.6729707429
 20
13.5280253746
 30
0.0
 10
14.6797454526
 20
13.5431499952
 30
0.0
 10
14.683947262
 20
13.5585749953
 30
0.0
 10
14.6853686446
 20
13.5741770942
 30
0.0
 10
14.683947271
 20
13.5897792061
 30
0.0
 10
14.6797453598
 20
13.6052041776
 30
0.0
 10
14.6729707368
 20
13.6203288153
 30
0.0
 10
14.6638755107
 20
13.6350856817
 30
0.0
 10
14.6527283063
 20
13.6494494508
 30
0.0
 10
14.6351182057
 20
13.6684492849
 30
0.0
 10
14.6201125198
 20
13.6815098934
 30
0.0
 10
14.6095562801
 20
13.6899032751
 30
0.0
  0
SPLINE
  5
4D0
100
AcDbEntity
  8
0
100
AcDbSpline
 62
9
  6
CONTINUOUS
 70
0
 71
3
 72
9
 73
5
 74
0
 42
0.0000001
 43
0.0000001
 44
0.0000000001
 40
0.0
 40
0.0
 40
0.0
 40
0.0
 40
0.4777985251
 40
1.0
 40
1.0
 40
1.0
 40
1.0
 10
13.9510867627
 20
20.3188914367
 30
0.0
 10
13.9587060048
 20
20.3178495624
 30
0.0
 10
13.9746874322
 20
20.3159238148
 30
0.0
 10
13.9907052593
 20
20.3143385036
 30
0.0
 10
13.9990772959
 20
20.313596996
 30
0.0
  0
SPLINE
  5
4D1
100
AcDbEntity
  8
0
100
AcDbSpline
 62
9
  6
CONTINUOUS
 70
0
 71
3
 72
9
 73
5
 74
0
 42
0.0000001
 43
0.0000001
 44
0.0000000001
 40
0.0
 40
0.0
 40
0.0
 40
0.0
 40
0.5226999108
 40
1.0
 40
1.0
 40
1.0
 40
1.0
 10
13.0229172414
 20
20.313596996
 30
0.0
 10
13.0313694224
 20
20.314345602
 30
0.0
 10
13.0475250365
 20
20.315946039
 30
0.0
 10
13.0636435084
 20
20.3178935172
 30
0.0
 10
13.0713197027
 20
20.318947891
 30
0.0
  0
SPLINE
  5
4D2
100
AcDbEntity
  8
0
100
AcDbSpline
 62
7
  6
CONTINUOUS
 70
0
 71
3
 72
11
 73
7
 74
0
 42
0.0000001
 43
0.0000001
 44
0.0000000001
 40
0.0
 40
0.0
 40
0.0
 40
0.0
 40
0.2500737865
 40
0.5001066539
 40
0.7500742703
 40
1.0
 40
1.0
 40
1.0
 40
1.0
 10
14.2633831391
 20
12.8283054669
 30
0.0
 10
14.2524446346
 20
12.8457001161
 30
0.0
 10
14.2320769296
 20
12.8814784275
 30
0.0
 10
14.2077707723
 20
12.9382961151
 30
0.0
 10
14.1917902477
 20
12.9980592773
 30
0.0
 10
14.188038929
 20
13.0392220042
 30
0.0
 10
14.188038929
 20
13.0597579458
 30
0.0
  0
SPLINE
  5
4D3
100
AcDbEntity
  8
0
100
AcDbSpline
 62
7
  6
CONTINUOUS
 70
0
 71
3
 72
11
 73
7
 74
0
 42
0.0000001
 43
0.0000001
 44
0.0000000001
 40
0.0
 40
0.0
 40
0.0
 40
0.0
 40
0.249926832
 40
0.4998944228
 40
0.7499268176
 40
1.0
 40
1.0
 40
1.0
 40
1.0
 10
14.188038929
 20
13.0597579458
 30
0.0
 10
14.188038929
 20
13.0802939779
 30
0.0
 10
14.1917902544
 20
13.1214567971
 30
0.0
 10
14.2077708625
 20
13.1812199886
 30
0.0
 10
14.2320769928
 20
13.2380375866
 30
0.0
 10
14.252444661
 20
13.2738158174
 30
0.0
 10
14.2633831391
 20
13.2912104247
 30
0.0
  0
SPLINE
  5
4D4
100
AcDbEntity
  8
0
100
AcDbSpline
 62
9
  6
CONTINUOUS
 70
0
 71
3
 72
21
 73
17
 74
0
 42
0.0000001
 43
0.0000001
 44
0.0000000001
 40
0.0
 40
0.0
 40
0.0
 40
0.0
 40
0.0062264549
 40
0.0243009175
 40
0.0533190198
 40
0.0923808312
 40
0.1405742351
 40
0.1969226846
 40
0.3301510527
 40
0.4842363739
 40
0.6512242243
 40
0.7372707377
 40
0.8240148457
 40
0.9111629805
 40
0.9551272189
 40
1.0
 40
1.0
 40
1.0
 40
1.0
 10
13.02654035
 20
10.6838089374
 30
0.0
 10
13.0250198147
 20
10.6849111711
 30
0.0
 10
13.0190484958
 20
10.6891618989
 30
0.0
 10
13.0058815816
 20
10.698396005
 30
0.0
 10
12.9844454878
 20
10.7130857196
 30
0.0
 10
12.9552954308
 20
10.7325857271
 30
0.0
 10
12.9189968143
 20
10.7562200806
 30
0.0
 10
12.8584180009
 20
10.7946075921
 30
0.0
 10
12.7697353958
 20
10.8483004323
 30
0.0
 10
12.6504055348
 20
10.9156987297
 30
0.0
 10
12.541365451
 20
10.9722540993
 30
0.0
 10
12.4487812522
 20
11.016222845
 30
0.0
 10
12.3770305513
 20
11.0478544215
 30
0.0
 10
12.3160096756
 20
11.0722846451
 30
0.0
 10
12.2660776403
 20
11.0903067406
 30
0.0
 10
12.2406189711
 20
11.0986830259
 30
0.0
 10
12.2276818908
 20
11.1026597232
 30
0.0
  0
SPLINE
  5
4D5
100
AcDbEntity
  8
0
100
AcDbSpline
 62
7
  6
CONTINUOUS
 70
0
 71
3
 72
21
 73
17
 74
0
 42
0.0000001
 43
0.0000001
 44
0.0000000001
 40
0.0
 40
0.0
 40
0.0
 40
0.0
 40
0.1418036545
 40
0.2085173378
 40
0.2721412929
 40
0.3326751194
 40
0.3903572688
 40
0.4458028536
 40
0.5000001913
 40
0.5541975782
 40
0.6096432082
 40
0.6673252939
 40
0.727858953
 40
0.7914827906
 40
0.8581963584
 40
1.0
 40
1.0
 40
1.0
 40
1.0
 10
14.2633831391
 20
13.6899032751
 30
0.0
 10
14.2528268985
 20
13.6815098926
 30
0.0
 10
14.2378212027
 20
13.6684492756
 30
0.0
 10
14.2202110888
 20
13.6494494244
 30
0.0
 10
14.2090638481
 20
13.6350856305
 30
0.0
 10
14.1999686763
 20
13.6203286967
 30
0.0
 10
14.1931939666
 20
13.6052040761
 30
0.0
 10
14.1889921573
 20
13.5897790759
 30
0.0
 10
14.1875707746
 20
13.574176977
 30
0.0
 10
14.1889921483
 20
13.5585748652
 30
0.0
 10
14.1931940594
 20
13.5431498936
 30
0.0
 10
14.1999686825
 20
13.5280252559
 30
0.0
 10
14.2090639085
 20
13.5132683895
 30
0.0
 10
14.2202111129
 20
13.4989046204
 30
0.0
 10
14.2378212135
 20
13.4799047864
 30
0.0
 10
14.2528268994
 20
13.4668441778
 30
0.0
 10
14.2633831391
 20
13.4584507962
 30
0.0
  0
SPLINE
  5
4D6
100
AcDbEntity
  8
0
100
AcDbSpline
 62
9
  6
CONTINUOUS
 70
0
 71
3
 72
9
 73
5
 74
0
 42
0.0000001
 43
0.0000001
 44
0.0000000001
 40
0.0
 40
0.0
 40
0.0
 40
0.0
 40
0.2733784165
 40
1.0
 40
1.0
 40
1.0
 40
1.0
 10
13.2330862566
 20
19.8655658782
 30
0.0
 10
13.2292757396
 20
19.8668166072
 30
0.0
 10
13.2153531656
 20
19.8714396873
 30
0.0
 10
13.2014973824
 20
19.8762692613
 30
0.0
 10
13.1915026665
 20
19.8799753905
 30
0.0
  0
SPLINE
  5
4D7
100
AcDbEntity
  8
0
100
AcDbSpline
 62
9
  6
CONTINUOUS
 70
0
 71
3
 72
11
 73
7
 74
0
 42
0.0000001
 43
0.0000001
 44
0.0000000001
 40
0.0
 40
0.0
 40
0.0
 40
0.0
 40
0.3039351053
 40
0.5699395015
 40
0.8015915894
 40
1.0
 40
1.0
 40
1.0
 40
1.0
 10
13.1786462736
 20
19.8848843705
 30
0.0
 10
13.1729530313
 20
19.8871278033
 30
0.0
 10
13.1623398838
 20
19.891498697
 30
0.0
 10
13.1476897697
 20
19.8982848554
 30
0.0
 10
13.1353084232
 20
19.9048660437
 30
0.0
 10
13.1279624251
 20
19.9094739238
 30
0.0
 10
13.1246963562
 20
19.9117739798
 30
0.0
  0
SPLINE
  5
4D8
100
AcDbEntity
  8
0
100
AcDbSpline
 62
9
  6
CONTINUOUS
 70
0
 71
3
 72
9
 73
5
 74
0
 42
0.0000001
 43
0.0000001
 44
0.0000000001
 40
0.0
 40
0.0
 40
0.0
 40
0.0
 40
0.2656537542
 40
1.0
 40
1.0
 40
1.0
 40
1.0
 10
13.1246963562
 20
19.9117739798
 30
0.0
 10
13.1240308313
 20
19.9122426608
 30
0.0
 10
13.1215456834
 20
19.9140348893
 30
0.0
 10
13.1191429428
 20
19.9159442092
 30
0.0
 10
13.1174526008
 20
19.9174293987
 30
0.0
  0
SPLINE
  5
4D9
100
AcDbEntity
  8
0
100
AcDbSpline
 62
9
  6
CONTINUOUS
 70
0
 71
3
 72
18
 73
14
 74
0
 42
0.0000001
 43
0.0000001
 44
0.0000000001
 40
0.0
 40
0.0
 40
0.0
 40
0.0
 40
0.1934199013
 40
0.3800575379
 40
0.551719337
 40
0.7021078413
 40
0.8256909838
 40
0.9180823079
 40
0.9514160311
 40
0.9759040624
 40
0.9848659372
 40
0.9917160208
 40
1.0
 40
1.0
 40
1.0
 40
1.0
 10
14.0189989297
 20
20.3118325457
 30
0.0
 10
14.024468696
 20
20.311348091
 30
0.0
 10
14.0352230489
 20
20.3104694723
 30
0.0
 10
14.0508507848
 20
20.3094065052
 30
0.0
 10
14.065273468
 20
20.3086556273
 30
0.0
 10
14.0779191429
 20
20.3082328645
 30
0.0
 10
14.0883210389
 20
20.3081636864
 30
0.0
 10
14.0953991243
 20
20.3083707907
 30
0.0
 10
14.0996484446
 20
20.3087892638
 30
0.0
 10
14.1015160027
 20
20.3090954459
 30
0.0
 10
14.102626797
 20
20.3094215
 30
0.0
 10
14.1032369877
 20
20.3096720646
 30
0.0
 10
14.1036428577
 20
20.309992202
 30
0.0
 10
14.1036642143
 20
20.310226412
 30
0.0
  0
SPLINE
  5
4DA
100
AcDbEntity
  8
0
100
AcDbSpline
 62
9
  6
CONTINUOUS
 70
0
 71
3
 72
33
 73
29
 74
0
 42
0.0000001
 43
0.0000001
 44
0.0000000001
 40
0.0
 40
0.0
 40
0.0
 40
0.0
 40
0.2211963635
 40
0.3232192427
 40
0.4191296955
 40
0.5086310322
 40
0.5914265442
 40
0.6672195049
 40
0.7357131715
 40
0.7966395429
 40
0.8498456457
 40
0.8952072625
 40
0.914907569
 40
0.9326001696
 40
0.9482695351
 40
0.9619001363
 40
0.9734764432
 40
0.9829829259
 40
0.9869551298
 40
0.9904040537
 40
0.9933277561
 40
0.9957242957
 40
0.9975917312
 40
0.998928121
 40
0.9993965671
 40
0.9997315239
 40
0.9999327487
 40
1.0
 40
1.0
 40
1.0
 40
1.0
 10
13.8569067655
 20
11.9110778157
 30
0.0
 10
13.87342903
 20
11.9111516955
 30
0.0
 10
13.8975718089
 20
11.9112803167
 30
0.0
 10
13.9288783425
 20
11.9114863491
 30
0.0
 10
13.9503479142
 20
11.9116442356
 30
0.0
 10
13.9703812084
 20
11.9118061862
 30
0.0
 10
13.9889117531
 20
11.9119686943
 30
0.0
 10
14.0058730759
 20
11.9121282503
 30
0.0
 10
14.0212008518
 20
11.912281383
 30
0.0
 10
14.0348414972
 20
11.9124247025
 30
0.0
 10
14.0467543073
 20
11.9125558719
 30
0.0
 10
14.055587843
 20
11.9126574846
 30
0.0
 10
14.0617688186
 20
11.912730913
 30
0.0
 10
14.0657320545
 20
11.912778933
 30
0.0
 10
14.0692419318
 20
11.9128222709
 30
0.0
 10
14.0722949763
 20
11.912860658
 30
0.0
 10
14.0748877025
 20
11.9128938091
 30
0.0
 10
14.0767590579
 20
11.9129181389
 30
0.0
 10
14.0780233504
 20
11.91293472
 30
0.0
 10
14.0787960425
 20
11.9129449975
 30
0.0
 10
14.079450873
 20
11.9129535095
 30
0.0
 10
14.0799880782
 20
11.9129611928
 30
0.0
 10
14.080405429
 20
11.9129654199
 30
0.0
 10
14.080681651
 20
11.9129718694
 30
0.0
 10
14.080838855
 20
11.9129701739
 30
0.0
 10
14.0809181979
 20
11.9129773519
 30
0.0
 10
14.0809556499
 20
11.9129668885
 30
0.0
 10
14.080983607
 20
11.9129785135
 30
0.0
 10
14.0809853794
 20
11.9129738132
 30
0.0
  0
LINE
  5
4DB
100
AcDbEntity
  8
0
100
AcDbLine
 62
9
  6
CONTINUOUS
 10
14.0809184293
 20
11.9043804107
 11
14.066232417
 21
11.9049097292
  0
SPLINE
  5
4DC
100
AcDbEntity
  8
0
100
AcDbSpline
 62
9
  6
CONTINUOUS
 70
0
 71
3
 72
15
 73
11
 74
0
 42
0.0000001
 43
0.0000001
 44
0.0000000001
 40
0.0
 40
0.0
 40
0.0
 40
0.0
 40
0.0269765821
 40
0.0493930359
 40
0.0789518389
 40
0.115924337
 40
0.1604073887
 40
0.2719427828
 40
0.5827436083
 40
1.0
 40
1.0
 40
1.0
 40
1.0
 10
14.1481078037
 20
20.8095956419
 30
0.0
 10
14.1481078037
 20
20.8093688715
 30
0.0
 10
14.1477292176
 20
20.8090296097
 30
0.0
 10
14.1471403747
 20
20.808781211
 30
0.0
 10
14.1464165158
 20
20.8085571637
 30
0.0
 10
14.1455065342
 20
20.8083617963
 30
0.0
 10
14.1439031966
 20
20.8081019824
 30
0.0
 10
14.1399964908
 20
20.8077160701
 30
0.0
 10
14.1329364333
 20
20.8074956667
 30
0.0
 10
14.126816366
 20
20.8075343605
 30
0.0
 10
14.1233094301
 20
20.8075993745
 30
0.0
  0
SPLINE
  5
4DD
100
AcDbEntity
  8
0
100
AcDbSpline
 62
9
  6
CONTINUOUS
 70
0
 71
3
 72
9
 73
5
 74
0
 42
0.0000001
 43
0.0000001
 44
0.0000000001
 40
0.0
 40
0.0
 40
0.0
 40
0.0
 40
0.2238782924
 40
1.0
 40
1.0
 40
1.0
 40
1.0
 10
14.1233094301
 20
20.8075993745
 30
0.0
 10
14.121258088
 20
20.8076374037
 30
0.0
 10
14.1120965842
 20
20.8078737847
 30
0.0
 10
14.1029415305
 20
20.8083236815
 30
0.0
 10
14.0958414967
 20
20.8087468865
 30
0.0
  0
SPLINE
  5
4DE
100
AcDbEntity
  8
0
100
AcDbSpline
 62
9
  6
CONTINUOUS
 70
0
 71
3
 72
16
 73
12
 74
0
 42
0.0000001
 43
0.0000001
 44
0.0000000001
 40
0.0
 40
0.0
 40
0.0
 40
0.0
 40
0.3627062917
 40
0.5304161065
 40
0.6801089259
 40
0.80615858
 40
0.903889909
 40
0.940801988
 40
0.9692842086
 40
0.9890960717
 40
1.0
 40
1.0
 40
1.0
 40
1.0
 10
14.0634408602
 20
20.8111652555
 30
0.0
 10
14.0644130517
 20
20.8220884316
 30
0.0
 10
14.0658165108
 20
20.8380639561
 30
0.0
 10
14.0675752328
 20
20.858551568
 30
0.0
 10
14.0687014591
 20
20.8719119006
 30
0.0
 10
14.0696262301
 20
20.8831658437
 30
0.0
 10
14.0702506122
 20
20.891023192
 30
0.0
 10
14.0706173769
 20
20.8959415002
 30
0.0
 10
14.0708001017
 20
20.8985114312
 30
0.0
 10
14.070907725
 20
20.9002976336
 30
0.0
 10
14.0709580855
 20
20.9012255766
 30
0.0
 10
14.0709580855
 20
20.9015552548
 30
0.0
  0
SPLINE
  5
4DF
100
AcDbEntity
  8
0
100
AcDbSpline
 62
9
  6
CONTINUOUS
 70
0
 71
3
 72
11
 73
7
 74
0
 42
0.0000001
 43
0.0000001
 44
0.0000000001
 40
0.0
 40
0.0
 40
0.0
 40
0.0
 40
0.2439052807
 40
0.4907701912
 40
0.7422824828
 40
1.0
 40
1.0
 40
1.0
 40
1.0
 10
9.8769858044
 20
13.8562556832
 30
0.0
 10
9.8769858044
 20
13.847960337
 30
0.0
 10
9.8781634794
 20
13.8312471685
 30
0.0
 10
9.8833726815
 20
13.8064703787
 30
0.0
 10
9.8919678976
 20
13.7821580839
 30
0.0
 10
9.8998185935
 20
13.7666607635
 30
0.0
 10
9.9042396985
 20
13.7590923461
 30
0.0
  0
SPLINE
  5
4E0
100
AcDbEntity
  8
0
100
AcDbSpline
 62
9
  6
CONTINUOUS
 70
0
 71
3
 72
23
 73
19
 74
0
 42
0.0000001
 43
0.0000001
 44
0.0000000001
 40
0.0
 40
0.0
 40
0.0
 40
0.0
 40
0.0535144602
 40
0.1098261457
 40
0.169122662
 40
0.2312827516
 40
0.2959983596
 40
0.362767594
 40
0.430985379
 40
0.4999439935
 40
0.5689053459
 40
0.6371303166
 40
0.7039114435
 40
0.7686427037
 40
0.8308212925
 40
0.8901375823
 40
0.9464671683
 40
1.0
 40
1.0
 40
1.0
 40
1.0
 10
9.9042396985
 20
13.7590923461
 30
0.0
 10
9.9111446273
 20
13.7472719112
 30
0.0
 10
9.9276027566
 20
13.7242951675
 30
0.0
 10
9.9583506551
 20
13.6936267198
 30
0.0
 10
9.9950552531
 20
13.6665236679
 30
0.0
 10
10.0369064626
 20
13.6435254595
 30
0.0
 10
10.083031079
 20
13.6251468099
 30
0.0
 10
10.1324259525
 20
13.6117080879
 30
0.0
 10
10.1840547576
 20
13.6035506905
 30
0.0
 10
10.2368087666
 20
13.6007747136
 30
0.0
 10
10.2895664594
 20
13.6035143709
 30
0.0
 10
10.3412066698
 20
13.6116353091
 30
0.0
 10
10.3906197472
 20
13.6250405135
 30
0.0
 10
10.4367702506
 20
13.64338595
 30
0.0
 10
10.4786519932
 20
13.6663568684
 30
0.0
 10
10.5153946363
 20
13.6934322471
 30
0.0
 10
10.5461842456
 20
13.7240788252
 30
0.0
 10
10.5626754899
 20
13.7470431024
 30
0.0
 10
10.5695967763
 20
13.7588594136
 30
0.0
  0
SPLINE
  5
4E1
100
AcDbEntity
  8
0
100
AcDbSpline
 62
9
  6
CONTINUOUS
 70
0
 71
3
 72
11
 73
7
 74
0
 42
0.0000001
 43
0.0000001
 44
0.0000000001
 40
0.0
 40
0.0
 40
0.0
 40
0.0
 40
0.2577474359
 40
0.5092795347
 40
0.7561370461
 40
1.0
 40
1.0
 40
1.0
 40
1.0
 10
10.5695967763
 20
13.7588594136
 30
0.0
 10
10.5740389926
 20
13.7664433521
 30
0.0
 10
10.5819264121
 20
13.7819754259
 30
0.0
 10
10.5905640714
 20
13.8063463144
 30
0.0
 10
10.5958011419
 20
13.8311844886
 30
0.0
 10
10.5969858044
 20
13.8479399785
 30
0.0
 10
10.5969858044
 20
13.8562556832
 30
0.0
  0
SPLINE
  5
4E2
100
AcDbEntity
  8
0
100
AcDbSpline
 62
9
  6
CONTINUOUS
 70
0
 71
3
 72
10
 73
6
 74
0
 42
0.0000001
 43
0.0000001
 44
0.0000000001
 40
0.0
 40
0.0
 40
0.0
 40
0.0
 40
0.2475783479
 40
0.625200569
 40
1.0
 40
1.0
 40
1.0
 40
1.0
 10
10.1287698056
 20
13.5982826541
 30
0.0
 10
10.145144978
 20
13.5939130349
 30
0.0
 10
10.1872382604
 20
13.5855296366
 30
0.0
 10
10.255983103
 20
13.5824392799
 30
0.0
 10
10.307369927
 20
13.5892977113
 30
0.0
 10
10.3323651801
 20
13.5950879825
 30
0.0
  0
SPLINE
  5
4E3
100
AcDbEntity
  8
0
100
AcDbSpline
 62
9
  6
CONTINUOUS
 70
0
 71
3
 72
11
 73
7
 74
0
 42
0.0000001
 43
0.0000001
 44
0.0000000001
 40
0.0
 40
0.0
 40
0.0
 40
0.0
 40
0.2296071833
 40
0.4715868489
 40
0.7282476422
 40
1.0
 40
1.0
 40
1.0
 40
1.0
 10
10.4478505358
 20
13.4065381889
 30
0.0
 10
10.4447607227
 20
13.3979799724
 30
0.0
 10
10.4363461667
 20
13.381099075
 30
0.0
 10
10.4183790198
 20
13.3582992592
 30
0.0
 10
10.3953454197
 20
13.3380395969
 30
0.0
 10
10.3775309995
 20
13.3268554036
 30
0.0
 10
10.3680277505
 20
13.3217897945
 30
0.0
  0
SPLINE
  5
4E4
100
AcDbEntity
  8
0
100
AcDbSpline
 62
9
  6
CONTINUOUS
 70
0
 71
3
 72
15
 73
11
 74
0
 42
0.0000001
 43
0.0000001
 44
0.0000000001
 40
0.0
 40
0.0
 40
0.0
 40
0.0
 40
0.1205665177
 40
0.2460180019
 40
0.3747007294
 40
0.5047075779
 40
0.634065868
 40
0.7608385463
 40
0.8833005747
 40
1.0
 40
1.0
 40
1.0
 40
1.0
 10
10.3680277505
 20
13.3217897945
 30
0.0
 10
10.35754765
 20
13.3162034849
 30
0.0
 10
10.3352461203
 20
13.3064668542
 30
0.0
 10
10.2996177502
 20
13.2964452095
 30
0.0
 10
10.2620676012
 20
13.2910042023
 30
0.0
 10
10.2237536009
 20
13.290256191
 30
0.0
 10
10.1858302488
 20
13.2942665156
 30
0.0
 10
10.1494367871
 20
13.3028958601
 30
0.0
 10
10.1157189181
 20
13.3159449395
 30
0.0
 10
10.0951126914
 20
13.3275933286
 30
0.0
 10
10.0856222135
 20
13.3340792976
 30
0.0
  0
SPLINE
  5
4E5
100
AcDbEntity
  8
0
100
AcDbSpline
 62
9
  6
CONTINUOUS
 70
0
 71
3
 72
11
 73
7
 74
0
 42
0.0000001
 43
0.0000001
 44
0.0000000001
 40
0.0
 40
0.0
 40
0.0
 40
0.0
 40
0.2676035868
 40
0.5226612676
 40
0.76615894
 40
1.0
 40
1.0
 40
1.0
 40
1.0
 10
10.0856222135
 20
13.3340792976
 30
0.0
 10
10.0786121021
 20
13.3388701379
 30
0.0
 10
10.0654919276
 20
13.349107787
 30
0.0
 10
10.0485503276
 20
13.3666616703
 30
0.0
 10
10.0351457688
 20
13.3857672508
 30
0.0
 10
10.0286749804
 20
13.3995658003
 30
0.0
 10
10.0261550678
 20
13.4065443268
 30
0.0
  0
SPLINE
  5
4E6
100
AcDbEntity
  8
0
100
AcDbSpline
 62
9
  6
CONTINUOUS
 70
0
 71
3
 72
9
 73
5
 74
0
 42
0.0000001
 43
0.0000001
 44
0.0000000001
 40
0.0
 40
0.0
 40
0.0
 40
0.0
 40
0.4924271334
 40
1.0
 40
1.0
 40
1.0
 40
1.0
 10
10.0570543253
 20
13.3560898834
 30
0.0
 10
10.0573222431
 20
13.349275851
 30
0.0
 10
10.0594717461
 20
13.3354623221
 30
0.0
 10
10.0645555427
 20
13.3224576532
 30
0.0
 10
10.0677581982
 20
13.3162006243
 30
0.0
  0
SPLINE
  5
4E7
100
AcDbEntity
  8
0
100
AcDbSpline
 62
9
  6
CONTINUOUS
 70
0
 71
3
 72
11
 73
7
 74
0
 42
0.0000001
 43
0.0000001
 44
0.0000000001
 40
0.0
 40
0.0
 40
0.0
 40
0.0
 40
0.2203123594
 40
0.4617131154
 40
0.7234769985
 40
1.0
 40
1.0
 40
1.0
 40
1.0
 10
10.0677581982
 20
13.3162006243
 30
0.0
 10
10.073336193
 20
13.3053028947
 30
0.0
 10
10.0890958131
 20
13.2844456073
 30
0.0
 10
10.1215455021
 20
13.2600523549
 30
0.0
 10
10.1614847793
 20
13.2424392501
 30
0.0
 10
10.1909267014
 20
13.236042401
 30
0.0
 10
10.2061780562
 20
13.2341701725
 30
0.0
  0
SPLINE
  5
4E8
100
AcDbEntity
  8
0
100
AcDbSpline
 62
9
  6
CONTINUOUS
 70
0
 71
3
 72
11
 73
7
 74
0
 42
0.0000001
 43
0.0000001
 44
0.0000000001
 40
0.0
 40
0.0
 40
0.0
 40
0.0
 40
0.2761196364
 40
0.5378644426
 40
0.7794781471
 40
1.0
 40
1.0
 40
1.0
 40
1.0
 10
10.2657489751
 20
13.2339275863
 30
0.0
 10
10.2810321219
 20
13.2356757723
 30
0.0
 10
10.3105778738
 20
13.2418348927
 30
0.0
 10
10.3507701156
 20
13.2591073448
 30
0.0
 10
10.3835907273
 20
13.2832010095
 30
0.0
 10
10.3996926662
 20
13.3039006408
 30
0.0
 10
10.4054559219
 20
13.314750358
 30
0.0
  0
SPLINE
  5
4E9
100
AcDbEntity
  8
0
100
AcDbSpline
 62
9
  6
CONTINUOUS
 70
0
 71
3
 72
9
 73
5
 74
0
 42
0.0000001
 43
0.0000001
 44
0.0000000001
 40
0.0
 40
0.0
 40
0.0
 40
0.0
 40
0.5080396112
 40
1.0
 40
1.0
 40
1.0
 40
1.0
 10
10.4054559219
 20
13.314750358
 30
0.0
 10
10.4088723721
 20
13.3211820559
 30
0.0
 10
10.4143072085
 20
13.3345823957
 30
0.0
 10
10.4166196116
 20
13.3488767934
 30
0.0
 10
10.4169104235
 20
13.3559230772
 30
0.0
  0
SPLINE
  5
4EA
100
AcDbEntity
  8
0
100
AcDbSpline
 62
9
  6
CONTINUOUS
 70
0
 71
3
 72
12
 73
8
 74
0
 42
0.0000001
 43
0.0000001
 44
0.0000000001
 40
0.0
 40
0.0
 40
0.0
 40
0.0
 40
0.3092502031
 40
0.580671993
 40
0.8115207959
 40
0.9110758121
 40
1.0
 40
1.0
 40
1.0
 40
1.0
 10
13.2406420334
 20
19.112987459
 30
0.0
 10
13.2346590598
 20
19.0828957799
 30
0.0
 10
13.223172978
 20
19.0264427841
 30
0.0
 10
13.206462169
 20
18.9476855136
 30
0.0
 10
13.1925369839
 20
18.8896041979
 30
0.0
 10
13.1811547547
 20
18.8495840317
 30
0.0
 10
13.17539446
 20
18.8317872128
 30
0.0
 10
13.1724628439
 20
18.8234663832
 30
0.0
  0
SPLINE
  5
4EB
100
AcDbEntity
  8
0
100
AcDbSpline
 62
9
  6
CONTINUOUS
 70
0
 71
3
 72
11
 73
7
 74
0
 42
0.0000001
 43
0.0000001
 44
0.0000000001
 40
0.0
 40
0.0
 40
0.0
 40
0.0
 40
0.3706608542
 40
0.653085264
 40
0.8595830246
 40
1.0
 40
1.0
 40
1.0
 40
1.0
 10
13.1615496716
 20
18.7954583034
 30
0.0
 10
13.1572389548
 20
18.7854779987
 30
0.0
 10
13.1488964337
 20
18.7681880854
 30
0.0
 10
13.1353742233
 20
18.7468375234
 30
0.0
 10
13.1235738103
 20
18.732575314
 30
0.0
 10
13.1161359625
 20
18.7255975406
 30
0.0
 10
13.1129762494
 20
18.7229560214
 30
0.0
  0
SPLINE
  5
4EC
100
AcDbEntity
  8
0
100
AcDbSpline
 62
9
  6
CONTINUOUS
 70
0
 71
3
 72
13
 73
9
 74
0
 42
0.0000001
 43
0.0000001
 44
0.0000000001
 40
0.0
 40
0.0
 40
0.0
 40
0.0
 40
0.1586955636
 40
0.3084173642
 40
0.5797344423
 40
0.7004826018
 40
0.8108923093
 40
1.0
 40
1.0
 40
1.0
 40
1.0
 10
13.7813156522
 20
19.1130280369
 30
0.0
 10
13.7843881534
 20
19.0976987006
 30
0.0
 10
13.7904280848
 20
19.0679205726
 30
0.0
 10
13.8018813498
 20
19.01196736
 30
0.0
 10
13.8129339828
 20
18.9597460603
 30
0.0
 10
13.8241667557
 20
18.9115308947
 30
0.0
 10
13.8343429064
 20
18.8714001682
 30
0.0
 10
13.8427037955
 20
18.8430641762
 30
0.0
 10
13.8488752368
 20
18.8254857064
 30
0.0
  0
SPLINE
  5
4ED
100
AcDbEntity
  8
0
100
AcDbSpline
 62
9
  6
CONTINUOUS
 70
0
 71
3
 72
12
 73
8
 74
0
 42
0.0000001
 43
0.0000001
 44
0.0000000001
 40
0.0
 40
0.0
 40
0.0
 40
0.0
 40
0.2073872226
 40
0.3874144648
 40
0.6723863927
 40
0.8717724943
 40
1.0
 40
1.0
 40
1.0
 40
1.0
 10
13.8488752368
 20
18.8254857064
 30
0.0
 10
13.8516274431
 20
18.8176464392
 30
0.0
 10
13.8570949946
 20
18.8031107551
 30
0.0
 10
13.8679224212
 20
18.7784384306
 30
0.0
 10
13.8807107054
 20
18.7549935797
 30
0.0
 10
13.8954710591
 20
18.7352841144
 30
0.0
 10
13.9049452322
 20
18.726089956
 30
0.0
 10
13.909010214
 20
18.7229490557
 30
0.0
  0
SPLINE
  5
4EE
100
AcDbEntity
  8
0
100
AcDbSpline
 62
9
  6
CONTINUOUS
 70
0
 71
3
 72
11
 73
7
 74
0
 42
0.0000001
 43
0.0000001
 44
0.0000000001
 40
0.0
 40
0.0
 40
0.0
 40
0.0
 40
0.2851506743
 40
0.5456876997
 40
0.7825158569
 40
1.0
 40
1.0
 40
1.0
 40
1.0
 10
13.239274203
 20
18.6527688953
 30
0.0
 10
13.226626442
 20
18.6581808367
 30
0.0
 10
13.2027288949
 20
18.669268278
 30
0.0
 10
13.1693782813
 20
18.6869924312
 30
0.0
 10
13.1397712003
 20
18.7047076431
 30
0.0
 10
13.1215517639
 20
18.7169101945
 30
0.0
 10
13.1129762495
 20
18.7229560216
 30
0.0
  0
SPLINE
  5
4EF
100
AcDbEntity
  8
0
100
AcDbSpline
 62
9
  6
CONTINUOUS
 70
0
 71
3
 72
11
 73
7
 74
0
 42
0.0000001
 43
0.0000001
 44
0.0000000001
 40
0.0
 40
0.0
 40
0.0
 40
0.0
 40
0.1842730956
 40
0.4106576693
 40
0.6812383498
 40
1.0
 40
1.0
 40
1.0
 40
1.0
 10
13.9045411815
 20
19.9174286931
 30
0.0
 10
13.9013301848
 20
19.9146074203
 30
0.0
 10
13.8936041378
 20
19.9089737263
 30
0.0
 10
13.8799088152
 20
19.9010619561
 30
0.0
 10
13.862851496
 20
19.892839604
 30
0.0
 10
13.8502223446
 20
19.8875930925
 30
0.0
 10
13.8433432374
 20
19.8848824026
 30
0.0
  0
SPLINE
  5
4F0
100
AcDbEntity
  8
0
100
AcDbSpline
 62
9
  6
CONTINUOUS
 70
0
 71
3
 72
9
 73
5
 74
0
 42
0.0000001
 43
0.0000001
 44
0.0000000001
 40
0.0
 40
0.0
 40
0.0
 40
0.0
 40
0.2339767812
 40
1.0
 40
1.0
 40
1.0
 40
1.0
 10
13.8433432374
 20
19.8848824026
 30
0.0
 10
13.8413760303
 20
19.884107231
 30
0.0
 10
13.8329504607
 20
19.8808395491
 30
0.0
 10
13.8244604705
 20
19.8777395209
 30
0.0
 10
13.8179346014
 20
19.8754300359
 30
0.0
  0
LINE
  5
4F1
100
AcDbEntity
  8
0
100
AcDbLine
 62
9
  6
CONTINUOUS
 10
13.8179346014
 20
19.8754300359
 11
13.7889082764
 21
19.8655658867
  0
SPLINE
  5
4F2
100
AcDbEntity
  8
0
100
AcDbSpline
 62
9
  6
CONTINUOUS
 70
0
 71
3
 72
9
 73
5
 74
0
 42
0.0000001
 43
0.0000001
 44
0.0000000001
 40
0.0
 40
0.0
 40
0.0
 40
0.0
 40
0.4940325595
 40
1.0
 40
1.0
 40
1.0
 40
1.0
 10
9.8769858292
 20
12.2526755436
 30
0.0
 10
9.8769851938
 20
12.2661677557
 30
0.0
 10
9.8801168407
 20
12.2935594875
 30
0.0
 10
9.8891415937
 20
12.3195790605
 30
0.0
 10
9.8949625466
 20
12.3321113389
 30
0.0
  0
SPLINE
  5
4F3
100
AcDbEntity
  8
0
100
AcDbSpline
 62
9
  6
CONTINUOUS
 70
0
 71
3
 72
9
 73
5
 74
0
 42
0.0000001
 43
0.0000001
 44
0.0000000001
 40
0.0
 40
0.0
 40
0.0
 40
0.0
 40
0.4869361162
 40
1.0
 40
1.0
 40
1.0
 40
1.0
 10
9.8949625466
 20
12.3321113389
 30
0.0
 10
9.9009586439
 20
12.3450206961
 30
0.0
 10
9.9160613873
 20
12.3702930822
 30
0.0
 10
9.9354727366
 20
12.3923617202
 30
0.0
 10
9.9462474472
 20
12.4027941762
 30
0.0
  0
SPLINE
  5
4F4
100
AcDbEntity
  8
0
100
AcDbSpline
 62
9
  6
CONTINUOUS
 70
0
 71
3
 72
12
 73
8
 74
0
 42
0.0000001
 43
0.0000001
 44
0.0000000001
 40
0.0
 40
0.0
 40
0.0
 40
0.0
 40
0.2285482153
 40
0.4743043319
 40
0.7335974802
 40
0.8665270407
 40
1.0
 40
1.0
 40
1.0
 40
1.0
 10
9.9462474472
 20
12.4027941762
 30
0.0
 10
9.9635372316
 20
12.4195347571
 30
0.0
 10
10.0039555672
 20
12.4497454342
 30
0.0
 10
10.0744407988
 20
12.4824047557
 30
0.0
 10
10.1398910336
 20
12.4991722099
 30
0.0
 10
10.1948626107
 20
12.5060546578
 30
0.0
 10
10.2229310384
 20
12.5072339848
 30
0.0
 10
10.2369858044
 20
12.5072339848
 30
0.0
  0
SPLINE
  5
4F5
100
AcDbEntity
  8
0
100
AcDbSpline
 62
9
  6
CONTINUOUS
 70
0
 71
3
 72
11
 73
7
 74
0
 42
0.0000001
 43
0.0000001
 44
0.0000000001
 40
0.0
 40
0.0
 40
0.0
 40
0.0
 40
0.2444618822
 40
0.4912375792
 40
0.7424453012
 40
1.0
 40
1.0
 40
1.0
 40
1.0
 10
10.5969857901
 20
12.2632602083
 30
0.0
 10
10.5969854914
 20
12.2715639841
 30
0.0
 10
10.595815512
 20
12.2882722257
 30
0.0
 10
10.5906165864
 20
12.3130247378
 30
0.0
 10
10.5820338223
 20
12.3372868541
 30
0.0
 10
10.5742022392
 20
12.35275089
 30
0.0
 10
10.5697928411
 20
12.3603069196
 30
0.0
  0
SPLINE
  5
4F6
100
AcDbEntity
  8
0
100
AcDbSpline
 62
9
  6
CONTINUOUS
 70
0
 71
3
 72
15
 73
11
 74
0
 42
0.0000001
 43
0.0000001
 44
0.0000000001
 40
0.0
 40
0.0
 40
0.0
 40
0.0
 40
0.1070306053
 40
0.2196780673
 40
0.3382784432
 40
0.4625724747
 40
0.5919715652
 40
0.725610223
 40
0.8622546112
 40
1.0
 40
1.0
 40
1.0
 40
1.0
 10
10.5697928411
 20
12.3603069196
 30
0.0
 10
10.5628882781
 20
12.3721387117
 30
0.0
 10
10.5464319485
 20
12.3951444245
 30
0.0
 10
10.5156722801
 20
12.4258508355
 30
0.0
 10
10.4789426432
 20
12.4529745428
 30
0.0
 10
10.4370710779
 20
12.4759894763
 30
0.0
 10
10.3909129519
 20
12.4943913387
 30
0.0
 10
10.3414425413
 20
12.5078300018
 30
0.0
 10
10.2897617583
 20
12.5159686049
 30
0.0
 10
10.2546161129
 20
12.5178186496
 30
0.0
 10
10.2369858044
 20
12.5178186496
 30
0.0
  0
SPLINE
  5
4F7
100
AcDbEntity
  8
0
100
AcDbSpline
 62
9
  6
CONTINUOUS
 70
0
 71
3
 72
9
 73
5
 74
0
 42
0.0000001
 43
0.0000001
 44
0.0000000001
 40
0.0
 40
0.0
 40
0.0
 40
0.0
 40
0.4953150605
 40
1.0
 40
1.0
 40
1.0
 40
1.0
 10
10.3613306208
 20
12.5165576709
 30
0.0
 10
10.3414681471
 20
12.522793185
 30
0.0
 10
10.3002798926
 20
12.5320730236
 30
0.0
 10
10.2581978725
 20
12.5351985347
 30
0.0
 10
10.2369858044
 20
12.5351985347
 30
0.0
  0
SPLINE
  5
4F8
100
AcDbEntity
  8
0
100
AcDbSpline
 62
9
  6
CONTINUOUS
 70
0
 71
3
 72
26
 73
22
 74
0
 42
0.0000001
 43
0.0000001
 44
0.0000000001
 40
0.0
 40
0.0
 40
0.0
 40
0.0
 40
0.0098761759
 40
0.0210048544
 40
0.0335353459
 40
0.0475425435
 40
0.0800590448
 40
0.1184935847
 40
0.1625660734
 40
0.2119792713
 40
0.2664204368
 40
0.3256096905
 40
0.3892998733
 40
0.4573457046
 40
0.5297236867
 40
0.6067572909
 40
0.6890747139
 40
0.7782636529
 40
0.8263853404
 40
0.8780401641
 40
1.0
 40
1.0
 40
1.0
 40
1.0
 10
7.9548588186
 20
9.8805334965
 30
0.0
 10
7.9528417278
 20
9.8802140207
 30
0.0
 10
7.9484801728
 20
9.879968587
 30
0.0
 10
7.9415575611
 20
9.8805840247
 30
0.0
 10
7.9339065782
 20
9.8821045054
 30
0.0
 10
7.9221533891
 20
9.8854538094
 30
0.0
 10
7.90575829
 20
9.891854108
 30
0.0
 10
7.8842567334
 20
9.9020410732
 30
0.0
 10
7.8601356686
 20
9.9147946625
 30
0.0
 10
7.8334584584
 20
9.92976359
 30
0.0
 10
7.804257073
 20
9.9466154896
 30
0.0
 10
7.7725302696
 20
9.9649968734
 30
0.0
 10
7.7382429857
 20
9.9845705409
 30
0.0
 10
7.7012949711
 20
10.004978493
 30
0.0
 10
7.6614900965
 20
10.0259066264
 30
0.0
 10
7.6184392383
 20
10.0469670311
 30
0.0
 10
7.5714820566
 20
10.0678896429
 30
0.0
 10
7.529175466
 20
10.0844609463
 30
0.0
 10
7.4922383234
 20
10.0972283415
 30
0.0
 10
7.4484244733
 20
10.1107575726
 30
0.0
 10
7.4135023301
 20
10.1193551093
 30
0.0
 10
7.3887482642
 20
10.12417702
 30
0.0
  0
SPLINE
  5
4F9
100
AcDbEntity
  8
0
100
AcDbSpline
 62
9
  6
CONTINUOUS
 70
0
 71
3
 72
11
 73
7
 74
0
 42
0.0000001
 43
0.0000001
 44
0.0000000001
 40
0.0
 40
0.0
 40
0.0
 40
0.0
 40
0.2343133867
 40
0.4782117737
 40
0.7332415005
 40
1.0
 40
1.0
 40
1.0
 40
1.0
 10
10.0261179157
 20
12.7129782722
 30
0.0
 10
10.0284810577
 20
12.7195173379
 30
0.0
 10
10.0344892422
 20
12.7324614587
 30
0.0
 10
10.0467867207
 20
12.7505114529
 30
0.0
 10
10.0622296527
 20
12.7672752555
 30
0.0
 10
10.0741851157
 20
12.7771927666
 30
0.0
 10
10.0805736377
 20
12.7818667118
 30
0.0
  0
SPLINE
  5
4FA
100
AcDbEntity
  8
0
100
AcDbSpline
 62
9
  6
CONTINUOUS
 70
0
 71
3
 72
12
 73
8
 74
0
 42
0.0000001
 43
0.0000001
 44
0.0000000001
 40
0.0
 40
0.0
 40
0.0
 40
0.0
 40
0.2335035844
 40
0.4177879691
 40
0.6086053785
 40
0.8036777711
 40
1.0
 40
1.0
 40
1.0
 40
1.0
 10
10.0805736377
 20
12.7818667118
 30
0.0
 10
10.0909894342
 20
12.7894870756
 30
0.0
 10
10.1110104681
 20
12.8012979898
 30
0.0
 10
10.1422107327
 20
12.8140434964
 30
0.0
 10
10.172660237
 20
12.8224459246
 30
0.0
 10
10.2044857174
 20
12.8275701793
 30
0.0
 10
10.2261350566
 20
12.8287450711
 30
0.0
 10
10.2369858044
 20
12.8287450711
 30
0.0
  0
SPLINE
  5
4FB
100
AcDbEntity
  8
0
100
AcDbSpline
 62
9
  6
CONTINUOUS
 70
0
 71
3
 72
9
 73
5
 74
0
 42
0.0000001
 43
0.0000001
 44
0.0000000001
 40
0.0
 40
0.0
 40
0.0
 40
0.0
 40
0.2265312359
 40
1.0
 40
1.0
 40
1.0
 40
1.0
 10
13.1497896024
 20
18.5901260394
 30
0.0
 10
13.1560771179
 20
18.5836490605
 30
0.0
 10
13.1843568153
 20
18.5555788246
 30
0.0
 10
13.2151214161
 20
18.5299381011
 30
0.0
 10
13.2403082984
 20
18.5121736894
 30
0.0
  0
SPLINE
  5
4FC
100
AcDbEntity
  8
0
100
AcDbSpline
 62
9
  6
CONTINUOUS
 70
0
 71
3
 72
14
 73
10
 74
0
 42
0.0000001
 43
0.0000001
 44
0.0000000001
 40
0.0
 40
0.0
 40
0.0
 40
0.0
 40
0.1078889521
 40
0.218431707
 40
0.3334924383
 40
0.4543939135
 40
0.581773728
 40
0.7156006687
 40
1.0
 40
1.0
 40
1.0
 40
1.0
 10
10.4169231295
 20
12.7631053625
 30
0.0
 10
10.4167028668
 20
12.7694161989
 30
0.0
 10
10.4149026009
 20
12.7821853005
 30
0.0
 10
10.4082205617
 20
12.8006554169
 30
0.0
 10
10.3977891698
 20
12.8181809997
 30
0.0
 10
10.3838274794
 20
12.8343499904
 30
0.0
 10
10.3666930471
 20
12.8488545169
 30
0.0
 10
10.3396046641
 20
12.8659093344
 30
0.0
 10
10.3164600492
 20
12.8747981522
 30
0.0
 10
10.3003720767
 20
12.879071033
 30
0.0
  0
SPLINE
  5
4FD
100
AcDbEntity
  8
0
100
AcDbSpline
 62
9
  6
CONTINUOUS
 70
0
 71
3
 72
14
 73
10
 74
0
 42
0.0000001
 43
0.0000001
 44
0.0000000001
 40
0.0
 40
0.0
 40
0.0
 40
0.0
 40
0.0278659166
 40
0.0508704918
 40
0.0809555314
 40
0.1631426999
 40
0.2750065153
 40
0.5850997436
 40
1.0
 40
1.0
 40
1.0
 40
1.0
 10
12.9183303231
 20
20.310226412
 30
0.0
 10
12.9183515665
 20
20.3099934424
 30
0.0
 10
12.918753787
 20
20.3096743759
 30
0.0
 10
12.9193598046
 20
20.3094243713
 30
0.0
 10
12.920461851
 20
20.3090992332
 30
0.0
 10
12.9223150673
 20
20.3087934678
 30
0.0
 10
12.9265319095
 20
20.3083747552
 30
0.0
 10
12.933557559
 20
20.3081655804
 30
0.0
 10
12.9396445225
 20
20.3082021035
 30
0.0
 10
12.9431270377
 20
20.3082666648
 30
0.0
  0
SPLINE
  5
4FE
100
AcDbEntity
  8
0
100
AcDbSpline
 62
9
  6
CONTINUOUS
 70
0
 71
3
 72
9
 73
5
 74
0
 42
0.0000001
 43
0.0000001
 44
0.0000000001
 40
0.0
 40
0.0
 40
0.0
 40
0.0
 40
0.4583306901
 40
1.0
 40
1.0
 40
1.0
 40
1.0
 10
12.9431270377
 20
20.3082666648
 30
0.0
 10
12.9522894275
 20
20.3084365234
 30
0.0
 10
12.972268298
 20
20.3093729837
 30
0.0
 10
12.9922075839
 20
20.3108770552
 30
0.0
 10
13.0029956076
 20
20.3118325457
 30
0.0
  0
SPLINE
  5
4FF
100
AcDbEntity
  8
0
100
AcDbSpline
 62
9
  6
CONTINUOUS
 70
0
 71
3
 72
9
 73
5
 74
0
 42
0.0000001
 43
0.0000001
 44
0.0000000001
 40
0.0
 40
0.0
 40
0.0
 40
0.0
 40
0.2716942689
 40
1.0
 40
1.0
 40
1.0
 40
1.0
 10
13.7816822176
 20
18.5121708497
 30
0.0
 10
13.7905313902
 20
18.5184120936
 30
0.0
 10
13.8224503122
 20
18.5423051999
 30
0.0
 10
13.8519862632
 20
18.5692981116
 30
0.0
 10
13.8722049352
 20
18.5901260381
 30
0.0
  0
SPLINE
  5
500
100
AcDbEntity
  8
0
100
AcDbSpline
 62
9
  6
CONTINUOUS
 70
0
 71
3
 72
27
 73
23
 74
0
 42
0.0000001
 43
0.0000001
 44
0.0000000001
 40
0.0
 40
0.0
 40
0.0
 40
0.0
 40
0.1448914891
 40
0.2881061383
 40
0.429628049
 40
0.499703263
 40
0.5692412301
 40
0.6380883017
 40
0.7057436496
 40
0.7716007962
 40
0.8350346468
 40
0.8655596014
 40
0.8947266102
 40
0.9219405602
 40
0.946603524
 40
0.9679943006
 40
0.9770938437
 40
0.9849085552
 40
0.9912725657
 40
0.9960198848
 40
0.9989844212
 40
1.0
 40
1.0
 40
1.0
 40
1.0
 10
13.8722049448
 20
18.5901260069
 30
0.0
 10
13.8774292952
 20
18.5955077366
 30
0.0
 10
13.8871891165
 20
18.6068364997
 30
0.0
 10
13.8998163478
 20
18.6251876867
 30
0.0
 10
13.9087197966
 20
18.6412863087
 30
0.0
 10
13.9148830584
 20
18.6544741172
 30
0.0
 10
13.9190226661
 20
18.6644435399
 30
0.0
 10
13.9226953712
 20
18.6744602329
 30
0.0
 10
13.9259146914
 20
18.6844313082
 30
0.0
 10
13.9286846733
 20
18.6942452304
 30
0.0
 10
13.9306426822
 20
18.702285251
 30
0.0
 10
13.931979798
 20
18.7085174843
 30
0.0
 10
13.9328539127
 20
18.7129305186
 30
0.0
 10
13.9336106193
 20
18.7170577694
 30
0.0
 10
13.9342452982
 20
18.7207952334
 30
0.0
 10
13.9346871769
 20
18.7236210373
 30
0.0
 10
13.9349770078
 20
18.7255741275
 30
0.0
 10
13.9351493419
 20
18.7267863983
 30
0.0
 10
13.9352801177
 20
18.7277033838
 30
0.0
 10
13.9353872365
 20
18.7285535362
 30
0.0
 10
13.9354284952
 20
18.7287661342
 30
0.0
 10
13.9354737319
 20
18.7292213318
 30
0.0
 10
13.9354725979
 20
18.7291687715
 30
0.0
  0
SPLINE
  5
501
100
AcDbEntity
  8
0
100
AcDbSpline
 62
9
  6
CONTINUOUS
 70
0
 71
3
 72
10
 73
6
 74
0
 42
0.0000001
 43
0.0000001
 44
0.0000000001
 40
0.0
 40
0.0
 40
0.0
 40
0.0
 40
0.2846525731
 40
0.5476698615
 40
1.0
 40
1.0
 40
1.0
 40
1.0
 10
13.7826222903
 20
18.6526983
 30
0.0
 10
13.7952632404
 20
18.6580882836
 30
0.0
 10
13.8192794057
 20
18.6691952081
 30
0.0
 10
13.8618536078
 20
18.6919960788
 30
0.0
 10
13.8910680333
 20
18.7105204019
 30
0.0
 10
13.9090182886
 20
18.7229560231
 30
0.0
  0
SPLINE
  5
502
100
AcDbEntity
  8
0
100
AcDbSpline
 62
9
  6
CONTINUOUS
 70
0
 71
3
 72
11
 73
7
 74
0
 42
0.0000001
 43
0.0000001
 44
0.0000000001
 40
0.0
 40
0.0
 40
0.0
 40
0.0
 40
0.2413841006
 40
0.4912720147
 40
0.7461987631
 40
1.0
 40
1.0
 40
1.0
 40
1.0
 10
13.9090182886
 20
18.7229560231
 30
0.0
 10
13.9006524264
 20
18.7150274402
 30
0.0
 10
13.8861429391
 20
18.6961061558
 30
0.0
 10
13.8726279699
 20
18.6627075064
 30
0.0
 10
13.8680392726
 20
18.6264368518
 30
0.0
 10
13.8700512954
 20
18.6020521223
 30
0.0
 10
13.8722049376
 20
18.5901260399
 30
0.0
  0
SPLINE
  5
503
100
AcDbEntity
  8
0
100
AcDbSpline
 62
9
  6
CONTINUOUS
 70
0
 71
3
 72
12
 73
8
 74
0
 42
0.0000001
 43
0.0000001
 44
0.0000000001
 40
0.0
 40
0.0
 40
0.0
 40
0.0
 40
0.2305809738
 40
0.4759078981
 40
0.6039734595
 40
0.7348317938
 40
1.0
 40
1.0
 40
1.0
 40
1.0
 10
13.1129762552
 20
18.7229560212
 30
0.0
 10
13.1209716708
 20
18.7153785172
 30
0.0
 10
13.1351635143
 20
18.6971860802
 30
0.0
 10
13.1464775422
 20
18.6702759587
 30
0.0
 10
13.1513539139
 20
18.6466260619
 30
0.0
 10
13.1534989131
 20
18.621640277
 30
0.0
 10
13.1520407935
 20
18.6025924523
 30
0.0
 10
13.149789579
 20
18.5901260489
 30
0.0
  0
SPLINE
  5
504
100
AcDbEntity
  8
0
100
AcDbSpline
 62
9
  6
CONTINUOUS
 70
0
 71
3
 72
12
 73
8
 74
0
 42
0.0000001
 43
0.0000001
 44
0.0000000001
 40
0.0
 40
0.0
 40
0.0
 40
0.0
 40
0.3070205068
 40
0.5696335373
 40
0.80532347
 40
0.9109363178
 40
1.0
 40
1.0
 40
1.0
 40
1.0
 10
13.9090182853
 20
18.7229560243
 30
0.0
 10
13.9128441105
 20
18.7246981475
 30
0.0
 10
13.9197288674
 20
18.7284938845
 30
0.0
 10
13.9280582097
 20
18.735842743
 30
0.0
 10
13.9329875609
 20
18.7425787228
 30
0.0
 10
13.9355780611
 20
18.7478815012
 30
0.0
 10
13.9365332187
 20
18.7503742996
 30
0.0
 10
13.936912876
 20
18.7515331766
 30
0.0
  0
LINE
  5
505
100
AcDbEntity
  8
0
100
AcDbLine
 62
9
  6
CONTINUOUS
 10
13.936912876
 20
18.7515331766
 11
13.9376986785
 21
18.7543045116
  0
SPLINE
  5
506
100
AcDbEntity
  8
0
100
AcDbSpline
 62
9
  6
CONTINUOUS
 70
0
 71
3
 72
15
 73
11
 74
0
 42
0.0000001
 43
0.0000001
 44
0.0000000001
 40
0.0
 40
0.0
 40
0.0
 40
0.0
 40
0.019709136
 40
0.0751055669
 40
0.1608632523
 40
0.2728431439
 40
0.4081162132
 40
0.5660028406
 40
0.7517998174
 40
1.0
 40
1.0
 40
1.0
 40
1.0
 10
7.4876092238
 20
9.8065284309
 30
0.0
 10
7.484397642
 20
9.8079761631
 30
0.0
 10
7.472134079
 20
9.8134363339
 30
0.0
 10
7.445689791
 20
9.8247271246
 30
0.0
 10
7.4037822367
 20
9.8417884818
 30
0.0
 10
7.3480665127
 20
9.8627565765
 30
0.0
 10
7.2794460837
 20
9.8859399061
 30
0.0
 10
7.1971634582
 20
9.9097038979
 30
0.0
 10
7.0939092404
 20
9.9330489218
 30
0.0
 10
7.0169488789
 20
9.9438871771
 30
0.0
 10
6.9727724723
 20
9.9479458407
 30
0.0
  0
SPLINE
  5
507
100
AcDbEntity
  8
0
100
AcDbSpline
 62
9
  6
CONTINUOUS
 70
0
 71
3
 72
15
 73
11
 74
0
 42
0.0000001
 43
0.0000001
 44
0.0000000001
 40
0.0
 40
0.0
 40
0.0
 40
0.0
 40
0.1262701936
 40
0.2518581742
 40
0.3769445926
 40
0.5017231172
 40
0.6263417185
 40
0.750902004
 40
0.8754490068
 40
1.0
 40
1.0
 40
1.0
 40
1.0
 10
13.239482918
 20
13.8601037101
 30
0.0
 10
13.2277347593
 20
13.8511338735
 30
0.0
 10
13.2049910932
 20
13.8323296458
 30
0.0
 10
13.1728066302
 20
13.8021068237
 30
0.0
 10
13.1427046182
 20
13.7700442567
 30
0.0
 10
13.1146677847
 20
13.736312994
 30
0.0
 10
13.0886786694
 20
13.7010587632
 30
0.0
 10
13.06469064
 20
13.6644485794
 30
0.0
 10
13.0426689707
 20
13.626635457
 30
0.0
 10
13.0292435509
 20
13.6007373395
 30
0.0
 10
13.0228148913
 20
13.587651439
 30
0.0
  0
SPLINE
  5
508
100
AcDbEntity
  8
0
100
AcDbSpline
 62
9
  6
CONTINUOUS
 70
0
 71
3
 72
16
 73
12
 74
0
 42
0.0000001
 43
0.0000001
 44
0.0000000001
 40
0.0
 40
0.0
 40
0.0
 40
0.0
 40
0.1747304758
 40
0.3082572365
 40
0.5157967133
 40
0.6733094912
 40
0.794394884
 40
0.8851570128
 40
0.9488536417
 40
0.987140527
 40
1.0
 40
1.0
 40
1.0
 40
1.0
 10
6.9727724723
 20
9.9479458407
 30
0.0
 10
6.9486476386
 20
9.9501622859
 30
0.0
 10
6.9061467959
 20
9.9547127651
 30
0.0
 10
6.8351075857
 20
9.962940958
 30
0.0
 10
6.7664189448
 20
9.9707438117
 30
0.0
 10
6.6992930616
 20
9.9769302187
 30
0.0
 10
6.6481727887
 20
9.9801409274
 30
0.0
 10
6.6099775363
 20
9.9812463452
 30
0.0
 10
6.5832465174
 20
9.9810863389
 30
0.0
 10
6.5673367454
 20
9.9803991964
 30
0.0
 10
6.5602598088
 20
9.9799171166
 30
0.0
 10
6.5584858173
 20
9.9797384092
 30
0.0
  0
SPLINE
  5
509
100
AcDbEntity
  8
0
100
AcDbSpline
 62
9
  6
CONTINUOUS
 70
0
 71
3
 72
26
 73
22
 74
0
 42
0.0000001
 43
0.0000001
 44
0.0000000001
 40
0.0
 40
0.0
 40
0.0
 40
0.0
 40
0.1554004966
 40
0.2197793713
 40
0.2787219301
 40
0.4790129459
 40
0.5633139801
 40
0.6390163186
 40
0.7069619968
 40
0.7675590847
 40
0.8210731651
 40
0.8676353981
 40
0.9073219329
 40
0.9401274163
 40
0.9539374546
 40
0.9659939052
 40
0.9762701461
 40
0.984739315
 40
0.9913743169
 40
0.99614783
 40
1.0
 40
1.0
 40
1.0
 40
1.0
 10
7.3887482642
 20
10.12417702
 30
0.0
 10
7.3642475876
 20
10.1289495723
 30
0.0
 10
7.3298228024
 20
10.1368526168
 30
0.0
 10
7.2864048929
 20
10.1477643613
 30
0.0
 10
7.2361141673
 20
10.1609133476
 30
0.0
 10
7.1828706612
 20
10.1754053471
 30
0.0
 10
7.1269353173
 20
10.1902532255
 30
0.0
 10
7.0914868992
 20
10.1994206998
 30
0.0
 10
7.0596503471
 20
10.2073427075
 30
0.0
 10
7.0312022144
 20
10.2141159315
 30
0.0
 10
7.006029542
 20
10.2198113155
 30
0.0
 10
6.9840772665
 20
10.2245088258
 30
0.0
 10
6.9653271675
 20
10.2282798027
 30
0.0
 10
6.9517083628
 20
10.2308421067
 30
0.0
 10
6.9424209553
 20
10.2324895354
 30
0.0
 10
6.9367174189
 20
10.2334640644
 30
0.0
 10
6.9317786899
 20
10.2342730283
 30
0.0
 10
6.9279096559
 20
10.2348876171
 30
0.0
 10
6.9243437929
 20
10.2354193066
 30
0.0
 10
6.9229148489
 20
10.2356413794
 30
0.0
 10
6.9196117656
 20
10.2360845371
 30
0.0
 10
6.9202253943
 20
10.2360050605
 30
0.0
  0
SPLINE
  5
50A
100
AcDbEntity
  8
0
100
AcDbSpline
 62
9
  6
CONTINUOUS
 70
0
 71
3
 72
11
 73
7
 74
0
 42
0.0000001
 43
0.0000001
 44
0.0000000001
 40
0.0
 40
0.0
 40
0.0
 40
0.0
 40
0.3167947695
 40
0.5779253387
 40
0.7860438438
 40
1.0
 40
1.0
 40
1.0
 40
1.0
 10
9.8985982897
 20
12.8489849806
 30
0.0
 10
9.8987450226
 20
12.8487201362
 30
0.0
 10
9.8990345161
 20
12.8482559451
 30
0.0
 10
9.8993148142
 20
12.847527612
 30
0.0
 10
9.8991921051
 20
12.8468718797
 30
0.0
 10
9.8992246944
 20
12.8464690911
 30
0.0
 10
9.8992246944
 20
12.8462646032
 30
0.0
  0
SPLINE
  5
50B
100
AcDbEntity
  8
0
100
AcDbSpline
 62
9
  6
CONTINUOUS
 70
0
 71
3
 72
37
 73
33
 74
0
 42
0.0000001
 43
0.0000001
 44
0.0000000001
 40
0.0
 40
0.0
 40
0.0
 40
0.0
 40
0.0983238127
 40
0.1899464431
 40
0.2721423495
 40
0.3449609459
 40
0.4098137164
 40
0.4679021309
 40
0.5678075027
 40
0.6506979385
 40
0.7204331972
 40
0.779557696
 40
0.8296819758
 40
0.8720088381
 40
0.9073928551
 40
0.9364980813
 40
0.9488551903
 40
0.9598126876
 40
0.9694081182
 40
0.9776601114
 40
0.984585067
 40
0.9901997033
 40
0.9925219823
 40
0.9945248328
 40
0.9962112173
 40
0.9975840983
 40
0.998646439
 40
0.9994012043
 40
0.9996641744
 40
0.9998513667
 40
0.9999631615
 40
1.0
 40
1.0
 40
1.0
 40
1.0
 10
6.5111463841
 20
9.2689941794
 30
0.0
 10
6.500027126
 20
9.2700981107
 30
0.0
 10
6.4785061432
 20
9.271827641
 30
0.0
 10
6.4476312526
 20
9.2736372038
 30
0.0
 10
6.4196320241
 20
9.2749517483
 30
0.0
 10
6.3946554464
 20
9.2756875085
 30
0.0
 10
6.3724136461
 20
9.2761690372
 30
0.0
 10
6.3470914491
 20
9.2765679364
 30
0.0
 10
6.3197174498
 20
9.2768287564
 30
0.0
 10
6.2910193034
 20
9.2770044668
 30
0.0
 10
6.2669553101
 20
9.2770986559
 30
0.0
 10
6.2466149265
 20
9.2771621371
 30
0.0
 10
6.2293893265
 20
9.2772149204
 30
0.0
 10
6.2148616857
 20
9.2772612773
 30
0.0
 10
6.2027227452
 20
9.2773060604
 30
0.0
 10
6.1939896852
 20
9.2773426713
 30
0.0
 10
6.1880325433
 20
9.2773702935
 30
0.0
 10
6.1842925591
 20
9.2773893452
 30
0.0
 10
6.1810191026
 20
9.2774079049
 30
0.0
 10
6.1782039168
 20
9.2774251078
 30
0.0
 10
6.1758411323
 20
9.2774402624
 30
0.0
 10
6.1741521817
 20
9.2774509428
 30
0.0
 10
6.1730226403
 20
9.2774579964
 30
0.0
 10
6.1723394052
 20
9.2774622438
 30
0.0
 10
6.1717643564
 20
9.277466125
 30
0.0
 10
6.1712953705
 20
9.2774689635
 30
0.0
 10
6.1709343876
 20
9.2774728123
 30
0.0
 10
6.1706948597
 20
9.2774729251
 30
0.0
 10
6.170562148
 20
9.2774774868
 30
0.0
 10
6.1704914181
 20
9.2774739776
 30
0.0
 10
6.1704653352
 20
9.277482966
 30
0.0
 10
6.1704360527
 20
9.2774754657
 30
0.0
 10
6.1704369648
 20
9.2774795516
 30
0.0
  0
LINE
  5
50C
100
AcDbEntity
  8
0
100
AcDbLine
 62
9
  6
CONTINUOUS
 10
6.168311974
 20
9.2618937644
 11
6.2336641197
 21
9.262110263
  0
SPLINE
  5
50D
100
AcDbEntity
  8
0
100
AcDbSpline
 62
9
  6
CONTINUOUS
 70
0
 71
3
 72
15
 73
11
 74
0
 42
0.0000001
 43
0.0000001
 44
0.0000000001
 40
0.0
 40
0.0
 40
0.0
 40
0.0
 40
0.1353820105
 40
0.3218061599
 40
0.442796446
 40
0.5909386466
 40
0.6781722598
 40
0.7761056162
 40
0.8851092021
 40
1.0
 40
1.0
 40
1.0
 40
1.0
 10
6.2336641197
 20
9.262110263
 30
0.0
 10
6.2461844107
 20
9.2621403829
 30
0.0
 10
6.2759454387
 20
9.2622055007
 30
0.0
 10
6.3168956823
 20
9.2623635177
 30
0.0
 10
6.3590250577
 20
9.262693323
 30
0.0
 10
6.3919792862
 20
9.2631708019
 30
0.0
 10
6.4227968842
 20
9.2638550533
 30
0.0
 10
6.4499875773
 20
9.2647795792
 30
0.0
 10
6.4797144306
 20
9.2662634731
 30
0.0
 10
6.5003882297
 20
9.2674177131
 30
0.0
 10
6.5109972687
 20
9.2680047813
 30
0.0
  0
LINE
  5
50E
100
AcDbEntity
  8
0
100
AcDbLine
 62
9
  6
CONTINUOUS
 10
9.8992265197
 20
12.7609068102
 11
9.8992255632
 21
12.7923573304
  0
LINE
  5
50F
100
AcDbEntity
  8
0
100
AcDbLine
 62
9
  6
CONTINUOUS
 10
9.8992255632
 20
12.7923573304
 11
9.899225352
 21
12.7982627902
  0
LINE
  5
510
100
AcDbEntity
  8
0
100
AcDbLine
 62
9
  6
CONTINUOUS
 10
9.899225352
 20
12.7982627902
 11
9.8992249783
 21
12.8132099084
  0
LINE
  5
511
100
AcDbEntity
  8
0
100
AcDbLine
 62
9
  6
CONTINUOUS
 10
9.8992249783
 20
12.8132099084
 11
9.8992246944
 21
12.8462646032
  0
SPLINE
  5
512
100
AcDbEntity
  8
0
100
AcDbSpline
 62
7
  6
CONTINUOUS
 70
0
 71
3
 72
13
 73
9
 74
0
 42
0.0000001
 43
0.0000001
 44
0.0000000001
 40
0.0
 40
0.0
 40
0.0
 40
0.0
 40
0.4039729892
 40
0.5696620325
 40
0.7089949069
 40
0.8206653908
 40
0.9041573689
 40
1.0
 40
1.0
 40
1.0
 40
1.0
 10
13.0262755702
 20
19.0494036089
 30
0.0
 10
13.027224726
 20
19.0494036089
 30
0.0
 10
13.0285634655
 20
19.0494318009
 30
0.0
 10
13.0302257163
 20
19.0495706541
 30
0.0
 10
13.0311929779
 20
19.0496992225
 30
0.0
 10
13.0319717835
 20
19.0498740484
 30
0.0
 10
13.0325936465
 20
19.0500740539
 30
0.0
 10
13.0330119178
 20
19.0504000161
 30
0.0
 10
13.0330112405
 20
19.0506252024
 30
0.0
  0
SPLINE
  5
513
100
AcDbEntity
  8
0
100
AcDbSpline
 62
7
  6
CONTINUOUS
 70
0
 71
3
 72
13
 73
9
 74
0
 42
0.0000001
 43
0.0000001
 44
0.0000000001
 40
0.0
 40
0.0
 40
0.0
 40
0.0
 40
0.3967877771
 40
0.56387288
 40
0.7054474732
 40
0.8188667033
 40
0.9040724171
 40
1.0
 40
1.0
 40
1.0
 40
1.0
 10
13.1682472687
 20
19.0494036089
 30
0.0
 10
13.1698348163
 20
19.0494036089
 30
0.0
 10
13.1720910224
 20
19.0494578003
 30
0.0
 10
13.1749075766
 20
19.0496997206
 30
0.0
 10
13.1765740018
 20
19.0499244951
 30
0.0
 10
13.1779267677
 20
19.0502281798
 30
0.0
 10
13.1789865717
 20
19.0505735142
 30
0.0
 10
13.1797481027
 20
19.0510977393
 30
0.0
 10
13.1797472488
 20
19.0514815446
 30
0.0
  0
SPLINE
  5
514
100
AcDbEntity
  8
0
100
AcDbSpline
 62
7
  6
CONTINUOUS
 70
0
 71
3
 72
12
 73
8
 74
0
 42
0.0000001
 43
0.0000001
 44
0.0000000001
 40
0.0
 40
0.0
 40
0.0
 40
0.0
 40
0.2682114748
 40
0.5515370553
 40
0.8070182507
 40
0.9131256667
 40
1.0
 40
1.0
 40
1.0
 40
1.0
 10
13.8537472687
 20
19.0494036089
 30
0.0
 10
13.8565718481
 20
19.0494036089
 30
0.0
 10
13.8623806845
 20
19.0496498462
 30
0.0
 10
13.8708403068
 20
19.0504952014
 30
0.0
 10
13.8775548052
 20
19.0515625656
 30
0.0
 10
13.8821622846
 20
19.0526049583
 30
0.0
 10
13.8841186039
 20
19.0531644344
 30
0.0
 10
13.8849838737
 20
19.0534616349
 30
0.0
  0
SPLINE
  5
515
100
AcDbEntity
  8
0
100
AcDbSpline
 62
7
  6
CONTINUOUS
 70
0
 71
3
 72
11
 73
7
 74
0
 42
0.0000001
 43
0.0000001
 44
0.0000000001
 40
0.0
 40
0.0
 40
0.0
 40
0.0
 40
0.3765735087
 40
0.665122351
 40
0.8676236593
 40
1.0
 40
1.0
 40
1.0
 40
1.0
 10
13.8849838737
 20
19.0534616349
 30
0.0
 10
13.8854582221
 20
19.0536245628
 30
0.0
 10
13.8862886278
 20
19.0539347954
 30
0.0
 10
13.8873249426
 20
19.0544579545
 30
0.0
 10
13.8880021836
 20
19.0549368851
 30
0.0
 10
13.8882471114
 20
19.0553591554
 30
0.0
 10
13.8882473856
 20
19.0555354642
 30
0.0
  0
SPLINE
  5
516
100
AcDbEntity
  8
0
100
AcDbSpline
 62
7
  6
CONTINUOUS
 70
0
 71
3
 72
16
 73
12
 74
0
 42
0.0000001
 43
0.0000001
 44
0.0000000001
 40
0.0
 40
0.0
 40
0.0
 40
0.0
 40
0.1221089855
 40
0.2650371463
 40
0.4180210508
 40
0.5708467546
 40
0.7136753334
 40
0.8376650444
 40
0.9348981788
 40
0.971739519
 40
1.0
 40
1.0
 40
1.0
 40
1.0
 10
13.9957189672
 20
19.0494036089
 30
0.0
 10
13.9973080499
 20
19.0494036089
 30
0.0
 10
14.0007569031
 20
19.0495287073
 30
0.0
 10
14.0061818688
 20
19.0499441326
 30
0.0
 10
14.0119863955
 20
19.0505949898
 30
0.0
 10
14.0177665873
 20
19.0514230476
 30
0.0
 10
14.0231460593
 20
19.0523719617
 30
0.0
 10
14.0277774904
 20
19.0533716697
 30
0.0
 10
14.0310237023
 20
19.0542495396
 30
0.0
 10
14.0330135668
 20
19.0549604724
 30
0.0
 10
14.0337892462
 20
19.0553071325
 30
0.0
 10
14.0341108331
 20
19.0554855646
 30
0.0
  0
SPLINE
  5
517
100
AcDbEntity
  8
0
100
AcDbSpline
 62
7
  6
CONTINUOUS
 70
0
 71
3
 72
9
 73
5
 74
0
 42
0.0000001
 43
0.0000001
 44
0.0000000001
 40
0.0
 40
0.0
 40
0.0
 40
0.0
 40
0.6300338715
 40
1.0
 40
1.0
 40
1.0
 40
1.0
 10
14.0341108331
 20
19.0554855646
 30
0.0
 10
14.0343432207
 20
19.0556145045
 30
0.0
 10
14.0346989826
 20
19.0558230471
 30
0.0
 10
14.034981082
 20
19.0562027939
 30
0.0
 10
14.0349816207
 20
19.0563588528
 30
0.0
  0
SPLINE
  5
518
100
AcDbEntity
  8
0
100
AcDbSpline
 62
7
  6
CONTINUOUS
 70
0
 71
3
 72
13
 73
9
 74
0
 42
0.0000001
 43
0.0000001
 44
0.0000000001
 40
0.0
 40
0.0
 40
0.0
 40
0.0
 40
0.0911069473
 40
0.2103511678
 40
0.4972922312
 40
0.7847215479
 40
0.9053289768
 40
1.0
 40
1.0
 40
1.0
 40
1.0
 10
14.104657683
 20
19.0494036089
 30
0.0
 10
14.1058785785
 20
19.0494036089
 30
0.0
 10
14.1086963533
 20
19.049546548
 30
0.0
 10
14.1153336036
 20
19.0501466967
 30
0.0
 10
14.1245470709
 20
19.051406763
 30
0.0
 10
14.1337259139
 20
19.0530011544
 30
0.0
 10
14.1403119221
 20
19.0544197161
 30
0.0
 10
14.1431108117
 20
19.055126008
 30
0.0
 10
14.1443274499
 20
19.0554855646
 30
0.0
  0
SPLINE
  5
519
100
AcDbEntity
  8
0
100
AcDbSpline
 62
7
  6
CONTINUOUS
 70
0
 71
3
 72
11
 73
7
 74
0
 42
0.0000001
 43
0.0000001
 44
0.0000000001
 40
0.0
 40
0.0
 40
0.0
 40
0.0
 40
0.4025563282
 40
0.7036704653
 40
0.9004998643
 40
1.0
 40
1.0
 40
1.0
 40
1.0
 10
14.1443274499
 20
19.0554855646
 30
0.0
 10
14.1447962629
 20
19.0556241142
 30
0.0
 10
14.1456070166
 20
19.0558754743
 30
0.0
 10
14.1466456641
 20
19.0562794307
 30
0.0
 10
14.147263136
 20
19.0565817447
 30
0.0
 10
14.1475787353
 20
19.0568664542
 30
0.0
 10
14.1475759579
 20
19.0569872535
 30
0.0
  0
SPLINE
  5
51A
100
AcDbEntity
  8
0
100
AcDbSpline
 62
9
  6
CONTINUOUS
 70
0
 71
3
 72
34
 73
30
 74
0
 42
0.0000001
 43
0.0000001
 44
0.0000000001
 40
0.0
 40
0.0
 40
0.0
 40
0.0
 40
0.0000415399
 40
0.000168388
 40
0.0003807764
 40
0.0006789235
 40
0.0015333598
 40
0.0027334268
 40
0.004280853
 40
0.0061773662
 40
0.0084246943
 40
0.0110245651
 40
0.0172888459
 40
0.0249840311
 40
0.0341239433
 40
0.044722406
 40
0.0568025892
 40
0.0704250495
 40
0.1025764243
 40
0.1417358167
 40
0.1884625689
 40
0.2434572275
 40
0.3079849742
 40
0.3836474756
 40
0.4728279583
 40
0.5783133965
 40
0.703091144
 40
0.8462191273
 40
1.0
 40
1.0
 40
1.0
 40
1.0
 10
6.8626047658
 20
9.2943495521
 30
0.0
 10
6.8626072193
 20
9.2943536598
 30
0.0
 10
6.8625700134
 20
9.2943428931
 30
0.0
 10
6.8625436121
 20
9.2943503312
 30
0.0
 10
6.8624603951
 20
9.2943407489
 30
0.0
 10
6.8623094936
 20
9.2943351745
 30
0.0
 10
6.8620344499
 20
9.2943167995
 30
0.0
 10
6.8616224946
 20
9.2942934764
 30
0.0
 10
6.861087683
 20
9.2942611481
 30
0.0
 10
6.8604336375
 20
9.2942221797
 30
0.0
 10
6.8596581712
 20
9.2941756844
 30
0.0
 10
6.8583806737
 20
9.2940991915
 30
0.0
 10
6.8564767265
 20
9.293985259
 30
0.0
 10
6.8538208467
 20
9.2938268258
 30
0.0
 10
6.8506665788
 20
9.2936393631
 30
0.0
 10
6.847008082
 20
9.2934228634
 30
0.0
 10
6.8428341112
 20
9.2931770254
 30
0.0
 10
6.8361817713
 20
9.2927882061
 30
0.0
 10
6.8264152245
 20
9.2922260719
 30
0.0
 10
6.8128409432
 20
9.2914631623
 30
0.0
 10
6.7966384112
 20
9.2905756608
 30
0.0
 10
6.7775168378
 20
9.289555317
 30
0.0
 10
6.755065667
 20
9.2883854554
 30
0.0
 10
6.7286811006
 20
9.287033355
 30
0.0
 10
6.6975893022
 20
9.2853596087
 30
0.0
 10
6.6608575625
 20
9.2832199903
 30
0.0
 10
6.6179514151
 20
9.2802316506
 30
0.0
 10
6.5696088511
 20
9.2754078353
 30
0.0
 10
6.5357280454
 20
9.270733946
 30
0.0
 10
6.5181675793
 20
9.2684169759
 30
0.0
  0
SPLINE
  5
51B
100
AcDbEntity
  8
0
100
AcDbSpline
 62
9
  6
CONTINUOUS
 70
0
 71
3
 72
9
 73
5
 74
0
 42
0.0000001
 43
0.0000001
 44
0.0000000001
 40
0.0
 40
0.0
 40
0.0
 40
0.0
 40
0.5029590495
 40
1.0
 40
1.0
 40
1.0
 40
1.0
 10
10.2369858044
 20
12.8872238912
 30
0.0
 10
10.2266037371
 20
12.8872238912
 30
0.0
 10
10.205943941
 20
12.8859433091
 30
0.0
 10
10.185590079
 20
12.8821504368
 30
0.0
 10
10.1756505184
 20
12.8796066584
 30
0.0
  0
SPLINE
  5
51C
100
AcDbEntity
  8
0
100
AcDbSpline
 62
9
  6
CONTINUOUS
 70
0
 71
3
 72
10
 73
6
 74
0
 42
0.0000001
 43
0.0000001
 44
0.0000000001
 40
0.0
 40
0.0
 40
0.0
 40
0.0
 40
0.2685790774
 40
0.5261260511
 40
1.0
 40
1.0
 40
1.0
 40
1.0
 10
10.1756505184
 20
12.8796066584
 30
0.0
 10
10.1662821799
 20
12.8772090699
 30
0.0
 10
10.1481892804
 20
12.8713432167
 30
0.0
 10
10.1156962339
 20
12.8557459519
 30
0.0
 10
10.0944491207
 20
12.8391248047
 30
0.0
 10
10.0833029533
 20
12.8262068283
 30
0.0
  0
SPLINE
  5
51D
100
AcDbEntity
  8
0
100
AcDbSpline
 62
9
  6
CONTINUOUS
 70
0
 71
3
 72
9
 73
5
 74
0
 42
0.0000001
 43
0.0000001
 44
0.0000000001
 40
0.0
 40
0.0
 40
0.0
 40
0.0
 40
0.5089575228
 40
1.0
 40
1.0
 40
1.0
 40
1.0
 10
10.077458697
 20
12.8188970735
 30
0.0
 10
10.0740976631
 20
12.8143467585
 30
0.0
 10
10.0681162761
 20
12.8049244501
 30
0.0
 10
10.0636601325
 20
12.7946820075
 30
0.0
 10
10.0619115627
 20
12.7895117883
 30
0.0
  0
SPLINE
  5
51E
100
AcDbEntity
  8
0
100
AcDbSpline
 62
9
  6
CONTINUOUS
 70
0
 71
3
 72
9
 73
5
 74
0
 42
0.0000001
 43
0.0000001
 44
0.0000000001
 40
0.0
 40
0.0
 40
0.0
 40
0.0
 40
0.5032729801
 40
1.0
 40
1.0
 40
1.0
 40
1.0
 10
10.0619115627
 20
12.7895117883
 30
0.0
 10
10.0604669299
 20
12.785240258
 30
0.0
 10
10.0581884321
 20
12.7765389697
 30
0.0
 10
10.0572080044
 20
12.7675961088
 30
0.0
 10
10.0570502735
 20
12.7631483494
 30
0.0
  0
SPLINE
  5
51F
100
AcDbEntity
  8
0
100
AcDbSpline
 62
9
  6
CONTINUOUS
 70
0
 71
3
 72
9
 73
5
 74
0
 42
0.0000001
 43
0.0000001
 44
0.0000000001
 40
0.0
 40
0.0
 40
0.0
 40
0.0
 40
0.5034787562
 40
1.0
 40
1.0
 40
1.0
 40
1.0
 10
10.2369858044
 20
12.5351985347
 30
0.0
 10
10.2189248014
 20
12.5351985347
 30
0.0
 10
10.183018546
 20
12.5329458386
 30
0.0
 10
10.1476699409
 20
12.5261969399
 30
0.0
 10
10.1304418029
 20
12.5216761051
 30
0.0
  0
SPLINE
  5
520
100
AcDbEntity
  8
0
100
AcDbSpline
 62
9
  6
CONTINUOUS
 70
0
 71
3
 72
31
 73
27
 74
0
 42
0.0000001
 43
0.0000001
 44
0.0000000001
 40
0.0
 40
0.0
 40
0.0
 40
0.0
 40
0.0002649841
 40
0.0005959035
 40
0.0010589304
 40
0.0023807739
 40
0.0042294496
 40
0.0066038928
 40
0.0095030386
 40
0.0129258224
 40
0.0168711798
 40
0.0263253577
 40
0.0378570588
 40
0.0514577715
 40
0.067118986
 40
0.084829796
 40
0.1045704573
 40
0.1500542129
 40
0.2033960173
 40
0.2644216387
 40
0.3329438173
 40
0.4087232743
 40
0.4915077709
 40
0.5810450934
 40
0.7791589035
 40
1.0
 40
1.0
 40
1.0
 40
1.0
 10
14.134325857
 20
12.0662410714
 30
0.0
 10
14.1343078159
 20
12.0662528379
 30
0.0
 10
14.1342538699
 20
12.06623312
 30
0.0
 10
14.1341706539
 20
12.0662417359
 30
0.0
 10
14.1339970663
 20
12.0662337097
 30
0.0
 10
14.1337029511
 20
12.0662337719
 30
0.0
 10
14.1332516921
 20
12.0662256118
 30
0.0
 10
14.1326730411
 20
12.0662186401
 30
0.0
 10
14.1319661403
 20
12.0662090761
 30
0.0
 10
14.1311316664
 20
12.0661984361
 30
0.0
 10
14.1297643698
 20
12.0661811716
 30
0.0
 10
14.127738005
 20
12.0661565377
 30
0.0
 10
14.1249268395
 20
12.0661238388
 30
0.0
 10
14.1216111559
 20
12.0660870988
 30
0.0
 10
14.1177932135
 20
12.0660468926
 30
0.0
 10
14.1134761925
 20
12.0660038061
 30
0.0
 10
14.106735151
 20
12.065939803
 30
0.0
 10
14.0970979321
 20
12.0658549516
 30
0.0
 10
14.0841049337
 20
12.0657505421
 30
0.0
 10
14.0692392483
 20
12.0656417083
 30
0.0
 10
14.0525496994
 20
12.0655309445
 30
0.0
 10
14.0340914429
 20
12.0654224414
 30
0.0
 10
14.0139249209
 20
12.0653203356
 30
0.0
 10
13.9838145221
 20
12.0651940809
 30
0.0
 10
13.9424821435
 20
12.0650789159
 30
0.0
 10
13.9084276195
 20
12.0650431563
 30
0.0
 10
13.8904766708
 20
12.0650394829
 30
0.0
  0
SPLINE
  5
521
100
AcDbEntity
  8
0
100
AcDbSpline
 62
9
  6
CONTINUOUS
 70
0
 71
3
 72
14
 73
10
 74
0
 42
0.0000001
 43
0.0000001
 44
0.0000000001
 40
0.0
 40
0.0
 40
0.0
 40
0.0
 40
0.0309280107
 40
0.0928882561
 40
0.184600282
 40
0.3041623123
 40
0.4487192432
 40
0.6152869567
 40
1.0
 40
1.0
 40
1.0
 40
1.0
 10
14.0510364518
 20
20.9033197051
 30
0.0
 10
14.0510364518
 20
20.9027237712
 30
0.0
 10
14.0509124137
 20
20.9009364424
 30
0.0
 10
14.0506811693
 20
20.8973883179
 30
0.0
 10
14.0502742999
 20
20.8921385322
 30
0.0
 10
14.0497340005
 20
20.8853038394
 30
0.0
 10
14.0490562355
 20
20.8770327973
 30
0.0
 10
14.0479407042
 20
20.8636716337
 30
0.0
 10
14.0470347041
 20
20.853087998
 30
0.0
 10
14.046395944
 20
20.8457027571
 30
0.0
  0
SPLINE
  5
522
100
AcDbEntity
  8
0
100
AcDbSpline
 62
9
  6
CONTINUOUS
 70
0
 71
3
 72
9
 73
5
 74
0
 42
0.0000001
 43
0.0000001
 44
0.0000000001
 40
0.0
 40
0.0
 40
0.0
 40
0.0
 40
0.2579984905
 40
1.0
 40
1.0
 40
1.0
 40
1.0
 10
10.2369858044
 20
12.8287450711
 30
0.0
 10
10.2482474842
 20
12.8287450711
 30
0.0
 10
10.2918293952
 20
12.8263476403
 30
0.0
 10
10.3351646211
 20
12.8144812408
 30
0.0
 10
10.3640366632
 20
12.7998040497
 30
0.0
  0
SPLINE
  5
523
100
AcDbEntity
  8
0
100
AcDbSpline
 62
9
  6
CONTINUOUS
 70
0
 71
3
 72
11
 73
7
 74
0
 42
0.0000001
 43
0.0000001
 44
0.0000000001
 40
0.0
 40
0.0
 40
0.0
 40
0.0
 40
0.2723194284
 40
0.5293092677
 40
0.7711722445
 40
1.0
 40
1.0
 40
1.0
 40
1.0
 10
10.3640366632
 20
12.7998040497
 30
0.0
 10
10.3740193186
 20
12.7947293362
 30
0.0
 10
10.392749999
 20
12.7834429328
 30
0.0
 10
10.4169887349
 20
12.7627461007
 30
0.0
 10
10.4358584133
 20
12.7392839271
 30
0.0
 10
10.4446555819
 20
12.7218282079
 30
0.0
 10
10.4478533034
 20
12.7129782019
 30
0.0
  0
SPLINE
  5
524
100
AcDbEntity
  8
0
100
AcDbSpline
 62
7
  6
CONTINUOUS
 70
0
 71
3
 72
13
 73
9
 74
0
 42
0.0000001
 43
0.0000001
 44
0.0000000001
 40
0.0
 40
0.0
 40
0.0
 40
0.0
 40
0.4047037653
 40
0.5699716101
 40
0.7087543585
 40
0.8200471104
 40
0.9035418357
 40
1.0
 40
1.0
 40
1.0
 40
1.0
 10
13.1485718835
 20
18.9903851185
 30
0.0
 10
13.1494132337
 20
18.9903851185
 30
0.0
 10
13.1505984855
 20
18.9904098934
 30
0.0
 10
13.1520686071
 20
18.9905338714
 30
0.0
 10
13.152921721
 20
18.990648509
 30
0.0
 10
13.1536080091
 20
18.9908048923
 30
0.0
 10
13.1541594817
 20
18.9909831655
 30
0.0
 10
13.1545261569
 20
18.9912767481
 30
0.0
 10
13.1545251631
 20
18.9914772752
 30
0.0
  0
SPLINE
  5
525
100
AcDbEntity
  8
0
100
AcDbSpline
 62
7
  6
CONTINUOUS
 70
0
 71
3
 72
13
 73
9
 74
0
 42
0.0000001
 43
0.0000001
 44
0.0000000001
 40
0.0
 40
0.0
 40
0.0
 40
0.0
 40
0.0967606562
 40
0.220237426
 40
0.5103384289
 40
0.7939799512
 40
0.9104883228
 40
1.0
 40
1.0
 40
1.0
 40
1.0
 10
13.9218955826
 20
18.9903851185
 30
0.0
 10
13.923189865
 20
18.9903851185
 30
0.0
 10
13.9261349189
 20
18.9905251649
 30
0.0
 10
13.9329355105
 20
18.9911236851
 30
0.0
 10
13.9421810994
 20
18.9923798988
 30
0.0
 10
13.9512788786
 20
18.9939773005
 30
0.0
 10
13.9576727329
 20
18.9953994315
 30
0.0
 10
13.9603389587
 20
18.9961056955
 30
0.0
 10
13.9614797609
 20
18.996469211
 30
0.0
  0
SPLINE
  5
526
100
AcDbEntity
  8
0
100
AcDbSpline
 62
7
  6
CONTINUOUS
 70
0
 71
3
 72
11
 73
7
 74
0
 42
0.0000001
 43
0.0000001
 44
0.0000000001
 40
0.0
 40
0.0
 40
0.0
 40
0.0
 40
0.3974493744
 40
0.6954069764
 40
0.8929209609
 40
1.0
 40
1.0
 40
1.0
 40
1.0
 10
13.9614797609
 20
18.996469211
 30
0.0
 10
13.9618771284
 20
18.9965958317
 30
0.0
 10
13.9625661215
 20
18.996827106
 30
0.0
 10
13.9634391782
 20
18.9971999468
 30
0.0
 10
13.9639757367
 20
18.9974918369
 30
0.0
 10
13.9642240348
 20
18.9977619777
 30
0.0
 10
13.9642231839
 20
18.9978743352
 30
0.0
  0
SPLINE
  5
527
100
AcDbEntity
  8
0
100
AcDbSpline
 62
9
  6
CONTINUOUS
 70
0
 71
3
 72
19
 73
15
 74
0
 42
0.0000001
 43
0.0000001
 44
0.0000000001
 40
0.0
 40
0.0
 40
0.0
 40
0.0
 40
0.1921193442
 40
0.3779048721
 40
0.5491501685
 40
0.6995213741
 40
0.8234412593
 40
0.8740742849
 40
0.9164727668
 40
0.9502110624
 40
0.9751507243
 40
0.9843447845
 40
0.9914188511
 40
1.0
 40
1.0
 40
1.0
 40
1.0
 10
14.0435192264
 20
20.8129297058
 30
0.0
 10
14.0380212309
 20
20.8134166608
 30
0.0
 10
14.0272129154
 20
20.8144485604
 30
0.0
 10
14.0115288478
 20
20.8161620688
 30
0.0
 10
13.9970634805
 20
20.8179726667
 30
0.0
 10
13.9843939682
 20
20.8198018852
 30
0.0
 10
13.9751892216
 20
20.821366117
 30
0.0
 10
13.969080243
 20
20.822607928
 30
0.0
 10
13.9655330916
 20
20.8234327518
 30
0.0
 10
13.9627322644
 20
20.8242143584
 30
0.0
 10
13.9608940366
 20
20.8248527794
 30
0.0
 10
13.9598151201
 20
20.825371901
 30
0.0
 10
13.959228594
 20
20.8257342961
 30
0.0
 10
13.9588522829
 20
20.8261113866
 30
0.0
 10
13.9588522829
 20
20.8263579198
 30
0.0
  0
SPLINE
  5
528
100
AcDbEntity
  8
0
100
AcDbSpline
 62
9
  6
CONTINUOUS
 70
0
 71
3
 72
19
 73
15
 74
0
 42
0.0000001
 43
0.0000001
 44
0.0000000001
 40
0.0
 40
0.0
 40
0.0
 40
0.0
 40
0.0085811489
 40
0.0156552155
 40
0.0248492757
 40
0.0497889376
 40
0.0835272332
 40
0.1259257151
 40
0.1765587407
 40
0.3004786259
 40
0.4508498315
 40
0.6220951279
 40
0.8078806558
 40
1.0
 40
1.0
 40
1.0
 40
1.0
 10
13.0631422544
 20
20.8263579198
 30
0.0
 10
13.0631422544
 20
20.8261113866
 30
0.0
 10
13.0627659434
 20
20.8257342961
 30
0.0
 10
13.0621794172
 20
20.825371901
 30
0.0
 10
13.0611005008
 20
20.8248527794
 30
0.0
 10
13.059262273
 20
20.8242143584
 30
0.0
 10
13.0564614458
 20
20.8234327518
 30
0.0
 10
13.0529142943
 20
20.822607928
 30
0.0
 10
13.0468053157
 20
20.821366117
 30
0.0
 10
13.0376005691
 20
20.8198018852
 30
0.0
 10
13.0249310568
 20
20.8179726667
 30
0.0
 10
13.0104656895
 20
20.8161620688
 30
0.0
 10
12.9947816219
 20
20.8144485604
 30
0.0
 10
12.9839733064
 20
20.8134166608
 30
0.0
 10
12.9784753109
 20
20.8129297058
 30
0.0
  0
SPLINE
  5
529
100
AcDbEntity
  8
0
100
AcDbSpline
 62
9
  6
CONTINUOUS
 70
0
 71
3
 72
14
 73
10
 74
0
 42
0.0000001
 43
0.0000001
 44
0.0000000001
 40
0.0
 40
0.0
 40
0.0
 40
0.0
 40
0.3847130433
 40
0.5512807568
 40
0.6958376877
 40
0.815399718
 40
0.9071117439
 40
0.9690719893
 40
1.0
 40
1.0
 40
1.0
 40
1.0
 10
12.9755985933
 20
20.8457027571
 30
0.0
 10
12.9749598333
 20
20.853087998
 30
0.0
 10
12.9740538331
 20
20.8636716337
 30
0.0
 10
12.9729383018
 20
20.8770327973
 30
0.0
 10
12.9722605368
 20
20.8853038394
 30
0.0
 10
12.9717202375
 20
20.8921385322
 30
0.0
 10
12.971313368
 20
20.8973883179
 30
0.0
 10
12.9710821236
 20
20.9009364424
 30
0.0
 10
12.9709580855
 20
20.9027237712
 30
0.0
 10
12.9709580855
 20
20.9033197051
 30
0.0
  0
SPLINE
  5
52A
100
AcDbEntity
  8
0
100
AcDbSpline
 62
9
  6
CONTINUOUS
 70
0
 71
3
 72
16
 73
12
 74
0
 42
0.0000001
 43
0.0000001
 44
0.0000000001
 40
0.0
 40
0.0
 40
0.0
 40
0.0
 40
0.0109039283
 40
0.0307157914
 40
0.059198012
 40
0.096110091
 40
0.19384142
 40
0.3198910741
 40
0.4695838935
 40
0.6372937083
 40
1.0
 40
1.0
 40
1.0
 40
1.0
 10
12.9510364518
 20
20.9015552548
 30
0.0
 10
12.9510364518
 20
20.9012255766
 30
0.0
 10
12.9510868124
 20
20.9002976336
 30
0.0
 10
12.9511944357
 20
20.8985114312
 30
0.0
 10
12.9513771604
 20
20.8959415002
 30
0.0
 10
12.9517439251
 20
20.891023192
 30
0.0
 10
12.9523683073
 20
20.8831658437
 30
0.0
 10
12.9532930782
 20
20.8719119006
 30
0.0
 10
12.9544193045
 20
20.858551568
 30
0.0
 10
12.9561780265
 20
20.8380639561
 30
0.0
 10
12.9575814856
 20
20.8220884316
 30
0.0
 10
12.9585536772
 20
20.8111652555
 30
0.0
  0
SPLINE
  5
52B
100
AcDbEntity
  8
0
100
AcDbSpline
 62
9
  6
CONTINUOUS
 70
0
 71
3
 72
20
 73
16
 74
0
 42
0.0000001
 43
0.0000001
 44
0.0000000001
 40
0.0
 40
0.0
 40
0.0
 40
0.0
 40
0.2114530284
 40
0.4046946081
 40
0.5757300971
 40
0.7209992488
 40
0.7830685474
 40
0.8376313876
 40
0.8843558265
 40
0.9230201017
 40
0.9535804249
 40
0.976101973
 40
0.9844544815
 40
0.9910107751
 40
1.0
 40
1.0
 40
1.0
 40
1.0
 10
12.9261530406
 20
20.8087468865
 30
0.0
 10
12.9224431801
 20
20.8085257564
 30
0.0
 10
12.9153404001
 20
20.8081440743
 30
0.0
 10
12.9052292148
 20
20.8077393102
 30
0.0
 10
12.8962755364
 20
20.8075314302
 30
0.0
 10
12.8896243823
 20
20.807522434
 30
0.0
 10
12.8850223445
 20
20.8076320974
 30
0.0
 10
12.8821537851
 20
20.8077599113
 30
0.0
 10
12.8797000913
 20
20.8079373016
 30
0.0
 10
12.8776736625
 20
20.8081611502
 30
0.0
 10
12.8760830677
 20
20.8084319323
 30
0.0
 10
12.8750352569
 20
20.8087028847
 30
0.0
 10
12.8744284591
 20
20.808969062
 30
0.0
 10
12.8740743461
 20
20.8091832518
 30
0.0
 10
12.8738867336
 20
20.8094376496
 30
0.0
 10
12.8738867336
 20
20.8095956419
 30
0.0
  0
SPLINE
  5
52C
100
AcDbEntity
  8
0
100
AcDbSpline
 62
7
  6
CONTINUOUS
 70
0
 71
3
 72
13
 73
9
 74
0
 42
0.0000001
 43
0.0000001
 44
0.0000000001
 40
0.0
 40
0.0
 40
0.0
 40
0.0
 40
0.4039905194
 40
0.5696849089
 40
0.7090170551
 40
0.8206782453
 40
0.9041566806
 40
1.0
 40
1.0
 40
1.0
 40
1.0
 10
13.9957189672
 20
19.0494036089
 30
0.0
 10
13.9947697895
 20
19.0494036089
 30
0.0
 10
13.9934310237
 20
19.0494317914
 30
0.0
 10
13.9917687529
 20
19.0495706212
 30
0.0
 10
13.9908015199
 20
19.0496991783
 30
0.0
 10
13.9900227875
 20
19.0498739889
 30
0.0
 10
13.9894009946
 20
19.0500740537
 30
0.0
 10
13.9889828111
 20
19.0504000005
 30
0.0
 10
13.9889834716
 20
19.0506251838
 30
0.0
  0
SPLINE
  5
52D
100
AcDbEntity
  8
0
100
AcDbSpline
 62
7
  6
CONTINUOUS
 70
0
 71
3
 72
13
 73
9
 74
0
 42
0.0000001
 43
0.0000001
 44
0.0000000001
 40
0.0
 40
0.0
 40
0.0
 40
0.0
 40
0.3967803648
 40
0.5638576753
 40
0.7054203191
 40
0.8188359148
 40
0.904051731
 40
1.0
 40
1.0
 40
1.0
 40
1.0
 10
13.8537472687
 20
19.0494036089
 30
0.0
 10
13.8521597644
 20
19.0494036089
 30
0.0
 10
13.8499036396
 20
19.0494577778
 30
0.0
 10
13.8470872134
 20
19.0496996506
 30
0.0
 10
13.8454208988
 20
19.0499244273
 30
0.0
 10
13.8440681622
 20
19.050228111
 30
0.0
 10
13.8430082901
 20
19.0505734662
 30
0.0
 10
13.8422464943
 20
19.0510975806
 30
0.0
 10
13.8422472811
 20
19.0514814655
 30
0.0
  0
SPLINE
  5
52E
100
AcDbEntity
  8
0
100
AcDbSpline
 62
7
  6
CONTINUOUS
 70
0
 71
3
 72
12
 73
8
 74
0
 42
0.0000001
 43
0.0000001
 44
0.0000000001
 40
0.0
 40
0.0
 40
0.0
 40
0.0
 40
0.2684780419
 40
0.5520302813
 40
0.8074850718
 40
0.9134193654
 40
1.0
 40
1.0
 40
1.0
 40
1.0
 10
13.1682472687
 20
19.0494036089
 30
0.0
 10
13.1654156516
 20
19.0494036089
 30
0.0
 10
13.1595929133
 20
19.0496509217
 30
0.0
 10
13.1511159201
 20
19.0504998448
 30
0.0
 10
13.1443913602
 20
19.0515710385
 30
0.0
 10
13.1397828557
 20
19.052617374
 30
0.0
 10
13.1378289778
 20
19.0531787319
 30
0.0
 10
13.1369659238
 20
19.0534770565
 30
0.0
  0
SPLINE
  5
52F
100
AcDbEntity
  8
0
100
AcDbSpline
 62
7
  6
CONTINUOUS
 70
0
 71
3
 72
11
 73
7
 74
0
 42
0.0000001
 43
0.0000001
 44
0.0000000001
 40
0.0
 40
0.0
 40
0.0
 40
0.0
 40
0.3762312459
 40
0.6645780742
 40
0.8671546801
 40
1.0
 40
1.0
 40
1.0
 40
1.0
 10
13.1369659238
 20
19.0534770565
 30
0.0
 10
13.1364979165
 20
19.0536388287
 30
0.0
 10
13.1356786056
 20
19.0539469042
 30
0.0
 10
13.1346564058
 20
19.0544660718
 30
0.0
 10
13.1339882476
 20
19.0549421636
 30
0.0
 10
13.1337475372
 20
19.0553606286
 30
0.0
 10
13.1337471951
 20
19.0555354731
 30
0.0
  0
SPLINE
  5
530
100
AcDbEntity
  8
0
100
AcDbSpline
 62
7
  6
CONTINUOUS
 70
0
 71
3
 72
16
 73
12
 74
0
 42
0.0000001
 43
0.0000001
 44
0.0000000001
 40
0.0
 40
0.0
 40
0.0
 40
0.0
 40
0.122337511
 40
0.2655551894
 40
0.418833521
 40
0.5718799484
 40
0.7147792966
 40
0.838637919
 40
0.9355005368
 40
0.9720674175
 40
1.0
 40
1.0
 40
1.0
 40
1.0
 10
13.0262755702
 20
19.0494036089
 30
0.0
 10
13.0246818463
 20
19.0494036089
 30
0.0
 10
13.0212226348
 20
19.0495293694
 30
0.0
 10
13.0157814995
 20
19.0499469343
 30
0.0
 10
13.0099606114
 20
19.0506009011
 30
0.0
 10
13.0041670376
 20
19.0514324953
 30
0.0
 10
12.9987802423
 20
19.0523850322
 30
0.0
 10
12.9941501501
 20
19.053387683
 30
0.0
 10
12.9909110947
 20
19.0542673475
 30
0.0
 10
12.988932856
 20
19.0549796489
 30
0.0
 10
12.9881648503
 20
19.0553267327
 30
0.0
 10
12.9878479639
 20
19.0555056055
 30
0.0
  0
SPLINE
  5
531
100
AcDbEntity
  8
0
100
AcDbSpline
 62
7
  6
CONTINUOUS
 70
0
 71
3
 72
9
 73
5
 74
0
 42
0.0000001
 43
0.0000001
 44
0.0000000001
 40
0.0
 40
0.0
 40
0.0
 40
0.0
 40
0.6279220097
 40
1.0
 40
1.0
 40
1.0
 40
1.0
 10
12.9878479639
 20
19.0555056055
 30
0.0
 10
12.9876246999
 20
19.0556316312
 30
0.0
 10
12.9872813159
 20
19.0558369295
 30
0.0
 10
12.9870136929
 20
19.0562069043
 30
0.0
 10
12.9870132384
 20
19.0563588211
 30
0.0
  0
SPLINE
  5
532
100
AcDbEntity
  8
0
100
AcDbSpline
 62
7
  6
CONTINUOUS
 70
0
 71
3
 72
13
 73
9
 74
0
 42
0.0000001
 43
0.0000001
 44
0.0000000001
 40
0.0
 40
0.0
 40
0.0
 40
0.0
 40
0.0912288922
 40
0.210675843
 40
0.4980593727
 40
0.7855208675
 40
0.9058481477
 40
1.0
 40
1.0
 40
1.0
 40
1.0
 10
12.9173368544
 20
19.0494036089
 30
0.0
 10
12.9161121841
 20
19.0494036089
 30
0.0
 10
12.9132851248
 20
19.0495473385
 30
0.0
 10
12.9066260942
 20
19.0501505268
 30
0.0
 10
12.8973876994
 20
19.0514156119
 30
0.0
 10
12.8881905592
 20
19.0530155783
 30
0.0
 10
12.8816038634
 20
19.0544379846
 30
0.0
 10
12.8788110298
 20
19.055145303
 30
0.0
 10
12.877599565
 20
19.0555056055
 30
0.0
  0
SPLINE
  5
533
100
AcDbEntity
  8
0
100
AcDbSpline
 62
7
  6
CONTINUOUS
 70
0
 71
3
 72
11
 73
7
 74
0
 42
0.0000001
 43
0.0000001
 44
0.0000000001
 40
0.0
 40
0.0
 40
0.0
 40
0.0
 40
0.4022888936
 40
0.7031558537
 40
0.8999844552
 40
1.0
 40
1.0
 40
1.0
 40
1.0
 10
12.877599565
 20
19.0555056055
 30
0.0
 10
12.8771403125
 20
19.0556421921
 30
0.0
 10
12.8763460279
 20
19.0558900768
 30
0.0
 10
12.8753294077
 20
19.0562882843
 30
0.0
 10
12.8747235041
 20
19.0565873521
 30
0.0
 10
12.8744159806
 20
19.0568681891
 30
0.0
 10
12.8744183272
 20
19.0569872863
 30
0.0
  0
SPLINE
  5
534
100
AcDbEntity
  8
0
100
AcDbSpline
 62
9
  6
CONTINUOUS
 70
0
 71
3
 72
15
 73
11
 74
0
 42
0.0000001
 43
0.0000001
 44
0.0000000001
 40
0.0
 40
0.0
 40
0.0
 40
0.0
 40
0.1377213364
 40
0.2743304819
 40
0.4079494261
 40
0.5373533667
 40
0.6616611766
 40
0.7802784059
 40
0.8929458753
 40
1.0
 40
1.0
 40
1.0
 40
1.0
 10
10.2369858044
 20
12.5178186496
 30
0.0
 10
10.219370811
 20
12.5178186496
 30
0.0
 10
10.1842571413
 20
12.5159737356
 30
0.0
 10
10.1326210999
 20
12.5078494544
 30
0.0
 10
10.0831890483
 20
12.4944310978
 30
0.0
 10
10.0370558359
 20
12.4760609892
 30
0.0
 10
9.9951985259
 20
12.4530801875
 30
0.0
 10
9.9584705668
 20
12.4259971057
 30
0.0
 10
9.9277030361
 20
12.3953310044
 30
0.0
 10
9.9112291569
 20
12.3723558318
 30
0.0
 10
9.9043134278
 20
12.3605380952
 30
0.0
  0
SPLINE
  5
535
100
AcDbEntity
  8
0
100
AcDbSpline
 62
9
  6
CONTINUOUS
 70
0
 71
3
 72
11
 73
7
 74
0
 42
0.0000001
 43
0.0000001
 44
0.0000000001
 40
0.0
 40
0.0
 40
0.0
 40
0.0
 40
0.2575876354
 40
0.5088029239
 40
0.7555647833
 40
1.0
 40
1.0
 40
1.0
 40
1.0
 10
9.9043134278
 20
12.3605380952
 30
0.0
 10
9.8998826571
 20
12.3529667053
 30
0.0
 10
9.8920135161
 20
12.3374689758
 30
0.0
 10
9.8833876387
 20
12.3131493722
 30
0.0
 10
9.878161332
 20
12.288335682
 30
0.0
 10
9.8769855193
 20
12.2715848343
 30
0.0
 10
9.8769858187
 20
12.2632602083
 30
0.0
  0
LINE
  5
536
100
AcDbEntity
  8
0
100
AcDbLine
 62
9
  6
CONTINUOUS
 10
13.8290338125
 20
11.1658085359
 11
13.7850451347
 21
11.1768361298
  0
SPLINE
  5
537
100
AcDbEntity
  8
0
100
AcDbSpline
 62
9
  6
CONTINUOUS
 70
0
 71
3
 72
9
 73
5
 74
0
 42
0.0000001
 43
0.0000001
 44
0.0000000001
 40
0.0
 40
0.0
 40
0.0
 40
0.0
 40
0.4942911758
 40
1.0
 40
1.0
 40
1.0
 40
1.0
 10
13.2411468814
 20
11.2876563042
 30
0.0
 10
13.2222052147
 20
11.2908423775
 30
0.0
 10
13.1838548947
 20
11.2971134913
 30
0.0
 10
13.1454371682
 20
11.3029653134
 30
0.0
 10
13.1259834653
 20
11.3057460168
 30
0.0
  0
SPLINE
  5
538
100
AcDbEntity
  8
0
100
AcDbSpline
 62
7
  6
CONTINUOUS
 70
0
 71
3
 72
14
 73
10
 74
0
 42
0.0000001
 43
0.0000001
 44
0.0000000001
 40
0.0
 40
0.0
 40
0.0
 40
0.0
 40
0.1163082209
 40
0.2549175324
 40
0.5575381922
 40
0.7015633001
 40
0.8284027578
 40
0.9298588755
 40
1.0
 40
1.0
 40
1.0
 40
1.0
 10
13.1485718835
 20
18.9903851185
 30
0.0
 10
13.1470407866
 20
18.9903851185
 30
0.0
 10
13.1436853146
 20
18.9905150688
 30
0.0
 10
13.1363683935
 20
18.9910997498
 30
0.0
 10
13.1287223562
 20
18.9920990205
 30
0.0
 10
13.1212853774
 20
18.9933966732
 30
0.0
 10
13.1164846198
 20
18.9943993281
 30
0.0
 10
13.112685213
 20
18.9953896468
 30
0.0
 10
13.1105320641
 20
18.9961056771
 30
0.0
 10
13.1096982421
 20
18.9965023014
 30
0.0
  0
SPLINE
  5
539
100
AcDbEntity
  8
0
100
AcDbSpline
 62
7
  6
CONTINUOUS
 70
0
 71
3
 72
9
 73
5
 74
0
 42
0.0000001
 43
0.0000001
 44
0.0000000001
 40
0.0
 40
0.0
 40
0.0
 40
0.0
 40
0.6510657494
 40
1.0
 40
1.0
 40
1.0
 40
1.0
 10
13.1096982421
 20
18.9965023014
 30
0.0
 10
13.1093910035
 20
18.9966484456
 30
0.0
 10
13.1089455753
 20
18.9968687639
 30
0.0
 10
13.1085268871
 20
18.9973036713
 30
0.0
 10
13.1085258623
 20
18.9974860102
 30
0.0
  0
ENDSEC
  0
SECTION
  2
OBJECTS
  0
DICTIONARY
  5
C
100
AcDbDictionary
280
0
281
1
  3
ACAD_GROUP
350
D
  3
ACAD_MLINESTYLE
350
17
  3
ACAD_LAYOUT
350
1A
  3
ACAD_PLOTSETTINGS
350
19
  3
ACAD_PLOTSTYLENAME
350
E
  0
DICTIONARY
  5
D
102
{ACAD_REACTORS
330
C
102
}
100
AcDbDictionary
280
0
281
1
  0
ACDBDICTIONARYWDFLT
  5
E
102
{ACAD_REACTORS
330
C
102
}
100
AcDbDictionary
281
1
  3
Normal
350
F
100
AcDbDictionaryWithDefault
340
F
  0
DICTIONARY
  5
17
102
{ACAD_REACTORS
330
C
102
}
100
AcDbDictionary
280
0
281
1
  3
Standard
350
18
  0
DICTIONARY
  5
19
102
{ACAD_REACTORS
330
C
102
}
100
AcDbDictionary
281
1
  0
DICTIONARY
  5
1A
102
{ACAD_REACTORS
330
C
102
}
100
AcDbDictionary
281
1
  3
Model
350
53A
  3
Layout1
350
53B
  0
ACDBPLACEHOLDER
  5
F
102
{ACAD_REACTORS
330
E
102
}
  0
MLINESTYLE
  5
18
102
{ACAD_REACTORS
330
17
102
}
100
AcDbMlineStyle
  2
STANDARD
 70
0
  3

 62
256
 51
90.0
 52
90.0
 71
2
 49
0.5
 62
256
  6
BYLAYER
 49
-0.5
 62
256
  6
BYLAYER
  0
LAYOUT
  5
53A
102
{ACAD_REACTORS
330
1A
102
}
100
AcDbPlotSettings
  1

  2
none_device
  4
ANSI_C_(22.00_x_17.00_Inches)
  6

 40
0.0
 41
0.0
 42
0.0
 43
0.0
 44
558.8
 45
431.8
 46
0.0
 47
0.0
 48
0.0
 49
0.0
140
0.0
141
0.0
142
1.0
143
1.0
 70
1024
 72
0
 73
0
 74
0
  7

 75
0
147
1.0
148
0.0
149
0.0
100
AcDbLayout
  1
Model
 70
0
 71
0
 10
0.0
 20
0.0
 11
22.0
 21
17.0
 12
0.0
 22
0.0
 32
0.0
 14
0.0
 24
0.0
 34
0.0
 15
0.0
 25
0.0
 35
0.0
146
0.0
 13
0.0
 23
0.0
 33
0.0
 16
1.0
 26
0.0
 36
0.0
 17
0.0
 27
1.0
 37
0.0
 76
0
330
202
345
0
346
0
  0
LAYOUT
  5
53B
102
{ACAD_REACTORS
330
1A
102
}
100
AcDbPlotSettings
  1

  2
none_device
  4
ANSI_C_(22.00_x_17.00_Inches)
  6

 40
0.0
 41
0.0
 42
0.0
 43
0.0
 44
558.8
 45
431.8
 46
0.0
 47
0.0
 48
0.0
 49
0.0
140
0.0
141
0.0
142
1.0
143
1.0
 70
0
 72
0
 73
0
 74
0
  7

 75
0
147
1.0
148
0.0
149
0.0
100
AcDbLayout
  1
Layout1
 70
0
 71
1
 10
0.0
 20
0.0
 11
22.0
 21
17.0
 12
0.0
 22
0.0
 32
0.0
 14
0.0
 24
0.0
 34
0.0
 15
0.0
 25
0.0
 35
0.0
146
0.0
 13
0.0
 23
0.0
 33
0.0
 16
1.0
 26
0.0
 36
0.0
 17
0.0
 27
1.0
 37
0.0
 76
0
330
203
345
0
346
0
  0
ENDSEC
  0
EOF
