999
DXF file: 2413_right.dxf
999
Pro/ENGINEER 2018400 by Parametric Technology Corporation
  0
SECTION
  2
HEADER
  9
$ACADVER
  1
AC1027
  9
$DWGCODEPAGE
  3
ANSI_1252
  9
$EXTMAX
 10
11.0
 20
8.5
 30
0.0
  9
$EXTMIN
 10
0.0
 20
0.0
 30
0.0
  9
$LIMMIN
 10
0.0
 20
0.0
  9
$LIMMAX
 10
11.0
 20
8.5
  9
$VIEWCTR
 10
5.5
 20
4.25
  9
$VIEWSIZE
 40
8.5
  9
$CLAYER
  8
0
  9
$LTSCALE
 40
0.605
  9
$CELTYPE
  6
BYLAYER
  9
$DIMSCALE
 40
1.0
  9
$DIMASZ
 40
0.1
  9
$DIMEXO
 40
0.0625
  9
$DIMDLI
 40
0.418
  9
$DIMEXE
 40
0.125
  9
$DIMCEN
 40
0.099
  9
$DIMLFAC
 40
1.0
  9
$DIMBLK
  1
_FILLED
  9
$DIMALT
 70
1
  9
$DIMALTD
 70
1
  9
$DIMALTTD
 70
2
  9
$DIMALTF
 40
25.4
  9
$DIMTXT
 40
0.08
  9
$DIMTOL
 70
1
  9
$DIMLIM
 70
0
  9
$DIMTFAC
 40
1.0
  9
$DIMTP
 40
0.01
  9
$DIMTM
 40
0.01
  9
$DIMGAP
 40
0.09
  9
$DIMDSEP
 70
46
  9
$AUNITS
 70
0
  9
$PDMODE
 70
3
  9
$PDSIZE
 40
0.3125
  9
$HANDSEED
  5
242
  9
$TILEMODE
 70
1
  9
$MEASUREMENT
 70
0
  9
$INSUNITS
 70
1
  0
ENDSEC
  0
SECTION
  2
CLASSES
  0
CLASS
  1
ACDBDICTIONARYWDFLT
  2
AcDbDictionaryWithDefault
  3
AutoCAD 2000
 90
0
 91
1
280
0
281
0
  0
CLASS
  1
ACDBPLACEHOLDER
  2
AcDbPlaceHolder
  3
AutoCAD 2000
 90
0
 91
1
280
0
281
0
  0
CLASS
  1
LAYOUT
  2
AcDbLayout
  3
AutoCAD 2000
 90
0
 91
0
280
0
281
0
  0
ENDSEC
  0
SECTION
  2
TABLES
  0
TABLE
  2
VPORT
  5
8
100
AcDbSymbolTable
 70
2
  0
VPORT
  5
1F4
100
AcDbSymbolTableRecord
100
AcDbViewportTableRecord
  2
*ACTIVE
 70
0
 10
0.0
 20
0.0
 11
1.0
 21
1.0
 12
5.5
 22
4.25
 13
0.0
 23
0.0
 14
1.0
 24
1.0
 15
0.0
 25
0.0
 16
0.0
 26
0.0
 36
1.0
 17
0.0
 27
0.0
 37
0.0
 40
8.5
 41
1.2941176471
 42
50.0
 43
0.0
 44
0.0
 50
0.0
 51
0.0
 71
0
 72
100
 73
1
 74
1
 75
0
 76
0
 77
0
 78
0
  0
ENDTAB
  0
TABLE
  2
LTYPE
  5
5
100
AcDbSymbolTable
 70
6
  0
LTYPE
  5
14
100
AcDbSymbolTableRecord
100
AcDbLinetypeTableRecord
  2
BYBLOCK
 70
0
  3

 72
65
 73
0
 40
0.0
  0
LTYPE
  5
15
100
AcDbSymbolTableRecord
100
AcDbLinetypeTableRecord
  2
BYLAYER
 70
0
  3

 72
65
 73
0
 40
0.0
  0
LTYPE
  5
16
100
AcDbSymbolTableRecord
100
AcDbLinetypeTableRecord
  2
CONTINUOUS
 70
64
  3
Solid line
 72
65
 73
0
 40
0.0
  0
LTYPE
  5
1F5
100
AcDbSymbolTableRecord
100
AcDbLinetypeTableRecord
  2
CENTER
 70
64
  3
____ _ ____ _ ____ _ ____ _ ____ _ ____ _ ____
 72
65
 73
4
 40
0.6
 49
0.375
 74
0
 49
-0.075
 74
0
 49
0.075
 74
0
 49
-0.075
 74
0
  0
LTYPE
  5
1F6
100
AcDbSymbolTableRecord
100
AcDbLinetypeTableRecord
  2
HIDDEN
 70
64
  3
- - - - - - - - - - - - - - - - - - - -
 72
65
 73
2
 40
0.2
 49
0.1
 74
0
 49
-0.1
 74
0
  0
LTYPE
  5
1F7
100
AcDbSymbolTableRecord
100
AcDbLinetypeTableRecord
  2
PHANTOM
 70
64
  3
_____ _ _ _____ _ _ _____ _ _ _____
 72
65
 73
6
 40
0.8
 49
0.45
 74
0
 49
-0.05
 74
0
 49
0.1
 74
0
 49
-0.05
 74
0
 49
0.1
 74
0
 49
-0.05
 74
0
  0
LTYPE
  5
1F8
100
AcDbSymbolTableRecord
100
AcDbLinetypeTableRecord
  2
DOT
 70
64
  3
. . . . . . . . . . . . . . . . . . . .
 72
65
 73
2
 40
0.2
 49
0.1
 74
0
 49
-0.1
 74
0
  0
LTYPE
  5
1F9
100
AcDbSymbolTableRecord
100
AcDbLinetypeTableRecord
  2
DASHED
 70
64
  3
- - - - - - - - - - - - - - - - - - - -
 72
65
 73
2
 40
0.2
 49
0.1
 74
0
 49
-0.1
 74
0
  0
ENDTAB
  0
TABLE
  2
LAYER
  5
2
100
AcDbSymbolTable
 70
36
  0
LAYER
  5
10
100
AcDbSymbolTableRecord
100
AcDbLayerTableRecord
  2
0
 70
0
 62
7
  6
CONTINUOUS
370
-3
390
F
  0
LAYER
  5
1FA
100
AcDbSymbolTableRecord
100
AcDbLayerTableRecord
  2
DEFAULT_1
 70
0
 62
7
  6
CENTER
370
-3
390
F
  0
LAYER
  5
1FB
100
AcDbSymbolTableRecord
100
AcDbLayerTableRecord
  2
DEFAULT_2
 70
0
 62
8
  6
HIDDEN
370
-3
390
F
  0
LAYER
  5
1FC
100
AcDbSymbolTableRecord
100
AcDbLayerTableRecord
  2
DEFAULT_3
 70
0
 62
7
  6
PHANTOM
370
-3
390
F
  0
LAYER
  5
1FD
100
AcDbSymbolTableRecord
100
AcDbLayerTableRecord
  2
DEFAULT_COORDINATE_SYSTEM
 70
0
 62
7
  6
CONTINUOUS
370
-3
390
F
  0
LAYER
  5
1FE
100
AcDbSymbolTableRecord
100
AcDbLayerTableRecord
  2
DEFAULT_DATUM_AXES
 70
0
 62
7
  6
CONTINUOUS
370
-3
390
F
  0
LAYER
  5
1FF
100
AcDbSymbolTableRecord
100
AcDbLayerTableRecord
  2
DEFAULT_DATUM_PLANES
 70
0
 62
7
  6
CONTINUOUS
370
-3
390
F
  0
ENDTAB
  0
TABLE
  2
STYLE
  5
3
100
AcDbSymbolTable
 70
1
  0
STYLE
  5
11
100
AcDbSymbolTableRecord
100
AcDbTextStyleTableRecord
  2
STANDARD
 70
0
 40
0.0
 41
0.8
 50
0.0
 71
0
 42
0.2
  3
txt
  4

  0
STYLE
  5
200
100
AcDbSymbolTableRecord
100
AcDbTextStyleTableRecord
  2
TEXTSTYLE_1
 70
0
 40
0.0
 41
0.8
 50
0.0
 71
0
 42
0.2
  3
gdt
  4

  0
ENDTAB
  0
TABLE
  2
VIEW
  5
6
100
AcDbSymbolTable
 70
0
  0
ENDTAB
  0
TABLE
  2
UCS
  5
7
100
AcDbSymbolTable
 70
0
  0
ENDTAB
  0
TABLE
  2
APPID
  5
9
100
AcDbSymbolTable
 70
1
  0
APPID
  5
201
100
AcDbSymbolTableRecord
100
AcDbRegAppTableRecord
  2
ACAD
 70
0
  0
ENDTAB
  0
TABLE
  2
BLOCK_RECORD
  5
1
100
AcDbSymbolTable
 70
0
  0
BLOCK_RECORD
  5
202
100
AcDbSymbolTableRecord
100
AcDbBlockTableRecord
  2
*Model_Space
  0
BLOCK_RECORD
  5
203
100
AcDbSymbolTableRecord
100
AcDbBlockTableRecord
  2
*Paper_Space
  0
BLOCK_RECORD
  5
204
100
AcDbSymbolTableRecord
100
AcDbBlockTableRecord
  2
_FILLED
  0
ENDTAB
  0
TABLE
  2
DIMSTYLE
  5
A
100
AcDbSymbolTable
 70
1
100
AcDbDimStyleTable
 71
0
  0
DIMSTYLE
105
205
100
AcDbSymbolTableRecord
100
AcDbDimStyleTableRecord
  2
STANDARD
 70
0
  3

  4

 40
1.0
 41
0.1
 42
0.0625
 43
0.38
 44
0.125
 45
0.0
 46
0.0
 47
0.01
 48
0.01
140
0.08
141
0.09
142
0.0
143
25.4
144
1.0
145
0.0
146
1.0
147
0.09
 71
1.0
 72
0.0
 73
1
 74
1
 75
0
 76
0
 77
0
 78
4
 79
1
170
1
171
1
172
0
173
0
174
0
175
0
176
0
177
0
178
0
270
2
179
2
271
2
272
2
273
2
274
2
275
0
280
0
281
0
282
0
283
1
284
4
285
0
286
0
287
3
288
0
340
11
278
46
341
204
342
204
343
204
344
204
  0
ENDTAB
  0
ENDSEC
  0
SECTION
  2
BLOCKS
  0
BLOCK
  5
20
100
AcDbEntity
  8
0
100
AcDbBlockBegin
  2
*Model_Space
 70
0
 10
0.0
 20
0.0
 30
0.0
  3
*Model_Space
  1

  0
ENDBLK
  5
21
100
AcDbEntity
  8
0
100
AcDbBlockEnd
  0
BLOCK
  5
1C
100
AcDbEntity
  8
0
100
AcDbBlockBegin
  2
*Paper_Space
 70
0
 10
0.0
 20
0.0
 30
0.0
  3
*Paper_Space
  1

  0
ENDBLK
  5
1D
100
AcDbEntity
  8
0
100
AcDbBlockEnd
  0
BLOCK
  5
206
100
AcDbEntity
  8
0
100
AcDbBlockBegin
  2
_FILLED
 70
64
 10
0.0
 20
0.0
  3
_FILLED
  1

  0
SOLID
  5
207
100
AcDbEntity
  8
0
  6
BYBLOCK
 62
0
100
AcDbTrace
 10
0.0
 20
0.0
 11
-1.0
 21
0.2
 12
-1.0
 22
-0.2
 13
-1.0
 23
-0.2
  0
ENDBLK
  5
208
100
AcDbEntity
  8
0
  6
BYBLOCK
 62
0
100
AcDbBlockEnd
  0
ENDSEC
  0
SECTION
  2
ENTITIES
  0
MTEXT
  5
209
100
AcDbEntity
  8
0
100
AcDbMText
 62
2
  6
CONTINUOUS
  7
STANDARD
 71
3
 72
1
 10
5.0157608696
 20
1.109342726
 30
0.0
 11
1.0
 21
0.0
 31
0.0
 73
2
 44
0.9
  1
SCALE  .375
 40
0.08
 41
0.704
  0
LINE
  5
20A
100
AcDbEntity
  8
0
100
AcDbLine
 62
7
  6
CONTINUOUS
 10
0.0
 20
0.0
 11
0.0
 21
8.5
  0
LINE
  5
20B
100
AcDbEntity
  8
0
100
AcDbLine
 62
7
  6
CONTINUOUS
 10
0.0
 20
0.0
 11
11.0
 21
0.0
  0
LINE
  5
20C
100
AcDbEntity
  8
0
100
AcDbLine
 62
7
  6
CONTINUOUS
 10
0.0
 20
8.5
 11
11.0
 21
8.5
  0
LINE
  5
20D
100
AcDbEntity
  8
0
100
AcDbLine
 62
7
  6
CONTINUOUS
 10
11.0
 20
0.0
 11
11.0
 21
8.5
  0
LINE
  5
20E
100
AcDbEntity
  8
0
100
AcDbLine
 62
7
  6
CONTINUOUS
 10
6.4317361644
 20
1.6089933472
 11
5.7754870724
 21
1.6089933472
  0
LINE
  5
20F
100
AcDbEntity
  8
0
100
AcDbLine
 62
7
  6
CONTINUOUS
 10
5.7754866184
 20
1.6952433472
 11
6.4317366184
 21
1.6952433472
  0
LINE
  5
210
100
AcDbEntity
  8
0
100
AcDbLine
 62
7
  6
CONTINUOUS
 10
5.7829868324
 20
1.7027433472
 11
6.4242364044
 21
1.7027433472
  0
LINE
  5
211
100
AcDbEntity
  8
0
100
AcDbLine
 62
7
  6
CONTINUOUS
 10
3.6421823523
 20
5.8259057875
 11
3.6000040296
 21
5.6432114003
  0
LINE
  5
212
100
AcDbEntity
  8
0
100
AcDbLine
 62
7
  6
CONTINUOUS
 10
3.9618975298
 20
5.7520937228
 11
3.9197192071
 21
5.5693993356
  0
LINE
  5
213
100
AcDbEntity
  8
0
100
AcDbLine
 62
7
  6
CONTINUOUS
 10
6.1562134681
 20
4.0862218838
 11
6.1563005719
 21
4.0862425279
  0
LINE
  5
214
100
AcDbEntity
  8
0
100
AcDbLine
 62
7
  6
CONTINUOUS
 10
6.0642366184
 20
4.0352433472
 11
6.1429866184
 21
4.0352433472
  0
LINE
  5
215
100
AcDbEntity
  8
0
100
AcDbLine
 62
7
  6
CONTINUOUS
 10
6.0567366184
 20
4.0427433472
 11
6.1504866184
 21
4.0427433472
  0
LINE
  5
216
100
AcDbEntity
  8
0
100
AcDbLine
 62
7
  6
CONTINUOUS
 10
6.0509226649
 20
4.0862425279
 11
6.0510150212
 21
4.0862206038
  0
LINE
  5
217
100
AcDbEntity
  8
0
100
AcDbLine
 62
7
  6
CONTINUOUS
 10
5.7754866184
 20
1.6089933472
 11
5.7754866184
 21
1.6952433472
  0
LINE
  5
218
100
AcDbEntity
  8
0
100
AcDbLine
 62
7
  6
CONTINUOUS
 10
5.9395491184
 20
1.7027433472
 11
5.9395491184
 21
4.1472411183
  0
LINE
  5
219
100
AcDbEntity
  8
0
100
AcDbLine
 62
7
  6
CONTINUOUS
 10
5.9395491184
 20
4.4819955759
 11
5.9395491184
 21
5.526768786
  0
LINE
  5
21A
100
AcDbEntity
  8
0
100
AcDbLine
 62
7
  6
CONTINUOUS
 10
6.0492366184
 20
4.5363244195
 11
6.0492366184
 21
4.0957964074
  0
LINE
  5
21B
100
AcDbEntity
  8
0
100
AcDbLine
 62
7
  6
CONTINUOUS
 10
6.0567366184
 20
4.0427433472
 11
6.0567366184
 21
5.2614933472
  0
LINE
  5
21C
100
AcDbEntity
  8
0
100
AcDbLine
 62
7
  6
CONTINUOUS
 10
6.0642366184
 20
4.0352433472
 11
6.0642366184
 21
5.2689933472
  0
LINE
  5
21D
100
AcDbEntity
  8
0
100
AcDbLine
 62
7
  6
CONTINUOUS
 10
6.1429866184
 20
4.0352433472
 11
6.1429866184
 21
5.2689933472
  0
LINE
  5
21E
100
AcDbEntity
  8
0
100
AcDbLine
 62
7
  6
CONTINUOUS
 10
6.1504866184
 20
5.2614933472
 11
6.1504866184
 21
4.0427433472
  0
LINE
  5
21F
100
AcDbEntity
  8
0
100
AcDbLine
 62
7
  6
CONTINUOUS
 10
6.1579866184
 20
4.0957964185
 11
6.1579866184
 21
4.5363243561
  0
LINE
  5
220
100
AcDbEntity
  8
0
100
AcDbLine
 62
7
  6
CONTINUOUS
 10
6.1504866184
 20
5.2614933472
 11
6.0567366184
 21
5.2614933472
  0
LINE
  5
221
100
AcDbEntity
  8
0
100
AcDbLine
 62
7
  6
CONTINUOUS
 10
6.1429866184
 20
5.2689933472
 11
6.0642366184
 21
5.2689933472
  0
LINE
  5
222
100
AcDbEntity
  8
0
100
AcDbLine
 62
7
  6
CONTINUOUS
 10
3.9197192071
 20
5.5693993356
 11
3.6000040296
 21
5.6432114003
  0
LINE
  5
223
100
AcDbEntity
  8
0
100
AcDbLine
 62
7
  6
CONTINUOUS
 10
6.2676741184
 20
1.7027433472
 11
6.2676741184
 21
4.1472411183
  0
LINE
  5
224
100
AcDbEntity
  8
0
100
AcDbLine
 62
7
  6
CONTINUOUS
 10
6.2676741184
 20
4.4819955759
 11
6.2676741184
 21
5.526768786
  0
LINE
  5
225
100
AcDbEntity
  8
0
100
AcDbLine
 62
7
  6
CONTINUOUS
 10
6.4317366184
 20
1.6089933472
 11
6.4317366184
 21
1.6952433472
  0
LINE
  5
226
100
AcDbEntity
  8
0
100
AcDbLine
 62
7
  6
CONTINUOUS
 10
5.9395491184
 20
5.526768786
 11
6.2676741184
 21
5.526768786
  0
LINE
  5
227
100
AcDbEntity
  8
0
100
AcDbLine
 62
7
  6
CONTINUOUS
 10
3.9618975298
 20
5.7520937228
 11
3.6421823523
 21
5.8259057875
  0
ARC
  5
228
100
AcDbEntity
  8
0
100
AcDbCircle
 62
7
  6
CONTINUOUS
 10
4.9378870572
 20
5.526768786
 40
1.3297870611
100
AcDbArc
 50
0.0
 51
167.0
  0
ARC
  5
229
100
AcDbEntity
  8
0
100
AcDbCircle
 62
7
  6
CONTINUOUS
 10
4.9378870572
 20
5.526768786
 40
1.0016620611
100
AcDbArc
 50
0.0
 51
167.0
  0
ARC
  5
22A
100
AcDbEntity
  8
0
100
AcDbCircle
 62
7
  6
CONTINUOUS
 10
6.1036116184
 20
4.3146183472
 40
0.234375
100
AcDbArc
 50
282.9914956695
 51
77.0085040442
  0
ARC
  5
22B
100
AcDbEntity
  8
0
100
AcDbCircle
 62
7
  6
CONTINUOUS
 10
6.1036116184
 20
4.3146183472
 40
0.234375
100
AcDbArc
 50
102.9914956696
 51
257.0085040443
  0
ARC
  5
22C
100
AcDbEntity
  8
0
100
AcDbCircle
 62
7
  6
CONTINUOUS
 10
6.1036139644
 20
4.3160618444
 40
0.226877634
100
AcDbArc
 50
103.8676017811
 51
256.1325646822
  0
ARC
  5
22D
100
AcDbEntity
  8
0
100
AcDbCircle
 62
7
  6
CONTINUOUS
 10
6.103609291
 20
4.3160618344
 40
0.2268776127
100
AcDbArc
 50
283.8674320249
 51
76.1324729301
  0
ARC
  5
22E
100
AcDbEntity
  8
0
100
AcDbCircle
 62
7
  6
CONTINUOUS
 10
5.7829866184
 20
1.6952433472
 40
0.0075
100
AcDbArc
 50
90.0
 51
180.0
  0
ARC
  5
22F
100
AcDbEntity
  8
0
100
AcDbCircle
 62
7
  6
CONTINUOUS
 10
6.4242366184
 20
1.6952433472
 40
0.0075
100
AcDbArc
 50
0.0
 51
90.0
  0
ARC
  5
230
100
AcDbEntity
  8
0
100
AcDbCircle
 62
7
  6
CONTINUOUS
 10
6.0492366184
 20
4.0789345017
 40
0.0075
100
AcDbArc
 50
0.0001193135
 51
77.0089417747
  0
ARC
  5
231
100
AcDbEntity
  8
0
100
AcDbCircle
 62
7
  6
CONTINUOUS
 10
6.1579866184
 20
4.5503021926
 40
0.0075
100
AcDbArc
 50
180.0001193136
 51
257.0089417747
  0
ARC
  5
232
100
AcDbEntity
  8
0
100
AcDbCircle
 62
7
  6
CONTINUOUS
 10
6.1429866184
 20
4.0427433472
 40
0.0075
100
AcDbArc
 50
270.0
 51
360.0
  0
ARC
  5
233
100
AcDbEntity
  8
0
100
AcDbCircle
 62
7
  6
CONTINUOUS
 10
6.0642366184
 20
4.0427433472
 40
0.0075
100
AcDbArc
 50
180.0
 51
270.0
  0
ARC
  5
234
100
AcDbEntity
  8
0
100
AcDbCircle
 62
7
  6
CONTINUOUS
 10
6.0642366184
 20
5.2614933472
 40
0.0075
100
AcDbArc
 50
90.0
 51
180.0
  0
ARC
  5
235
100
AcDbEntity
  8
0
100
AcDbCircle
 62
7
  6
CONTINUOUS
 10
6.1429866184
 20
5.2614933472
 40
0.0075
100
AcDbArc
 50
0.0
 51
90.0
  0
ARC
  5
236
100
AcDbEntity
  8
0
100
AcDbCircle
 62
7
  6
CONTINUOUS
 10
6.1579866184
 20
4.0789345034
 40
0.0075000136
100
AcDbArc
 50
102.9910700051
 51
179.9998990505
  0
ARC
  5
237
100
AcDbEntity
  8
0
100
AcDbCircle
 62
7
  6
CONTINUOUS
 10
6.0492366184
 20
4.5503019966
 40
0.0074999174
100
AcDbArc
 50
282.9914037583
 51
0.0013836856
  0
LINE
  5
238
100
AcDbEntity
  8
0
100
AcDbLine
 62
7
  6
CONTINUOUS
 10
6.1579862822
 20
4.536324439
 11
6.1563007039
 21
4.5429941047
  0
SPLINE
  5
239
100
AcDbEntity
  8
0
100
AcDbSpline
 62
7
  6
CONTINUOUS
 70
0
 71
3
 72
21
 73
17
 74
0
 42
0.0000001
 43
0.0000001
 44
0.0000000001
 40
0.0
 40
0.0
 40
0.0
 40
0.0
 40
0.186351872
 40
0.3658010751
 40
0.5317814398
 40
0.6782891865
 40
0.7426297444
 40
0.8003026158
 40
0.8509030817
 40
0.8941573443
 40
0.9299985335
 40
0.9587058275
 40
0.9706685731
 40
0.9812972108
 40
0.99092417
 40
1.0
 40
1.0
 40
1.0
 40
1.0
 10
6.1579866184
 20
4.0957976174
 30
0.0
 10
6.157498791
 20
4.0957976174
 30
0.0
 10
6.1565411069
 20
4.0958154219
 30
0.0
 10
6.1551509118
 20
4.0958948884
 30
0.0
 10
6.1538691761
 20
4.0960236811
 30
0.0
 10
6.152893361
 20
4.0961729612
 30
0.0
 10
6.1522052577
 20
4.0963173972
 30
0.0
 10
6.1517673474
 20
4.0964295791
 30
0.0
 10
6.1513888697
 20
4.0965490886
 30
0.0
 10
6.151072979
 20
4.0966748042
 30
0.0
 10
6.1508222958
 20
4.0968054484
 30
0.0
 10
6.1506592648
 20
4.0969245066
 30
0.0
 10
6.1505680497
 20
4.0970236783
 30
0.0
 10
6.1505215554
 20
4.0970946157
 30
0.0
 10
6.1504931154
 20
4.0971665977
 30
0.0
 10
6.1504866184
 20
4.0972157541
 30
0.0
 10
6.1504866184
 20
4.0972395126
 30
0.0
  0
SPLINE
  5
23A
100
AcDbEntity
  8
0
100
AcDbSpline
 62
7
  6
CONTINUOUS
 70
0
 71
3
 72
21
 73
17
 74
0
 42
0.0000001
 43
0.0000001
 44
0.0000000001
 40
0.0
 40
0.0
 40
0.0
 40
0.0
 40
0.1863518666
 40
0.3658010649
 40
0.5317814264
 40
0.678289172
 40
0.7426297301
 40
0.8003026025
 40
0.8509030696
 40
0.8941573342
 40
0.9299985254
 40
0.9587058221
 40
0.9706685689
 40
0.981297208
 40
0.9909241686
 40
1.0
 40
1.0
 40
1.0
 40
1.0
 10
6.1579866184
 20
4.5363228678
 30
0.0
 10
6.157498791
 20
4.5363228678
 30
0.0
 10
6.1565411069
 20
4.5363406723
 30
0.0
 10
6.1551509118
 20
4.5364201388
 30
0.0
 10
6.1538691762
 20
4.5365489314
 30
0.0
 10
6.152893361
 20
4.5366982115
 30
0.0
 10
6.1522052578
 20
4.5368426475
 30
0.0
 10
6.1517673474
 20
4.5369548294
 30
0.0
 10
6.1513888697
 20
4.5370743389
 30
0.0
 10
6.151072979
 20
4.5372000545
 30
0.0
 10
6.1508222958
 20
4.5373306988
 30
0.0
 10
6.1506592648
 20
4.537449757
 30
0.0
 10
6.1505680497
 20
4.5375489287
 30
0.0
 10
6.1505215554
 20
4.5376198661
 30
0.0
 10
6.1504931154
 20
4.5376918482
 30
0.0
 10
6.1504866184
 20
4.5377410045
 30
0.0
 10
6.1504866184
 20
4.537764763
 30
0.0
  0
SPLINE
  5
23B
100
AcDbEntity
  8
0
100
AcDbSpline
 62
7
  6
CONTINUOUS
 70
0
 71
3
 72
30
 73
26
 74
0
 42
0.0000001
 43
0.0000001
 44
0.0000000001
 40
0.0
 40
0.0
 40
0.0
 40
0.0
 40
0.0008301916
 40
0.0019048026
 40
0.0035167544
 40
0.0057568774
 40
0.0086572603
 40
0.0122319891
 40
0.016486589
 40
0.0214198242
 40
0.0333073344
 40
0.047858828
 40
0.065018506
 40
0.0846993316
 40
0.1068086835
 40
0.1312446972
 40
0.1866253749
 40
0.2498563255
 40
0.3198582727
 40
0.3955387333
 40
0.475818839
 40
0.5596689541
 40
0.6461026294
 40
0.8230679662
 40
1.0
 40
1.0
 40
1.0
 40
1.0
 10
6.1563006759
 20
4.0862425817
 30
0.0
 10
6.1562980539
 20
4.0862419753
 30
0.0
 10
6.1562912108
 20
4.0862433278
 30
0.0
 10
6.1562846834
 20
4.086253455
 30
0.0
 10
6.1562797495
 20
4.0862685342
 30
0.0
 10
6.1562759931
 20
4.086290224
 30
0.0
 10
6.156273461
 20
4.0863183479
 30
0.0
 10
6.1562721968
 20
4.0863531308
 30
0.0
 10
6.1562722308
 20
4.0863945057
 30
0.0
 10
6.1562741579
 20
4.0864628066
 30
0.0
 10
6.1562803109
 20
4.0865643411
 30
0.0
 10
6.1562924807
 20
4.0867051587
 30
0.0
 10
6.1563098984
 20
4.0868708509
 30
0.0
 10
6.1563324111
 20
4.087060622
 30
0.0
 10
6.1563598774
 20
4.0872735465
 30
0.0
 10
6.1564048378
 20
4.0876008902
 30
0.0
 10
6.1564730293
 20
4.0880595818
 30
0.0
 10
6.1565697748
 20
4.088663318
 30
0.0
 10
6.1566828553
 20
4.0893310533
 30
0.0
 10
6.1568105377
 20
4.0900523485
 30
0.0
 10
6.1569510349
 20
4.0908169481
 30
0.0
 10
6.1571034562
 20
4.0916147806
 30
0.0
 10
6.1573225628
 20
4.0927189347
 30
0.0
 10
6.1576117102
 20
4.0941168039
 30
0.0
 10
6.1578593906
 20
4.0952370168
 30
0.0
 10
6.1579863455
 20
4.0957963511
 30
0.0
  0
SPLINE
  5
23C
100
AcDbEntity
  8
0
100
AcDbSpline
 62
7
  6
CONTINUOUS
 70
0
 71
3
 72
21
 73
17
 74
0
 42
0.0000001
 43
0.0000001
 44
0.0000000001
 40
0.0
 40
0.0
 40
0.0
 40
0.0
 40
0.1863518679
 40
0.3658010677
 40
0.5317814311
 40
0.6782891786
 40
0.7426297374
 40
0.8003026104
 40
0.8509030776
 40
0.894157342
 40
0.9299985324
 40
0.9587058276
 40
0.9706685734
 40
0.9812972112
 40
0.9909241703
 40
1.0
 40
1.0
 40
1.0
 40
1.0
 10
6.0492366184
 20
4.5363228673
 30
0.0
 10
6.0497244458
 20
4.5363228673
 30
0.0
 10
6.0506821298
 20
4.5363406719
 30
0.0
 10
6.0520723249
 20
4.5364201384
 30
0.0
 10
6.0533540606
 20
4.5365489311
 30
0.0
 10
6.0543298757
 20
4.5366982112
 30
0.0
 10
6.055017979
 20
4.5368426471
 30
0.0
 10
6.0554558893
 20
4.536954829
 30
0.0
 10
6.0558343671
 20
4.5370743386
 30
0.0
 10
6.0561502578
 20
4.5372000542
 30
0.0
 10
6.056400941
 20
4.5373306984
 30
0.0
 10
6.056563972
 20
4.5374497566
 30
0.0
 10
6.0566551871
 20
4.5375489283
 30
0.0
 10
6.0567016814
 20
4.5376198657
 30
0.0
 10
6.0567301214
 20
4.5376918477
 30
0.0
 10
6.0567366184
 20
4.537741004
 30
0.0
 10
6.0567366184
 20
4.5377647625
 30
0.0
  0
LINE
  5
23D
100
AcDbEntity
  8
0
100
AcDbLine
 62
7
  6
CONTINUOUS
 10
6.0509225388
 20
4.5429941076
 11
6.0492369689
 21
4.536324506
  0
SPLINE
  5
23E
100
AcDbEntity
  8
0
100
AcDbSpline
 62
7
  6
CONTINUOUS
 70
0
 71
3
 72
30
 73
26
 74
0
 42
0.0000001
 43
0.0000001
 44
0.0000000001
 40
0.0
 40
0.0
 40
0.0
 40
0.0
 40
0.1769346947
 40
0.3539025703
 40
0.4403373864
 40
0.5241884124
 40
0.6044692681
 40
0.6801503653
 40
0.7501524616
 40
0.8133831502
 40
0.8687636432
 40
0.8931993982
 40
0.9153082209
 40
0.934988297
 40
0.9521471586
 40
0.9666978814
 40
0.9785845505
 40
0.9835172734
 40
0.9877712618
 40
0.9913452584
 40
0.9942448466
 40
0.9964842135
 40
0.9980955576
 40
0.9991698363
 40
1.0
 40
1.0
 40
1.0
 40
1.0
 10
6.0492368936
 20
4.0957963395
 30
0.0
 10
6.0493638558
 20
4.0952369989
 30
0.0
 10
6.0496115299
 20
4.0941167693
 30
0.0
 10
6.049900677
 20
4.0927188817
 30
0.0
 10
6.0501197962
 20
4.0916147168
 30
0.0
 10
6.0502722148
 20
4.0908168759
 30
0.0
 10
6.0504127051
 20
4.0900522689
 30
0.0
 10
6.0505403972
 20
4.0893309716
 30
0.0
 10
6.0506534776
 20
4.0886632356
 30
0.0
 10
6.0507502071
 20
4.088059499
 30
0.0
 10
6.0508184074
 20
4.0876008119
 30
0.0
 10
6.0508633755
 20
4.0872734729
 30
0.0
 10
6.0508908411
 20
4.0870605537
 30
0.0
 10
6.0509133481
 20
4.0868707891
 30
0.0
 10
6.0509307581
 20
4.086705104
 30
0.0
 10
6.0509429211
 20
4.086564294
 30
0.0
 10
6.0509490701
 20
4.0864627663
 30
0.0
 10
6.0509509961
 20
4.0863944719
 30
0.0
 10
6.0509510303
 20
4.086353103
 30
0.0
 10
6.0509497674
 20
4.0863183271
 30
0.0
 10
6.0509472375
 20
4.0862902105
 30
0.0
 10
6.0509434835
 20
4.0862685275
 30
0.0
 10
6.0509385522
 20
4.0862534531
 30
0.0
 10
6.0509320252
 20
4.0862433295
 30
0.0
 10
6.0509251839
 20
4.0862419775
 30
0.0
 10
6.0509225618
 20
4.0862425829
 30
0.0
  0
SPLINE
  5
23F
100
AcDbEntity
  8
0
100
AcDbSpline
 62
7
  6
CONTINUOUS
 70
0
 71
3
 72
21
 73
17
 74
0
 42
0.0000001
 43
0.0000001
 44
0.0000000001
 40
0.0
 40
0.0
 40
0.0
 40
0.0
 40
0.1863518728
 40
0.365801077
 40
0.5317814426
 40
0.6782891901
 40
0.7426297483
 40
0.8003026199
 40
0.8509030857
 40
0.8941573482
 40
0.929998537
 40
0.9587058302
 40
0.9706685752
 40
0.9812972123
 40
0.9909241707
 40
1.0
 40
1.0
 40
1.0
 40
1.0
 10
6.0492366184
 20
4.0957976169
 30
0.0
 10
6.0497244458
 20
4.0957976169
 30
0.0
 10
6.0506821299
 20
4.0958154214
 30
0.0
 10
6.052072325
 20
4.095894888
 30
0.0
 10
6.0533540607
 20
4.0960236807
 30
0.0
 10
6.0543298758
 20
4.0961729608
 30
0.0
 10
6.055017979
 20
4.0963173968
 30
0.0
 10
6.0554558894
 20
4.0964295786
 30
0.0
 10
6.0558343671
 20
4.0965490882
 30
0.0
 10
6.0561502578
 20
4.0966748037
 30
0.0
 10
6.056400941
 20
4.096805448
 30
0.0
 10
6.056563972
 20
4.0969245061
 30
0.0
 10
6.0566551871
 20
4.0970236779
 30
0.0
 10
6.0567016814
 20
4.0970946152
 30
0.0
 10
6.0567301214
 20
4.0971665973
 30
0.0
 10
6.0567366184
 20
4.0972157536
 30
0.0
 10
6.0567366184
 20
4.0972395121
 30
0.0
  0
ENDSEC
  0
SECTION
  2
OBJECTS
  0
DICTIONARY
  5
C
100
AcDbDictionary
280
0
281
1
  3
ACAD_GROUP
350
D
  3
ACAD_MLINESTYLE
350
17
  3
ACAD_LAYOUT
350
1A
  3
ACAD_PLOTSETTINGS
350
19
  3
ACAD_PLOTSTYLENAME
350
E
  0
DICTIONARY
  5
D
102
{ACAD_REACTORS
330
C
102
}
100
AcDbDictionary
280
0
281
1
  0
ACDBDICTIONARYWDFLT
  5
E
102
{ACAD_REACTORS
330
C
102
}
100
AcDbDictionary
281
1
  3
Normal
350
F
100
AcDbDictionaryWithDefault
340
F
  0
DICTIONARY
  5
17
102
{ACAD_REACTORS
330
C
102
}
100
AcDbDictionary
280
0
281
1
  3
Standard
350
18
  0
DICTIONARY
  5
19
102
{ACAD_REACTORS
330
C
102
}
100
AcDbDictionary
281
1
  0
DICTIONARY
  5
1A
102
{ACAD_REACTORS
330
C
102
}
100
AcDbDictionary
281
1
  3
Model
350
240
  3
Layout1
350
241
  0
ACDBPLACEHOLDER
  5
F
102
{ACAD_REACTORS
330
E
102
}
  0
MLINESTYLE
  5
18
102
{ACAD_REACTORS
330
17
102
}
100
AcDbMlineStyle
  2
STANDARD
 70
0
  3

 62
256
 51
90.0
 52
90.0
 71
2
 49
0.5
 62
256
  6
BYLAYER
 49
-0.5
 62
256
  6
BYLAYER
  0
LAYOUT
  5
240
102
{ACAD_REACTORS
330
1A
102
}
100
AcDbPlotSettings
  1

  2
none_device
  4
ANSI_A_(11.00_x_8.50_Inches)
  6

 40
0.0
 41
0.0
 42
0.0
 43
0.0
 44
279.4
 45
215.9
 46
0.0
 47
0.0
 48
0.0
 49
0.0
140
0.0
141
0.0
142
1.0
143
1.0
 70
1024
 72
0
 73
0
 74
0
  7

 75
0
147
1.0
148
0.0
149
0.0
100
AcDbLayout
  1
Model
 70
0
 71
0
 10
0.0
 20
0.0
 11
11.0
 21
8.5
 12
0.0
 22
0.0
 32
0.0
 14
0.0
 24
0.0
 34
0.0
 15
0.0
 25
0.0
 35
0.0
146
0.0
 13
0.0
 23
0.0
 33
0.0
 16
1.0
 26
0.0
 36
0.0
 17
0.0
 27
1.0
 37
0.0
 76
0
330
202
345
0
346
0
  0
LAYOUT
  5
241
102
{ACAD_REACTORS
330
1A
102
}
100
AcDbPlotSettings
  1

  2
none_device
  4
ANSI_A_(11.00_x_8.50_Inches)
  6

 40
0.0
 41
0.0
 42
0.0
 43
0.0
 44
279.4
 45
215.9
 46
0.0
 47
0.0
 48
0.0
 49
0.0
140
0.0
141
0.0
142
1.0
143
1.0
 70
0
 72
0
 73
0
 74
0
  7

 75
0
147
1.0
148
0.0
149
0.0
100
AcDbLayout
  1
Layout1
 70
0
 71
1
 10
0.0
 20
0.0
 11
11.0
 21
8.5
 12
0.0
 22
0.0
 32
0.0
 14
0.0
 24
0.0
 34
0.0
 15
0.0
 25
0.0
 35
0.0
146
0.0
 13
0.0
 23
0.0
 33
0.0
 16
1.0
 26
0.0
 36
0.0
 17
0.0
 27
1.0
 37
0.0
 76
0
330
203
345
0
346
0
  0
ENDSEC
  0
EOF
