999
DXF file: 2413_top.dxf
999
Pro/ENGINEER 2018400 by Parametric Technology Corporation
  0
SECTION
  2
HEADER
  9
$ACADVER
  1
AC1027
  9
$DWGCODEPAGE
  3
ANSI_1252
  9
$EXTMAX
 10
11.0
 20
8.5
 30
0.0
  9
$EXTMIN
 10
0.0
 20
0.0
 30
0.0
  9
$LIMMIN
 10
0.0
 20
0.0
  9
$LIMMAX
 10
11.0
 20
8.5
  9
$VIEWCTR
 10
5.5
 20
4.25
  9
$VIEWSIZE
 40
8.5
  9
$CLAYER
  8
0
  9
$LTSCALE
 40
0.605
  9
$CELTYPE
  6
BYLAYER
  9
$DIMSCALE
 40
1.0
  9
$DIMASZ
 40
0.1
  9
$DIMEXO
 40
0.0625
  9
$DIMDLI
 40
0.418
  9
$DIMEXE
 40
0.125
  9
$DIMCEN
 40
0.099
  9
$DIMLFAC
 40
1.0
  9
$DIMBLK
  1
_FILLED
  9
$DIMALT
 70
1
  9
$DIMALTD
 70
1
  9
$DIMALTTD
 70
2
  9
$DIMALTF
 40
25.4
  9
$DIMTXT
 40
0.08
  9
$DIMTOL
 70
1
  9
$DIMLIM
 70
0
  9
$DIMTFAC
 40
1.0
  9
$DIMTP
 40
0.01
  9
$DIMTM
 40
0.01
  9
$DIMGAP
 40
0.09
  9
$DIMDSEP
 70
46
  9
$AUNITS
 70
0
  9
$PDMODE
 70
3
  9
$PDSIZE
 40
0.3125
  9
$HANDSEED
  5
257
  9
$TILEMODE
 70
1
  9
$MEASUREMENT
 70
0
  9
$INSUNITS
 70
1
  0
ENDSEC
  0
SECTION
  2
CLASSES
  0
CLASS
  1
ACDBDICTIONARYWDFLT
  2
AcDbDictionaryWithDefault
  3
AutoCAD 2000
 90
0
 91
1
280
0
281
0
  0
CLASS
  1
ACDBPLACEHOLDER
  2
AcDbPlaceHolder
  3
AutoCAD 2000
 90
0
 91
1
280
0
281
0
  0
CLASS
  1
LAYOUT
  2
AcDbLayout
  3
AutoCAD 2000
 90
0
 91
0
280
0
281
0
  0
ENDSEC
  0
SECTION
  2
TABLES
  0
TABLE
  2
VPORT
  5
8
100
AcDbSymbolTable
 70
2
  0
VPORT
  5
1F4
100
AcDbSymbolTableRecord
100
AcDbViewportTableRecord
  2
*ACTIVE
 70
0
 10
0.0
 20
0.0
 11
1.0
 21
1.0
 12
5.5
 22
4.25
 13
0.0
 23
0.0
 14
1.0
 24
1.0
 15
0.0
 25
0.0
 16
0.0
 26
0.0
 36
1.0
 17
0.0
 27
0.0
 37
0.0
 40
8.5
 41
1.2941176471
 42
50.0
 43
0.0
 44
0.0
 50
0.0
 51
0.0
 71
0
 72
100
 73
1
 74
1
 75
0
 76
0
 77
0
 78
0
  0
ENDTAB
  0
TABLE
  2
LTYPE
  5
5
100
AcDbSymbolTable
 70
6
  0
LTYPE
  5
14
100
AcDbSymbolTableRecord
100
AcDbLinetypeTableRecord
  2
BYBLOCK
 70
0
  3

 72
65
 73
0
 40
0.0
  0
LTYPE
  5
15
100
AcDbSymbolTableRecord
100
AcDbLinetypeTableRecord
  2
BYLAYER
 70
0
  3

 72
65
 73
0
 40
0.0
  0
LTYPE
  5
16
100
AcDbSymbolTableRecord
100
AcDbLinetypeTableRecord
  2
CONTINUOUS
 70
64
  3
Solid line
 72
65
 73
0
 40
0.0
  0
LTYPE
  5
1F5
100
AcDbSymbolTableRecord
100
AcDbLinetypeTableRecord
  2
CENTER
 70
64
  3
____ _ ____ _ ____ _ ____ _ ____ _ ____ _ ____
 72
65
 73
4
 40
0.6
 49
0.375
 74
0
 49
-0.075
 74
0
 49
0.075
 74
0
 49
-0.075
 74
0
  0
LTYPE
  5
1F6
100
AcDbSymbolTableRecord
100
AcDbLinetypeTableRecord
  2
HIDDEN
 70
64
  3
- - - - - - - - - - - - - - - - - - - -
 72
65
 73
2
 40
0.2
 49
0.1
 74
0
 49
-0.1
 74
0
  0
LTYPE
  5
1F7
100
AcDbSymbolTableRecord
100
AcDbLinetypeTableRecord
  2
PHANTOM
 70
64
  3
_____ _ _ _____ _ _ _____ _ _ _____
 72
65
 73
6
 40
0.8
 49
0.45
 74
0
 49
-0.05
 74
0
 49
0.1
 74
0
 49
-0.05
 74
0
 49
0.1
 74
0
 49
-0.05
 74
0
  0
LTYPE
  5
1F8
100
AcDbSymbolTableRecord
100
AcDbLinetypeTableRecord
  2
DOT
 70
64
  3
. . . . . . . . . . . . . . . . . . . .
 72
65
 73
2
 40
0.2
 49
0.1
 74
0
 49
-0.1
 74
0
  0
LTYPE
  5
1F9
100
AcDbSymbolTableRecord
100
AcDbLinetypeTableRecord
  2
DASHED
 70
64
  3
- - - - - - - - - - - - - - - - - - - -
 72
65
 73
2
 40
0.2
 49
0.1
 74
0
 49
-0.1
 74
0
  0
ENDTAB
  0
TABLE
  2
LAYER
  5
2
100
AcDbSymbolTable
 70
36
  0
LAYER
  5
10
100
AcDbSymbolTableRecord
100
AcDbLayerTableRecord
  2
0
 70
0
 62
7
  6
CONTINUOUS
370
-3
390
F
  0
LAYER
  5
1FA
100
AcDbSymbolTableRecord
100
AcDbLayerTableRecord
  2
DEFAULT_1
 70
0
 62
7
  6
CENTER
370
-3
390
F
  0
LAYER
  5
1FB
100
AcDbSymbolTableRecord
100
AcDbLayerTableRecord
  2
DEFAULT_2
 70
0
 62
8
  6
HIDDEN
370
-3
390
F
  0
LAYER
  5
1FC
100
AcDbSymbolTableRecord
100
AcDbLayerTableRecord
  2
DEFAULT_3
 70
0
 62
7
  6
PHANTOM
370
-3
390
F
  0
LAYER
  5
1FD
100
AcDbSymbolTableRecord
100
AcDbLayerTableRecord
  2
DEFAULT_COORDINATE_SYSTEM
 70
0
 62
7
  6
CONTINUOUS
370
-3
390
F
  0
LAYER
  5
1FE
100
AcDbSymbolTableRecord
100
AcDbLayerTableRecord
  2
DEFAULT_DATUM_AXES
 70
0
 62
7
  6
CONTINUOUS
370
-3
390
F
  0
LAYER
  5
1FF
100
AcDbSymbolTableRecord
100
AcDbLayerTableRecord
  2
DEFAULT_DATUM_PLANES
 70
0
 62
7
  6
CONTINUOUS
370
-3
390
F
  0
ENDTAB
  0
TABLE
  2
STYLE
  5
3
100
AcDbSymbolTable
 70
1
  0
STYLE
  5
11
100
AcDbSymbolTableRecord
100
AcDbTextStyleTableRecord
  2
STANDARD
 70
0
 40
0.0
 41
0.8
 50
0.0
 71
0
 42
0.2
  3
txt
  4

  0
STYLE
  5
200
100
AcDbSymbolTableRecord
100
AcDbTextStyleTableRecord
  2
TEXTSTYLE_1
 70
0
 40
0.0
 41
0.8
 50
0.0
 71
0
 42
0.2
  3
gdt
  4

  0
ENDTAB
  0
TABLE
  2
VIEW
  5
6
100
AcDbSymbolTable
 70
0
  0
ENDTAB
  0
TABLE
  2
UCS
  5
7
100
AcDbSymbolTable
 70
0
  0
ENDTAB
  0
TABLE
  2
APPID
  5
9
100
AcDbSymbolTable
 70
1
  0
APPID
  5
201
100
AcDbSymbolTableRecord
100
AcDbRegAppTableRecord
  2
ACAD
 70
0
  0
ENDTAB
  0
TABLE
  2
BLOCK_RECORD
  5
1
100
AcDbSymbolTable
 70
0
  0
BLOCK_RECORD
  5
202
100
AcDbSymbolTableRecord
100
AcDbBlockTableRecord
  2
*Model_Space
  0
BLOCK_RECORD
  5
203
100
AcDbSymbolTableRecord
100
AcDbBlockTableRecord
  2
*Paper_Space
  0
BLOCK_RECORD
  5
204
100
AcDbSymbolTableRecord
100
AcDbBlockTableRecord
  2
_FILLED
  0
ENDTAB
  0
TABLE
  2
DIMSTYLE
  5
A
100
AcDbSymbolTable
 70
1
100
AcDbDimStyleTable
 71
0
  0
DIMSTYLE
105
205
100
AcDbSymbolTableRecord
100
AcDbDimStyleTableRecord
  2
STANDARD
 70
0
  3

  4

 40
1.0
 41
0.1
 42
0.0625
 43
0.38
 44
0.125
 45
0.0
 46
0.0
 47
0.01
 48
0.01
140
0.08
141
0.09
142
0.0
143
25.4
144
1.0
145
0.0
146
1.0
147
0.09
 71
1.0
 72
0.0
 73
1
 74
1
 75
0
 76
0
 77
0
 78
4
 79
1
170
1
171
1
172
0
173
0
174
0
175
0
176
0
177
0
178
0
270
2
179
2
271
2
272
2
273
2
274
2
275
0
280
0
281
0
282
0
283
1
284
4
285
0
286
0
287
3
288
0
340
11
278
46
341
204
342
204
343
204
344
204
  0
ENDTAB
  0
ENDSEC
  0
SECTION
  2
BLOCKS
  0
BLOCK
  5
20
100
AcDbEntity
  8
0
100
AcDbBlockBegin
  2
*Model_Space
 70
0
 10
0.0
 20
0.0
 30
0.0
  3
*Model_Space
  1

  0
ENDBLK
  5
21
100
AcDbEntity
  8
0
100
AcDbBlockEnd
  0
BLOCK
  5
1C
100
AcDbEntity
  8
0
100
AcDbBlockBegin
  2
*Paper_Space
 70
0
 10
0.0
 20
0.0
 30
0.0
  3
*Paper_Space
  1

  0
ENDBLK
  5
1D
100
AcDbEntity
  8
0
100
AcDbBlockEnd
  0
BLOCK
  5
206
100
AcDbEntity
  8
0
100
AcDbBlockBegin
  2
_FILLED
 70
64
 10
0.0
 20
0.0
  3
_FILLED
  1

  0
SOLID
  5
207
100
AcDbEntity
  8
0
  6
BYBLOCK
 62
0
100
AcDbTrace
 10
0.0
 20
0.0
 11
-1.0
 21
0.2
 12
-1.0
 22
-0.2
 13
-1.0
 23
-0.2
  0
ENDBLK
  5
208
100
AcDbEntity
  8
0
  6
BYBLOCK
 62
0
100
AcDbBlockEnd
  0
ENDSEC
  0
SECTION
  2
ENTITIES
  0
MTEXT
  5
209
100
AcDbEntity
  8
0
100
AcDbMText
 62
2
  6
CONTINUOUS
  7
STANDARD
 71
3
 72
1
 10
5.0157608696
 20
2.3172982843
 30
0.0
 11
1.0
 21
0.0
 31
0.0
 73
2
 44
0.9
  1
SCALE  .375
 40
0.08
 41
0.704
  0
LINE
  5
20A
100
AcDbEntity
  8
0
100
AcDbLine
 62
7
  6
CONTINUOUS
 10
0.0
 20
0.0
 11
0.0
 21
8.5
  0
LINE
  5
20B
100
AcDbEntity
  8
0
100
AcDbLine
 62
7
  6
CONTINUOUS
 10
0.0
 20
0.0
 11
11.0
 21
0.0
  0
LINE
  5
20C
100
AcDbEntity
  8
0
100
AcDbLine
 62
7
  6
CONTINUOUS
 10
0.0
 20
8.5
 11
11.0
 21
8.5
  0
LINE
  5
20D
100
AcDbEntity
  8
0
100
AcDbLine
 62
7
  6
CONTINUOUS
 10
11.0
 20
0.0
 11
11.0
 21
8.5
  0
LINE
  5
20E
100
AcDbEntity
  8
0
100
AcDbLine
 62
7
  6
CONTINUOUS
 10
4.3894891322
 20
5.5549314942
 11
4.3894891322
 21
5.0861814942
  0
LINE
  5
20F
100
AcDbEntity
  8
0
100
AcDbLine
 62
7
  6
CONTINUOUS
 10
4.4598016322
 20
5.3205564942
 11
4.4598016322
 21
2.9768064942
  0
LINE
  5
210
100
AcDbEntity
  8
0
100
AcDbLine
 62
7
  6
CONTINUOUS
 10
4.7879266322
 20
5.3205564942
 11
4.7879266322
 21
2.9768064942
  0
LINE
  5
211
100
AcDbEntity
  8
0
100
AcDbLine
 62
7
  6
CONTINUOUS
 10
5.3044891322
 20
5.5549314942
 11
5.3044891322
 21
5.0861814942
  0
LINE
  5
212
100
AcDbEntity
  8
0
100
AcDbLine
 62
7
  6
CONTINUOUS
 10
5.3161141322
 20
5.5211814942
 11
5.3161141322
 21
5.5306276295
  0
LINE
  5
213
100
AcDbEntity
  8
0
100
AcDbLine
 62
7
  6
CONTINUOUS
 10
5.447032607
 20
5.3587105639
 11
5.447032607
 21
5.2824024244
  0
LINE
  5
214
100
AcDbEntity
  8
0
100
AcDbLine
 62
7
  6
CONTINUOUS
 10
5.454532607
 20
5.2811814942
 11
5.454532607
 21
5.3599314942
  0
LINE
  5
215
100
AcDbEntity
  8
0
100
AcDbLine
 62
7
  6
CONTINUOUS
 10
5.462032607
 20
5.2678675407
 11
5.462032607
 21
5.3732454477
  0
LINE
  5
216
100
AcDbEntity
  8
0
100
AcDbLine
 62
7
  6
CONTINUOUS
 10
5.5919970252
 20
5.3732455018
 11
5.5919970229
 21
5.3674314942
  0
LINE
  5
217
100
AcDbEntity
  8
0
100
AcDbLine
 62
7
  6
CONTINUOUS
 10
5.5919970249
 20
5.2678674877
 11
5.5919970226
 21
5.2736814942
  0
LWPOLYLINE
  5
218
100
AcDbEntity
  8
0
100
AcDbPolyline
 62
7
  6
CONTINUOUS
 90
53
 70
0
 10
5.6855802689
 20
5.3824047305
 10
5.6852496735
 20
5.3881166059
 10
5.6848892872
 20
5.3937942364
 10
5.6844992346
 20
5.3994327109
 10
5.6840797648
 20
5.4050257027
 10
5.6836310086
 20
5.4105690416
 10
5.6831531692
 20
5.4160587313
 10
5.6826466699
 20
5.4214888183
 10
5.6821117719
 20
5.4268554021
 10
5.6815487383
 20
5.4321545386
 10
5.6809580613
 20
5.4373803946
 10
5.6803400986
 20
5.4425293126
 10
5.6796952245
 20
5.4475977655
 10
5.6790240484
 20
5.4525804988
 10
5.6783272493
 20
5.4574721262
 10
5.6776049866
 20
5.4622713008
 10
5.6768570603
 20
5.4669788716
 10
5.6760844944
 20
5.4715877506
 10
5.6752870709
 20
5.4760984371
 10
5.6744624307
 20
5.4805221044
 10
5.673610828
 20
5.4848542299
 10
5.6727323957
 20
5.4890908752
 10
5.6718241169
 20
5.4932420894
 10
5.6708842626
 20
5.4973096896
 10
5.6699144625
 20
5.5012804964
 10
5.6689165707
 20
5.5051419636
 10
5.6678883081
 20
5.508897961
 10
5.6668320578
 20
5.5125347598
 10
5.6657571631
 20
5.5160186014
 10
5.6646642051
 20
5.5193488434
 10
5.6635535456
 20
5.5225254246
 10
5.6624348496
 20
5.5255239902
 10
5.6613112341
 20
5.5283424699
 10
5.6601807239
 20
5.5309917437
 10
5.659045286
 20
5.5334725083
 10
5.6579068368
 20
5.5357864574
 10
5.6567634585
 20
5.5379430133
 10
5.6556103317
 20
5.5399550097
 10
5.6544468451
 20
5.5418260763
 10
5.6532714492
 20
5.5435609715
 10
5.6520760839
 20
5.5451721175
 10
5.6508582948
 20
5.5466616564
 10
5.6496156322
 20
5.548031077
 10
5.6483378265
 20
5.5492884751
 10
5.6470195373
 20
5.5504337507
 10
5.645659194
 20
5.5514624006
 10
5.6442513441
 20
5.5523721564
 10
5.6427886387
 20
5.5531596691
 10
5.6412751891
 20
5.5538141751
 10
5.6397262707
 20
5.5543232062
 10
5.6381508556
 20
5.5546807823
 10
5.6365495831
 20
5.5548836785
 10
5.635313372
 20
5.5549314778
  0
LINE
  5
219
100
AcDbEntity
  8
0
100
AcDbLine
 62
7
  6
CONTINUOUS
 10
5.6859826473
 20
5.374574271
 11
5.6855802689
 21
5.3824047305
  0
LINE
  5
21A
100
AcDbEntity
  8
0
100
AcDbLine
 62
7
  6
CONTINUOUS
 10
5.728282607
 20
5.2736814942
 11
5.728282607
 21
5.3674314942
  0
LINE
  5
21B
100
AcDbEntity
  8
0
100
AcDbLine
 62
7
  6
CONTINUOUS
 10
5.735782607
 20
5.3599314942
 11
5.735782607
 21
5.2811814942
  0
LWPOLYLINE
  5
21C
100
AcDbEntity
  8
0
100
AcDbPolyline
 62
7
  6
CONTINUOUS
 90
54
 70
0
 10
5.635312837
 20
5.0861815116
 10
5.6365805255
 20
5.0862317195
 10
5.638181295
 20
5.0864376183
 10
5.6397559766
 20
5.0867980564
 10
5.6413039304
 20
5.0873097724
 10
5.6428162667
 20
5.0879667578
 10
5.644277862
 20
5.088756566
 10
5.645684654
 20
5.0896684632
 10
5.6470439933
 20
5.0906991288
 10
5.648361384
 20
5.0918463591
 10
5.649638411
 20
5.09310569
 10
5.6508803961
 20
5.0944770413
 10
5.652097594
 20
5.0959685376
 10
5.6532924515
 20
5.0975816861
 10
5.6544674092
 20
5.0993186345
 10
5.6556304966
 20
5.1011917951
 10
5.6567832567
 20
5.1032059293
 10
5.6579262939
 20
5.1053646612
 10
5.6590644015
 20
5.1076807934
 10
5.6601994901
 20
5.1101637404
 10
5.6613296429
 20
5.1128151832
 10
5.6624528808
 20
5.1156357812
 10
5.6635711691
 20
5.11863639
 10
5.6646813977
 20
5.1218149341
 10
5.6657739146
 20
5.1251470624
 10
5.666848356
 20
5.1286327066
 10
5.6679041414
 20
5.1322712175
 10
5.6689319453
 20
5.1360288658
 10
5.6699293871
 20
5.1398919346
 10
5.6708987418
 20
5.143864287
 10
5.6718381617
 20
5.1479333999
 10
5.6727460206
 20
5.1520861165
 10
5.6736240422
 20
5.1563242435
 10
5.6744752366
 20
5.1606578099
 10
5.6752994703
 20
5.1650828825
 10
5.6760964887
 20
5.1695949414
 10
5.6768686454
 20
5.1742051326
 10
5.6776161568
 20
5.178913949
 10
5.6783380004
 20
5.1837143113
 10
5.679034375
 20
5.1886070639
 10
5.6797051219
 20
5.1935908481
 10
5.6803495629
 20
5.1986602831
 10
5.6809670899
 20
5.2038101277
 10
5.6815573286
 20
5.2090368568
 10
5.6821199224
 20
5.2143368082
 10
5.6826543812
 20
5.2197041602
 10
5.6831604413
 20
5.225134971
 10
5.6836378409
 20
5.2306253426
 10
5.6840861575
 20
5.2361693361
 10
5.684505189
 20
5.2417629525
 10
5.684894805
 20
5.2474020206
 10
5.6852547565
 20
5.2530802298
 10
5.6855849185
 20
5.2587926761
 10
5.6859826473
 20
5.2665387175
  0
LINE
  5
21D
100
AcDbEntity
  8
0
100
AcDbLine
 62
7
  6
CONTINUOUS
 10
4.3894891322
 20
5.0861814942
 11
4.4598016322
 21
5.0861814942
  0
LINE
  5
21E
100
AcDbEntity
  8
0
100
AcDbLine
 62
7
  6
CONTINUOUS
 10
4.7879266322
 20
5.0861814942
 11
5.3044891322
 21
5.0861814942
  0
LINE
  5
21F
100
AcDbEntity
  8
0
100
AcDbLine
 62
7
  6
CONTINUOUS
 10
5.3571548947
 20
5.0861814942
 11
5.6353058009
 21
5.0861814942
  0
LINE
  5
220
100
AcDbEntity
  8
0
100
AcDbLine
 62
7
  6
CONTINUOUS
 10
5.5995145418
 20
5.2661814942
 11
5.6858171748
 21
5.2661814942
  0
LINE
  5
221
100
AcDbEntity
  8
0
100
AcDbLine
 62
7
  6
CONTINUOUS
 10
5.462032607
 20
5.2678675407
 11
5.5919972933
 21
5.2678674877
  0
LINE
  5
222
100
AcDbEntity
  8
0
100
AcDbLine
 62
7
  6
CONTINUOUS
 10
5.728282607
 20
5.2736814942
 11
5.462032607
 21
5.2736814942
  0
LINE
  5
223
100
AcDbEntity
  8
0
100
AcDbLine
 62
7
  6
CONTINUOUS
 10
5.454532607
 20
5.2811814942
 11
5.735782607
 21
5.2811814942
  0
LINE
  5
224
100
AcDbEntity
  8
0
100
AcDbLine
 62
7
  6
CONTINUOUS
 10
5.454532607
 20
5.3599314942
 11
5.735782607
 21
5.3599314942
  0
LINE
  5
225
100
AcDbEntity
  8
0
100
AcDbLine
 62
7
  6
CONTINUOUS
 10
5.462032607
 20
5.3674314942
 11
5.728282607
 21
5.3674314942
  0
LINE
  5
226
100
AcDbEntity
  8
0
100
AcDbLine
 62
7
  6
CONTINUOUS
 10
5.5919973344
 20
5.3732455018
 11
5.462032607
 21
5.3732454477
  0
LINE
  5
227
100
AcDbEntity
  8
0
100
AcDbLine
 62
7
  6
CONTINUOUS
 10
5.6858171727
 20
5.3749314942
 11
5.5995145542
 21
5.3749314942
  0
LINE
  5
228
100
AcDbEntity
  8
0
100
AcDbLine
 62
7
  6
CONTINUOUS
 10
5.3161141322
 20
5.5211814942
 11
5.3044891322
 21
5.5211814942
  0
LINE
  5
229
100
AcDbEntity
  8
0
100
AcDbLine
 62
7
  6
CONTINUOUS
 10
5.3044891322
 20
5.5549314942
 11
4.3894891322
 21
5.5549314942
  0
LINE
  5
22A
100
AcDbEntity
  8
0
100
AcDbLine
 62
7
  6
CONTINUOUS
 10
5.3571548947
 20
5.5549314942
 11
5.6353058009
 21
5.5549314942
  0
ARC
  5
22B
100
AcDbEntity
  8
0
100
AcDbCircle
 62
7
  6
CONTINUOUS
 10
4.6238641322
 20
5.3205564942
 40
0.328125
100
AcDbArc
 50
225.5885049597
 51
239.9999999858
  0
ARC
  5
22C
100
AcDbEntity
  8
0
100
AcDbCircle
 62
7
  6
CONTINUOUS
 10
4.6238641322
 20
5.3205564942
 40
0.328125
100
AcDbArc
 50
300.0000000273
 51
314.4114950316
  0
ARC
  5
22D
100
AcDbEntity
  8
0
100
AcDbCircle
 62
7
  6
CONTINUOUS
 10
4.6238641322
 20
5.3205564942
 40
0.328125
100
AcDbArc
 50
45.5885049597
 51
134.4114950316
  0
ARC
  5
22E
100
AcDbEntity
  8
0
100
AcDbCircle
 62
7
  6
CONTINUOUS
 10
4.6238641322
 20
5.3205564942
 40
0.328125
100
AcDbArc
 50
135.5871603522
 51
224.412839663
  0
ARC
  5
22F
100
AcDbEntity
  8
0
100
AcDbCircle
 62
7
  6
CONTINUOUS
 10
4.6238641322
 20
5.3205564942
 40
0.320625
100
AcDbArc
 50
226.9736928747
 51
239.2204340368
  0
ARC
  5
230
100
AcDbEntity
  8
0
100
AcDbCircle
 62
7
  6
CONTINUOUS
 10
4.6238641322
 20
5.3205564942
 40
0.320625
100
AcDbArc
 50
300.7795662287
 51
313.0263082868
  0
ARC
  5
231
100
AcDbEntity
  8
0
100
AcDbCircle
 62
7
  6
CONTINUOUS
 10
4.6238641322
 20
5.3205564942
 40
0.320625
100
AcDbArc
 50
46.9736928747
 51
133.0263082868
  0
ARC
  5
232
100
AcDbEntity
  8
0
100
AcDbCircle
 62
7
  6
CONTINUOUS
 10
4.6238641322
 20
5.3205564942
 40
0.320625
100
AcDbArc
 50
136.9724217894
 51
223.0275755584
  0
ARC
  5
233
100
AcDbEntity
  8
0
100
AcDbCircle
 62
7
  6
CONTINUOUS
 10
4.6238641322
 20
5.3205564942
 40
0.1640625
100
AcDbArc
 50
0.0
 51
180.0
  0
ARC
  5
234
100
AcDbEntity
  8
0
100
AcDbCircle
 62
7
  6
CONTINUOUS
 10
5.2753449607
 20
5.425774758
 40
0.1125
100
AcDbArc
 50
58.7647661021
 51
68.75279118
  0
ARC
  5
235
100
AcDbEntity
  8
0
100
AcDbCircle
 62
7
  6
CONTINUOUS
 10
5.2753449607
 20
5.2153382303
 40
0.1125
100
AcDbArc
 50
285.0142517529
 51
301.2352338927
  0
ARC
  5
236
100
AcDbEntity
  8
0
100
AcDbCircle
 62
7
  6
CONTINUOUS
 10
5.6934675468
 20
5.3749323211
 40
0.0076506091
100
AcDbArc
 50
180.0061928378
 51
186.5409972831
  0
ARC
  5
237
100
AcDbEntity
  8
0
100
AcDbCircle
 62
7
  6
CONTINUOUS
 10
5.6934675469
 20
5.2661806673
 40
0.007650609
100
AcDbArc
 50
173.4590046352
 51
179.9938073882
  0
ARC
  5
238
100
AcDbEntity
  8
0
100
AcDbCircle
 62
7
  6
CONTINUOUS
 10
5.728282607
 20
5.3599314942
 40
0.0075
100
AcDbArc
 50
0.0
 51
90.0
  0
ARC
  5
239
100
AcDbEntity
  8
0
100
AcDbCircle
 62
7
  6
CONTINUOUS
 10
5.728282607
 20
5.2811814942
 40
0.0075
100
AcDbArc
 50
270.0
 51
360.0
  0
ARC
  5
23A
100
AcDbEntity
  8
0
100
AcDbCircle
 62
7
  6
CONTINUOUS
 10
5.462032607
 20
5.2811814942
 40
0.0075
100
AcDbArc
 50
180.0
 51
270.0
  0
ARC
  5
23B
100
AcDbEntity
  8
0
100
AcDbCircle
 62
7
  6
CONTINUOUS
 10
5.462032607
 20
5.3599314942
 40
0.0075
100
AcDbArc
 50
90.0
 51
180.0
  0
ARC
  5
23C
100
AcDbEntity
  8
0
100
AcDbCircle
 62
7
  6
CONTINUOUS
 10
5.6934741292
 20
5.2661814942
 40
0.0074999973
100
AcDbArc
 50
100.611071161
 51
177.2694986782
  0
ARC
  5
23D
100
AcDbEntity
  8
0
100
AcDbCircle
 62
7
  6
CONTINUOUS
 10
5.6934741283
 20
5.3749314942
 40
0.0074999968
100
AcDbArc
 50
182.7305163965
 51
259.3891978146
  0
SPLINE
  5
23E
100
AcDbEntity
  8
0
100
AcDbSpline
 62
7
  6
CONTINUOUS
 70
0
 71
3
 72
28
 73
24
 74
0
 42
0.0000001
 43
0.0000001
 44
0.0000000001
 40
0.0
 40
0.0
 40
0.0
 40
0.0
 40
0.0616842149
 40
0.0925459185
 40
0.1234193357
 40
0.1851965845
 40
0.2470630735
 40
0.2780471901
 40
0.309062379
 40
0.340110893
 40
0.3711947183
 40
0.4334555146
 40
0.4958727228
 40
0.5584488644
 40
0.6211806445
 40
0.6840585782
 40
0.7155570782
 40
0.7470861507
 40
0.8102067572
 40
0.8734150156
 40
0.9050517722
 40
0.936700708
 40
1.0
 40
1.0
 40
1.0
 40
1.0
 10
4.7879266322
 20
2.9768064942
 30
0.0
 10
4.7879266322
 20
2.9715769308
 30
0.0
 10
4.7875305454
 20
2.9637234205
 30
0.0
 10
4.7862158122
 20
2.9533397457
 30
0.0
 10
4.7843793049
 20
2.9430266065
 30
0.0
 10
4.7811113755
 20
2.9303167598
 30
0.0
 10
4.7765830502
 20
2.9179894954
 30
0.0
 10
4.7722327691
 20
2.9084276604
 30
0.0
 10
4.7686103991
 20
2.9014161683
 30
0.0
 10
4.7646393217
 20
2.8945863387
 30
0.0
 10
4.7588903736
 20
2.8857408319
 30
0.0
 10
4.7508769255
 20
2.875215158
 30
0.0
 10
4.7400458991
 20
2.863574345
 30
0.0
 10
4.7280959464
 20
2.853023776
 30
0.0
 10
4.7151436627
 20
2.8436661326
 30
0.0
 10
4.7036214936
 20
2.8369389144
 30
0.0
 10
4.6940345405
 20
2.8322373005
 30
0.0
 10
4.6842129467
 20
2.8279954783
 30
0.0
 10
4.6715548025
 20
2.8235831575
 30
0.0
 10
4.6585230611
 20
2.8204036216
 30
0.0
 10
4.6479452907
 20
2.8186154376
 30
0.0
 10
4.6372872536
 20
2.8173344678
 30
0.0
 10
4.6292306212
 20
2.8169489054
 30
0.0
 10
4.6238641322
 20
2.8169489054
 30
0.0
  0
SPLINE
  5
23F
100
AcDbEntity
  8
0
100
AcDbSpline
 62
7
  6
CONTINUOUS
 70
0
 71
3
 72
28
 73
24
 74
0
 42
0.0000001
 43
0.0000001
 44
0.0000000001
 40
0.0
 40
0.0
 40
0.0
 40
0.0
 40
0.063299292
 40
0.0949482278
 40
0.1265849844
 40
0.1897932428
 40
0.2529138493
 40
0.2844429218
 40
0.3159414218
 40
0.3788193555
 40
0.4415511356
 40
0.5041272772
 40
0.5665444854
 40
0.6288052817
 40
0.659889107
 40
0.690937621
 40
0.7219528099
 40
0.7529369265
 40
0.8148034155
 40
0.8765806643
 40
0.9074540815
 40
0.9383157851
 40
1.0
 40
1.0
 40
1.0
 40
1.0
 10
4.6238641322
 20
2.8169489054
 30
0.0
 10
4.6184976432
 20
2.8169489054
 30
0.0
 10
4.6104410107
 20
2.8173344678
 30
0.0
 10
4.5997829736
 20
2.8186154376
 30
0.0
 10
4.5892052032
 20
2.8204036216
 30
0.0
 10
4.5761734618
 20
2.8235831575
 30
0.0
 10
4.5635153177
 20
2.8279954783
 30
0.0
 10
4.5536937238
 20
2.8322373005
 30
0.0
 10
4.5441067707
 20
2.8369389144
 30
0.0
 10
4.5325846016
 20
2.8436661326
 30
0.0
 10
4.5196323179
 20
2.853023776
 30
0.0
 10
4.5076823653
 20
2.863574345
 30
0.0
 10
4.4968513388
 20
2.875215158
 30
0.0
 10
4.4888378907
 20
2.8857408319
 30
0.0
 10
4.4830889426
 20
2.8945863387
 30
0.0
 10
4.4791178652
 20
2.9014161683
 30
0.0
 10
4.4754954953
 20
2.9084276604
 30
0.0
 10
4.4711452141
 20
2.9179894954
 30
0.0
 10
4.4666168888
 20
2.9303167598
 30
0.0
 10
4.4633489594
 20
2.9430266065
 30
0.0
 10
4.4615124521
 20
2.9533397457
 30
0.0
 10
4.4601977189
 20
2.9637234205
 30
0.0
 10
4.4598016322
 20
2.9715769308
 30
0.0
 10
4.4598016322
 20
2.9768064942
 30
0.0
  0
SPLINE
  5
240
100
AcDbEntity
  8
0
100
AcDbSpline
 62
7
  6
CONTINUOUS
 70
0
 71
3
 72
15
 73
11
 74
0
 42
0.0000001
 43
0.0000001
 44
0.0000000001
 40
0.0
 40
0.0
 40
0.0
 40
0.0
 40
0.1261554971
 40
0.2521278303
 40
0.3777844228
 40
0.5030161143
 40
0.6277886648
 40
0.7521376119
 40
0.8761530556
 40
1.0
 40
1.0
 40
1.0
 40
1.0
 10
5.5995148458
 20
5.3749314942
 30
0.0
 10
5.5995148458
 20
5.3744414813
 30
0.0
 10
5.5996095646
 20
5.373459543
 30
0.0
 10
5.6000306087
 20
5.372044746
 30
0.0
 10
5.6007144379
 20
5.370739944
 30
0.0
 10
5.6016351403
 20
5.3695959762
 30
0.0
 10
5.6027574152
 20
5.3686566791
 30
0.0
 10
5.604038501
 20
5.3679584859
 30
0.0
 10
5.6054283772
 20
5.3675283384
 30
0.0
 10
5.6063938907
 20
5.3674314942
 30
0.0
 10
5.6068749367
 20
5.3674314942
 30
0.0
  0
SPLINE
  5
241
100
AcDbEntity
  8
0
100
AcDbSpline
 62
7
  6
CONTINUOUS
 70
0
 71
3
 72
17
 73
13
 74
0
 42
0.0000001
 43
0.0000001
 44
0.0000000001
 40
0.0
 40
0.0
 40
0.0
 40
0.0
 40
0.0274281363
 40
0.0595383759
 40
0.0966518838
 40
0.1389592773
 40
0.1865554744
 40
0.2394162685
 40
0.3604493158
 40
0.500490701
 40
0.6567384279
 40
1.0
 40
1.0
 40
1.0
 40
1.0
 10
5.5995145378
 20
5.374931158
 30
0.0
 10
5.5994678963
 20
5.3748770358
 30
0.0
 10
5.5993544947
 20
5.3747699787
 30
0.0
 10
5.5991488722
 20
5.3746238419
 30
0.0
 10
5.5988954345
 20
5.3744809356
 30
0.0
 10
5.598594958
 20
5.3743418167
 30
0.0
 10
5.5982482601
 20
5.3742067534
 30
0.0
 10
5.5977004572
 20
5.3740250061
 30
0.0
 10
5.5969076703
 20
5.3738209714
 30
0.0
 10
5.5958400864
 20
5.3736135241
 30
0.0
 10
5.5941899338
 20
5.3733809576
 30
0.0
 10
5.5928907699
 20
5.3732814776
 30
0.0
 10
5.5919973386
 20
5.3732455796
 30
0.0
  0
SPLINE
  5
242
100
AcDbEntity
  8
0
100
AcDbSpline
 62
7
  6
CONTINUOUS
 70
0
 71
3
 72
34
 73
30
 74
0
 42
0.0000001
 43
0.0000001
 44
0.0000000001
 40
0.0
 40
0.0
 40
0.0
 40
0.0
 40
0.0049948996
 40
0.0100433206
 40
0.0151959225
 40
0.0205002979
 40
0.0317244795
 40
0.0440206316
 40
0.0576074418
 40
0.0726401582
 40
0.0892265569
 40
0.1074386088
 40
0.1273224778
 40
0.1489044709
 40
0.1721961495
 40
0.1971972417
 40
0.2238979091
 40
0.2522805081
 40
0.2823203219
 40
0.3139870544
 40
0.3472445511
 40
0.3820523717
 40
0.4561306673
 40
0.5358130934
 40
0.6206282553
 40
0.7100502673
 40
0.8035041319
 40
0.9003728322
 40
1.0
 40
1.0
 40
1.0
 40
1.0
 10
5.6426658918
 20
5.5474314942
 30
0.0
 10
5.6429714881
 20
5.5474314815
 30
0.0
 10
5.6435864356
 20
5.5473989433
 30
0.0
 10
5.6445062004
 20
5.5472530229
 30
0.0
 10
5.645424867
 20
5.5470101021
 30
0.0
 10
5.6466704267
 20
5.5465487685
 30
0.0
 10
5.648232443
 20
5.5457105397
 30
0.0
 10
5.6500522736
 20
5.544341896
 30
0.0
 10
5.6518540724
 20
5.5425963888
 30
0.0
 10
5.6536371842
 20
5.5404771344
 30
0.0
 10
5.6554006287
 20
5.5379865901
 30
0.0
 10
5.6571425762
 20
5.535127749
 30
0.0
 10
5.658860662
 20
5.5319041263
 30
0.0
 10
5.6605523208
 20
5.5283199876
 30
0.0
 10
5.6622148016
 20
5.5243802749
 30
0.0
 10
5.6638453254
 20
5.5200906227
 30
0.0
 10
5.6654411113
 20
5.5154573229
 30
0.0
 10
5.6669993591
 20
5.5104873072
 30
0.0
 10
5.6685173693
 20
5.5051881354
 30
0.0
 10
5.6699923875
 20
5.4995679814
 30
0.0
 10
5.6714218696
 20
5.4936356192
 30
0.0
 10
5.6733027407
 20
5.4851444463
 30
0.0
 10
5.6755066471
 20
5.4738178099
 30
0.0
 10
5.6778799212
 20
5.4594138764
 30
0.0
 10
5.680015355
 20
5.444024584
 30
0.0
 10
5.6818964061
 20
5.427753902
 30
0.0
 10
5.6835086355
 20
5.4107136089
 30
0.0
 10
5.6848384905
 20
5.3930229326
 30
0.0
 10
5.6855227237
 20
5.3810197341
 30
0.0
 10
5.6858171727
 20
5.3749314942
 30
0.0
  0
SPLINE
  5
243
100
AcDbEntity
  8
0
100
AcDbSpline
 62
7
  6
CONTINUOUS
 70
0
 71
3
 72
34
 73
30
 74
0
 42
0.0000001
 43
0.0000001
 44
0.0000000001
 40
0.0
 40
0.0
 40
0.0
 40
0.0
 40
0.0996267574
 40
0.1964955379
 40
0.2899494213
 40
0.3793714792
 40
0.4641866704
 40
0.5438691336
 40
0.6179474642
 40
0.6527553011
 40
0.6860128133
 40
0.7176795607
 40
0.7477193886
 40
0.776102001
 40
0.8028026808
 40
0.8278037846
 40
0.8510954738
 40
0.8726774762
 40
0.8925613535
 40
0.9107734138
 40
0.9273598196
 40
0.9423925401
 40
0.9559793539
 40
0.9682755119
 40
0.979499698
 40
0.9848040743
 40
0.9899566769
 40
0.995005099
 40
1.0
 40
1.0
 40
1.0
 40
1.0
 10
5.5995145542
 20
5.3749314942
 30
0.0
 10
5.5998090006
 20
5.3810197092
 30
0.0
 10
5.6004933246
 20
5.3930228824
 30
0.0
 10
5.6018231304
 20
5.4107135431
 30
0.0
 10
5.603435376
 20
5.4277538441
 30
0.0
 10
5.6053164203
 20
5.4440245329
 30
0.0
 10
5.6074518567
 20
5.4594138322
 30
0.0
 10
5.6098251298
 20
5.4738177724
 30
0.0
 10
5.6120290364
 20
5.4851444145
 30
0.0
 10
5.6139099076
 20
5.4936355917
 30
0.0
 10
5.6153393899
 20
5.4995679569
 30
0.0
 10
5.6168144084
 20
5.5051881138
 30
0.0
 10
5.6183324187
 20
5.5104872883
 30
0.0
 10
5.6198906668
 20
5.5154573066
 30
0.0
 10
5.621486453
 20
5.5200906088
 30
0.0
 10
5.6231169771
 20
5.5243802632
 30
0.0
 10
5.6247794583
 20
5.528319978
 30
0.0
 10
5.6264711175
 20
5.5319041185
 30
0.0
 10
5.6281892037
 20
5.5351277428
 30
0.0
 10
5.6299311516
 20
5.5379865854
 30
0.0
 10
5.6316945964
 20
5.5404771311
 30
0.0
 10
5.6334777088
 20
5.5425963862
 30
0.0
 10
5.6352795083
 20
5.5443418939
 30
0.0
 10
5.6370993391
 20
5.5457105388
 30
0.0
 10
5.6386613557
 20
5.5465487688
 30
0.0
 10
5.6399069159
 20
5.5470101021
 30
0.0
 10
5.6408255828
 20
5.5472530224
 30
0.0
 10
5.6417453479
 20
5.5473989427
 30
0.0
 10
5.6423602955
 20
5.5474314811
 30
0.0
 10
5.6426658918
 20
5.5474314942
 30
0.0
  0
SPLINE
  5
244
100
AcDbEntity
  8
0
100
AcDbSpline
 62
7
  6
CONTINUOUS
 70
0
 71
3
 72
28
 73
24
 74
0
 42
0.0000001
 43
0.0000001
 44
0.0000000001
 40
0.0
 40
0.0
 40
0.0
 40
0.0
 40
0.063299303
 40
0.0949482134
 40
0.1265849662
 40
0.1897932636
 40
0.2529138342
 40
0.2844429003
 40
0.3159414281
 40
0.3788193631
 40
0.4415511147
 40
0.5041272997
 40
0.5665444698
 40
0.628805285
 40
0.6598891254
 40
0.6909376254
 40
0.7219527913
 40
0.7529369171
 40
0.8148034336
 40
0.8765806437
 40
0.9074540689
 40
0.9383158013
 40
1.0
 40
1.0
 40
1.0
 40
1.0
 10
4.6238641322
 20
2.8591272281
 30
0.0
 10
4.6184976422
 20
2.8591272281
 30
0.0
 10
4.610441011
 20
2.8595127907
 30
0.0
 10
4.5997829753
 20
2.8607937593
 30
0.0
 10
4.5892052043
 20
2.862581945
 30
0.0
 10
4.5761734628
 20
2.8657614795
 30
0.0
 10
4.5635153188
 20
2.8701738
 30
0.0
 10
4.5536937262
 20
2.8744156221
 30
0.0
 10
4.5441067716
 20
2.8791172374
 30
0.0
 10
4.5325846019
 20
2.8858444547
 30
0.0
 10
4.5196323172
 20
2.895202099
 30
0.0
 10
4.5076823661
 20
2.9057526669
 30
0.0
 10
4.4968513385
 20
2.9173934815
 30
0.0
 10
4.4888378903
 20
2.9279191549
 30
0.0
 10
4.4830889419
 20
2.9367646635
 30
0.0
 10
4.4791178645
 20
2.9435944909
 30
0.0
 10
4.4754954961
 20
2.9506059812
 30
0.0
 10
4.4711452149
 20
2.9601678175
 30
0.0
 10
4.4666168894
 20
2.9724950816
 30
0.0
 10
4.4633489588
 20
2.9852049277
 30
0.0
 10
4.461512453
 20
2.995518067
 30
0.0
 10
4.4601977187
 20
3.0059017435
 30
0.0
 10
4.4598016322
 20
3.0137552548
 30
0.0
 10
4.4598016322
 20
3.0189848169
 30
0.0
  0
SPLINE
  5
245
100
AcDbEntity
  8
0
100
AcDbSpline
 62
7
  6
CONTINUOUS
 70
0
 71
3
 72
20
 73
16
 74
0
 42
0.0000001
 43
0.0000001
 44
0.0000000001
 40
0.0
 40
0.0
 40
0.0
 40
0.0
 40
0.1260114081
 40
0.1890119022
 40
0.25193658
 40
0.3773318408
 40
0.4399304382
 40
0.5024120236
 40
0.5647917718
 40
0.6270806303
 40
0.6892972947
 40
0.7514699466
 40
0.8136182022
 40
0.8757642215
 40
1.0
 40
1.0
 40
1.0
 40
1.0
 10
5.462032607
 20
5.3732454477
 30
0.0
 10
5.4610590406
 20
5.3732459513
 30
0.0
 10
5.4595938628
 20
5.3731062414
 30
0.0
 10
5.4576995571
 20
5.372649583
 30
0.0
 10
5.4558611159
 20
5.3720172031
 30
0.0
 10
5.4541246293
 20
5.3711240332
 30
0.0
 10
5.4525466135
 20
5.3699998917
 30
0.0
 10
5.4514527305
 20
5.3690468851
 30
0.0
 10
5.4504592869
 20
5.3679931559
 30
0.0
 10
5.4495749567
 20
5.3668487822
 30
0.0
 10
5.4488101969
 20
5.3656230789
 30
0.0
 10
5.4481723693
 20
5.3643280898
 30
0.0
 10
5.4476676423
 20
5.3629759067
 30
0.0
 10
5.4471813529
 20
5.3611160397
 30
0.0
 10
5.4470327299
 20
5.3596704119
 30
0.0
 10
5.447032607
 20
5.3587105639
 30
0.0
  0
SPLINE
  5
246
100
AcDbEntity
  8
0
100
AcDbSpline
 62
7
  6
CONTINUOUS
 70
0
 71
3
 72
22
 73
18
 74
0
 42
0.0000001
 43
0.0000001
 44
0.0000000001
 40
0.0
 40
0.0
 40
0.0
 40
0.0
 40
0.1883635038
 40
0.3696719903
 40
0.5372043236
 40
0.6138506286
 40
0.6848039949
 40
0.749444962
 40
0.8072215595
 40
0.857691149
 40
0.9005282031
 40
0.9355909654
 40
0.9630453501
 40
0.9741545577
 40
0.9837607635
 40
0.9922069985
 40
1.0
 40
1.0
 40
1.0
 40
1.0
 10
5.447032607
 20
5.3587105639
 30
0.0
 10
5.4475204097
 20
5.3587105639
 30
0.0
 10
5.4484778247
 20
5.3587256201
 30
0.0
 10
5.4498676237
 20
5.3587929304
 30
0.0
 10
5.4509658967
 20
5.3588861874
 30
0.0
 10
5.4517762673
 20
5.3589832825
 30
0.0
 10
5.4523201833
 20
5.3590628919
 30
0.0
 10
5.4528133103
 20
5.3591505732
 30
0.0
 10
5.4532510037
 20
5.3592454706
 30
0.0
 10
5.4536291546
 20
5.3593465313
 30
0.0
 10
5.4539445841
 20
5.3594526959
 30
0.0
 10
5.4541945477
 20
5.3595628269
 30
0.0
 10
5.4543581776
 20
5.359663339
 30
0.0
 10
5.4544504193
 20
5.3597479341
 30
0.0
 10
5.4544970996
 20
5.3598078916
 30
0.0
 10
5.4545259239
 20
5.3598690433
 30
0.0
 10
5.454532607
 20
5.3599113127
 30
0.0
 10
5.454532607
 20
5.3599314942
 30
0.0
  0
SPLINE
  5
247
100
AcDbEntity
  8
0
100
AcDbSpline
 62
7
  6
CONTINUOUS
 70
0
 71
3
 72
22
 73
18
 74
0
 42
0.0000001
 43
0.0000001
 44
0.0000000001
 40
0.0
 40
0.0
 40
0.0
 40
0.0
 40
0.1883636764
 40
0.3696723446
 40
0.5372048506
 40
0.6138512318
 40
0.6848046638
 40
0.7494456826
 40
0.8072223135
 40
0.8576919127
 40
0.9005289453
 40
0.935591643
 40
0.9630459015
 40
0.974155013
 40
0.9837610953
 40
0.992207177
 40
1.0
 40
1.0
 40
1.0
 40
1.0
 10
5.447032607
 20
5.2824024244
 30
0.0
 10
5.4475204097
 20
5.2824024224
 30
0.0
 10
5.4484778248
 20
5.2823873628
 30
0.0
 10
5.4498676237
 20
5.2823200486
 30
0.0
 10
5.4509658967
 20
5.2822267895
 30
0.0
 10
5.4517762673
 20
5.2821296935
 30
0.0
 10
5.4523201832
 20
5.282050084
 30
0.0
 10
5.4528133102
 20
5.2819624027
 30
0.0
 10
5.4532510037
 20
5.281867506
 30
0.0
 10
5.4536291544
 20
5.2817664463
 30
0.0
 10
5.453944584
 20
5.281660283
 30
0.0
 10
5.4541945474
 20
5.2815501538
 30
0.0
 10
5.4543581773
 20
5.2814496436
 30
0.0
 10
5.4544504192
 20
5.2813650502
 30
0.0
 10
5.4544970995
 20
5.2813050939
 30
0.0
 10
5.4545259239
 20
5.2812439437
 30
0.0
 10
5.454532607
 20
5.2812016751
 30
0.0
 10
5.454532607
 20
5.2811814942
 30
0.0
  0
SPLINE
  5
248
100
AcDbEntity
  8
0
100
AcDbSpline
 62
7
  6
CONTINUOUS
 70
0
 71
3
 72
20
 73
16
 74
0
 42
0.0000001
 43
0.0000001
 44
0.0000000001
 40
0.0
 40
0.0
 40
0.0
 40
0.0
 40
0.1242357584
 40
0.1863817792
 40
0.2485300276
 40
0.3107027134
 40
0.3729193367
 40
0.4352082217
 40
0.4975879637
 40
0.5600695755
 40
0.6226681348
 40
0.7480634051
 40
0.8109880502
 40
0.8739884678
 40
1.0
 40
1.0
 40
1.0
 40
1.0
 10
5.447032607
 20
5.2824024244
 30
0.0
 10
5.4470327173
 20
5.2814425769
 30
0.0
 10
5.447181323
 20
5.2799969452
 30
0.0
 10
5.4476676426
 20
5.2781370859
 30
0.0
 10
5.4481723922
 20
5.2767849127
 30
0.0
 10
5.4488102053
 20
5.2754899184
 30
0.0
 10
5.4495749474
 20
5.2742642035
 30
0.0
 10
5.4504592877
 20
5.2731198375
 30
0.0
 10
5.4514527389
 20
5.2720661166
 30
0.0
 10
5.4525466089
 20
5.2711130984
 30
0.0
 10
5.4541245948
 20
5.2699889127
 30
0.0
 10
5.4558611115
 20
5.2690957989
 30
0.0
 10
5.4576995519
 20
5.2684634211
 30
0.0
 10
5.4595938764
 20
5.2680068424
 30
0.0
 10
5.46105904
 20
5.2678670795
 30
0.0
 10
5.462032607
 20
5.2678675407
 30
0.0
  0
SPLINE
  5
249
100
AcDbEntity
  8
0
100
AcDbSpline
 62
7
  6
CONTINUOUS
 70
0
 71
3
 72
34
 73
30
 74
0
 42
0.0000001
 43
0.0000001
 44
0.0000000001
 40
0.0
 40
0.0
 40
0.0
 40
0.0
 40
0.0048193652
 40
0.0096952024
 40
0.014680874
 40
0.0198262244
 40
0.0307621309
 40
0.0428156428
 40
0.0562067394
 40
0.0710885389
 40
0.0875652999
 40
0.105705101
 40
0.1255502993
 40
0.1471236424
 40
0.1704333592
 40
0.1954760823
 40
0.2222390301
 40
0.2507017971
 40
0.2808369483
 40
0.3126115764
 40
0.3459869143
 40
0.3809199815
 40
0.4552609738
 40
0.5352055097
 40
0.6202618185
 40
0.7098839569
 40
0.8034783716
 40
0.9004072192
 40
1.0
 40
1.0
 40
1.0
 40
1.0
 10
5.6353058009
 20
5.0861814942
 30
0.0
 10
5.6349965399
 20
5.0861815007
 30
0.0
 10
5.6343738629
 20
5.0862159512
 30
0.0
 10
5.633442797
 20
5.086370441
 30
0.0
 10
5.6325129541
 20
5.0866275863
 30
0.0
 10
5.6312505478
 20
5.0871165838
 30
0.0
 10
5.6296678328
 20
5.0880055855
 30
0.0
 10
5.6278276648
 20
5.0894537154
 30
0.0
 10
5.6260062519
 20
5.0912997034
 30
0.0
 10
5.624204084
 20
5.0935404112
 30
0.0
 10
5.6224221156
 20
5.0961733304
 30
0.0
 10
5.620662276
 20
5.0991952756
 30
0.0
 10
5.6189270551
 20
5.1026024316
 30
0.0
 10
5.617219152
 20
5.1063901441
 30
0.0
 10
5.6155414397
 20
5.1105530062
 30
0.0
 10
5.6138968169
 20
5.1150848568
 30
0.0
 10
5.612288168
 20
5.1199788213
 30
0.0
 10
5.6107183996
 20
5.125227334
 30
0.0
 10
5.6091902984
 20
5.1308221514
 30
0.0
 10
5.6077067111
 20
5.1367543663
 30
0.0
 10
5.6062702555
 20
5.1430144279
 30
0.0
 10
5.6043822046
 20
5.1519718914
 30
0.0
 10
5.6021741448
 20
5.163913799
 30
0.0
 10
5.5998032506
 20
5.1790900389
 30
0.0
 10
5.5976778571
 20
5.1952919966
 30
0.0
 10
5.595814768
 20
5.2124073409
 30
0.0
 10
5.5942287296
 20
5.2303154403
 30
0.0
 10
5.5929326684
 20
5.2488881328
 30
0.0
 10
5.5922766118
 20
5.2614826779
 30
0.0
 10
5.5919972933
 20
5.2678674877
 30
0.0
  0
SPLINE
  5
24A
100
AcDbEntity
  8
0
100
AcDbSpline
 62
7
  6
CONTINUOUS
 70
0
 71
3
 72
15
 73
11
 74
0
 42
0.0000001
 43
0.0000001
 44
0.0000000001
 40
0.0
 40
0.0
 40
0.0
 40
0.0
 40
0.1261554962
 40
0.2521278285
 40
0.3777844202
 40
0.5030161113
 40
0.627788662
 40
0.7521376096
 40
0.8761530544
 40
1.0
 40
1.0
 40
1.0
 40
1.0
 10
5.5995148459
 20
5.2661814942
 30
0.0
 10
5.5995148459
 20
5.2666715071
 30
0.0
 10
5.5996095647
 20
5.2676534453
 30
0.0
 10
5.6000306088
 20
5.2690682423
 30
0.0
 10
5.600714438
 20
5.2703730443
 30
0.0
 10
5.6016351404
 20
5.2715170121
 30
0.0
 10
5.6027574153
 20
5.2724563092
 30
0.0
 10
5.604038501
 20
5.2731545024
 30
0.0
 10
5.6054283773
 20
5.27358465
 30
0.0
 10
5.6063938907
 20
5.2736814942
 30
0.0
 10
5.6068749368
 20
5.2736814942
 30
0.0
  0
SPLINE
  5
24B
100
AcDbEntity
  8
0
100
AcDbSpline
 62
7
  6
CONTINUOUS
 70
0
 71
3
 72
34
 73
30
 74
0
 42
0.0000001
 43
0.0000001
 44
0.0000000001
 40
0.0
 40
0.0
 40
0.0
 40
0.0
 40
0.099627151
 40
0.1964958576
 40
0.2899497195
 40
0.3793717376
 40
0.4641868952
 40
0.5438693243
 40
0.6179476229
 40
0.6527554445
 40
0.686012942
 40
0.7176796754
 40
0.7477194899
 40
0.7761020896
 40
0.8028027575
 40
0.8278038502
 40
0.8510955292
 40
0.8726775222
 40
0.892561391
 40
0.9107734437
 40
0.9273598428
 40
0.9423925576
 40
0.9559793665
 40
0.9682755204
 40
0.9794997032
 40
0.9848040781
 40
0.9899566794
 40
0.9950051002
 40
1.0
 40
1.0
 40
1.0
 40
1.0
 10
5.6858171748
 20
5.2661814942
 30
0.0
 10
5.6855227265
 20
5.2600932552
 30
0.0
 10
5.6848384885
 20
5.2480900576
 30
0.0
 10
5.6835086368
 20
5.2303993819
 30
0.0
 10
5.6818964055
 20
5.2133590884
 30
0.0
 10
5.6800153559
 20
5.1970884062
 30
0.0
 10
5.6778799209
 20
5.1816991136
 30
0.0
 10
5.6755066473
 20
5.16729518
 30
0.0
 10
5.673302741
 20
5.1559685431
 30
0.0
 10
5.6714218699
 20
5.1474773699
 30
0.0
 10
5.6699923877
 20
5.1415450076
 30
0.0
 10
5.6685173695
 20
5.1359248534
 30
0.0
 10
5.6669993594
 20
5.1306256814
 30
0.0
 10
5.6654411115
 20
5.1256556656
 30
0.0
 10
5.6638453256
 20
5.1210223657
 30
0.0
 10
5.6622148018
 20
5.1167327134
 30
0.0
 10
5.660552321
 20
5.1127930006
 30
0.0
 10
5.6588606622
 20
5.1092088619
 30
0.0
 10
5.6571425763
 20
5.1059852392
 30
0.0
 10
5.6554006289
 20
5.103126398
 30
0.0
 10
5.6536371844
 20
5.1006358537
 30
0.0
 10
5.6518540725
 20
5.0985165996
 30
0.0
 10
5.6500522735
 20
5.0967710928
 30
0.0
 10
5.6482324431
 20
5.0954024486
 30
0.0
 10
5.6466704269
 20
5.0945642191
 30
0.0
 10
5.6454248671
 20
5.094102886
 30
0.0
 10
5.6445062004
 20
5.0938599658
 30
0.0
 10
5.6435864356
 20
5.0937140456
 30
0.0
 10
5.6429714881
 20
5.0936815072
 30
0.0
 10
5.6426658918
 20
5.0936814942
 30
0.0
  0
SPLINE
  5
24C
100
AcDbEntity
  8
0
100
AcDbSpline
 62
7
  6
CONTINUOUS
 70
0
 71
3
 72
34
 73
30
 74
0
 42
0.0000001
 43
0.0000001
 44
0.0000000001
 40
0.0
 40
0.0
 40
0.0
 40
0.0
 40
0.0049949011
 40
0.0100433237
 40
0.0151959273
 40
0.0205003045
 40
0.0317244903
 40
0.0440206475
 40
0.0576074639
 40
0.0726401877
 40
0.0892265947
 40
0.1074386563
 40
0.127322536
 40
0.1489045411
 40
0.1721962326
 40
0.1971973389
 40
0.2238980213
 40
0.2522806364
 40
0.2823204671
 40
0.3139872175
 40
0.3472447328
 40
0.3820525728
 40
0.456130909
 40
0.5358133783
 40
0.6206285829
 40
0.7100506451
 40
0.8035045371
 40
0.9003733311
 40
1.0
 40
1.0
 40
1.0
 40
1.0
 10
5.6426658918
 20
5.0936814942
 30
0.0
 10
5.6423602955
 20
5.0936815069
 30
0.0
 10
5.6417453478
 20
5.093714045
 30
0.0
 10
5.6408255826
 20
5.0938599656
 30
0.0
 10
5.6399069157
 20
5.0941028865
 30
0.0
 10
5.6386613556
 20
5.0945642204
 30
0.0
 10
5.6370993388
 20
5.0954024497
 30
0.0
 10
5.6352795076
 20
5.0967710944
 30
0.0
 10
5.6334777083
 20
5.0985166027
 30
0.0
 10
5.631694596
 20
5.1006358585
 30
0.0
 10
5.6299311509
 20
5.1031264044
 30
0.0
 10
5.6281892029
 20
5.1059852473
 30
0.0
 10
5.6264711166
 20
5.1092088721
 30
0.0
 10
5.6247794574
 20
5.1127930131
 30
0.0
 10
5.6231169761
 20
5.1167327283
 30
0.0
 10
5.6214864519
 20
5.1210223832
 30
0.0
 10
5.6198906656
 20
5.1256556859
 30
0.0
 10
5.6183324175
 20
5.1306257047
 30
0.0
 10
5.616814407
 20
5.1359248798
 30
0.0
 10
5.6153393886
 20
5.1415450372
 30
0.0
 10
5.6139099062
 20
5.147477403
 30
0.0
 10
5.6120290349
 20
5.155968581
 30
0.0
 10
5.6098251282
 20
5.167295224
 30
0.0
 10
5.6074518548
 20
5.1816991657
 30
0.0
 10
5.6053164192
 20
5.1970884667
 30
0.0
 10
5.6034353748
 20
5.2133591571
 30
0.0
 10
5.6018231272
 20
5.2303994597
 30
0.0
 10
5.6004933305
 20
5.2480901169
 30
0.0
 10
5.5998089884
 20
5.2600932846
 30
0.0
 10
5.5995145418
 20
5.2661814942
 30
0.0
  0
SPLINE
  5
24D
100
AcDbEntity
  8
0
100
AcDbSpline
 62
7
  6
CONTINUOUS
 70
0
 71
3
 72
17
 73
13
 74
0
 42
0.0000001
 43
0.0000001
 44
0.0000000001
 40
0.0
 40
0.0
 40
0.0
 40
0.0
 40
0.343260046
 40
0.499507466
 40
0.6395487585
 40
0.7605819847
 40
0.8134427958
 40
0.8610391733
 40
0.9033471024
 40
0.9404610055
 40
0.9725710685
 40
1.0
 40
1.0
 40
1.0
 40
1.0
 10
5.5919972972
 20
5.2678674146
 30
0.0
 10
5.5928907273
 20
5.2678315175
 30
0.0
 10
5.5941898898
 20
5.2677320282
 30
0.0
 10
5.5958400433
 20
5.2674994724
 30
0.0
 10
5.5969076337
 20
5.2672920395
 30
0.0
 10
5.597700417
 20
5.2670879824
 30
0.0
 10
5.5982482288
 20
5.266906254
 30
0.0
 10
5.5985949314
 20
5.2667711933
 30
0.0
 10
5.5988954073
 20
5.2666320634
 30
0.0
 10
5.5991488465
 20
5.2664891554
 30
0.0
 10
5.5993544827
 20
5.2663430328
 30
0.0
 10
5.5994678878
 20
5.2662359738
 30
0.0
 10
5.5995145247
 20
5.2661818447
 30
0.0
  0
LINE
  5
24E
100
AcDbEntity
  8
0
100
AcDbLine
 62
7
  6
CONTINUOUS
 10
5.6858171881
 20
5.2661817694
 11
5.6859826446
 21
5.2665387348
  0
SPLINE
  5
24F
100
AcDbEntity
  8
0
100
AcDbSpline
 62
7
  6
CONTINUOUS
 70
0
 71
3
 72
34
 73
30
 74
0
 42
0.0000001
 43
0.0000001
 44
0.0000000001
 40
0.0
 40
0.0
 40
0.0
 40
0.0
 40
0.0995927809
 40
0.1965216298
 40
0.2901160445
 40
0.3797381831
 40
0.4647944917
 40
0.5447390275
 40
0.6190800195
 40
0.6540130867
 40
0.6873884245
 40
0.7191630526
 40
0.7492982037
 40
0.7777609705
 40
0.8045239182
 40
0.8295666413
 40
0.852876358
 40
0.8744497011
 40
0.8942948993
 40
0.9124347004
 40
0.9289114612
 40
0.9437932606
 40
0.9571843572
 40
0.9692378694
 40
0.9801737758
 40
0.9853191259
 40
0.9903047973
 40
0.9951806345
 40
1.0
 40
1.0
 40
1.0
 40
1.0
 10
5.5919973344
 20
5.3732455018
 30
0.0
 10
5.5922766524
 20
5.3796303115
 30
0.0
 10
5.5929326452
 20
5.3922248598
 30
0.0
 10
5.5942287378
 20
5.4107975503
 30
0.0
 10
5.5958147658
 20
5.4287056501
 30
0.0
 10
5.5976778579
 20
5.445820994
 30
0.0
 10
5.5998032511
 20
5.4620229514
 30
0.0
 10
5.6021741451
 20
5.477199191
 30
0.0
 10
5.6043822048
 20
5.4891410984
 30
0.0
 10
5.6062702557
 20
5.4980985617
 30
0.0
 10
5.6077067114
 20
5.5043586231
 30
0.0
 10
5.6091902986
 20
5.5102908379
 30
0.0
 10
5.6107183998
 20
5.5158856553
 30
0.0
 10
5.6122881682
 20
5.5211341678
 30
0.0
 10
5.6138968171
 20
5.5260281322
 30
0.0
 10
5.6155414399
 20
5.5305599827
 30
0.0
 10
5.6172191521
 20
5.5347228447
 30
0.0
 10
5.6189270552
 20
5.5385105572
 30
0.0
 10
5.6206622762
 20
5.541917713
 30
0.0
 10
5.6224221158
 20
5.5449396582
 30
0.0
 10
5.6242040841
 20
5.5475725772
 30
0.0
 10
5.626006252
 20
5.549813285
 30
0.0
 10
5.6278276649
 20
5.5516592729
 30
0.0
 10
5.6296678328
 20
5.5531074029
 30
0.0
 10
5.6312505478
 20
5.5539964047
 30
0.0
 10
5.6325129542
 20
5.5544854019
 30
0.0
 10
5.633442797
 20
5.554742547
 30
0.0
 10
5.634373863
 20
5.5548970367
 30
0.0
 10
5.6349965399
 20
5.5549314875
 30
0.0
 10
5.6353058009
 20
5.5549314942
 30
0.0
  0
LINE
  5
250
100
AcDbEntity
  8
0
100
AcDbLine
 62
7
  6
CONTINUOUS
 10
5.6859826448
 20
5.3745742515
 11
5.6858171858
 21
5.3749312213
  0
SPLINE
  5
251
100
AcDbEntity
  8
0
100
AcDbSpline
 62
7
  6
CONTINUOUS
 70
0
 71
3
 72
28
 73
24
 74
0
 42
0.0000001
 43
0.0000001
 44
0.0000000001
 40
0.0
 40
0.0
 40
0.0
 40
0.0
 40
0.0616841987
 40
0.0925459311
 40
0.1234193563
 40
0.1851965664
 40
0.2470630829
 40
0.2780472087
 40
0.3090623746
 40
0.3401108746
 40
0.371194715
 40
0.4334555302
 40
0.4958727003
 40
0.5584488853
 40
0.6211806369
 40
0.6840585719
 40
0.7155570997
 40
0.7470861658
 40
0.8102067364
 40
0.8734150338
 40
0.9050517866
 40
0.936700697
 40
1.0
 40
1.0
 40
1.0
 40
1.0
 10
4.7879266322
 20
3.0189848169
 30
0.0
 10
4.7879266322
 20
3.0137552548
 30
0.0
 10
4.7875305456
 20
3.0059017435
 30
0.0
 10
4.7862158113
 20
2.995518067
 30
0.0
 10
4.7843793055
 20
2.9852049277
 30
0.0
 10
4.781111375
 20
2.9724950816
 30
0.0
 10
4.7765830494
 20
2.9601678175
 30
0.0
 10
4.7722327682
 20
2.9506059812
 30
0.0
 10
4.7686103998
 20
2.9435944909
 30
0.0
 10
4.7646393224
 20
2.9367646635
 30
0.0
 10
4.758890374
 20
2.9279191549
 30
0.0
 10
4.7508769258
 20
2.9173934815
 30
0.0
 10
4.7400458982
 20
2.9057526669
 30
0.0
 10
4.7280959471
 20
2.895202099
 30
0.0
 10
4.7151436624
 20
2.8858444547
 30
0.0
 10
4.7036214927
 20
2.8791172374
 30
0.0
 10
4.6940345382
 20
2.8744156221
 30
0.0
 10
4.6842129455
 20
2.8701738
 30
0.0
 10
4.6715548015
 20
2.8657614795
 30
0.0
 10
4.65852306
 20
2.862581945
 30
0.0
 10
4.647945289
 20
2.8607937593
 30
0.0
 10
4.6372872533
 20
2.8595127907
 30
0.0
 10
4.6292306221
 20
2.8591272281
 30
0.0
 10
4.6238641322
 20
2.8591272281
 30
0.0
  0
SPLINE
  5
252
100
AcDbEntity
  8
0
100
AcDbSpline
 62
7
  6
CONTINUOUS
 70
0
 71
3
 72
15
 73
11
 74
0
 42
0.0000001
 43
0.0000001
 44
0.0000000001
 40
0.0
 40
0.0
 40
0.0
 40
0.0
 40
0.1261885886
 40
0.252114113
 40
0.3776982536
 40
0.5028694186
 40
0.627617013
 40
0.7519864992
 40
0.8760677344
 40
1.0
 40
1.0
 40
1.0
 40
1.0
 10
5.6858667387
 20
5.2670521794
 30
0.0
 10
5.6859184032
 20
5.2675028269
 30
0.0
 10
5.6861025123
 20
5.2683960173
 30
0.0
 10
5.6866117225
 20
5.2696620841
 30
0.0
 10
5.6873372464
 20
5.270814124
 30
0.0
 10
5.6882554035
 20
5.2718136241
 30
0.0
 10
5.6893359821
 20
5.2726277123
 30
0.0
 10
5.6905436046
 20
5.2732293216
 30
0.0
 10
5.6918378302
 20
5.2735985209
 30
0.0
 10
5.6927315401
 20
5.2736814942
 30
0.0
 10
5.6931770288
 20
5.2736814942
 30
0.0
  0
SPLINE
  5
253
100
AcDbEntity
  8
0
100
AcDbSpline
 62
7
  6
CONTINUOUS
 70
0
 71
3
 72
15
 73
11
 74
0
 42
0.0000001
 43
0.0000001
 44
0.0000000001
 40
0.0
 40
0.0
 40
0.0
 40
0.0
 40
0.1261885889
 40
0.2521141135
 40
0.3776982544
 40
0.5028694195
 40
0.6276170139
 40
0.7519864999
 40
0.8760677347
 40
1.0
 40
1.0
 40
1.0
 40
1.0
 10
5.6858667386
 20
5.3740608087
 30
0.0
 10
5.6859184031
 20
5.3736101612
 30
0.0
 10
5.6861025122
 20
5.3727169708
 30
0.0
 10
5.6866117225
 20
5.3714509041
 30
0.0
 10
5.6873372464
 20
5.3702988642
 30
0.0
 10
5.6882554035
 20
5.3692993641
 30
0.0
 10
5.6893359821
 20
5.3684852759
 30
0.0
 10
5.6905436046
 20
5.3678836667
 30
0.0
 10
5.6918378301
 20
5.3675144675
 30
0.0
 10
5.69273154
 20
5.3674314942
 30
0.0
 10
5.6931770287
 20
5.3674314942
 30
0.0
  0
ELLIPSE
  5
254
100
AcDbEntity
  8
0
100
AcDbEllipse
 62
7
  6
CONTINUOUS
 10
5.3571548947
 20
5.3205564942
 30
0.0
 11
-0.0
 21
0.234375
 31
0.0
 40
0.1959072537
 41
0.0
 42
3.1415926536
  0
ENDSEC
  0
SECTION
  2
OBJECTS
  0
DICTIONARY
  5
C
100
AcDbDictionary
280
0
281
1
  3
ACAD_GROUP
350
D
  3
ACAD_MLINESTYLE
350
17
  3
ACAD_LAYOUT
350
1A
  3
ACAD_PLOTSETTINGS
350
19
  3
ACAD_PLOTSTYLENAME
350
E
  0
DICTIONARY
  5
D
102
{ACAD_REACTORS
330
C
102
}
100
AcDbDictionary
280
0
281
1
  0
ACDBDICTIONARYWDFLT
  5
E
102
{ACAD_REACTORS
330
C
102
}
100
AcDbDictionary
281
1
  3
Normal
350
F
100
AcDbDictionaryWithDefault
340
F
  0
DICTIONARY
  5
17
102
{ACAD_REACTORS
330
C
102
}
100
AcDbDictionary
280
0
281
1
  3
Standard
350
18
  0
DICTIONARY
  5
19
102
{ACAD_REACTORS
330
C
102
}
100
AcDbDictionary
281
1
  0
DICTIONARY
  5
1A
102
{ACAD_REACTORS
330
C
102
}
100
AcDbDictionary
281
1
  3
Model
350
255
  3
Layout1
350
256
  0
ACDBPLACEHOLDER
  5
F
102
{ACAD_REACTORS
330
E
102
}
  0
MLINESTYLE
  5
18
102
{ACAD_REACTORS
330
17
102
}
100
AcDbMlineStyle
  2
STANDARD
 70
0
  3

 62
256
 51
90.0
 52
90.0
 71
2
 49
0.5
 62
256
  6
BYLAYER
 49
-0.5
 62
256
  6
BYLAYER
  0
LAYOUT
  5
255
102
{ACAD_REACTORS
330
1A
102
}
100
AcDbPlotSettings
  1

  2
none_device
  4
ANSI_A_(11.00_x_8.50_Inches)
  6

 40
0.0
 41
0.0
 42
0.0
 43
0.0
 44
279.4
 45
215.9
 46
0.0
 47
0.0
 48
0.0
 49
0.0
140
0.0
141
0.0
142
1.0
143
1.0
 70
1024
 72
0
 73
0
 74
0
  7

 75
0
147
1.0
148
0.0
149
0.0
100
AcDbLayout
  1
Model
 70
0
 71
0
 10
0.0
 20
0.0
 11
11.0
 21
8.5
 12
0.0
 22
0.0
 32
0.0
 14
0.0
 24
0.0
 34
0.0
 15
0.0
 25
0.0
 35
0.0
146
0.0
 13
0.0
 23
0.0
 33
0.0
 16
1.0
 26
0.0
 36
0.0
 17
0.0
 27
1.0
 37
0.0
 76
0
330
202
345
0
346
0
  0
LAYOUT
  5
256
102
{ACAD_REACTORS
330
1A
102
}
100
AcDbPlotSettings
  1

  2
none_device
  4
ANSI_A_(11.00_x_8.50_Inches)
  6

 40
0.0
 41
0.0
 42
0.0
 43
0.0
 44
279.4
 45
215.9
 46
0.0
 47
0.0
 48
0.0
 49
0.0
140
0.0
141
0.0
142
1.0
143
1.0
 70
0
 72
0
 73
0
 74
0
  7

 75
0
147
1.0
148
0.0
149
0.0
100
AcDbLayout
  1
Layout1
 70
0
 71
1
 10
0.0
 20
0.0
 11
11.0
 21
8.5
 12
0.0
 22
0.0
 32
0.0
 14
0.0
 24
0.0
 34
0.0
 15
0.0
 25
0.0
 35
0.0
146
0.0
 13
0.0
 23
0.0
 33
0.0
 16
1.0
 26
0.0
 36
0.0
 17
0.0
 27
1.0
 37
0.0
 76
0
330
203
345
0
346
0
  0
ENDSEC
  0
EOF
