999
DXF file: 243-401_front.dxf
999
Pro/ENGINEER 2018400 by Parametric Technology Corporation
  0
SECTION
  2
HEADER
  9
$ACADVER
  1
AC1027
  9
$DWGCODEPAGE
  3
ANSI_1252
  9
$EXTMAX
 10
11.0
 20
8.5
 30
0.0
  9
$EXTMIN
 10
0.0
 20
0.0
 30
0.0
  9
$LIMMIN
 10
0.0
 20
0.0
  9
$LIMMAX
 10
11.0
 20
8.5
  9
$VIEWCTR
 10
5.5
 20
4.25
  9
$VIEWSIZE
 40
8.5
  9
$CLAYER
  8
0
  9
$LTSCALE
 40
0.605
  9
$CELTYPE
  6
BYLAYER
  9
$DIMSCALE
 40
1.0
  9
$DIMASZ
 40
0.1
  9
$DIMEXO
 40
0.0625
  9
$DIMDLI
 40
0.418
  9
$DIMEXE
 40
0.125
  9
$DIMCEN
 40
0.099
  9
$DIMLFAC
 40
1.0
  9
$DIMBLK
  1
_FILLED
  9
$DIMALT
 70
0
  9
$DIMALTF
 40
25.4
  9
$DIMTXT
 40
0.08
  9
$DIMTOL
 70
1
  9
$DIMLIM
 70
0
  9
$DIMTFAC
 40
1.0
  9
$DIMTP
 40
0.001
  9
$DIMTM
 40
0.001
  9
$DIMGAP
 40
0.09
  9
$DIMDSEP
 70
46
  9
$AUNITS
 70
0
  9
$PDMODE
 70
3
  9
$PDSIZE
 40
0.06
  9
$HANDSEED
  5
45C
  9
$TILEMODE
 70
1
  9
$MEASUREMENT
 70
0
  9
$INSUNITS
 70
1
  0
ENDSEC
  0
SECTION
  2
CLASSES
  0
CLASS
  1
ACDBDICTIONARYWDFLT
  2
AcDbDictionaryWithDefault
  3
AutoCAD 2000
 90
0
 91
1
280
0
281
0
  0
CLASS
  1
ACDBPLACEHOLDER
  2
AcDbPlaceHolder
  3
AutoCAD 2000
 90
0
 91
1
280
0
281
0
  0
CLASS
  1
LAYOUT
  2
AcDbLayout
  3
AutoCAD 2000
 90
0
 91
0
280
0
281
0
  0
ENDSEC
  0
SECTION
  2
TABLES
  0
TABLE
  2
VPORT
  5
8
100
AcDbSymbolTable
 70
2
  0
VPORT
  5
1F4
100
AcDbSymbolTableRecord
100
AcDbViewportTableRecord
  2
*ACTIVE
 70
0
 10
0.0
 20
0.0
 11
1.0
 21
1.0
 12
5.5
 22
4.25
 13
0.0
 23
0.0
 14
1.0
 24
1.0
 15
0.0
 25
0.0
 16
0.0
 26
0.0
 36
1.0
 17
0.0
 27
0.0
 37
0.0
 40
8.5
 41
1.2941176471
 42
50.0
 43
0.0
 44
0.0
 50
0.0
 51
0.0
 71
0
 72
100
 73
1
 74
1
 75
0
 76
0
 77
0
 78
0
  0
ENDTAB
  0
TABLE
  2
LTYPE
  5
5
100
AcDbSymbolTable
 70
6
  0
LTYPE
  5
14
100
AcDbSymbolTableRecord
100
AcDbLinetypeTableRecord
  2
BYBLOCK
 70
0
  3

 72
65
 73
0
 40
0.0
  0
LTYPE
  5
15
100
AcDbSymbolTableRecord
100
AcDbLinetypeTableRecord
  2
BYLAYER
 70
0
  3

 72
65
 73
0
 40
0.0
  0
LTYPE
  5
16
100
AcDbSymbolTableRecord
100
AcDbLinetypeTableRecord
  2
CONTINUOUS
 70
64
  3
Solid line
 72
65
 73
0
 40
0.0
  0
LTYPE
  5
1F5
100
AcDbSymbolTableRecord
100
AcDbLinetypeTableRecord
  2
CENTER
 70
64
  3
____ _ ____ _ ____ _ ____ _ ____ _ ____ _ ____
 72
65
 73
4
 40
0.6
 49
0.375
 74
0
 49
-0.075
 74
0
 49
0.075
 74
0
 49
-0.075
 74
0
  0
LTYPE
  5
1F6
100
AcDbSymbolTableRecord
100
AcDbLinetypeTableRecord
  2
HIDDEN
 70
64
  3
- - - - - - - - - - - - - - - - - - - -
 72
65
 73
2
 40
0.2
 49
0.1
 74
0
 49
-0.1
 74
0
  0
LTYPE
  5
1F7
100
AcDbSymbolTableRecord
100
AcDbLinetypeTableRecord
  2
PHANTOM
 70
64
  3
_____ _ _ _____ _ _ _____ _ _ _____
 72
65
 73
6
 40
0.8
 49
0.45
 74
0
 49
-0.05
 74
0
 49
0.1
 74
0
 49
-0.05
 74
0
 49
0.1
 74
0
 49
-0.05
 74
0
  0
LTYPE
  5
1F8
100
AcDbSymbolTableRecord
100
AcDbLinetypeTableRecord
  2
DOT
 70
64
  3
. . . . . . . . . . . . . . . . . . . .
 72
65
 73
2
 40
0.2
 49
0.1
 74
0
 49
-0.1
 74
0
  0
LTYPE
  5
1F9
100
AcDbSymbolTableRecord
100
AcDbLinetypeTableRecord
  2
DASHED
 70
64
  3
- - - - - - - - - - - - - - - - - - - -
 72
65
 73
2
 40
0.2
 49
0.1
 74
0
 49
-0.1
 74
0
  0
ENDTAB
  0
TABLE
  2
LAYER
  5
2
100
AcDbSymbolTable
 70
36
  0
LAYER
  5
10
100
AcDbSymbolTableRecord
100
AcDbLayerTableRecord
  2
0
 70
0
 62
7
  6
CONTINUOUS
370
-3
390
F
  0
LAYER
  5
1FA
100
AcDbSymbolTableRecord
100
AcDbLayerTableRecord
  2
DEFAULT_1
 70
0
 62
7
  6
CENTER
370
-3
390
F
  0
LAYER
  5
1FB
100
AcDbSymbolTableRecord
100
AcDbLayerTableRecord
  2
DEFAULT_2
 70
0
 62
8
  6
HIDDEN
370
-3
390
F
  0
LAYER
  5
1FC
100
AcDbSymbolTableRecord
100
AcDbLayerTableRecord
  2
DEFAULT_3
 70
0
 62
7
  6
PHANTOM
370
-3
390
F
  0
LAYER
  5
1FD
100
AcDbSymbolTableRecord
100
AcDbLayerTableRecord
  2
ALL_FEATURES
 70
0
 62
7
  6
CONTINUOUS
370
-3
390
F
  0
LAYER
  5
1FE
100
AcDbSymbolTableRecord
100
AcDbLayerTableRecord
  2
AXES_FEATURES
 70
0
 62
7
  6
CONTINUOUS
370
-3
390
F
  0
LAYER
  5
1FF
100
AcDbSymbolTableRecord
100
AcDbLayerTableRecord
  2
DEFAULT_COORDINATE_SYSTEM
 70
0
 62
7
  6
CONTINUOUS
370
-3
390
F
  0
LAYER
  5
200
100
AcDbSymbolTableRecord
100
AcDbLayerTableRecord
  2
DEFAULT_DATUM_AXES
 70
0
 62
7
  6
CONTINUOUS
370
-3
390
F
  0
LAYER
  5
201
100
AcDbSymbolTableRecord
100
AcDbLayerTableRecord
  2
DEFAULT_DATUM_CURVES
 70
0
 62
7
  6
CONTINUOUS
370
-3
390
F
  0
LAYER
  5
202
100
AcDbSymbolTableRecord
100
AcDbLayerTableRecord
  2
DEFAULT_DATUM_PLANES
 70
0
 62
7
  6
CONTINUOUS
370
-3
390
F
  0
LAYER
  5
203
100
AcDbSymbolTableRecord
100
AcDbLayerTableRecord
  2
DEFAULT_SURFACES
 70
0
 62
7
  6
CONTINUOUS
370
-3
390
F
  0
LAYER
  5
204
100
AcDbSymbolTableRecord
100
AcDbLayerTableRecord
  2
DIMENSIONS
 70
0
 62
7
  6
CONTINUOUS
370
-3
390
F
  0
LAYER
  5
205
100
AcDbSymbolTableRecord
100
AcDbLayerTableRecord
  2
INTF_1
 70
0
 62
7
  6
CONTINUOUS
370
-3
390
F
  0
LAYER
  5
206
100
AcDbSymbolTableRecord
100
AcDbLayerTableRecord
  2
PLATTED_SURFACE_AREA
 70
0
 62
7
  6
CONTINUOUS
370
-3
390
F
  0
LAYER
  5
207
100
AcDbSymbolTableRecord
100
AcDbLayerTableRecord
  2
RGB____0____0____0__
 70
0
 62
7
  6
CONTINUOUS
370
-3
390
F
  0
ENDTAB
  0
TABLE
  2
STYLE
  5
3
100
AcDbSymbolTable
 70
1
  0
STYLE
  5
11
100
AcDbSymbolTableRecord
100
AcDbTextStyleTableRecord
  2
STANDARD
 70
0
 40
0.0
 41
0.8
 50
0.0
 71
0
 42
0.2
  3
txt
  4

  0
STYLE
  5
208
100
AcDbSymbolTableRecord
100
AcDbTextStyleTableRecord
  2
TEXTSTYLE_1
 70
0
 40
0.0
 41
0.8
 50
0.0
 71
0
 42
0.2
  3
gdt
  4

  0
ENDTAB
  0
TABLE
  2
VIEW
  5
6
100
AcDbSymbolTable
 70
0
  0
ENDTAB
  0
TABLE
  2
UCS
  5
7
100
AcDbSymbolTable
 70
0
  0
ENDTAB
  0
TABLE
  2
APPID
  5
9
100
AcDbSymbolTable
 70
1
  0
APPID
  5
209
100
AcDbSymbolTableRecord
100
AcDbRegAppTableRecord
  2
ACAD
 70
0
  0
ENDTAB
  0
TABLE
  2
BLOCK_RECORD
  5
1
100
AcDbSymbolTable
 70
0
  0
BLOCK_RECORD
  5
20A
100
AcDbSymbolTableRecord
100
AcDbBlockTableRecord
  2
*Model_Space
  0
BLOCK_RECORD
  5
20B
100
AcDbSymbolTableRecord
100
AcDbBlockTableRecord
  2
*Paper_Space
  0
BLOCK_RECORD
  5
20C
100
AcDbSymbolTableRecord
100
AcDbBlockTableRecord
  2
_FILLED
  0
ENDTAB
  0
TABLE
  2
DIMSTYLE
  5
A
100
AcDbSymbolTable
 70
1
100
AcDbDimStyleTable
 71
0
  0
DIMSTYLE
105
20D
100
AcDbSymbolTableRecord
100
AcDbDimStyleTableRecord
  2
STANDARD
 70
0
  3

  4

 40
1.0
 41
0.1
 42
0.0625
 43
0.38
 44
0.125
 45
0.0
 46
0.0
 47
0.001
 48
0.001
140
0.08
141
0.09
142
0.0
143
25.4
144
1.0
145
0.0
146
1.0
147
0.09
 71
1.0
 72
0.0
 73
1
 74
1
 75
0
 76
0
 77
0
 78
4
 79
1
170
0
171
2
172
0
173
0
174
0
175
0
176
0
177
0
178
0
270
2
179
3
271
3
272
3
273
2
274
2
275
0
280
0
281
0
282
0
283
1
284
4
285
0
286
0
287
3
288
0
340
11
278
46
341
20C
342
20C
343
20C
344
20C
  0
ENDTAB
  0
ENDSEC
  0
SECTION
  2
BLOCKS
  0
BLOCK
  5
20
100
AcDbEntity
  8
0
100
AcDbBlockBegin
  2
*Model_Space
 70
0
 10
0.0
 20
0.0
 30
0.0
  3
*Model_Space
  1

  0
ENDBLK
  5
21
100
AcDbEntity
  8
0
100
AcDbBlockEnd
  0
BLOCK
  5
1C
100
AcDbEntity
  8
0
100
AcDbBlockBegin
  2
*Paper_Space
 70
0
 10
0.0
 20
0.0
 30
0.0
  3
*Paper_Space
  1

  0
ENDBLK
  5
1D
100
AcDbEntity
  8
0
100
AcDbBlockEnd
  0
BLOCK
  5
20E
100
AcDbEntity
  8
0
100
AcDbBlockBegin
  2
_FILLED
 70
64
 10
0.0
 20
0.0
  3
_FILLED
  1

  0
SOLID
  5
20F
100
AcDbEntity
  8
0
  6
BYBLOCK
 62
0
100
AcDbTrace
 10
0.0
 20
0.0
 11
-1.0
 21
0.2
 12
-1.0
 22
-0.2
 13
-1.0
 23
-0.2
  0
ENDBLK
  5
210
100
AcDbEntity
  8
0
  6
BYBLOCK
 62
0
100
AcDbBlockEnd
  0
ENDSEC
  0
SECTION
  2
ENTITIES
  0
LINE
  5
211
100
AcDbEntity
  8
0
100
AcDbLine
 62
7
  6
CONTINUOUS
 10
0.0
 20
0.0
 11
0.0
 21
8.5
  0
LINE
  5
212
100
AcDbEntity
  8
0
100
AcDbLine
 62
7
  6
CONTINUOUS
 10
0.0
 20
0.0
 11
11.0
 21
0.0
  0
LINE
  5
213
100
AcDbEntity
  8
0
100
AcDbLine
 62
7
  6
CONTINUOUS
 10
0.0
 20
8.5
 11
11.0
 21
8.5
  0
LINE
  5
214
100
AcDbEntity
  8
0
100
AcDbLine
 62
7
  6
CONTINUOUS
 10
11.0
 20
0.0
 11
11.0
 21
8.5
  0
LINE
  5
215
100
AcDbEntity
  8
0
100
AcDbLine
 62
7
  6
CONTINUOUS
 10
3.238113354
 20
5.18679333
 11
3.238113354
 21
5.1422926993
  0
LINE
  5
216
100
AcDbEntity
  8
0
100
AcDbLine
 62
7
  6
CONTINUOUS
 10
3.238113354
 20
3.7468959643
 11
3.238113354
 21
3.7023953335
  0
LINE
  5
217
100
AcDbEntity
  8
0
100
AcDbLine
 62
7
  6
CONTINUOUS
 10
4.2146057384
 20
2.7251662414
 11
4.2604149865
 21
2.7251662414
  0
LINE
  5
218
100
AcDbEntity
  8
0
100
AcDbLine
 62
7
  6
CONTINUOUS
 10
5.6558117215
 20
2.7251662414
 11
5.7016209697
 21
2.7251662414
  0
LINE
  5
219
100
AcDbEntity
  8
0
100
AcDbLine
 62
7
  6
CONTINUOUS
 10
3.4811172387
 20
3.5437946416
 11
3.4811172387
 21
3.7468959643
  0
LINE
  5
21A
100
AcDbEntity
  8
0
100
AcDbLine
 62
7
  6
CONTINUOUS
 10
3.4811172387
 20
3.943419156
 11
3.4811172387
 21
4.1465204787
  0
LINE
  5
21B
100
AcDbEntity
  8
0
100
AcDbLine
 62
7
  6
CONTINUOUS
 10
3.4811172387
 20
4.3430436704
 11
3.4811172387
 21
4.5461449931
  0
LINE
  5
21C
100
AcDbEntity
  8
0
100
AcDbLine
 62
7
  6
CONTINUOUS
 10
3.4811172387
 20
4.7426681848
 11
3.4811172387
 21
4.9457695075
  0
LINE
  5
21D
100
AcDbEntity
  8
0
100
AcDbLine
 62
7
  6
CONTINUOUS
 10
3.4811172387
 20
5.1422926993
 11
3.4811172387
 21
5.3453940219
  0
LINE
  5
21E
100
AcDbEntity
  8
0
100
AcDbLine
 62
7
  6
CONTINUOUS
 10
3.6298578554
 20
4.5540250061
 11
3.6298578554
 21
4.3351636574
  0
LINE
  5
21F
100
AcDbEntity
  8
0
100
AcDbLine
 62
7
  6
CONTINUOUS
 10
3.6377378685
 20
5.7450185363
 11
3.6377378685
 21
5.5419172137
  0
LINE
  5
220
100
AcDbEntity
  8
0
100
AcDbLine
 62
7
  6
CONTINUOUS
 10
3.6377378685
 20
5.3453940219
 11
3.6377378685
 21
5.1422926993
  0
LINE
  5
221
100
AcDbEntity
  8
0
100
AcDbLine
 62
7
  6
CONTINUOUS
 10
3.6377378685
 20
4.9457695075
 11
3.6377378685
 21
4.7426681848
  0
LINE
  5
222
100
AcDbEntity
  8
0
100
AcDbLine
 62
7
  6
CONTINUOUS
 10
3.6377378685
 20
4.1465204787
 11
3.6377378685
 21
3.943419156
  0
LINE
  5
223
100
AcDbEntity
  8
0
100
AcDbLine
 62
7
  6
CONTINUOUS
 10
3.6377378685
 20
3.7468959643
 11
3.6377378685
 21
3.5437946416
  0
LINE
  5
224
100
AcDbEntity
  8
0
100
AcDbLine
 62
7
  6
CONTINUOUS
 10
3.6377378685
 20
3.3472714499
 11
3.6377378685
 21
3.1441701272
  0
LINE
  5
225
100
AcDbEntity
  8
0
100
AcDbLine
 62
7
  6
CONTINUOUS
 10
5.8589130442
 20
2.9681701261
 11
5.6558117215
 21
2.9681701261
  0
LINE
  5
226
100
AcDbEntity
  8
0
100
AcDbLine
 62
7
  6
CONTINUOUS
 10
5.4592885298
 20
2.9681701261
 11
5.2561872071
 21
2.9681701261
  0
LINE
  5
227
100
AcDbEntity
  8
0
100
AcDbLine
 62
7
  6
CONTINUOUS
 10
5.0596640154
 20
2.9681701261
 11
4.8565626927
 21
2.9681701261
  0
LINE
  5
228
100
AcDbEntity
  8
0
100
AcDbLine
 62
7
  6
CONTINUOUS
 10
4.660039501
 20
2.9681701261
 11
4.4569381783
 21
2.9681701261
  0
LINE
  5
229
100
AcDbEntity
  8
0
100
AcDbLine
 62
7
  6
CONTINUOUS
 10
4.2604149865
 20
2.9681701261
 11
4.0573136639
 21
2.9681701261
  0
LINE
  5
22A
100
AcDbEntity
  8
0
100
AcDbLine
 62
7
  6
CONTINUOUS
 10
4.8486826797
 20
3.1163388332
 11
5.0675440284
 21
3.1163388332
  0
LINE
  5
22B
100
AcDbEntity
  8
0
100
AcDbLine
 62
7
  6
CONTINUOUS
 10
3.6576891495
 20
3.1242188462
 11
3.8607904721
 21
3.1242188462
  0
LINE
  5
22C
100
AcDbEntity
  8
0
100
AcDbLine
 62
7
  6
CONTINUOUS
 10
4.0573136639
 20
3.1242188462
 11
4.2604149865
 21
3.1242188462
  0
LINE
  5
22D
100
AcDbEntity
  8
0
100
AcDbLine
 62
7
  6
CONTINUOUS
 10
4.4569381783
 20
3.1242188462
 11
4.660039501
 21
3.1242188462
  0
LINE
  5
22E
100
AcDbEntity
  8
0
100
AcDbLine
 62
7
  6
CONTINUOUS
 10
5.2561872071
 20
3.1242188462
 11
5.4592885298
 21
3.1242188462
  0
LINE
  5
22F
100
AcDbEntity
  8
0
100
AcDbLine
 62
7
  6
CONTINUOUS
 10
5.6558117215
 20
3.1242188462
 11
5.8589130442
 21
3.1242188462
  0
LINE
  5
230
100
AcDbEntity
  8
0
100
AcDbLine
 62
7
  6
CONTINUOUS
 10
6.0554362359
 20
3.1242188462
 11
6.2585375586
 21
3.1242188462
  0
LINE
  5
231
100
AcDbEntity
  8
0
100
AcDbLine
 62
7
  6
CONTINUOUS
 10
3.8807417531
 20
3.1441701272
 11
3.8807417531
 21
3.3472714499
  0
LINE
  5
232
100
AcDbEntity
  8
0
100
AcDbLine
 62
7
  6
CONTINUOUS
 10
3.8807417531
 20
3.5437946416
 11
3.8807417531
 21
3.7468959643
  0
LINE
  5
233
100
AcDbEntity
  8
0
100
AcDbLine
 62
7
  6
CONTINUOUS
 10
3.8807417531
 20
3.943419156
 11
3.8807417531
 21
4.1465204787
  0
LINE
  5
234
100
AcDbEntity
  8
0
100
AcDbLine
 62
7
  6
CONTINUOUS
 10
3.8807417531
 20
4.7426681848
 11
3.8807417531
 21
4.9457695075
  0
LINE
  5
235
100
AcDbEntity
  8
0
100
AcDbLine
 62
7
  6
CONTINUOUS
 10
3.8807417531
 20
5.1422926993
 11
3.8807417531
 21
5.3453940219
  0
LINE
  5
236
100
AcDbEntity
  8
0
100
AcDbLine
 62
7
  6
CONTINUOUS
 10
3.8807417531
 20
5.5419172137
 11
3.8807417531
 21
5.7450185363
  0
LINE
  5
237
100
AcDbEntity
  8
0
100
AcDbLine
 62
7
  6
CONTINUOUS
 10
3.8886217661
 20
4.3351636574
 11
3.8886217661
 21
4.5540250061
  0
LINE
  5
238
100
AcDbEntity
  8
0
100
AcDbLine
 62
7
  6
CONTINUOUS
 10
4.0152832571
 20
4.5682241189
 11
4.0152832571
 21
4.3209645446
  0
LINE
  5
239
100
AcDbEntity
  8
0
100
AcDbLine
 62
7
  6
CONTINUOUS
 10
4.0294823699
 20
4.9536495205
 11
4.0294823699
 21
4.7347881718
  0
LINE
  5
23A
100
AcDbEntity
  8
0
100
AcDbLine
 62
7
  6
CONTINUOUS
 10
4.0294823699
 20
4.1544004917
 11
4.0294823699
 21
3.935539143
  0
LINE
  5
23B
100
AcDbEntity
  8
0
100
AcDbLine
 62
7
  6
CONTINUOUS
 10
6.2585375586
 20
3.3672227309
 11
6.0554362359
 21
3.3672227309
  0
LINE
  5
23C
100
AcDbEntity
  8
0
100
AcDbLine
 62
7
  6
CONTINUOUS
 10
5.8589130442
 20
3.3672227309
 11
5.6558117215
 21
3.3672227309
  0
LINE
  5
23D
100
AcDbEntity
  8
0
100
AcDbLine
 62
7
  6
CONTINUOUS
 10
5.4592885298
 20
3.3672227309
 11
5.2561872071
 21
3.3672227309
  0
LINE
  5
23E
100
AcDbEntity
  8
0
100
AcDbLine
 62
7
  6
CONTINUOUS
 10
4.660039501
 20
3.3672227309
 11
4.4569381783
 21
3.3672227309
  0
LINE
  5
23F
100
AcDbEntity
  8
0
100
AcDbLine
 62
7
  6
CONTINUOUS
 10
4.2604149865
 20
3.3672227309
 11
4.0573136639
 21
3.3672227309
  0
LINE
  5
240
100
AcDbEntity
  8
0
100
AcDbLine
 62
7
  6
CONTINUOUS
 10
3.8607904721
 20
3.3672227309
 11
3.6576891495
 21
3.3672227309
  0
LINE
  5
241
100
AcDbEntity
  8
0
100
AcDbLine
 62
7
  6
CONTINUOUS
 10
5.0675440284
 20
3.3751027439
 11
4.8486826797
 21
3.3751027439
  0
LINE
  5
242
100
AcDbEntity
  8
0
100
AcDbLine
 62
7
  6
CONTINUOUS
 10
4.8344835669
 20
3.5017642348
 11
5.0817431412
 21
3.5017642348
  0
LINE
  5
243
100
AcDbEntity
  8
0
100
AcDbLine
 62
7
  6
CONTINUOUS
 10
4.4490581653
 20
3.5159633476
 11
4.667919514
 21
3.5159633476
  0
LINE
  5
244
100
AcDbEntity
  8
0
100
AcDbLine
 62
7
  6
CONTINUOUS
 10
5.2483071941
 20
3.5159633476
 11
5.4671685428
 21
3.5159633476
  0
LINE
  5
245
100
AcDbEntity
  8
0
100
AcDbLine
 62
7
  6
CONTINUOUS
 10
4.0373623829
 20
6.0661938255
 11
4.0373623829
 21
5.9415417281
  0
LINE
  5
246
100
AcDbEntity
  8
0
100
AcDbLine
 62
7
  6
CONTINUOUS
 10
4.0373623829
 20
5.7450185363
 11
4.0373623829
 21
5.5419172137
  0
LINE
  5
247
100
AcDbEntity
  8
0
100
AcDbLine
 62
7
  6
CONTINUOUS
 10
4.0373623829
 20
5.3453940219
 11
4.0373623829
 21
5.1422926993
  0
LINE
  5
248
100
AcDbEntity
  8
0
100
AcDbLine
 62
7
  6
CONTINUOUS
 10
4.0373623829
 20
3.7468959643
 11
4.0373623829
 21
3.5437946416
  0
LINE
  5
249
100
AcDbEntity
  8
0
100
AcDbLine
 62
7
  6
CONTINUOUS
 10
4.0373623829
 20
3.3472714499
 11
4.0373623829
 21
3.1441701272
  0
LINE
  5
24A
100
AcDbEntity
  8
0
100
AcDbLine
 62
7
  6
CONTINUOUS
 10
4.0373623829
 20
2.9482188451
 11
4.0373623829
 21
2.822994838
  0
LINE
  5
24B
100
AcDbEntity
  8
0
100
AcDbLine
 62
7
  6
CONTINUOUS
 10
3.3365138603
 20
3.5238433606
 11
3.4611659577
 21
3.5238433606
  0
LINE
  5
24C
100
AcDbEntity
  8
0
100
AcDbLine
 62
7
  6
CONTINUOUS
 10
3.6576891495
 20
3.5238433606
 11
3.8607904721
 21
3.5238433606
  0
LINE
  5
24D
100
AcDbEntity
  8
0
100
AcDbLine
 62
7
  6
CONTINUOUS
 10
4.0573136639
 20
3.5238433606
 11
4.2604149865
 21
3.5238433606
  0
LINE
  5
24E
100
AcDbEntity
  8
0
100
AcDbLine
 62
7
  6
CONTINUOUS
 10
5.6558117215
 20
3.5238433606
 11
5.8589130442
 21
3.5238433606
  0
LINE
  5
24F
100
AcDbEntity
  8
0
100
AcDbLine
 62
7
  6
CONTINUOUS
 10
6.0554362359
 20
3.5238433606
 11
6.2585375586
 21
3.5238433606
  0
LINE
  5
250
100
AcDbEntity
  8
0
100
AcDbLine
 62
7
  6
CONTINUOUS
 10
6.4550607504
 20
3.5238433606
 11
6.5797128478
 21
3.5238433606
  0
LINE
  5
251
100
AcDbEntity
  8
0
100
AcDbLine
 62
7
  6
CONTINUOUS
 10
4.2803662676
 20
2.7451175224
 11
4.2803662676
 21
2.9482188451
  0
LINE
  5
252
100
AcDbEntity
  8
0
100
AcDbLine
 62
7
  6
CONTINUOUS
 10
4.2803662676
 20
3.1441701272
 11
4.2803662676
 21
3.3472714499
  0
LINE
  5
253
100
AcDbEntity
  8
0
100
AcDbLine
 62
7
  6
CONTINUOUS
 10
4.2803662676
 20
3.5437946416
 11
4.2803662676
 21
3.7468959643
  0
LINE
  5
254
100
AcDbEntity
  8
0
100
AcDbLine
 62
7
  6
CONTINUOUS
 10
4.2803662676
 20
5.1422926993
 11
4.2803662676
 21
5.3453940219
  0
LINE
  5
255
100
AcDbEntity
  8
0
100
AcDbLine
 62
7
  6
CONTINUOUS
 10
4.2803662676
 20
5.5419172137
 11
4.2803662676
 21
5.7450185363
  0
LINE
  5
256
100
AcDbEntity
  8
0
100
AcDbLine
 62
7
  6
CONTINUOUS
 10
4.2803662676
 20
5.9415417281
 11
4.2803662676
 21
6.1446430508
  0
LINE
  5
257
100
AcDbEntity
  8
0
100
AcDbLine
 62
7
  6
CONTINUOUS
 10
4.2882462806
 20
3.935539143
 11
4.2882462806
 21
4.1544004917
  0
LINE
  5
258
100
AcDbEntity
  8
0
100
AcDbLine
 62
7
  6
CONTINUOUS
 10
4.2882462806
 20
4.7347881718
 11
4.2882462806
 21
4.9536495205
  0
LINE
  5
259
100
AcDbEntity
  8
0
100
AcDbLine
 62
7
  6
CONTINUOUS
 10
4.3024453933
 20
4.3209645446
 11
4.3024453933
 21
4.5682241189
  0
LINE
  5
25A
100
AcDbEntity
  8
0
100
AcDbLine
 62
7
  6
CONTINUOUS
 10
4.4068320804
 20
4.5762998099
 11
4.4068320804
 21
4.3128888536
  0
LINE
  5
25B
100
AcDbEntity
  8
0
100
AcDbLine
 62
7
  6
CONTINUOUS
 10
6.658162073
 20
3.7668472453
 11
6.4550607504
 21
3.7668472453
  0
LINE
  5
25C
100
AcDbEntity
  8
0
100
AcDbLine
 62
7
  6
CONTINUOUS
 10
6.2585375586
 20
3.7668472453
 11
6.0554362359
 21
3.7668472453
  0
LINE
  5
25D
100
AcDbEntity
  8
0
100
AcDbLine
 62
7
  6
CONTINUOUS
 10
5.8589130442
 20
3.7668472453
 11
5.6558117215
 21
3.7668472453
  0
LINE
  5
25E
100
AcDbEntity
  8
0
100
AcDbLine
 62
7
  6
CONTINUOUS
 10
4.2604149865
 20
3.7668472453
 11
4.0573136639
 21
3.7668472453
  0
LINE
  5
25F
100
AcDbEntity
  8
0
100
AcDbLine
 62
7
  6
CONTINUOUS
 10
3.8607904721
 20
3.7668472453
 11
3.6576891495
 21
3.7668472453
  0
LINE
  5
260
100
AcDbEntity
  8
0
100
AcDbLine
 62
7
  6
CONTINUOUS
 10
3.4611659577
 20
3.7668472453
 11
3.258064635
 21
3.7668472453
  0
LINE
  5
261
100
AcDbEntity
  8
0
100
AcDbLine
 62
7
  6
CONTINUOUS
 10
5.4671685428
 20
3.7747272583
 11
5.2483071941
 21
3.7747272583
  0
LINE
  5
262
100
AcDbEntity
  8
0
100
AcDbLine
 62
7
  6
CONTINUOUS
 10
4.667919514
 20
3.7747272583
 11
4.4490581653
 21
3.7747272583
  0
LINE
  5
263
100
AcDbEntity
  8
0
100
AcDbLine
 62
7
  6
CONTINUOUS
 10
5.0817431412
 20
3.7889263711
 11
4.8344835669
 21
3.7889263711
  0
LINE
  5
264
100
AcDbEntity
  8
0
100
AcDbLine
 62
7
  6
CONTINUOUS
 10
4.8264078759
 20
3.8933130582
 11
5.0898188322
 21
3.8933130582
  0
LINE
  5
265
100
AcDbEntity
  8
0
100
AcDbLine
 62
7
  6
CONTINUOUS
 10
4.4348590525
 20
3.9013887492
 11
4.6821186268
 21
3.9013887492
  0
LINE
  5
266
100
AcDbEntity
  8
0
100
AcDbLine
 62
7
  6
CONTINUOUS
 10
5.2341080813
 20
3.9013887492
 11
5.4813676556
 21
3.9013887492
  0
LINE
  5
267
100
AcDbEntity
  8
0
100
AcDbLine
 62
7
  6
CONTINUOUS
 10
4.4149077715
 20
4.9678486333
 11
4.4149077715
 21
4.720589059
  0
LINE
  5
268
100
AcDbEntity
  8
0
100
AcDbLine
 62
7
  6
CONTINUOUS
 10
4.4149077715
 20
4.1685996045
 11
4.4149077715
 21
3.9213400302
  0
LINE
  5
269
100
AcDbEntity
  8
0
100
AcDbLine
 62
7
  6
CONTINUOUS
 10
4.4291068843
 20
5.3532740349
 11
4.4291068843
 21
5.1344126862
  0
LINE
  5
26A
100
AcDbEntity
  8
0
100
AcDbLine
 62
7
  6
CONTINUOUS
 10
4.4291068843
 20
3.7547759773
 11
4.4291068843
 21
3.5359146286
  0
LINE
  5
26B
100
AcDbEntity
  8
0
100
AcDbLine
 62
7
  6
CONTINUOUS
 10
4.4369868973
 20
6.2306090134
 11
4.4369868973
 21
5.9415417281
  0
LINE
  5
26C
100
AcDbEntity
  8
0
100
AcDbLine
 62
7
  6
CONTINUOUS
 10
4.4369868973
 20
5.7450185363
 11
4.4369868973
 21
5.5419172137
  0
LINE
  5
26D
100
AcDbEntity
  8
0
100
AcDbLine
 62
7
  6
CONTINUOUS
 10
4.4369868973
 20
3.3472714499
 11
4.4369868973
 21
3.1441701272
  0
LINE
  5
26E
100
AcDbEntity
  8
0
100
AcDbLine
 62
7
  6
CONTINUOUS
 10
4.4369868973
 20
2.9482188451
 11
4.4369868973
 21
2.6585796501
  0
LINE
  5
26F
100
AcDbEntity
  8
0
100
AcDbLine
 62
7
  6
CONTINUOUS
 10
4.0494336509
 20
3.915587862
 11
4.2682949996
 21
3.915587862
  0
LINE
  5
270
100
AcDbEntity
  8
0
100
AcDbLine
 62
7
  6
CONTINUOUS
 10
5.6479317085
 20
3.915587862
 11
5.8667930572
 21
3.915587862
  0
LINE
  5
271
100
AcDbEntity
  8
0
100
AcDbLine
 62
7
  6
CONTINUOUS
 10
3.1720986723
 20
3.923467875
 11
3.4611659577
 21
3.923467875
  0
LINE
  5
272
100
AcDbEntity
  8
0
100
AcDbLine
 62
7
  6
CONTINUOUS
 10
3.6576891495
 20
3.923467875
 11
3.8607904721
 21
3.923467875
  0
LINE
  5
273
100
AcDbEntity
  8
0
100
AcDbLine
 62
7
  6
CONTINUOUS
 10
6.0554362359
 20
3.923467875
 11
6.2585375586
 21
3.923467875
  0
LINE
  5
274
100
AcDbEntity
  8
0
100
AcDbLine
 62
7
  6
CONTINUOUS
 10
6.4550607504
 20
3.923467875
 11
6.7441280357
 21
3.923467875
  0
LINE
  5
275
100
AcDbEntity
  8
0
100
AcDbLine
 62
7
  6
CONTINUOUS
 10
4.679990782
 20
2.6136992015
 11
4.679990782
 21
2.9482188451
  0
LINE
  5
276
100
AcDbEntity
  8
0
100
AcDbLine
 62
7
  6
CONTINUOUS
 10
4.679990782
 20
3.1441701272
 11
4.679990782
 21
3.3472714499
  0
LINE
  5
277
100
AcDbEntity
  8
0
100
AcDbLine
 62
7
  6
CONTINUOUS
 10
4.679990782
 20
5.5419172137
 11
4.679990782
 21
5.7450185363
  0
LINE
  5
278
100
AcDbEntity
  8
0
100
AcDbLine
 62
7
  6
CONTINUOUS
 10
4.679990782
 20
5.9415417281
 11
4.679990782
 21
6.275489462
  0
LINE
  5
279
100
AcDbEntity
  8
0
100
AcDbLine
 62
7
  6
CONTINUOUS
 10
4.687870795
 20
3.5359146286
 11
4.687870795
 21
3.7547759773
  0
LINE
  5
27A
100
AcDbEntity
  8
0
100
AcDbLine
 62
7
  6
CONTINUOUS
 10
4.687870795
 20
5.1344126862
 11
4.687870795
 21
5.3532740349
  0
LINE
  5
27B
100
AcDbEntity
  8
0
100
AcDbLine
 62
7
  6
CONTINUOUS
 10
4.7020699078
 20
3.9213400302
 11
4.7020699078
 21
4.1685996045
  0
LINE
  5
27C
100
AcDbEntity
  8
0
100
AcDbLine
 62
7
  6
CONTINUOUS
 10
4.7020699078
 20
4.720589059
 11
4.7020699078
 21
4.9678486333
  0
LINE
  5
27D
100
AcDbEntity
  8
0
100
AcDbLine
 62
7
  6
CONTINUOUS
 10
4.7101455988
 20
4.3128888536
 11
4.7101455988
 21
4.5762998099
  0
LINE
  5
27E
100
AcDbEntity
  8
0
100
AcDbLine
 62
7
  6
CONTINUOUS
 10
6.7890084843
 20
4.1664717597
 11
6.4550607504
 21
4.1664717597
  0
LINE
  5
27F
100
AcDbEntity
  8
0
100
AcDbLine
 62
7
  6
CONTINUOUS
 10
6.2585375586
 20
4.1664717597
 11
6.0554362359
 21
4.1664717597
  0
LINE
  5
280
100
AcDbEntity
  8
0
100
AcDbLine
 62
7
  6
CONTINUOUS
 10
3.8607904721
 20
4.1664717597
 11
3.6576891495
 21
4.1664717597
  0
LINE
  5
281
100
AcDbEntity
  8
0
100
AcDbLine
 62
7
  6
CONTINUOUS
 10
3.4611659577
 20
4.1664717597
 11
3.1272182237
 21
4.1664717597
  0
LINE
  5
282
100
AcDbEntity
  8
0
100
AcDbLine
 62
7
  6
CONTINUOUS
 10
5.8667930572
 20
4.1743517727
 11
5.6479317085
 21
4.1743517727
  0
LINE
  5
283
100
AcDbEntity
  8
0
100
AcDbLine
 62
7
  6
CONTINUOUS
 10
4.2682949996
 20
4.1743517727
 11
4.0494336509
 21
4.1743517727
  0
LINE
  5
284
100
AcDbEntity
  8
0
100
AcDbLine
 62
7
  6
CONTINUOUS
 10
5.4813676556
 20
4.1885508855
 11
5.2341080813
 21
4.1885508855
  0
LINE
  5
285
100
AcDbEntity
  8
0
100
AcDbLine
 62
7
  6
CONTINUOUS
 10
4.6821186268
 20
4.1885508855
 11
4.4348590525
 21
4.1885508855
  0
LINE
  5
286
100
AcDbEntity
  8
0
100
AcDbLine
 62
7
  6
CONTINUOUS
 10
5.0898188322
 20
4.1966265765
 11
4.8264078759
 21
4.1966265765
  0
LINE
  5
287
100
AcDbEntity
  8
0
100
AcDbLine
 62
7
  6
CONTINUOUS
 10
4.8183321848
 20
4.2848618815
 11
5.0978945233
 21
4.2848618815
  0
LINE
  5
288
100
AcDbEntity
  8
0
100
AcDbLine
 62
7
  6
CONTINUOUS
 10
4.7983809038
 20
4.584375501
 11
4.7983809038
 21
4.3048131625
  0
LINE
  5
289
100
AcDbEntity
  8
0
100
AcDbLine
 62
7
  6
CONTINUOUS
 10
4.8064565949
 20
4.9759243243
 11
4.8064565949
 21
4.712513368
  0
LINE
  5
28A
100
AcDbEntity
  8
0
100
AcDbLine
 62
7
  6
CONTINUOUS
 10
4.8064565949
 20
4.1766752955
 11
4.8064565949
 21
3.9132643392
  0
LINE
  5
28B
100
AcDbEntity
  8
0
100
AcDbLine
 62
7
  6
CONTINUOUS
 10
4.8145322859
 20
5.3674731477
 11
4.8145322859
 21
5.1202135735
  0
LINE
  5
28C
100
AcDbEntity
  8
0
100
AcDbLine
 62
7
  6
CONTINUOUS
 10
4.8145322859
 20
3.7689750901
 11
4.8145322859
 21
3.5217155158
  0
LINE
  5
28D
100
AcDbEntity
  8
0
100
AcDbLine
 62
7
  6
CONTINUOUS
 10
4.8287313987
 20
5.7528985494
 11
4.8287313987
 21
5.5340372007
  0
LINE
  5
28E
100
AcDbEntity
  8
0
100
AcDbLine
 62
7
  6
CONTINUOUS
 10
4.8287313987
 20
3.3551514629
 11
4.8287313987
 21
3.1362901142
  0
LINE
  5
28F
100
AcDbEntity
  8
0
100
AcDbLine
 62
7
  6
CONTINUOUS
 10
4.8366114117
 20
6.2968125865
 11
4.8366114117
 21
5.9415417281
  0
LINE
  5
290
100
AcDbEntity
  8
0
100
AcDbLine
 62
7
  6
CONTINUOUS
 10
4.8366114117
 20
2.9482188451
 11
4.8366114117
 21
2.592376077
  0
LINE
  5
291
100
AcDbEntity
  8
0
100
AcDbLine
 62
7
  6
CONTINUOUS
 10
4.4267833614
 20
4.2929375726
 11
4.6901943178
 21
4.2929375726
  0
LINE
  5
292
100
AcDbEntity
  8
0
100
AcDbLine
 62
7
  6
CONTINUOUS
 10
5.2260323903
 20
4.2929375726
 11
5.4894433466
 21
4.2929375726
  0
LINE
  5
293
100
AcDbEntity
  8
0
100
AcDbLine
 62
7
  6
CONTINUOUS
 10
4.0352345381
 20
4.3010132636
 11
4.2824941123
 21
4.3010132636
  0
LINE
  5
294
100
AcDbEntity
  8
0
100
AcDbLine
 62
7
  6
CONTINUOUS
 10
5.6337325957
 20
4.3010132636
 11
5.88099217
 21
4.3010132636
  0
LINE
  5
295
100
AcDbEntity
  8
0
100
AcDbLine
 62
7
  6
CONTINUOUS
 10
3.6498091364
 20
4.3152123764
 11
3.8686704851
 21
4.3152123764
  0
LINE
  5
296
100
AcDbEntity
  8
0
100
AcDbLine
 62
7
  6
CONTINUOUS
 10
6.0475562229
 20
4.3152123764
 11
6.2664175716
 21
4.3152123764
  0
LINE
  5
297
100
AcDbEntity
  8
0
100
AcDbLine
 62
7
  6
CONTINUOUS
 10
3.1058950993
 20
4.3230923894
 11
3.4611659577
 21
4.3230923894
  0
LINE
  5
298
100
AcDbEntity
  8
0
100
AcDbLine
 62
7
  6
CONTINUOUS
 10
6.4550607504
 20
4.3230923894
 11
6.8103316088
 21
4.3230923894
  0
LINE
  5
299
100
AcDbEntity
  8
0
100
AcDbLine
 62
7
  6
CONTINUOUS
 10
5.0796152964
 20
2.592376077
 11
5.0796152964
 21
2.9482188451
  0
LINE
  5
29A
100
AcDbEntity
  8
0
100
AcDbLine
 62
7
  6
CONTINUOUS
 10
5.0796152964
 20
5.9415417281
 11
5.0796152964
 21
6.2968125865
  0
LINE
  5
29B
100
AcDbEntity
  8
0
100
AcDbLine
 62
7
  6
CONTINUOUS
 10
5.0874953094
 20
3.1362901142
 11
5.0874953094
 21
3.3551514629
  0
LINE
  5
29C
100
AcDbEntity
  8
0
100
AcDbLine
 62
7
  6
CONTINUOUS
 10
5.0874953094
 20
5.5340372007
 11
5.0874953094
 21
5.7528985494
  0
LINE
  5
29D
100
AcDbEntity
  8
0
100
AcDbLine
 62
7
  6
CONTINUOUS
 10
5.1016944222
 20
3.5217155158
 11
5.1016944222
 21
3.7689750901
  0
LINE
  5
29E
100
AcDbEntity
  8
0
100
AcDbLine
 62
7
  6
CONTINUOUS
 10
5.1016944222
 20
5.1202135735
 11
5.1016944222
 21
5.3674731477
  0
LINE
  5
29F
100
AcDbEntity
  8
0
100
AcDbLine
 62
7
  6
CONTINUOUS
 10
5.1097701132
 20
3.9132643392
 11
5.1097701132
 21
4.1766752955
  0
LINE
  5
2A0
100
AcDbEntity
  8
0
100
AcDbLine
 62
7
  6
CONTINUOUS
 10
5.1097701132
 20
4.712513368
 11
5.1097701132
 21
4.9759243243
  0
LINE
  5
2A1
100
AcDbEntity
  8
0
100
AcDbLine
 62
7
  6
CONTINUOUS
 10
5.1178458043
 20
4.3048131625
 11
5.1178458043
 21
4.584375501
  0
LINE
  5
2A2
100
AcDbEntity
  8
0
100
AcDbLine
 62
7
  6
CONTINUOUS
 10
6.8103316088
 20
4.5660962741
 11
6.4550607504
 21
4.5660962741
  0
LINE
  5
2A3
100
AcDbEntity
  8
0
100
AcDbLine
 62
7
  6
CONTINUOUS
 10
3.4611659577
 20
4.5660962741
 11
3.1058950993
 21
4.5660962741
  0
LINE
  5
2A4
100
AcDbEntity
  8
0
100
AcDbLine
 62
7
  6
CONTINUOUS
 10
6.2664175716
 20
4.5739762871
 11
6.0475562229
 21
4.5739762871
  0
LINE
  5
2A5
100
AcDbEntity
  8
0
100
AcDbLine
 62
7
  6
CONTINUOUS
 10
3.8686704851
 20
4.5739762871
 11
3.6498091364
 21
4.5739762871
  0
LINE
  5
2A6
100
AcDbEntity
  8
0
100
AcDbLine
 62
7
  6
CONTINUOUS
 10
5.88099217
 20
4.5881753999
 11
5.6337325957
 21
4.5881753999
  0
LINE
  5
2A7
100
AcDbEntity
  8
0
100
AcDbLine
 62
7
  6
CONTINUOUS
 10
4.2824941123
 20
4.5881753999
 11
4.0352345381
 21
4.5881753999
  0
LINE
  5
2A8
100
AcDbEntity
  8
0
100
AcDbLine
 62
7
  6
CONTINUOUS
 10
5.4894433466
 20
4.5962510909
 11
5.2260323903
 21
4.5962510909
  0
LINE
  5
2A9
100
AcDbEntity
  8
0
100
AcDbLine
 62
7
  6
CONTINUOUS
 10
4.6901943178
 20
4.5962510909
 11
4.4267833614
 21
4.5962510909
  0
LINE
  5
2AA
100
AcDbEntity
  8
0
100
AcDbLine
 62
7
  6
CONTINUOUS
 10
5.0978945233
 20
4.604326782
 11
4.8183321848
 21
4.604326782
  0
LINE
  5
2AB
100
AcDbEntity
  8
0
100
AcDbLine
 62
7
  6
CONTINUOUS
 10
5.2060811093
 20
4.5762998099
 11
5.2060811093
 21
4.3128888536
  0
LINE
  5
2AC
100
AcDbEntity
  8
0
100
AcDbLine
 62
7
  6
CONTINUOUS
 10
5.2141568003
 20
4.9678486333
 11
5.2141568003
 21
4.720589059
  0
LINE
  5
2AD
100
AcDbEntity
  8
0
100
AcDbLine
 62
7
  6
CONTINUOUS
 10
5.2141568003
 20
4.1685996045
 11
5.2141568003
 21
3.9213400302
  0
LINE
  5
2AE
100
AcDbEntity
  8
0
100
AcDbLine
 62
7
  6
CONTINUOUS
 10
5.2283559131
 20
5.3532740349
 11
5.2283559131
 21
5.1344126862
  0
LINE
  5
2AF
100
AcDbEntity
  8
0
100
AcDbLine
 62
7
  6
CONTINUOUS
 10
5.2283559131
 20
3.7547759773
 11
5.2283559131
 21
3.5359146286
  0
LINE
  5
2B0
100
AcDbEntity
  8
0
100
AcDbLine
 62
7
  6
CONTINUOUS
 10
5.2362359261
 20
6.275489462
 11
5.2362359261
 21
5.9415417281
  0
LINE
  5
2B1
100
AcDbEntity
  8
0
100
AcDbLine
 62
7
  6
CONTINUOUS
 10
5.2362359261
 20
5.7450185363
 11
5.2362359261
 21
5.5419172137
  0
LINE
  5
2B2
100
AcDbEntity
  8
0
100
AcDbLine
 62
7
  6
CONTINUOUS
 10
5.2362359261
 20
3.3472714499
 11
5.2362359261
 21
3.1441701272
  0
LINE
  5
2B3
100
AcDbEntity
  8
0
100
AcDbLine
 62
7
  6
CONTINUOUS
 10
5.2362359261
 20
2.9482188451
 11
5.2362359261
 21
2.6136992015
  0
LINE
  5
2B4
100
AcDbEntity
  8
0
100
AcDbLine
 62
7
  6
CONTINUOUS
 10
4.8264078759
 20
4.692562087
 11
5.0898188322
 21
4.692562087
  0
LINE
  5
2B5
100
AcDbEntity
  8
0
100
AcDbLine
 62
7
  6
CONTINUOUS
 10
4.4348590525
 20
4.700637778
 11
4.6821186268
 21
4.700637778
  0
LINE
  5
2B6
100
AcDbEntity
  8
0
100
AcDbLine
 62
7
  6
CONTINUOUS
 10
5.2341080813
 20
4.700637778
 11
5.4813676556
 21
4.700637778
  0
LINE
  5
2B7
100
AcDbEntity
  8
0
100
AcDbLine
 62
7
  6
CONTINUOUS
 10
4.0494336509
 20
4.7148368908
 11
4.2682949996
 21
4.7148368908
  0
LINE
  5
2B8
100
AcDbEntity
  8
0
100
AcDbLine
 62
7
  6
CONTINUOUS
 10
5.6479317085
 20
4.7148368908
 11
5.8667930572
 21
4.7148368908
  0
LINE
  5
2B9
100
AcDbEntity
  8
0
100
AcDbLine
 62
7
  6
CONTINUOUS
 10
3.1272182237
 20
4.7227169038
 11
3.4611659577
 21
4.7227169038
  0
LINE
  5
2BA
100
AcDbEntity
  8
0
100
AcDbLine
 62
7
  6
CONTINUOUS
 10
3.6576891495
 20
4.7227169038
 11
3.8607904721
 21
4.7227169038
  0
LINE
  5
2BB
100
AcDbEntity
  8
0
100
AcDbLine
 62
7
  6
CONTINUOUS
 10
6.0554362359
 20
4.7227169038
 11
6.2585375586
 21
4.7227169038
  0
LINE
  5
2BC
100
AcDbEntity
  8
0
100
AcDbLine
 62
7
  6
CONTINUOUS
 10
6.4550607504
 20
4.7227169038
 11
6.7890084843
 21
4.7227169038
  0
LINE
  5
2BD
100
AcDbEntity
  8
0
100
AcDbLine
 62
7
  6
CONTINUOUS
 10
5.4792398108
 20
2.6585796501
 11
5.4792398108
 21
2.9482188451
  0
LINE
  5
2BE
100
AcDbEntity
  8
0
100
AcDbLine
 62
7
  6
CONTINUOUS
 10
5.4792398108
 20
3.1441701272
 11
5.4792398108
 21
3.3472714499
  0
LINE
  5
2BF
100
AcDbEntity
  8
0
100
AcDbLine
 62
7
  6
CONTINUOUS
 10
5.4792398108
 20
5.5419172137
 11
5.4792398108
 21
5.7450185363
  0
LINE
  5
2C0
100
AcDbEntity
  8
0
100
AcDbLine
 62
7
  6
CONTINUOUS
 10
5.4792398108
 20
5.9415417281
 11
5.4792398108
 21
6.2306090134
  0
LINE
  5
2C1
100
AcDbEntity
  8
0
100
AcDbLine
 62
7
  6
CONTINUOUS
 10
5.4871198238
 20
3.5359146286
 11
5.4871198238
 21
3.7547759773
  0
LINE
  5
2C2
100
AcDbEntity
  8
0
100
AcDbLine
 62
7
  6
CONTINUOUS
 10
5.4871198238
 20
5.1344126862
 11
5.4871198238
 21
5.3532740349
  0
LINE
  5
2C3
100
AcDbEntity
  8
0
100
AcDbLine
 62
7
  6
CONTINUOUS
 10
5.5013189366
 20
3.9213400302
 11
5.5013189366
 21
4.1685996045
  0
LINE
  5
2C4
100
AcDbEntity
  8
0
100
AcDbLine
 62
7
  6
CONTINUOUS
 10
5.5013189366
 20
4.720589059
 11
5.5013189366
 21
4.9678486333
  0
LINE
  5
2C5
100
AcDbEntity
  8
0
100
AcDbLine
 62
7
  6
CONTINUOUS
 10
5.5093946276
 20
4.3128888536
 11
5.5093946276
 21
4.5762998099
  0
LINE
  5
2C6
100
AcDbEntity
  8
0
100
AcDbLine
 62
7
  6
CONTINUOUS
 10
6.7441280357
 20
4.9657207885
 11
6.4550607504
 21
4.9657207885
  0
LINE
  5
2C7
100
AcDbEntity
  8
0
100
AcDbLine
 62
7
  6
CONTINUOUS
 10
6.2585375586
 20
4.9657207885
 11
6.0554362359
 21
4.9657207885
  0
LINE
  5
2C8
100
AcDbEntity
  8
0
100
AcDbLine
 62
7
  6
CONTINUOUS
 10
3.8607904721
 20
4.9657207885
 11
3.6576891495
 21
4.9657207885
  0
LINE
  5
2C9
100
AcDbEntity
  8
0
100
AcDbLine
 62
7
  6
CONTINUOUS
 10
3.4611659577
 20
4.9657207885
 11
3.1720986723
 21
4.9657207885
  0
LINE
  5
2CA
100
AcDbEntity
  8
0
100
AcDbLine
 62
7
  6
CONTINUOUS
 10
5.8667930572
 20
4.9736008015
 11
5.6479317085
 21
4.9736008015
  0
LINE
  5
2CB
100
AcDbEntity
  8
0
100
AcDbLine
 62
7
  6
CONTINUOUS
 10
4.2682949996
 20
4.9736008015
 11
4.0494336509
 21
4.9736008015
  0
LINE
  5
2CC
100
AcDbEntity
  8
0
100
AcDbLine
 62
7
  6
CONTINUOUS
 10
5.4813676556
 20
4.9877999143
 11
5.2341080813
 21
4.9877999143
  0
LINE
  5
2CD
100
AcDbEntity
  8
0
100
AcDbLine
 62
7
  6
CONTINUOUS
 10
4.6821186268
 20
4.9877999143
 11
4.4348590525
 21
4.9877999143
  0
LINE
  5
2CE
100
AcDbEntity
  8
0
100
AcDbLine
 62
7
  6
CONTINUOUS
 10
5.0898188322
 20
4.9958756054
 11
4.8264078759
 21
4.9958756054
  0
LINE
  5
2CF
100
AcDbEntity
  8
0
100
AcDbLine
 62
7
  6
CONTINUOUS
 10
5.6137813147
 20
4.5682241189
 11
5.6137813147
 21
4.3209645446
  0
LINE
  5
2D0
100
AcDbEntity
  8
0
100
AcDbLine
 62
7
  6
CONTINUOUS
 10
5.6279804275
 20
4.9536495205
 11
5.6279804275
 21
4.7347881718
  0
LINE
  5
2D1
100
AcDbEntity
  8
0
100
AcDbLine
 62
7
  6
CONTINUOUS
 10
5.6279804275
 20
4.1544004917
 11
5.6279804275
 21
3.935539143
  0
LINE
  5
2D2
100
AcDbEntity
  8
0
100
AcDbLine
 62
7
  6
CONTINUOUS
 10
5.6358604405
 20
6.1446430508
 11
5.6358604405
 21
5.9415417281
  0
LINE
  5
2D3
100
AcDbEntity
  8
0
100
AcDbLine
 62
7
  6
CONTINUOUS
 10
5.6358604405
 20
5.7450185363
 11
5.6358604405
 21
5.5419172137
  0
LINE
  5
2D4
100
AcDbEntity
  8
0
100
AcDbLine
 62
7
  6
CONTINUOUS
 10
5.6358604405
 20
5.3453940219
 11
5.6358604405
 21
5.1422926993
  0
LINE
  5
2D5
100
AcDbEntity
  8
0
100
AcDbLine
 62
7
  6
CONTINUOUS
 10
5.6358604405
 20
3.7468959643
 11
5.6358604405
 21
3.5437946416
  0
LINE
  5
2D6
100
AcDbEntity
  8
0
100
AcDbLine
 62
7
  6
CONTINUOUS
 10
5.6358604405
 20
3.3472714499
 11
5.6358604405
 21
3.1441701272
  0
LINE
  5
2D7
100
AcDbEntity
  8
0
100
AcDbLine
 62
7
  6
CONTINUOUS
 10
5.6358604405
 20
2.9482188451
 11
5.6358604405
 21
2.7451175224
  0
LINE
  5
2D8
100
AcDbEntity
  8
0
100
AcDbLine
 62
7
  6
CONTINUOUS
 10
4.8344835669
 20
5.1002622924
 11
5.0817431412
 21
5.1002622924
  0
LINE
  5
2D9
100
AcDbEntity
  8
0
100
AcDbLine
 62
7
  6
CONTINUOUS
 10
4.4490581653
 20
5.1144614052
 11
4.667919514
 21
5.1144614052
  0
LINE
  5
2DA
100
AcDbEntity
  8
0
100
AcDbLine
 62
7
  6
CONTINUOUS
 10
5.2483071941
 20
5.1144614052
 11
5.4671685428
 21
5.1144614052
  0
LINE
  5
2DB
100
AcDbEntity
  8
0
100
AcDbLine
 62
7
  6
CONTINUOUS
 10
3.258064635
 20
5.1223414182
 11
3.4611659577
 21
5.1223414182
  0
LINE
  5
2DC
100
AcDbEntity
  8
0
100
AcDbLine
 62
7
  6
CONTINUOUS
 10
3.6576891495
 20
5.1223414182
 11
3.8607904721
 21
5.1223414182
  0
LINE
  5
2DD
100
AcDbEntity
  8
0
100
AcDbLine
 62
7
  6
CONTINUOUS
 10
4.0573136639
 20
5.1223414182
 11
4.2604149865
 21
5.1223414182
  0
LINE
  5
2DE
100
AcDbEntity
  8
0
100
AcDbLine
 62
7
  6
CONTINUOUS
 10
5.6558117215
 20
5.1223414182
 11
5.8589130442
 21
5.1223414182
  0
LINE
  5
2DF
100
AcDbEntity
  8
0
100
AcDbLine
 62
7
  6
CONTINUOUS
 10
6.0554362359
 20
5.1223414182
 11
6.2585375586
 21
5.1223414182
  0
LINE
  5
2E0
100
AcDbEntity
  8
0
100
AcDbLine
 62
7
  6
CONTINUOUS
 10
6.4550607504
 20
5.1223414182
 11
6.658162073
 21
5.1223414182
  0
LINE
  5
2E1
100
AcDbEntity
  8
0
100
AcDbLine
 62
7
  6
CONTINUOUS
 10
5.8788643252
 20
2.822994838
 11
5.8788643252
 21
2.9482188451
  0
LINE
  5
2E2
100
AcDbEntity
  8
0
100
AcDbLine
 62
7
  6
CONTINUOUS
 10
5.8788643252
 20
3.1441701272
 11
5.8788643252
 21
3.3472714499
  0
LINE
  5
2E3
100
AcDbEntity
  8
0
100
AcDbLine
 62
7
  6
CONTINUOUS
 10
5.8788643252
 20
3.5437946416
 11
5.8788643252
 21
3.7468959643
  0
LINE
  5
2E4
100
AcDbEntity
  8
0
100
AcDbLine
 62
7
  6
CONTINUOUS
 10
5.8788643252
 20
5.1422926993
 11
5.8788643252
 21
5.3453940219
  0
LINE
  5
2E5
100
AcDbEntity
  8
0
100
AcDbLine
 62
7
  6
CONTINUOUS
 10
5.8788643252
 20
5.5419172137
 11
5.8788643252
 21
5.7450185363
  0
LINE
  5
2E6
100
AcDbEntity
  8
0
100
AcDbLine
 62
7
  6
CONTINUOUS
 10
5.8788643252
 20
5.9415417281
 11
5.8788643252
 21
6.0661938255
  0
LINE
  5
2E7
100
AcDbEntity
  8
0
100
AcDbLine
 62
7
  6
CONTINUOUS
 10
5.8867443382
 20
3.935539143
 11
5.8867443382
 21
4.1544004917
  0
LINE
  5
2E8
100
AcDbEntity
  8
0
100
AcDbLine
 62
7
  6
CONTINUOUS
 10
5.8867443382
 20
4.7347881718
 11
5.8867443382
 21
4.9536495205
  0
LINE
  5
2E9
100
AcDbEntity
  8
0
100
AcDbLine
 62
7
  6
CONTINUOUS
 10
5.900943451
 20
4.3209645446
 11
5.900943451
 21
4.5682241189
  0
LINE
  5
2EA
100
AcDbEntity
  8
0
100
AcDbLine
 62
7
  6
CONTINUOUS
 10
6.5797128478
 20
5.3653453029
 11
6.4550607504
 21
5.3653453029
  0
LINE
  5
2EB
100
AcDbEntity
  8
0
100
AcDbLine
 62
7
  6
CONTINUOUS
 10
6.2585375586
 20
5.3653453029
 11
6.0554362359
 21
5.3653453029
  0
LINE
  5
2EC
100
AcDbEntity
  8
0
100
AcDbLine
 62
7
  6
CONTINUOUS
 10
5.8589130442
 20
5.3653453029
 11
5.6558117215
 21
5.3653453029
  0
LINE
  5
2ED
100
AcDbEntity
  8
0
100
AcDbLine
 62
7
  6
CONTINUOUS
 10
4.2604149865
 20
5.3653453029
 11
4.0573136639
 21
5.3653453029
  0
LINE
  5
2EE
100
AcDbEntity
  8
0
100
AcDbLine
 62
7
  6
CONTINUOUS
 10
3.8607904721
 20
5.3653453029
 11
3.6576891495
 21
5.3653453029
  0
LINE
  5
2EF
100
AcDbEntity
  8
0
100
AcDbLine
 62
7
  6
CONTINUOUS
 10
3.4611659577
 20
5.3653453029
 11
3.3365138603
 21
5.3653453029
  0
LINE
  5
2F0
100
AcDbEntity
  8
0
100
AcDbLine
 62
7
  6
CONTINUOUS
 10
5.4671685428
 20
5.3732253159
 11
5.2483071941
 21
5.3732253159
  0
LINE
  5
2F1
100
AcDbEntity
  8
0
100
AcDbLine
 62
7
  6
CONTINUOUS
 10
4.667919514
 20
5.3732253159
 11
4.4490581653
 21
5.3732253159
  0
LINE
  5
2F2
100
AcDbEntity
  8
0
100
AcDbLine
 62
7
  6
CONTINUOUS
 10
5.0817431412
 20
5.3874244287
 11
4.8344835669
 21
5.3874244287
  0
LINE
  5
2F3
100
AcDbEntity
  8
0
100
AcDbLine
 62
7
  6
CONTINUOUS
 10
6.0276049419
 20
4.5540250061
 11
6.0276049419
 21
4.3351636574
  0
LINE
  5
2F4
100
AcDbEntity
  8
0
100
AcDbLine
 62
7
  6
CONTINUOUS
 10
6.0354849549
 20
5.7450185363
 11
6.0354849549
 21
5.5419172137
  0
LINE
  5
2F5
100
AcDbEntity
  8
0
100
AcDbLine
 62
7
  6
CONTINUOUS
 10
6.0354849549
 20
5.3453940219
 11
6.0354849549
 21
5.1422926993
  0
LINE
  5
2F6
100
AcDbEntity
  8
0
100
AcDbLine
 62
7
  6
CONTINUOUS
 10
6.0354849549
 20
4.9457695075
 11
6.0354849549
 21
4.7426681848
  0
LINE
  5
2F7
100
AcDbEntity
  8
0
100
AcDbLine
 62
7
  6
CONTINUOUS
 10
6.0354849549
 20
4.1465204787
 11
6.0354849549
 21
3.943419156
  0
LINE
  5
2F8
100
AcDbEntity
  8
0
100
AcDbLine
 62
7
  6
CONTINUOUS
 10
6.0354849549
 20
3.7468959643
 11
6.0354849549
 21
3.5437946416
  0
LINE
  5
2F9
100
AcDbEntity
  8
0
100
AcDbLine
 62
7
  6
CONTINUOUS
 10
6.0354849549
 20
3.3472714499
 11
6.0354849549
 21
3.1441701272
  0
LINE
  5
2FA
100
AcDbEntity
  8
0
100
AcDbLine
 62
7
  6
CONTINUOUS
 10
4.8486826797
 20
5.5140859196
 11
5.0675440284
 21
5.5140859196
  0
LINE
  5
2FB
100
AcDbEntity
  8
0
100
AcDbLine
 62
7
  6
CONTINUOUS
 10
3.6576891495
 20
5.5219659327
 11
3.8607904721
 21
5.5219659327
  0
LINE
  5
2FC
100
AcDbEntity
  8
0
100
AcDbLine
 62
7
  6
CONTINUOUS
 10
4.0573136639
 20
5.5219659327
 11
4.2604149865
 21
5.5219659327
  0
LINE
  5
2FD
100
AcDbEntity
  8
0
100
AcDbLine
 62
7
  6
CONTINUOUS
 10
4.4569381783
 20
5.5219659327
 11
4.660039501
 21
5.5219659327
  0
LINE
  5
2FE
100
AcDbEntity
  8
0
100
AcDbLine
 62
7
  6
CONTINUOUS
 10
5.2561872071
 20
5.5219659327
 11
5.4592885298
 21
5.5219659327
  0
LINE
  5
2FF
100
AcDbEntity
  8
0
100
AcDbLine
 62
7
  6
CONTINUOUS
 10
5.6558117215
 20
5.5219659327
 11
5.8589130442
 21
5.5219659327
  0
LINE
  5
300
100
AcDbEntity
  8
0
100
AcDbLine
 62
7
  6
CONTINUOUS
 10
6.0554362359
 20
5.5219659327
 11
6.2585375586
 21
5.5219659327
  0
LINE
  5
301
100
AcDbEntity
  8
0
100
AcDbLine
 62
7
  6
CONTINUOUS
 10
6.2784888396
 20
3.1441701272
 11
6.2784888396
 21
3.3472714499
  0
LINE
  5
302
100
AcDbEntity
  8
0
100
AcDbLine
 62
7
  6
CONTINUOUS
 10
6.2784888396
 20
3.5437946416
 11
6.2784888396
 21
3.7468959643
  0
LINE
  5
303
100
AcDbEntity
  8
0
100
AcDbLine
 62
7
  6
CONTINUOUS
 10
6.2784888396
 20
3.943419156
 11
6.2784888396
 21
4.1465204787
  0
LINE
  5
304
100
AcDbEntity
  8
0
100
AcDbLine
 62
7
  6
CONTINUOUS
 10
6.2784888396
 20
4.7426681848
 11
6.2784888396
 21
4.9457695075
  0
LINE
  5
305
100
AcDbEntity
  8
0
100
AcDbLine
 62
7
  6
CONTINUOUS
 10
6.2784888396
 20
5.1422926993
 11
6.2784888396
 21
5.3453940219
  0
LINE
  5
306
100
AcDbEntity
  8
0
100
AcDbLine
 62
7
  6
CONTINUOUS
 10
6.2784888396
 20
5.5419172137
 11
6.2784888396
 21
5.7450185363
  0
LINE
  5
307
100
AcDbEntity
  8
0
100
AcDbLine
 62
7
  6
CONTINUOUS
 10
6.2863688526
 20
4.3351636574
 11
6.2863688526
 21
4.5540250061
  0
LINE
  5
308
100
AcDbEntity
  8
0
100
AcDbLine
 62
7
  6
CONTINUOUS
 10
6.2585375586
 20
5.7649698173
 11
6.0554362359
 21
5.7649698173
  0
LINE
  5
309
100
AcDbEntity
  8
0
100
AcDbLine
 62
7
  6
CONTINUOUS
 10
5.8589130442
 20
5.7649698173
 11
5.6558117215
 21
5.7649698173
  0
LINE
  5
30A
100
AcDbEntity
  8
0
100
AcDbLine
 62
7
  6
CONTINUOUS
 10
5.4592885298
 20
5.7649698173
 11
5.2561872071
 21
5.7649698173
  0
LINE
  5
30B
100
AcDbEntity
  8
0
100
AcDbLine
 62
7
  6
CONTINUOUS
 10
4.660039501
 20
5.7649698173
 11
4.4569381783
 21
5.7649698173
  0
LINE
  5
30C
100
AcDbEntity
  8
0
100
AcDbLine
 62
7
  6
CONTINUOUS
 10
4.2604149865
 20
5.7649698173
 11
4.0573136639
 21
5.7649698173
  0
LINE
  5
30D
100
AcDbEntity
  8
0
100
AcDbLine
 62
7
  6
CONTINUOUS
 10
3.8607904721
 20
5.7649698173
 11
3.6576891495
 21
5.7649698173
  0
LINE
  5
30E
100
AcDbEntity
  8
0
100
AcDbLine
 62
7
  6
CONTINUOUS
 10
5.0675440284
 20
5.7728498304
 11
4.8486826797
 21
5.7728498304
  0
LINE
  5
30F
100
AcDbEntity
  8
0
100
AcDbLine
 62
7
  6
CONTINUOUS
 10
6.4351094694
 20
5.3453940219
 11
6.4351094694
 21
5.1422926993
  0
LINE
  5
310
100
AcDbEntity
  8
0
100
AcDbLine
 62
7
  6
CONTINUOUS
 10
6.4351094694
 20
4.9457695075
 11
6.4351094694
 21
4.7426681848
  0
LINE
  5
311
100
AcDbEntity
  8
0
100
AcDbLine
 62
7
  6
CONTINUOUS
 10
6.4351094694
 20
4.5461449931
 11
6.4351094694
 21
4.3430436704
  0
LINE
  5
312
100
AcDbEntity
  8
0
100
AcDbLine
 62
7
  6
CONTINUOUS
 10
6.4351094694
 20
4.1465204787
 11
6.4351094694
 21
3.943419156
  0
LINE
  5
313
100
AcDbEntity
  8
0
100
AcDbLine
 62
7
  6
CONTINUOUS
 10
6.4351094694
 20
3.7468959643
 11
6.4351094694
 21
3.5437946416
  0
LINE
  5
314
100
AcDbEntity
  8
0
100
AcDbLine
 62
7
  6
CONTINUOUS
 10
4.0573136639
 20
5.9215904471
 11
4.2604149865
 21
5.9215904471
  0
LINE
  5
315
100
AcDbEntity
  8
0
100
AcDbLine
 62
7
  6
CONTINUOUS
 10
4.4569381783
 20
5.9215904471
 11
4.660039501
 21
5.9215904471
  0
LINE
  5
316
100
AcDbEntity
  8
0
100
AcDbLine
 62
7
  6
CONTINUOUS
 10
4.8565626927
 20
5.9215904471
 11
5.0596640154
 21
5.9215904471
  0
LINE
  5
317
100
AcDbEntity
  8
0
100
AcDbLine
 62
7
  6
CONTINUOUS
 10
5.2561872071
 20
5.9215904471
 11
5.4592885298
 21
5.9215904471
  0
LINE
  5
318
100
AcDbEntity
  8
0
100
AcDbLine
 62
7
  6
CONTINUOUS
 10
5.6558117215
 20
5.9215904471
 11
5.8589130442
 21
5.9215904471
  0
LINE
  5
319
100
AcDbEntity
  8
0
100
AcDbLine
 62
7
  6
CONTINUOUS
 10
6.678113354
 20
3.7023953335
 11
6.678113354
 21
3.7468959643
  0
LINE
  5
31A
100
AcDbEntity
  8
0
100
AcDbLine
 62
7
  6
CONTINUOUS
 10
6.678113354
 20
5.1422926993
 11
6.678113354
 21
5.18679333
  0
LINE
  5
31B
100
AcDbEntity
  8
0
100
AcDbLine
 62
7
  6
CONTINUOUS
 10
5.7003123523
 20
6.1645943318
 11
5.6558117215
 21
6.1645943318
  0
LINE
  5
31C
100
AcDbEntity
  8
0
100
AcDbLine
 62
7
  6
CONTINUOUS
 10
4.2604149865
 20
6.1645943318
 11
4.2159143558
 21
6.1645943318
  0
ARC
  5
31D
100
AcDbEntity
  8
0
100
AcDbCircle
 62
7
  6
CONTINUOUS
 10
4.0574345575
 20
2.8230120364
 40
0.0200726708
100
AcDbArc
 50
180.0490927268
 51
240.9919495342
  0
ARC
  5
31E
100
AcDbEntity
  8
0
100
AcDbCircle
 62
7
  6
CONTINUOUS
 10
3.3365310586
 20
3.5439155353
 40
0.0200726708
100
AcDbArc
 50
209.0080508336
 51
269.9509076799
  0
ARC
  5
31F
100
AcDbEntity
  8
0
100
AcDbCircle
 62
7
  6
CONTINUOUS
 10
4.4570258724
 20
2.6585990439
 40
0.0200388954
100
AcDbArc
 50
180.0554511793
 51
254.3916920476
  0
ARC
  5
320
100
AcDbEntity
  8
0
100
AcDbCircle
 62
7
  6
CONTINUOUS
 10
3.1721180667
 20
3.9435068488
 40
0.0200388954
100
AcDbArc
 50
195.608304161
 51
269.9445472962
  0
ARC
  5
321
100
AcDbEntity
  8
0
100
AcDbCircle
 62
7
  6
CONTINUOUS
 10
4.856637678
 20
2.5924013557
 40
0.0200278383
100
AcDbArc
 50
180.0723230007
 51
266.934095105
  0
ARC
  5
322
100
AcDbEntity
  8
0
100
AcDbCircle
 62
7
  6
CONTINUOUS
 10
3.105920378
 20
4.3431186557
 40
0.0200278383
100
AcDbArc
 50
183.0659048927
 51
269.9276770019
  0
ARC
  5
323
100
AcDbEntity
  8
0
100
AcDbCircle
 62
7
  6
CONTINUOUS
 10
3.3365310586
 20
5.3452731283
 40
0.0200726708
100
AcDbArc
 50
90.0490923913
 51
150.9919492114
  0
ARC
  5
324
100
AcDbEntity
  8
0
100
AcDbCircle
 62
7
  6
CONTINUOUS
 10
4.0574345551
 20
6.0661766238
 40
0.0200726705
100
AcDbArc
 50
119.0080400424
 51
179.9508978491
  0
ARC
  5
325
100
AcDbEntity
  8
0
100
AcDbCircle
 62
7
  6
CONTINUOUS
 10
3.1721180667
 20
4.9456818147
 40
0.0200388954
100
AcDbArc
 50
90.0554527125
 51
164.391695836
  0
ARC
  5
326
100
AcDbEntity
  8
0
100
AcDbCircle
 62
7
  6
CONTINUOUS
 10
4.4570254396
 20
6.2305899469
 40
0.0200383966
100
AcDbArc
 50
105.6073682557
 51
179.9454834776
  0
ARC
  5
327
100
AcDbEntity
  8
0
100
AcDbCircle
 62
7
  6
CONTINUOUS
 10
3.105920378
 20
4.5460700078
 40
0.0200278383
100
AcDbArc
 50
90.0723229874
 51
176.9340950972
  0
ARC
  5
328
100
AcDbEntity
  8
0
100
AcDbCircle
 62
7
  6
CONTINUOUS
 10
4.856637678
 20
6.2967873078
 40
0.0200278383
100
AcDbArc
 50
93.0659048934
 51
179.9276770013
  0
ARC
  5
329
100
AcDbEntity
  8
0
100
AcDbCircle
 62
7
  6
CONTINUOUS
 10
5.8587921506
 20
2.8230120364
 40
0.0200726708
100
AcDbArc
 50
299.0080505013
 51
359.9509073504
  0
ARC
  5
32A
100
AcDbEntity
  8
0
100
AcDbCircle
 62
7
  6
CONTINUOUS
 10
6.579695649
 20
3.5439155322
 40
0.0200726684
100
AcDbArc
 50
270.0490936731
 51
330.9919574652
  0
ARC
  5
32B
100
AcDbEntity
  8
0
100
AcDbCircle
 62
7
  6
CONTINUOUS
 10
5.4592008368
 20
2.658599043
 40
0.0200388954
100
AcDbArc
 50
285.6083057912
 51
359.944551316
  0
ARC
  5
32C
100
AcDbEntity
  8
0
100
AcDbCircle
 62
7
  6
CONTINUOUS
 10
6.7441089699
 20
3.9435064164
 40
0.0200383961
100
AcDbArc
 50
270.0545144494
 51
344.3926338178
  0
ARC
  5
32D
100
AcDbEntity
  8
0
100
AcDbCircle
 62
7
  6
CONTINUOUS
 10
5.0595890301
 20
2.5924013557
 40
0.0200278383
100
AcDbArc
 50
273.0659048974
 51
359.9276770183
  0
ARC
  5
32E
100
AcDbEntity
  8
0
100
AcDbCircle
 62
7
  6
CONTINUOUS
 10
6.8103063301
 20
4.3431186557
 40
0.0200278383
100
AcDbArc
 50
270.0723230007
 51
356.934095105
  0
CIRCLE
  5
32F
100
AcDbEntity
  8
0
100
AcDbCircle
 62
7
  6
CONTINUOUS
 10
4.958113354
 20
4.4445943318
 40
2.02
  0
ARC
  5
330
100
AcDbEntity
  8
0
100
AcDbCircle
 62
7
  6
CONTINUOUS
 10
4.958113354
 20
4.4445943318
 40
1.875
100
AcDbArc
 50
86.8648320854
 51
93.1351679146
  0
ARC
  5
331
100
AcDbEntity
  8
0
100
AcDbCircle
 62
7
  6
CONTINUOUS
 10
4.958113354
 20
4.4445943318
 40
1.875
100
AcDbArc
 50
74.3284313255
 51
80.7501893033
  0
ARC
  5
332
100
AcDbEntity
  8
0
100
AcDbCircle
 62
7
  6
CONTINUOUS
 10
4.958113354
 20
4.4445943318
 40
1.875
100
AcDbArc
 50
60.9512436086
 51
66.4075849538
  0
ARC
  5
333
100
AcDbEntity
  8
0
100
AcDbCircle
 62
7
  6
CONTINUOUS
 10
4.958113354
 20
4.4445943318
 40
1.875
100
AcDbArc
 50
113.5924150362
 51
119.0487563914
  0
ARC
  5
334
100
AcDbEntity
  8
0
100
AcDbCircle
 62
7
  6
CONTINUOUS
 10
4.958113354
 20
4.4445943318
 40
1.875
100
AcDbArc
 50
99.2498106967
 51
105.6715686745
  0
ARC
  5
335
100
AcDbEntity
  8
0
100
AcDbCircle
 62
7
  6
CONTINUOUS
 10
4.958113354
 20
4.4445943318
 40
1.875
100
AcDbArc
 50
23.5924150361
 51
29.0487563914
  0
ARC
  5
336
100
AcDbEntity
  8
0
100
AcDbCircle
 62
7
  6
CONTINUOUS
 10
4.958113354
 20
4.4445943318
 40
1.875
100
AcDbArc
 50
150.9512436086
 51
156.4075849533
  0
ARC
  5
337
100
AcDbEntity
  8
0
100
AcDbCircle
 62
7
  6
CONTINUOUS
 10
4.958113354
 20
4.4445943318
 40
1.875
100
AcDbArc
 50
9.2498106967
 51
15.6715686745
  0
ARC
  5
338
100
AcDbEntity
  8
0
100
AcDbCircle
 62
7
  6
CONTINUOUS
 10
4.958113354
 20
4.4445943318
 40
1.875
100
AcDbArc
 50
164.3284313255
 51
170.7501893033
  0
ARC
  5
339
100
AcDbEntity
  8
0
100
AcDbCircle
 62
7
  6
CONTINUOUS
 10
4.958113354
 20
4.4445943318
 40
1.875
100
AcDbArc
 50
344.3284313255
 51
350.7501893033
  0
ARC
  5
33A
100
AcDbEntity
  8
0
100
AcDbCircle
 62
7
  6
CONTINUOUS
 10
4.958113354
 20
4.4445943318
 40
1.875
100
AcDbArc
 50
189.2498106967
 51
195.6715686745
  0
ARC
  5
33B
100
AcDbEntity
  8
0
100
AcDbCircle
 62
7
  6
CONTINUOUS
 10
4.958113354
 20
4.4445943318
 40
1.875
100
AcDbArc
 50
203.5924150361
 51
209.0487563914
  0
ARC
  5
33C
100
AcDbEntity
  8
0
100
AcDbCircle
 62
7
  6
CONTINUOUS
 10
4.958113354
 20
4.4445943318
 40
1.875
100
AcDbArc
 50
330.9512436086
 51
336.4075849533
  0
ARC
  5
33D
100
AcDbEntity
  8
0
100
AcDbCircle
 62
7
  6
CONTINUOUS
 10
4.958113354
 20
4.4445943318
 40
1.875
100
AcDbArc
 50
266.8648320854
 51
273.1351679146
  0
ARC
  5
33E
100
AcDbEntity
  8
0
100
AcDbCircle
 62
7
  6
CONTINUOUS
 10
4.958113354
 20
4.4445943318
 40
1.875
100
AcDbArc
 50
279.2498106967
 51
285.6715686745
  0
ARC
  5
33F
100
AcDbEntity
  8
0
100
AcDbCircle
 62
7
  6
CONTINUOUS
 10
4.958113354
 20
4.4445943318
 40
1.875
100
AcDbArc
 50
293.6365127954
 51
299.0487563914
  0
ARC
  5
340
100
AcDbEntity
  8
0
100
AcDbCircle
 62
7
  6
CONTINUOUS
 10
4.958113354
 20
4.4445943318
 40
1.875
100
AcDbArc
 50
240.9512436086
 51
246.3634871941
  0
ARC
  5
341
100
AcDbEntity
  8
0
100
AcDbCircle
 62
7
  6
CONTINUOUS
 10
4.958113354
 20
4.4445943318
 40
1.875
100
AcDbArc
 50
254.3284313255
 51
260.7501893033
  0
ARC
  5
342
100
AcDbEntity
  8
0
100
AcDbCircle
 62
7
  6
CONTINUOUS
 10
4.958113354
 20
4.4445943318
 40
1.875
100
AcDbArc
 50
176.8648320854
 51
183.1351679146
  0
ARC
  5
343
100
AcDbEntity
  8
0
100
AcDbCircle
 62
7
  6
CONTINUOUS
 10
4.958113354
 20
4.4445943318
 40
1.875
100
AcDbArc
 50
356.8648320854
 51
3.1351679146
  0
ARC
  5
344
100
AcDbEntity
  8
0
100
AcDbCircle
 62
7
  6
CONTINUOUS
 10
5.8587921521
 20
6.0661766243
 40
0.0200726709
100
AcDbArc
 50
0.0491006316
 51
60.9919571939
  0
ARC
  5
345
100
AcDbEntity
  8
0
100
AcDbCircle
 62
7
  6
CONTINUOUS
 10
6.5796956464
 20
5.3452731301
 40
0.0200726708
100
AcDbArc
 50
29.0080420036
 51
89.9508988621
  0
ARC
  5
346
100
AcDbEntity
  8
0
100
AcDbCircle
 62
7
  6
CONTINUOUS
 10
5.4592008362
 20
6.2305896186
 40
0.0200388954
100
AcDbArc
 50
0.0554541803
 51
74.3916943026
  0
ARC
  5
347
100
AcDbEntity
  8
0
100
AcDbCircle
 62
7
  6
CONTINUOUS
 10
6.7441089692
 20
4.9456822462
 40
0.0200383966
100
AcDbArc
 50
15.6073682492
 51
89.945483473
  0
ARC
  5
348
100
AcDbEntity
  8
0
100
AcDbCircle
 62
7
  6
CONTINUOUS
 10
6.8103063301
 20
4.5460700078
 40
0.0200278383
100
AcDbArc
 50
3.0659049005
 51
89.9276770147
  0
ARC
  5
349
100
AcDbEntity
  8
0
100
AcDbCircle
 62
7
  6
CONTINUOUS
 10
5.0595890301
 20
6.2967873078
 40
0.0200278383
100
AcDbArc
 50
0.0723229904
 51
86.9340950944
  0
SPLINE
  5
34A
100
AcDbEntity
  8
0
100
AcDbSpline
 62
7
  6
CONTINUOUS
 70
0
 71
3
 72
9
 73
5
 74
0
 42
0.0000001
 43
0.0000001
 44
0.0000000001
 40
0.0
 40
0.0
 40
0.0
 40
0.0
 40
0.5000115741
 40
1.0
 40
1.0
 40
1.0
 40
1.0
 10
5.7045884039
 20
6.1645943318
 30
0.0
 10
5.7052168631
 20
6.1642444422
 30
0.0
 10
5.7064931471
 20
6.1635661759
 30
0.0
 10
5.707881185
 20
6.1631616761
 30
0.0
 10
5.7085403267
 20
6.1628738081
 30
0.0
  0
SPLINE
  5
34B
100
AcDbEntity
  8
0
100
AcDbSpline
 62
7
  6
CONTINUOUS
 70
0
 71
3
 72
9
 73
5
 74
0
 42
0.0000001
 43
0.0000001
 44
0.0000000001
 40
0.0
 40
0.0
 40
0.0
 40
0.0
 40
0.4999907734
 40
1.0
 40
1.0
 40
1.0
 40
1.0
 10
5.7003123523
 20
6.1645943318
 30
0.0
 10
5.7010259628
 20
6.1645943318
 30
0.0
 10
5.7024485622
 20
6.1644094772
 30
0.0
 10
5.7038783722
 20
6.1645226898
 30
0.0
 10
5.7045884039
 20
6.1645943318
 30
0.0
  0
LINE
  5
34C
100
AcDbEntity
  8
0
100
AcDbLine
 62
7
  6
CONTINUOUS
 10
4.2116383042
 20
6.1645943318
 11
4.2152103786
 21
6.1645701335
  0
LINE
  5
34D
100
AcDbEntity
  8
0
100
AcDbLine
 62
7
  6
CONTINUOUS
 10
4.2152103786
 20
6.1645701335
 11
4.2159143558
 21
6.1645943318
  0
SPLINE
  5
34E
100
AcDbEntity
  8
0
100
AcDbSpline
 62
7
  6
CONTINUOUS
 70
0
 71
3
 72
9
 73
5
 74
0
 42
0.0000001
 43
0.0000001
 44
0.0000000001
 40
0.0
 40
0.0
 40
0.0
 40
0.0
 40
0.4999884464
 40
1.0
 40
1.0
 40
1.0
 40
1.0
 10
4.2076863817
 20
6.1628738082
 30
0.0
 10
4.2083455235
 20
6.1631616763
 30
0.0
 10
4.2097335629
 20
6.1635661712
 30
0.0
 10
4.2110098481
 20
6.1642444367
 30
0.0
 10
4.2116383042
 20
6.1645943318
 30
0.0
  0
LINE
  5
34F
100
AcDbEntity
  8
0
100
AcDbLine
 62
7
  6
CONTINUOUS
 10
6.678113354
 20
5.1910693816
 11
6.678089156
 21
5.1874973044
  0
LINE
  5
350
100
AcDbEntity
  8
0
100
AcDbLine
 62
7
  6
CONTINUOUS
 10
6.678089156
 20
5.1874973044
 11
6.678113354
 21
5.18679333
  0
SPLINE
  5
351
100
AcDbEntity
  8
0
100
AcDbSpline
 62
7
  6
CONTINUOUS
 70
0
 71
3
 72
9
 73
5
 74
0
 42
0.0000001
 43
0.0000001
 44
0.0000000001
 40
0.0
 40
0.0
 40
0.0
 40
0.0
 40
0.4999884486
 40
1.0
 40
1.0
 40
1.0
 40
1.0
 10
6.6763928305
 20
5.1950213041
 30
0.0
 10
6.6766806985
 20
5.1943621623
 30
0.0
 10
6.677085193
 20
5.1929741227
 30
0.0
 10
6.6777634584
 20
5.1916978374
 30
0.0
 10
6.678113354
 20
5.1910693816
 30
0.0
  0
SPLINE
  5
352
100
AcDbEntity
  8
0
100
AcDbSpline
 62
7
  6
CONTINUOUS
 70
0
 71
3
 72
9
 73
5
 74
0
 42
0.0000001
 43
0.0000001
 44
0.0000000001
 40
0.0
 40
0.0
 40
0.0
 40
0.0
 40
0.5000115764
 40
1.0
 40
1.0
 40
1.0
 40
1.0
 10
3.238113354
 20
5.1910693816
 30
0.0
 10
3.2384632429
 20
5.1916978412
 30
0.0
 10
3.2391415094
 20
5.192974125
 30
0.0
 10
3.2395460097
 20
5.1943621627
 30
0.0
 10
3.2398338777
 20
5.1950213044
 30
0.0
  0
SPLINE
  5
353
100
AcDbEntity
  8
0
100
AcDbSpline
 62
7
  6
CONTINUOUS
 70
0
 71
3
 72
9
 73
5
 74
0
 42
0.0000001
 43
0.0000001
 44
0.0000000001
 40
0.0
 40
0.0
 40
0.0
 40
0.0
 40
0.4999907759
 40
1.0
 40
1.0
 40
1.0
 40
1.0
 10
3.238113354
 20
5.18679333
 30
0.0
 10
3.238113354
 20
5.1875069405
 30
0.0
 10
3.2382982091
 20
5.1889295399
 30
0.0
 10
3.2381849967
 20
5.19035935
 30
0.0
 10
3.238113354
 20
5.1910693816
 30
0.0
  0
LINE
  5
354
100
AcDbEntity
  8
0
100
AcDbLine
 62
7
  6
CONTINUOUS
 10
3.238113354
 20
3.6981192819
 11
3.2381375484
 21
3.7016914108
  0
LINE
  5
355
100
AcDbEntity
  8
0
100
AcDbLine
 62
7
  6
CONTINUOUS
 10
3.2381375484
 20
3.7016914108
 11
3.238113354
 21
3.7023953335
  0
SPLINE
  5
356
100
AcDbEntity
  8
0
100
AcDbSpline
 62
7
  6
CONTINUOUS
 70
0
 71
3
 72
9
 73
5
 74
0
 42
0.0000001
 43
0.0000001
 44
0.0000000001
 40
0.0
 40
0.0
 40
0.0
 40
0.0
 40
0.4999884903
 40
1.0
 40
1.0
 40
1.0
 40
1.0
 10
3.2398338776
 20
3.6941673594
 30
0.0
 10
3.2395460095
 20
3.6948265014
 30
0.0
 10
3.2391415235
 20
3.6962145439
 30
0.0
 10
3.2384632606
 20
3.6974908321
 30
0.0
 10
3.238113354
 20
3.6981192819
 30
0.0
  0
SPLINE
  5
357
100
AcDbEntity
  8
0
100
AcDbSpline
 62
7
  6
CONTINUOUS
 70
0
 71
3
 72
9
 73
5
 74
0
 42
0.0000001
 43
0.0000001
 44
0.0000000001
 40
0.0
 40
0.0
 40
0.0
 40
0.0
 40
0.5000115765
 40
1.0
 40
1.0
 40
1.0
 40
1.0
 10
6.678113354
 20
3.6981192819
 30
0.0
 10
6.6777634652
 20
3.6974908223
 30
0.0
 10
6.6770851987
 20
3.6962145385
 30
0.0
 10
6.6766806984
 20
3.6948265008
 30
0.0
 10
6.6763928304
 20
3.6941673591
 30
0.0
  0
SPLINE
  5
358
100
AcDbEntity
  8
0
100
AcDbSpline
 62
7
  6
CONTINUOUS
 70
0
 71
3
 72
9
 73
5
 74
0
 42
0.0000001
 43
0.0000001
 44
0.0000000001
 40
0.0
 40
0.0
 40
0.0
 40
0.0
 40
0.4999907759
 40
1.0
 40
1.0
 40
1.0
 40
1.0
 10
6.678113354
 20
3.7023953335
 30
0.0
 10
6.6781133541
 20
3.701681723
 30
0.0
 10
6.677928499
 20
3.7002591236
 30
0.0
 10
6.6780417113
 20
3.6988293135
 30
0.0
 10
6.678113354
 20
3.6981192819
 30
0.0
  0
LINE
  5
359
100
AcDbEntity
  8
0
100
AcDbLine
 62
7
  6
CONTINUOUS
 10
5.705904797
 20
2.7251662414
 11
5.7023261385
 21
2.725190524
  0
LINE
  5
35A
100
AcDbEntity
  8
0
100
AcDbLine
 62
7
  6
CONTINUOUS
 10
5.7023261385
 20
2.725190524
 11
5.7016209697
 21
2.7251662414
  0
SPLINE
  5
35B
100
AcDbEntity
  8
0
100
AcDbSpline
 62
7
  6
CONTINUOUS
 70
0
 71
3
 72
9
 73
5
 74
0
 42
0.0000001
 43
0.0000001
 44
0.0000000001
 40
0.0
 40
0.0
 40
0.0
 40
0.0
 40
0.4999884036
 40
1.0
 40
1.0
 40
1.0
 40
1.0
 10
5.7098625796
 20
2.7268929311
 30
0.0
 10
5.7092024586
 20
2.7266040302
 30
0.0
 10
5.7078120743
 20
2.7261980629
 30
0.0
 10
5.7065340635
 20
2.7255173758
 30
0.0
 10
5.705904797
 20
2.7251662414
 30
0.0
  0
SPLINE
  5
35C
100
AcDbEntity
  8
0
100
AcDbSpline
 62
7
  6
CONTINUOUS
 70
0
 71
3
 72
9
 73
5
 74
0
 42
0.0000001
 43
0.0000001
 44
0.0000000001
 40
0.0
 40
0.0
 40
0.0
 40
0.0
 40
0.5000116585
 40
1.0
 40
1.0
 40
1.0
 40
1.0
 10
4.2103219111
 20
2.7251662414
 30
0.0
 10
4.2096926354
 20
2.7255173593
 30
0.0
 10
4.2084146288
 20
2.7261980497
 30
0.0
 10
4.207024249
 20
2.7266040305
 30
0.0
 10
4.2063641281
 20
2.7268929312
 30
0.0
  0
SPLINE
  5
35D
100
AcDbEntity
  8
0
100
AcDbSpline
 62
7
  6
CONTINUOUS
 70
0
 71
3
 72
9
 73
5
 74
0
 42
0.0000001
 43
0.0000001
 44
0.0000000001
 40
0.0
 40
0.0
 40
0.0
 40
0.0
 40
0.4999907
 40
1.0
 40
1.0
 40
1.0
 40
1.0
 10
4.2146057384
 20
2.7251662414
 30
0.0
 10
4.2138908268
 20
2.7251662414
 30
0.0
 10
4.2124656504
 20
2.7253517831
 30
0.0
 10
4.2110332248
 20
2.7252381406
 30
0.0
 10
4.2103219111
 20
2.7251662414
 30
0.0
  0
SPLINE
  5
35E
100
AcDbEntity
  8
0
100
AcDbSpline
 62
7
  6
CONTINUOUS
 70
0
 71
3
 72
11
 73
7
 74
0
 42
0.0000001
 43
0.0000001
 44
0.0000000001
 40
0.0
 40
0.0
 40
0.0
 40
0.0
 40
0.2500140557
 40
0.5000247283
 40
0.7500174668
 40
1.0
 40
1.0
 40
1.0
 40
1.0
 10
5.2594995502
 20
2.5939751487
 30
0.0
 10
5.256669514
 20
2.5935142576
 30
0.0
 10
5.2507314886
 20
2.5938284992
 30
0.0
 10
5.2428974345
 20
2.5979784742
 30
0.0
 10
5.2375107711
 20
2.6050214961
 30
0.0
 10
5.2362359261
 20
2.6108322428
 30
0.0
 10
5.2362359261
 20
2.6136992015
 30
0.0
  0
SPLINE
  5
35F
100
AcDbEntity
  8
0
100
AcDbSpline
 62
7
  6
CONTINUOUS
 70
0
 71
3
 72
11
 73
7
 74
0
 42
0.0000001
 43
0.0000001
 44
0.0000000001
 40
0.0
 40
0.0
 40
0.0
 40
0.0
 40
0.2499825332
 40
0.4999752717
 40
0.7499859443
 40
1.0
 40
1.0
 40
1.0
 40
1.0
 10
4.679990782
 20
2.6136992015
 30
0.0
 10
4.679990782
 20
2.6108322428
 30
0.0
 10
4.678715937
 20
2.6050214961
 30
0.0
 10
4.6733292736
 20
2.5979784742
 30
0.0
 10
4.6654952194
 20
2.5938284992
 30
0.0
 10
4.6595571941
 20
2.5935142576
 30
0.0
 10
4.6567271579
 20
2.5939751487
 30
0.0
  0
SPLINE
  5
360
100
AcDbEntity
  8
0
100
AcDbSpline
 62
7
  6
CONTINUOUS
 70
0
 71
3
 72
11
 73
7
 74
0
 42
0.0000001
 43
0.0000001
 44
0.0000000001
 40
0.0
 40
0.0
 40
0.0
 40
0.0
 40
0.2499825332
 40
0.4999752717
 40
0.7499859443
 40
1.0
 40
1.0
 40
1.0
 40
1.0
 10
6.7890084843
 20
4.1664717597
 30
0.0
 10
6.791875443
 20
4.1664717597
 30
0.0
 10
6.7976861897
 20
4.1651969147
 30
0.0
 10
6.8047292115
 20
4.1598102513
 30
0.0
 10
6.8088791866
 20
4.1519761972
 30
0.0
 10
6.8091934282
 20
4.1460381718
 30
0.0
 10
6.8087325371
 20
4.1432081356
 30
0.0
  0
SPLINE
  5
361
100
AcDbEntity
  8
0
100
AcDbSpline
 62
7
  6
CONTINUOUS
 70
0
 71
3
 72
11
 73
7
 74
0
 42
0.0000001
 43
0.0000001
 44
0.0000000001
 40
0.0
 40
0.0
 40
0.0
 40
0.0
 40
0.2500140557
 40
0.5000247283
 40
0.7500174668
 40
1.0
 40
1.0
 40
1.0
 40
1.0
 10
3.107494171
 20
4.1432081356
 30
0.0
 10
3.1070332799
 20
4.1460381718
 30
0.0
 10
3.1073475214
 20
4.1519761972
 30
0.0
 10
3.1114974965
 20
4.1598102513
 30
0.0
 10
3.1185405184
 20
4.1651969147
 30
0.0
 10
3.1243512651
 20
4.1664717597
 30
0.0
 10
3.1272182237
 20
4.1664717597
 30
0.0
  0
SPLINE
  5
362
100
AcDbEntity
  8
0
100
AcDbSpline
 62
7
  6
CONTINUOUS
 70
0
 71
3
 72
11
 73
7
 74
0
 42
0.0000001
 43
0.0000001
 44
0.0000000001
 40
0.0
 40
0.0
 40
0.0
 40
0.0
 40
0.2500140557
 40
0.5000247283
 40
0.7500174668
 40
1.0
 40
1.0
 40
1.0
 40
1.0
 10
6.8087325371
 20
4.7459805279
 30
0.0
 10
6.8091934282
 20
4.7431504917
 30
0.0
 10
6.8088791866
 20
4.7372124664
 30
0.0
 10
6.8047292115
 20
4.7293784122
 30
0.0
 10
6.7976861897
 20
4.7239917488
 30
0.0
 10
6.791875443
 20
4.7227169038
 30
0.0
 10
6.7890084843
 20
4.7227169038
 30
0.0
  0
SPLINE
  5
363
100
AcDbEntity
  8
0
100
AcDbSpline
 62
7
  6
CONTINUOUS
 70
0
 71
3
 72
11
 73
7
 74
0
 42
0.0000001
 43
0.0000001
 44
0.0000000001
 40
0.0
 40
0.0
 40
0.0
 40
0.0
 40
0.2499825332
 40
0.4999752717
 40
0.7499859443
 40
1.0
 40
1.0
 40
1.0
 40
1.0
 10
3.1272182237
 20
4.7227169038
 30
0.0
 10
3.1243512651
 20
4.7227169038
 30
0.0
 10
3.1185405184
 20
4.7239917488
 30
0.0
 10
3.1114974965
 20
4.7293784122
 30
0.0
 10
3.1073475214
 20
4.7372124664
 30
0.0
 10
3.1070332799
 20
4.7431504917
 30
0.0
 10
3.107494171
 20
4.7459805279
 30
0.0
  0
SPLINE
  5
364
100
AcDbEntity
  8
0
100
AcDbSpline
 62
7
  6
CONTINUOUS
 70
0
 71
3
 72
11
 73
7
 74
0
 42
0.0000001
 43
0.0000001
 44
0.0000000001
 40
0.0
 40
0.0
 40
0.0
 40
0.0
 40
0.2500140561
 40
0.5000247278
 40
0.7500174659
 40
1.0
 40
1.0
 40
1.0
 40
1.0
 10
4.6567271579
 20
6.2952135148
 30
0.0
 10
4.6595571941
 20
6.2956744059
 30
0.0
 10
4.6654952194
 20
6.2953601643
 30
0.0
 10
4.6733292735
 20
6.2912101893
 30
0.0
 10
4.678715937
 20
6.2841671674
 30
0.0
 10
4.679990782
 20
6.2783564208
 30
0.0
 10
4.679990782
 20
6.275489462
 30
0.0
  0
SPLINE
  5
365
100
AcDbEntity
  8
0
100
AcDbSpline
 62
7
  6
CONTINUOUS
 70
0
 71
3
 72
11
 73
7
 74
0
 42
0.0000001
 43
0.0000001
 44
0.0000000001
 40
0.0
 40
0.0
 40
0.0
 40
0.0
 40
0.2499825341
 40
0.4999752722
 40
0.7499859439
 40
1.0
 40
1.0
 40
1.0
 40
1.0
 10
5.2362359261
 20
6.275489462
 30
0.0
 10
5.2362359261
 20
6.2783564208
 30
0.0
 10
5.2375107711
 20
6.2841671674
 30
0.0
 10
5.2428974345
 20
6.2912101893
 30
0.0
 10
5.2507314886
 20
6.2953601643
 30
0.0
 10
5.256669514
 20
6.2956744059
 30
0.0
 10
5.2594995502
 20
6.2952135148
 30
0.0
  0
ELLIPSE
  5
366
100
AcDbEntity
  8
0
100
AcDbEllipse
 62
7
  6
CONTINUOUS
 10
5.8588154872
 20
2.9481212881
 30
0.0
 11
0.014211119
 21
0.014211119
 31
0.0
 40
0.9951458158
 41
-0.782965171
 42
0.782965171
  0
ELLIPSE
  5
367
100
AcDbEntity
  8
0
100
AcDbEllipse
 62
7
  6
CONTINUOUS
 10
5.6559092785
 20
2.7452150794
 30
0.0
 11
0.014211119
 21
0.014211119
 31
0.0
 40
0.9951458158
 41
2.3586274826
 42
3.9245578246
  0
ELLIPSE
  5
368
100
AcDbEntity
  8
0
100
AcDbEllipse
 62
7
  6
CONTINUOUS
 10
5.6559092785
 20
2.9481212881
 30
0.0
 11
0.014211119
 21
-0.014211119
 31
0.0
 40
0.9951458158
 41
2.3586274826
 42
3.9245578246
  0
ELLIPSE
  5
369
100
AcDbEntity
  8
0
100
AcDbEllipse
 62
7
  6
CONTINUOUS
 10
5.4591909728
 20
2.9481212881
 30
0.0
 11
0.014211119
 21
0.014211119
 31
0.0
 40
0.9951458158
 41
-0.782965171
 42
0.782965171
  0
ELLIPSE
  5
36A
100
AcDbEntity
  8
0
100
AcDbEllipse
 62
7
  6
CONTINUOUS
 10
5.2562847641
 20
2.9481212881
 30
0.0
 11
-0.014211119
 21
0.014211119
 31
0.0
 40
0.9951458158
 41
-0.782965171
 42
0.782965171
  0
ELLIPSE
  5
36B
100
AcDbEntity
  8
0
100
AcDbEllipse
 62
7
  6
CONTINUOUS
 10
5.0595664584
 20
2.9481212881
 30
0.0
 11
0.014211119
 21
0.014211119
 31
0.0
 40
0.9951458158
 41
-0.782965171
 42
0.782965171
  0
ELLIPSE
  5
36C
100
AcDbEntity
  8
0
100
AcDbEllipse
 62
7
  6
CONTINUOUS
 10
4.8566602497
 20
2.9481212881
 30
0.0
 11
0.014211119
 21
-0.014211119
 31
0.0
 40
0.9951458158
 41
2.3586274826
 42
3.9245578246
  0
ELLIPSE
  5
36D
100
AcDbEntity
  8
0
100
AcDbEllipse
 62
7
  6
CONTINUOUS
 10
4.659941944
 20
2.9481212881
 30
0.0
 11
0.014211119
 21
0.014211119
 31
0.0
 40
0.9951458158
 41
-0.782965171
 42
0.782965171
  0
ELLIPSE
  5
36E
100
AcDbEntity
  8
0
100
AcDbEllipse
 62
7
  6
CONTINUOUS
 10
4.4570357352
 20
2.9481212881
 30
0.0
 11
0.014211119
 21
-0.014211119
 31
0.0
 40
0.9951458158
 41
2.3586274826
 42
3.9245578246
  0
ELLIPSE
  5
36F
100
AcDbEntity
  8
0
100
AcDbEllipse
 62
7
  6
CONTINUOUS
 10
4.2603174296
 20
2.9481212881
 30
0.0
 11
0.014211119
 21
0.014211119
 31
0.0
 40
0.9951458158
 41
-0.782965171
 42
0.782965171
  0
ELLIPSE
  5
370
100
AcDbEntity
  8
0
100
AcDbEllipse
 62
7
  6
CONTINUOUS
 10
4.2603174296
 20
2.7452150794
 30
0.0
 11
0.014211119
 21
-0.014211119
 31
0.0
 40
0.9951458158
 41
-0.782965171
 42
0.782965171
  0
ELLIPSE
  5
371
100
AcDbEntity
  8
0
100
AcDbEllipse
 62
7
  6
CONTINUOUS
 10
4.0574112208
 20
2.9481212881
 30
0.0
 11
0.014211119
 21
-0.014211119
 31
0.0
 40
0.9951458158
 41
2.3586274826
 42
3.9245578246
  0
ELLIPSE
  5
372
100
AcDbEntity
  8
0
100
AcDbEllipse
 62
7
  6
CONTINUOUS
 10
6.2584400017
 20
3.3471738929
 30
0.0
 11
0.014211119
 21
0.014211119
 31
0.0
 40
0.9951458158
 41
-0.782965171
 42
0.782965171
  0
ELLIPSE
  5
373
100
AcDbEntity
  8
0
100
AcDbEllipse
 62
7
  6
CONTINUOUS
 10
6.2584400017
 20
3.1442676841
 30
0.0
 11
0.014211119
 21
-0.014211119
 31
0.0
 40
0.9951458158
 41
-0.782965171
 42
0.782965171
  0
ELLIPSE
  5
374
100
AcDbEntity
  8
0
100
AcDbEllipse
 62
7
  6
CONTINUOUS
 10
6.0555337929
 20
3.1442676841
 30
0.0
 11
0.014211119
 21
0.014211119
 31
0.0
 40
0.9951458158
 41
2.3586274826
 42
3.9245578246
  0
ELLIPSE
  5
375
100
AcDbEntity
  8
0
100
AcDbEllipse
 62
7
  6
CONTINUOUS
 10
6.0555337929
 20
3.3471738929
 30
0.0
 11
0.014211119
 21
-0.014211119
 31
0.0
 40
0.9951458158
 41
2.3586274826
 42
3.9245578246
  0
ELLIPSE
  5
376
100
AcDbEntity
  8
0
100
AcDbEllipse
 62
7
  6
CONTINUOUS
 10
5.8588154872
 20
3.3471738929
 30
0.0
 11
0.014211119
 21
0.014211119
 31
0.0
 40
0.9951458158
 41
-0.782965171
 42
0.782965171
  0
ELLIPSE
  5
377
100
AcDbEntity
  8
0
100
AcDbEllipse
 62
7
  6
CONTINUOUS
 10
5.8588154872
 20
3.1442676841
 30
0.0
 11
0.014211119
 21
-0.014211119
 31
0.0
 40
0.9951458158
 41
-0.782965171
 42
0.782965171
  0
ELLIPSE
  5
378
100
AcDbEntity
  8
0
100
AcDbEllipse
 62
7
  6
CONTINUOUS
 10
5.6559092785
 20
3.1442676841
 30
0.0
 11
0.014211119
 21
0.014211119
 31
0.0
 40
0.9951458158
 41
2.3586274826
 42
3.9245578246
  0
ELLIPSE
  5
379
100
AcDbEntity
  8
0
100
AcDbEllipse
 62
7
  6
CONTINUOUS
 10
5.6559092785
 20
3.3471738929
 30
0.0
 11
0.014211119
 21
-0.014211119
 31
0.0
 40
0.9951458158
 41
2.3586274826
 42
3.9245578246
  0
ELLIPSE
  5
37A
100
AcDbEntity
  8
0
100
AcDbEllipse
 62
7
  6
CONTINUOUS
 10
5.4591909728
 20
3.3471738929
 30
0.0
 11
0.014211119
 21
0.014211119
 31
0.0
 40
0.9951458158
 41
-0.782965171
 42
0.782965171
  0
ELLIPSE
  5
37B
100
AcDbEntity
  8
0
100
AcDbEllipse
 62
7
  6
CONTINUOUS
 10
5.4591909728
 20
3.1442676841
 30
0.0
 11
-0.014211119
 21
0.014211119
 31
0.0
 40
0.9951458158
 41
-3.9245578246
 42
-2.3586274826
  0
ELLIPSE
  5
37C
100
AcDbEntity
  8
0
100
AcDbEllipse
 62
7
  6
CONTINUOUS
 10
5.2562847641
 20
3.1442676841
 30
0.0
 11
0.014211119
 21
0.014211119
 31
0.0
 40
0.9951458158
 41
-3.9245578246
 42
-2.3586274826
  0
ELLIPSE
  5
37D
100
AcDbEntity
  8
0
100
AcDbEllipse
 62
7
  6
CONTINUOUS
 10
5.2562847641
 20
3.3471738929
 30
0.0
 11
-0.014211119
 21
0.014211119
 31
0.0
 40
0.9951458158
 41
-0.782965171
 42
0.782965171
  0
ELLIPSE
  5
37E
100
AcDbEntity
  8
0
100
AcDbEllipse
 62
7
  6
CONTINUOUS
 10
5.0674464714
 20
3.3550539059
 30
0.0
 11
0.014211119
 21
0.014211119
 31
0.0
 40
0.9951458158
 41
-0.782965171
 42
0.782965171
  0
ELLIPSE
  5
37F
100
AcDbEntity
  8
0
100
AcDbEllipse
 62
7
  6
CONTINUOUS
 10
5.0674464714
 20
3.1363876711
 30
0.0
 11
0.014211119
 21
-0.014211119
 31
0.0
 40
0.9951458158
 41
-0.782965171
 42
0.782965171
  0
ELLIPSE
  5
380
100
AcDbEntity
  8
0
100
AcDbEllipse
 62
7
  6
CONTINUOUS
 10
4.8487802366
 20
3.1363876711
 30
0.0
 11
0.014211119
 21
0.014211119
 31
0.0
 40
0.9951458158
 41
-3.9245578246
 42
-2.3586274826
  0
ELLIPSE
  5
381
100
AcDbEntity
  8
0
100
AcDbEllipse
 62
7
  6
CONTINUOUS
 10
4.8487802366
 20
3.3550539059
 30
0.0
 11
0.014211119
 21
-0.014211119
 31
0.0
 40
0.9951458158
 41
2.3586274826
 42
3.9245578246
  0
ELLIPSE
  5
382
100
AcDbEntity
  8
0
100
AcDbEllipse
 62
7
  6
CONTINUOUS
 10
4.659941944
 20
3.3471738929
 30
0.0
 11
0.014211119
 21
0.014211119
 31
0.0
 40
0.9951458158
 41
-0.782965171
 42
0.782965171
  0
ELLIPSE
  5
383
100
AcDbEntity
  8
0
100
AcDbEllipse
 62
7
  6
CONTINUOUS
 10
4.659941944
 20
3.1442676841
 30
0.0
 11
0.014211119
 21
-0.014211119
 31
0.0
 40
0.9951458158
 41
-0.782965171
 42
0.782965171
  0
ELLIPSE
  5
384
100
AcDbEntity
  8
0
100
AcDbEllipse
 62
7
  6
CONTINUOUS
 10
4.4570357352
 20
3.1442676841
 30
0.0
 11
0.014211119
 21
0.014211119
 31
0.0
 40
0.9951458158
 41
-3.9245578246
 42
-2.3586274826
  0
ELLIPSE
  5
385
100
AcDbEntity
  8
0
100
AcDbEllipse
 62
7
  6
CONTINUOUS
 10
4.4570357352
 20
3.3471738929
 30
0.0
 11
0.014211119
 21
-0.014211119
 31
0.0
 40
0.9951458158
 41
2.3586274826
 42
3.9245578246
  0
ELLIPSE
  5
386
100
AcDbEntity
  8
0
100
AcDbEllipse
 62
7
  6
CONTINUOUS
 10
4.2603174296
 20
3.3471738929
 30
0.0
 11
0.014211119
 21
0.014211119
 31
0.0
 40
0.9951458158
 41
-0.782965171
 42
0.782965171
  0
ELLIPSE
  5
387
100
AcDbEntity
  8
0
100
AcDbEllipse
 62
7
  6
CONTINUOUS
 10
4.2603174296
 20
3.1442676841
 30
0.0
 11
0.014211119
 21
-0.014211119
 31
0.0
 40
0.9951458158
 41
-0.782965171
 42
0.782965171
  0
ELLIPSE
  5
388
100
AcDbEntity
  8
0
100
AcDbEllipse
 62
7
  6
CONTINUOUS
 10
4.0574112208
 20
3.1442676841
 30
0.0
 11
0.014211119
 21
0.014211119
 31
0.0
 40
0.9951458158
 41
2.3586274826
 42
3.9245578246
  0
ELLIPSE
  5
389
100
AcDbEntity
  8
0
100
AcDbEllipse
 62
7
  6
CONTINUOUS
 10
4.0574112208
 20
3.3471738929
 30
0.0
 11
0.014211119
 21
-0.014211119
 31
0.0
 40
0.9951458158
 41
2.3586274826
 42
3.9245578246
  0
ELLIPSE
  5
38A
100
AcDbEntity
  8
0
100
AcDbEllipse
 62
7
  6
CONTINUOUS
 10
3.8606929152
 20
3.3471738929
 30
0.0
 11
0.014211119
 21
0.014211119
 31
0.0
 40
0.9951458158
 41
-0.782965171
 42
0.782965171
  0
ELLIPSE
  5
38B
100
AcDbEntity
  8
0
100
AcDbEllipse
 62
7
  6
CONTINUOUS
 10
3.8606929152
 20
3.1442676841
 30
0.0
 11
0.014211119
 21
-0.014211119
 31
0.0
 40
0.9951458158
 41
-0.782965171
 42
0.782965171
  0
ELLIPSE
  5
38C
100
AcDbEntity
  8
0
100
AcDbEllipse
 62
7
  6
CONTINUOUS
 10
3.6577867064
 20
3.1442676841
 30
0.0
 11
0.014211119
 21
0.014211119
 31
0.0
 40
0.9951458158
 41
-3.9245578246
 42
-2.3586274826
  0
ELLIPSE
  5
38D
100
AcDbEntity
  8
0
100
AcDbEllipse
 62
7
  6
CONTINUOUS
 10
3.6577867064
 20
3.3471738929
 30
0.0
 11
0.014211119
 21
-0.014211119
 31
0.0
 40
0.9951458158
 41
2.3586274826
 42
3.9245578246
  0
ELLIPSE
  5
38E
100
AcDbEntity
  8
0
100
AcDbEllipse
 62
7
  6
CONTINUOUS
 10
6.6580645161
 20
3.7467984073
 30
0.0
 11
0.014211119
 21
0.014211119
 31
0.0
 40
0.9951458158
 41
-0.782965171
 42
0.782965171
  0
ELLIPSE
  5
38F
100
AcDbEntity
  8
0
100
AcDbEllipse
 62
7
  6
CONTINUOUS
 10
6.4551583073
 20
3.5438921985
 30
0.0
 11
0.014211119
 21
0.014211119
 31
0.0
 40
0.9951458158
 41
2.3586274826
 42
3.9245578246
  0
ELLIPSE
  5
390
100
AcDbEntity
  8
0
100
AcDbEllipse
 62
7
  6
CONTINUOUS
 10
6.4551583073
 20
3.7467984073
 30
0.0
 11
0.014211119
 21
-0.014211119
 31
0.0
 40
0.9951458158
 41
2.3586274826
 42
3.9245578246
  0
ELLIPSE
  5
391
100
AcDbEntity
  8
0
100
AcDbEllipse
 62
7
  6
CONTINUOUS
 10
6.2584400017
 20
3.7467984073
 30
0.0
 11
0.014211119
 21
0.014211119
 31
0.0
 40
0.9951458158
 41
-0.782965171
 42
0.782965171
  0
ELLIPSE
  5
392
100
AcDbEntity
  8
0
100
AcDbEllipse
 62
7
  6
CONTINUOUS
 10
6.2584400017
 20
3.5438921985
 30
0.0
 11
0.014211119
 21
-0.014211119
 31
0.0
 40
0.9951458158
 41
-0.782965171
 42
0.782965171
  0
ELLIPSE
  5
393
100
AcDbEntity
  8
0
100
AcDbEllipse
 62
7
  6
CONTINUOUS
 10
6.0555337929
 20
3.5438921985
 30
0.0
 11
0.014211119
 21
0.014211119
 31
0.0
 40
0.9951458158
 41
2.3586274826
 42
3.9245578246
  0
ELLIPSE
  5
394
100
AcDbEntity
  8
0
100
AcDbEllipse
 62
7
  6
CONTINUOUS
 10
6.0555337929
 20
3.7467984073
 30
0.0
 11
0.014211119
 21
-0.014211119
 31
0.0
 40
0.9951458158
 41
2.3586274826
 42
3.9245578246
  0
ELLIPSE
  5
395
100
AcDbEntity
  8
0
100
AcDbEllipse
 62
7
  6
CONTINUOUS
 10
5.8588154872
 20
3.7467984073
 30
0.0
 11
0.014211119
 21
0.014211119
 31
0.0
 40
0.9951458158
 41
-0.782965171
 42
0.782965171
  0
ELLIPSE
  5
396
100
AcDbEntity
  8
0
100
AcDbEllipse
 62
7
  6
CONTINUOUS
 10
5.8588154872
 20
3.5438921985
 30
0.0
 11
0.014211119
 21
-0.014211119
 31
0.0
 40
0.9951458158
 41
-0.782965171
 42
0.782965171
  0
ELLIPSE
  5
397
100
AcDbEntity
  8
0
100
AcDbEllipse
 62
7
  6
CONTINUOUS
 10
5.6559092785
 20
3.5438921985
 30
0.0
 11
0.014211119
 21
0.014211119
 31
0.0
 40
0.9951458158
 41
2.3586274826
 42
3.9245578246
  0
ELLIPSE
  5
398
100
AcDbEntity
  8
0
100
AcDbEllipse
 62
7
  6
CONTINUOUS
 10
5.6559092785
 20
3.7467984073
 30
0.0
 11
0.014211119
 21
-0.014211119
 31
0.0
 40
0.9951458158
 41
2.3586274826
 42
3.9245578246
  0
ELLIPSE
  5
399
100
AcDbEntity
  8
0
100
AcDbEllipse
 62
7
  6
CONTINUOUS
 10
5.4670709858
 20
3.7546784203
 30
0.0
 11
0.014211119
 21
0.014211119
 31
0.0
 40
0.9951458158
 41
-0.782965171
 42
0.782965171
  0
ELLIPSE
  5
39A
100
AcDbEntity
  8
0
100
AcDbEllipse
 62
7
  6
CONTINUOUS
 10
5.4670709858
 20
3.5360121855
 30
0.0
 11
-0.014211119
 21
0.014211119
 31
0.0
 40
0.9951458158
 41
-3.9245578246
 42
-2.3586274826
  0
ELLIPSE
  5
39B
100
AcDbEntity
  8
0
100
AcDbEllipse
 62
7
  6
CONTINUOUS
 10
5.2484047511
 20
3.5360121855
 30
0.0
 11
0.014211119
 21
0.014211119
 31
0.0
 40
0.9951458158
 41
-3.9245578246
 42
-2.3586274826
  0
ELLIPSE
  5
39C
100
AcDbEntity
  8
0
100
AcDbEllipse
 62
7
  6
CONTINUOUS
 10
5.2484047511
 20
3.7546784203
 30
0.0
 11
-0.014211119
 21
0.014211119
 31
0.0
 40
0.9951458158
 41
-0.782965171
 42
0.782965171
  0
ELLIPSE
  5
39D
100
AcDbEntity
  8
0
100
AcDbEllipse
 62
7
  6
CONTINUOUS
 10
5.0816455842
 20
3.7688775331
 30
0.0
 11
0.014211119
 21
0.014211119
 31
0.0
 40
0.9951458158
 41
-0.782965171
 42
0.782965171
  0
ELLIPSE
  5
39E
100
AcDbEntity
  8
0
100
AcDbEllipse
 62
7
  6
CONTINUOUS
 10
5.0816455842
 20
3.5218130728
 30
0.0
 11
0.014211119
 21
-0.014211119
 31
0.0
 40
0.9951458158
 41
-0.782965171
 42
0.782965171
  0
ELLIPSE
  5
39F
100
AcDbEntity
  8
0
100
AcDbEllipse
 62
7
  6
CONTINUOUS
 10
4.8345811239
 20
3.5218130728
 30
0.0
 11
0.014211119
 21
0.014211119
 31
0.0
 40
0.9951458158
 41
-3.9245578246
 42
-2.3586274826
  0
ELLIPSE
  5
3A0
100
AcDbEntity
  8
0
100
AcDbEllipse
 62
7
  6
CONTINUOUS
 10
4.8345811239
 20
3.7688775331
 30
0.0
 11
0.014211119
 21
-0.014211119
 31
0.0
 40
0.9951458158
 41
2.3586274826
 42
3.9245578246
  0
ELLIPSE
  5
3A1
100
AcDbEntity
  8
0
100
AcDbEllipse
 62
7
  6
CONTINUOUS
 10
4.667821957
 20
3.7546784203
 30
0.0
 11
0.014211119
 21
0.014211119
 31
0.0
 40
0.9951458158
 41
-0.782965171
 42
0.782965171
  0
ELLIPSE
  5
3A2
100
AcDbEntity
  8
0
100
AcDbEllipse
 62
7
  6
CONTINUOUS
 10
4.667821957
 20
3.5360121855
 30
0.0
 11
-0.014211119
 21
0.014211119
 31
0.0
 40
0.9951458158
 41
-3.9245578246
 42
-2.3586274826
  0
ELLIPSE
  5
3A3
100
AcDbEntity
  8
0
100
AcDbEllipse
 62
7
  6
CONTINUOUS
 10
4.4491557222
 20
3.5360121855
 30
0.0
 11
0.014211119
 21
0.014211119
 31
0.0
 40
0.9951458158
 41
-3.9245578246
 42
-2.3586274826
  0
ELLIPSE
  5
3A4
100
AcDbEntity
  8
0
100
AcDbEllipse
 62
7
  6
CONTINUOUS
 10
4.4491557222
 20
3.7546784203
 30
0.0
 11
0.014211119
 21
-0.014211119
 31
0.0
 40
0.9951458158
 41
2.3586274826
 42
3.9245578246
  0
ELLIPSE
  5
3A5
100
AcDbEntity
  8
0
100
AcDbEllipse
 62
7
  6
CONTINUOUS
 10
4.2603174296
 20
3.7467984073
 30
0.0
 11
0.014211119
 21
0.014211119
 31
0.0
 40
0.9951458158
 41
-0.782965171
 42
0.782965171
  0
ELLIPSE
  5
3A6
100
AcDbEntity
  8
0
100
AcDbEllipse
 62
7
  6
CONTINUOUS
 10
4.2603174296
 20
3.5438921985
 30
0.0
 11
0.014211119
 21
-0.014211119
 31
0.0
 40
0.9951458158
 41
-0.782965171
 42
0.782965171
  0
ELLIPSE
  5
3A7
100
AcDbEntity
  8
0
100
AcDbEllipse
 62
7
  6
CONTINUOUS
 10
4.0574112208
 20
3.5438921985
 30
0.0
 11
0.014211119
 21
0.014211119
 31
0.0
 40
0.9951458158
 41
-3.9245578246
 42
-2.3586274826
  0
ELLIPSE
  5
3A8
100
AcDbEntity
  8
0
100
AcDbEllipse
 62
7
  6
CONTINUOUS
 10
4.0574112208
 20
3.7467984073
 30
0.0
 11
0.014211119
 21
-0.014211119
 31
0.0
 40
0.9951458158
 41
2.3586274826
 42
3.9245578246
  0
ELLIPSE
  5
3A9
100
AcDbEntity
  8
0
100
AcDbEllipse
 62
7
  6
CONTINUOUS
 10
3.8606929152
 20
3.7467984073
 30
0.0
 11
0.014211119
 21
0.014211119
 31
0.0
 40
0.9951458158
 41
-0.782965171
 42
0.782965171
  0
ELLIPSE
  5
3AA
100
AcDbEntity
  8
0
100
AcDbEllipse
 62
7
  6
CONTINUOUS
 10
3.8606929152
 20
3.5438921985
 30
0.0
 11
-0.014211119
 21
0.014211119
 31
0.0
 40
0.9951458158
 41
-3.9245578246
 42
-2.3586274826
  0
ELLIPSE
  5
3AB
100
AcDbEntity
  8
0
100
AcDbEllipse
 62
7
  6
CONTINUOUS
 10
3.6577867064
 20
3.5438921985
 30
0.0
 11
0.014211119
 21
0.014211119
 31
0.0
 40
0.9951458158
 41
-3.9245578246
 42
-2.3586274826
  0
ELLIPSE
  5
3AC
100
AcDbEntity
  8
0
100
AcDbEllipse
 62
7
  6
CONTINUOUS
 10
3.6577867064
 20
3.7467984073
 30
0.0
 11
-0.014211119
 21
0.014211119
 31
0.0
 40
0.9951458158
 41
-0.782965171
 42
0.782965171
  0
ELLIPSE
  5
3AD
100
AcDbEntity
  8
0
100
AcDbEllipse
 62
7
  6
CONTINUOUS
 10
3.258162192
 20
3.7467984073
 30
0.0
 11
-0.014211119
 21
0.014211119
 31
0.0
 40
0.9951458158
 41
-0.782965171
 42
0.782965171
  0
ELLIPSE
  5
3AE
100
AcDbEntity
  8
0
100
AcDbEllipse
 62
7
  6
CONTINUOUS
 10
3.4610684008
 20
3.5438921985
 30
0.0
 11
-0.014211119
 21
0.014211119
 31
0.0
 40
0.9951458158
 41
-3.9245578246
 42
-2.3586274826
  0
ELLIPSE
  5
3AF
100
AcDbEntity
  8
0
100
AcDbEllipse
 62
7
  6
CONTINUOUS
 10
3.4610684008
 20
3.7467984073
 30
0.0
 11
0.014211119
 21
0.014211119
 31
0.0
 40
0.9951458158
 41
-0.782965171
 42
0.782965171
  0
ELLIPSE
  5
3B0
100
AcDbEntity
  8
0
100
AcDbEllipse
 62
7
  6
CONTINUOUS
 10
6.4551583073
 20
3.943516713
 30
0.0
 11
0.014211119
 21
0.014211119
 31
0.0
 40
0.9951458158
 41
2.3586274826
 42
3.9245578246
  0
ELLIPSE
  5
3B1
100
AcDbEntity
  8
0
100
AcDbEllipse
 62
7
  6
CONTINUOUS
 10
6.4551583073
 20
4.1464229217
 30
0.0
 11
0.014211119
 21
-0.014211119
 31
0.0
 40
0.9951458158
 41
2.3586274826
 42
3.9245578246
  0
ELLIPSE
  5
3B2
100
AcDbEntity
  8
0
100
AcDbEllipse
 62
7
  6
CONTINUOUS
 10
6.2584400017
 20
4.1464229217
 30
0.0
 11
0.014211119
 21
0.014211119
 31
0.0
 40
0.9951458158
 41
-0.782965171
 42
0.782965171
  0
ELLIPSE
  5
3B3
100
AcDbEntity
  8
0
100
AcDbEllipse
 62
7
  6
CONTINUOUS
 10
6.2584400017
 20
3.943516713
 30
0.0
 11
0.014211119
 21
-0.014211119
 31
0.0
 40
0.9951458158
 41
-0.782965171
 42
0.782965171
  0
ELLIPSE
  5
3B4
100
AcDbEntity
  8
0
100
AcDbEllipse
 62
7
  6
CONTINUOUS
 10
6.0555337929
 20
3.943516713
 30
0.0
 11
0.014211119
 21
0.014211119
 31
0.0
 40
0.9951458158
 41
2.3586274826
 42
3.9245578246
  0
ELLIPSE
  5
3B5
100
AcDbEntity
  8
0
100
AcDbEllipse
 62
7
  6
CONTINUOUS
 10
6.0555337929
 20
4.1464229217
 30
0.0
 11
0.014211119
 21
-0.014211119
 31
0.0
 40
0.9951458158
 41
2.3586274826
 42
3.9245578246
  0
ELLIPSE
  5
3B6
100
AcDbEntity
  8
0
100
AcDbEllipse
 62
7
  6
CONTINUOUS
 10
5.8666955003
 20
4.1543029347
 30
0.0
 11
0.014211119
 21
0.014211119
 31
0.0
 40
0.9951458158
 41
-0.782965171
 42
0.782965171
  0
ELLIPSE
  5
3B7
100
AcDbEntity
  8
0
100
AcDbEllipse
 62
7
  6
CONTINUOUS
 10
5.8666955003
 20
3.9356367
 30
0.0
 11
0.014211119
 21
-0.014211119
 31
0.0
 40
0.9951458158
 41
-0.782965171
 42
0.782965171
  0
ELLIPSE
  5
3B8
100
AcDbEntity
  8
0
100
AcDbEllipse
 62
7
  6
CONTINUOUS
 10
5.6480292655
 20
3.9356367
 30
0.0
 11
0.014211119
 21
0.014211119
 31
0.0
 40
0.9951458158
 41
2.3586274826
 42
3.9245578246
  0
ELLIPSE
  5
3B9
100
AcDbEntity
  8
0
100
AcDbEllipse
 62
7
  6
CONTINUOUS
 10
5.6480292655
 20
4.1543029347
 30
0.0
 11
-0.014211119
 21
0.014211119
 31
0.0
 40
0.9951458158
 41
-0.782965171
 42
0.782965171
  0
ELLIPSE
  5
3BA
100
AcDbEntity
  8
0
100
AcDbEllipse
 62
7
  6
CONTINUOUS
 10
5.4812700986
 20
4.1685020475
 30
0.0
 11
0.014211119
 21
0.014211119
 31
0.0
 40
0.9951458158
 41
-0.782965171
 42
0.782965171
  0
ELLIPSE
  5
3BB
100
AcDbEntity
  8
0
100
AcDbEllipse
 62
7
  6
CONTINUOUS
 10
5.4812700986
 20
3.9214375872
 30
0.0
 11
-0.014211119
 21
0.014211119
 31
0.0
 40
0.9951458158
 41
-3.9245578246
 42
-2.3586274826
  0
ELLIPSE
  5
3BC
100
AcDbEntity
  8
0
100
AcDbEllipse
 62
7
  6
CONTINUOUS
 10
5.2342056383
 20
3.9214375872
 30
0.0
 11
0.014211119
 21
0.014211119
 31
0.0
 40
0.9951458158
 41
-3.9245578246
 42
-2.3586274826
  0
ELLIPSE
  5
3BD
100
AcDbEntity
  8
0
100
AcDbEllipse
 62
7
  6
CONTINUOUS
 10
5.2342056383
 20
4.1685020475
 30
0.0
 11
-0.014211119
 21
0.014211119
 31
0.0
 40
0.9951458158
 41
-0.782965171
 42
0.782965171
  0
ELLIPSE
  5
3BE
100
AcDbEntity
  8
0
100
AcDbEllipse
 62
7
  6
CONTINUOUS
 10
5.0897212753
 20
4.1765777386
 30
0.0
 11
0.014211119
 21
0.014211119
 31
0.0
 40
0.9951458158
 41
-0.782965171
 42
0.782965171
  0
ELLIPSE
  5
3BF
100
AcDbEntity
  8
0
100
AcDbEllipse
 62
7
  6
CONTINUOUS
 10
5.0897212753
 20
3.9133618961
 30
0.0
 11
0.014211119
 21
-0.014211119
 31
0.0
 40
0.9951458158
 41
-0.782965171
 42
0.782965171
  0
ELLIPSE
  5
3C0
100
AcDbEntity
  8
0
100
AcDbEllipse
 62
7
  6
CONTINUOUS
 10
4.8265054328
 20
3.9133618961
 30
0.0
 11
0.014211119
 21
0.014211119
 31
0.0
 40
0.9951458158
 41
-3.9245578246
 42
-2.3586274826
  0
ELLIPSE
  5
3C1
100
AcDbEntity
  8
0
100
AcDbEllipse
 62
7
  6
CONTINUOUS
 10
4.8265054328
 20
4.1765777386
 30
0.0
 11
0.014211119
 21
-0.014211119
 31
0.0
 40
0.9951458158
 41
2.3586274826
 42
3.9245578246
  0
ELLIPSE
  5
3C2
100
AcDbEntity
  8
0
100
AcDbEllipse
 62
7
  6
CONTINUOUS
 10
4.6820210698
 20
4.1685020475
 30
0.0
 11
0.014211119
 21
0.014211119
 31
0.0
 40
0.9951458158
 41
-0.782965171
 42
0.782965171
  0
ELLIPSE
  5
3C3
100
AcDbEntity
  8
0
100
AcDbEllipse
 62
7
  6
CONTINUOUS
 10
4.6820210698
 20
3.9214375872
 30
0.0
 11
0.014211119
 21
-0.014211119
 31
0.0
 40
0.9951458158
 41
-0.782965171
 42
0.782965171
  0
ELLIPSE
  5
3C4
100
AcDbEntity
  8
0
100
AcDbEllipse
 62
7
  6
CONTINUOUS
 10
4.4349566094
 20
3.9214375872
 30
0.0
 11
0.014211119
 21
0.014211119
 31
0.0
 40
0.9951458158
 41
2.3586274826
 42
3.9245578246
  0
ELLIPSE
  5
3C5
100
AcDbEntity
  8
0
100
AcDbEllipse
 62
7
  6
CONTINUOUS
 10
4.4349566094
 20
4.1685020475
 30
0.0
 11
0.014211119
 21
-0.014211119
 31
0.0
 40
0.9951458158
 41
2.3586274826
 42
3.9245578246
  0
ELLIPSE
  5
3C6
100
AcDbEntity
  8
0
100
AcDbEllipse
 62
7
  6
CONTINUOUS
 10
4.0495312078
 20
4.1543029347
 30
0.0
 11
0.014211119
 21
-0.014211119
 31
0.0
 40
0.9951458158
 41
2.3586274826
 42
3.9245578246
  0
ELLIPSE
  5
3C7
100
AcDbEntity
  8
0
100
AcDbEllipse
 62
7
  6
CONTINUOUS
 10
4.2681974426
 20
4.1543029347
 30
0.0
 11
0.014211119
 21
0.014211119
 31
0.0
 40
0.9951458158
 41
-0.782965171
 42
0.782965171
  0
ELLIPSE
  5
3C8
100
AcDbEntity
  8
0
100
AcDbEllipse
 62
7
  6
CONTINUOUS
 10
4.2681974426
 20
3.9356367
 30
0.0
 11
0.014211119
 21
-0.014211119
 31
0.0
 40
0.9951458158
 41
-0.782965171
 42
0.782965171
  0
ELLIPSE
  5
3C9
100
AcDbEntity
  8
0
100
AcDbEllipse
 62
7
  6
CONTINUOUS
 10
4.0495312078
 20
3.9356367
 30
0.0
 11
0.014211119
 21
0.014211119
 31
0.0
 40
0.9951458158
 41
-3.9245578246
 42
-2.3586274826
  0
ELLIPSE
  5
3CA
100
AcDbEntity
  8
0
100
AcDbEllipse
 62
7
  6
CONTINUOUS
 10
3.8606929152
 20
3.943516713
 30
0.0
 11
-0.014211119
 21
0.014211119
 31
0.0
 40
0.9951458158
 41
-3.9245578246
 42
-2.3586274826
  0
ELLIPSE
  5
3CB
100
AcDbEntity
  8
0
100
AcDbEllipse
 62
7
  6
CONTINUOUS
 10
3.8606929152
 20
4.1464229217
 30
0.0
 11
0.014211119
 21
0.014211119
 31
0.0
 40
0.9951458158
 41
-0.782965171
 42
0.782965171
  0
ELLIPSE
  5
3CC
100
AcDbEntity
  8
0
100
AcDbEllipse
 62
7
  6
CONTINUOUS
 10
3.6577867064
 20
3.943516713
 30
0.0
 11
0.014211119
 21
0.014211119
 31
0.0
 40
0.9951458158
 41
-3.9245578246
 42
-2.3586274826
  0
ELLIPSE
  5
3CD
100
AcDbEntity
  8
0
100
AcDbEllipse
 62
7
  6
CONTINUOUS
 10
3.6577867064
 20
4.1464229217
 30
0.0
 11
-0.014211119
 21
0.014211119
 31
0.0
 40
0.9951458158
 41
-0.782965171
 42
0.782965171
  0
ELLIPSE
  5
3CE
100
AcDbEntity
  8
0
100
AcDbEllipse
 62
7
  6
CONTINUOUS
 10
3.4610684008
 20
4.1464229217
 30
0.0
 11
0.014211119
 21
0.014211119
 31
0.0
 40
0.9951458158
 41
-0.782965171
 42
0.782965171
  0
ELLIPSE
  5
3CF
100
AcDbEntity
  8
0
100
AcDbEllipse
 62
7
  6
CONTINUOUS
 10
3.4610684008
 20
3.943516713
 30
0.0
 11
-0.014211119
 21
0.014211119
 31
0.0
 40
0.9951458158
 41
-3.9245578246
 42
-2.3586274826
  0
ELLIPSE
  5
3D0
100
AcDbEntity
  8
0
100
AcDbEllipse
 62
7
  6
CONTINUOUS
 10
6.4551583073
 20
4.3431412274
 30
0.0
 11
0.014211119
 21
0.014211119
 31
0.0
 40
0.9951458158
 41
2.3586274826
 42
3.9245578246
  0
ELLIPSE
  5
3D1
100
AcDbEntity
  8
0
100
AcDbEllipse
 62
7
  6
CONTINUOUS
 10
6.4551583073
 20
4.5460474361
 30
0.0
 11
0.014211119
 21
-0.014211119
 31
0.0
 40
0.9951458158
 41
2.3586274826
 42
3.9245578246
  0
ELLIPSE
  5
3D2
100
AcDbEntity
  8
0
100
AcDbEllipse
 62
7
  6
CONTINUOUS
 10
6.2663200147
 20
4.5539274492
 30
0.0
 11
0.014211119
 21
0.014211119
 31
0.0
 40
0.9951458158
 41
-0.782965171
 42
0.782965171
  0
ELLIPSE
  5
3D3
100
AcDbEntity
  8
0
100
AcDbEllipse
 62
7
  6
CONTINUOUS
 10
6.2663200147
 20
4.3352612144
 30
0.0
 11
0.014211119
 21
-0.014211119
 31
0.0
 40
0.9951458158
 41
-0.782965171
 42
0.782965171
  0
ELLIPSE
  5
3D4
100
AcDbEntity
  8
0
100
AcDbEllipse
 62
7
  6
CONTINUOUS
 10
6.0476537799
 20
4.3352612144
 30
0.0
 11
0.014211119
 21
0.014211119
 31
0.0
 40
0.9951458158
 41
2.3586274826
 42
3.9245578246
  0
ELLIPSE
  5
3D5
100
AcDbEntity
  8
0
100
AcDbEllipse
 62
7
  6
CONTINUOUS
 10
6.0476537799
 20
4.5539274492
 30
0.0
 11
0.014211119
 21
-0.014211119
 31
0.0
 40
0.9951458158
 41
2.3586274826
 42
3.9245578246
  0
ELLIPSE
  5
3D6
100
AcDbEntity
  8
0
100
AcDbEllipse
 62
7
  6
CONTINUOUS
 10
5.880894613
 20
4.5681265619
 30
0.0
 11
0.014211119
 21
0.014211119
 31
0.0
 40
0.9951458158
 41
-0.782965171
 42
0.782965171
  0
ELLIPSE
  5
3D7
100
AcDbEntity
  8
0
100
AcDbEllipse
 62
7
  6
CONTINUOUS
 10
5.880894613
 20
4.3210621016
 30
0.0
 11
-0.014211119
 21
0.014211119
 31
0.0
 40
0.9951458158
 41
-3.9245578246
 42
-2.3586274826
  0
ELLIPSE
  5
3D8
100
AcDbEntity
  8
0
100
AcDbEllipse
 62
7
  6
CONTINUOUS
 10
5.6338301527
 20
4.3210621016
 30
0.0
 11
0.014211119
 21
0.014211119
 31
0.0
 40
0.9951458158
 41
-3.9245578246
 42
-2.3586274826
  0
ELLIPSE
  5
3D9
100
AcDbEntity
  8
0
100
AcDbEllipse
 62
7
  6
CONTINUOUS
 10
5.6338301527
 20
4.5681265619
 30
0.0
 11
-0.014211119
 21
0.014211119
 31
0.0
 40
0.9951458158
 41
-0.782965171
 42
0.782965171
  0
ELLIPSE
  5
3DA
100
AcDbEntity
  8
0
100
AcDbEllipse
 62
7
  6
CONTINUOUS
 10
5.4893457897
 20
4.576202253
 30
0.0
 11
0.014211119
 21
0.014211119
 31
0.0
 40
0.9951458158
 41
-0.782965171
 42
0.782965171
  0
ELLIPSE
  5
3DB
100
AcDbEntity
  8
0
100
AcDbEllipse
 62
7
  6
CONTINUOUS
 10
5.4893457897
 20
4.3129864105
 30
0.0
 11
-0.014211119
 21
0.014211119
 31
0.0
 40
0.9951458158
 41
-3.9245578246
 42
-2.3586274826
  0
ELLIPSE
  5
3DC
100
AcDbEntity
  8
0
100
AcDbEllipse
 62
7
  6
CONTINUOUS
 10
5.2261299472
 20
4.3129864105
 30
0.0
 11
0.014211119
 21
0.014211119
 31
0.0
 40
0.9951458158
 41
-3.9245578246
 42
-2.3586274826
  0
ELLIPSE
  5
3DD
100
AcDbEntity
  8
0
100
AcDbEllipse
 62
7
  6
CONTINUOUS
 10
5.2261299472
 20
4.576202253
 30
0.0
 11
-0.014211119
 21
0.014211119
 31
0.0
 40
0.9951458158
 41
-0.782965171
 42
0.782965171
  0
ELLIPSE
  5
3DE
100
AcDbEntity
  8
0
100
AcDbEllipse
 62
7
  6
CONTINUOUS
 10
5.0977969663
 20
4.584277944
 30
0.0
 11
0.014211119
 21
0.014211119
 31
0.0
 40
0.9951458158
 41
-0.782965171
 42
0.782965171
  0
ELLIPSE
  5
3DF
100
AcDbEntity
  8
0
100
AcDbEllipse
 62
7
  6
CONTINUOUS
 10
5.0977969663
 20
4.3049107195
 30
0.0
 11
0.014211119
 21
-0.014211119
 31
0.0
 40
0.9951458158
 41
-0.782965171
 42
0.782965171
  0
ELLIPSE
  5
3E0
100
AcDbEntity
  8
0
100
AcDbEllipse
 62
7
  6
CONTINUOUS
 10
4.8184297418
 20
4.3049107195
 30
0.0
 11
0.014211119
 21
0.014211119
 31
0.0
 40
0.9951458158
 41
-3.9245578246
 42
-2.3586274826
  0
ELLIPSE
  5
3E1
100
AcDbEntity
  8
0
100
AcDbEllipse
 62
7
  6
CONTINUOUS
 10
4.8184297418
 20
4.584277944
 30
0.0
 11
0.014211119
 21
-0.014211119
 31
0.0
 40
0.9951458158
 41
2.3586274826
 42
3.9245578246
  0
ELLIPSE
  5
3E2
100
AcDbEntity
  8
0
100
AcDbEllipse
 62
7
  6
CONTINUOUS
 10
4.6900967608
 20
4.576202253
 30
0.0
 11
0.014211119
 21
0.014211119
 31
0.0
 40
0.9951458158
 41
-0.782965171
 42
0.782965171
  0
ELLIPSE
  5
3E3
100
AcDbEntity
  8
0
100
AcDbEllipse
 62
7
  6
CONTINUOUS
 10
4.6900967608
 20
4.3129864105
 30
0.0
 11
0.014211119
 21
-0.014211119
 31
0.0
 40
0.9951458158
 41
-0.782965171
 42
0.782965171
  0
ELLIPSE
  5
3E4
100
AcDbEntity
  8
0
100
AcDbEllipse
 62
7
  6
CONTINUOUS
 10
4.4268809184
 20
4.3129864105
 30
0.0
 11
0.014211119
 21
0.014211119
 31
0.0
 40
0.9951458158
 41
-3.9245578246
 42
-2.3586274826
  0
ELLIPSE
  5
3E5
100
AcDbEntity
  8
0
100
AcDbEllipse
 62
7
  6
CONTINUOUS
 10
4.4268809184
 20
4.576202253
 30
0.0
 11
0.014211119
 21
-0.014211119
 31
0.0
 40
0.9951458158
 41
2.3586274826
 42
3.9245578246
  0
ELLIPSE
  5
3E6
100
AcDbEntity
  8
0
100
AcDbEllipse
 62
7
  6
CONTINUOUS
 10
4.2823965554
 20
4.5681265619
 30
0.0
 11
0.014211119
 21
0.014211119
 31
0.0
 40
0.9951458158
 41
-0.782965171
 42
0.782965171
  0
ELLIPSE
  5
3E7
100
AcDbEntity
  8
0
100
AcDbEllipse
 62
7
  6
CONTINUOUS
 10
4.2823965554
 20
4.3210621016
 30
0.0
 11
0.014211119
 21
-0.014211119
 31
0.0
 40
0.9951458158
 41
-0.782965171
 42
0.782965171
  0
ELLIPSE
  5
3E8
100
AcDbEntity
  8
0
100
AcDbEllipse
 62
7
  6
CONTINUOUS
 10
4.035332095
 20
4.3210621016
 30
0.0
 11
0.014211119
 21
0.014211119
 31
0.0
 40
0.9951458158
 41
2.3586274826
 42
3.9245578246
  0
ELLIPSE
  5
3E9
100
AcDbEntity
  8
0
100
AcDbEllipse
 62
7
  6
CONTINUOUS
 10
4.035332095
 20
4.5681265619
 30
0.0
 11
0.014211119
 21
-0.014211119
 31
0.0
 40
0.9951458158
 41
2.3586274826
 42
3.9245578246
  0
ELLIPSE
  5
3EA
100
AcDbEntity
  8
0
100
AcDbEllipse
 62
7
  6
CONTINUOUS
 10
3.8685729282
 20
4.5539274492
 30
0.0
 11
0.014211119
 21
0.014211119
 31
0.0
 40
0.9951458158
 41
-0.782965171
 42
0.782965171
  0
ELLIPSE
  5
3EB
100
AcDbEntity
  8
0
100
AcDbEllipse
 62
7
  6
CONTINUOUS
 10
3.8685729282
 20
4.3352612144
 30
0.0
 11
-0.014211119
 21
0.014211119
 31
0.0
 40
0.9951458158
 41
-3.9245578246
 42
-2.3586274826
  0
ELLIPSE
  5
3EC
100
AcDbEntity
  8
0
100
AcDbEllipse
 62
7
  6
CONTINUOUS
 10
3.6499066934
 20
4.3352612144
 30
0.0
 11
0.014211119
 21
0.014211119
 31
0.0
 40
0.9951458158
 41
-3.9245578246
 42
-2.3586274826
  0
ELLIPSE
  5
3ED
100
AcDbEntity
  8
0
100
AcDbEllipse
 62
7
  6
CONTINUOUS
 10
3.6499066934
 20
4.5539274492
 30
0.0
 11
-0.014211119
 21
0.014211119
 31
0.0
 40
0.9951458158
 41
-0.782965171
 42
0.782965171
  0
ELLIPSE
  5
3EE
100
AcDbEntity
  8
0
100
AcDbEllipse
 62
7
  6
CONTINUOUS
 10
3.4610684008
 20
4.5460474361
 30
0.0
 11
0.014211119
 21
0.014211119
 31
0.0
 40
0.9951458158
 41
-0.782965171
 42
0.782965171
  0
ELLIPSE
  5
3EF
100
AcDbEntity
  8
0
100
AcDbEllipse
 62
7
  6
CONTINUOUS
 10
3.4610684008
 20
4.3431412274
 30
0.0
 11
-0.014211119
 21
0.014211119
 31
0.0
 40
0.9951458158
 41
-3.9245578246
 42
-2.3586274826
  0
ELLIPSE
  5
3F0
100
AcDbEntity
  8
0
100
AcDbEllipse
 62
7
  6
CONTINUOUS
 10
6.4551583073
 20
4.9456719506
 30
0.0
 11
0.014211119
 21
-0.014211119
 31
0.0
 40
0.9951458158
 41
2.3586274826
 42
3.9245578246
  0
ELLIPSE
  5
3F1
100
AcDbEntity
  8
0
100
AcDbEllipse
 62
7
  6
CONTINUOUS
 10
6.4551583073
 20
4.7427657418
 30
0.0
 11
0.014211119
 21
0.014211119
 31
0.0
 40
0.9951458158
 41
-3.9245578246
 42
-2.3586274826
  0
ELLIPSE
  5
3F2
100
AcDbEntity
  8
0
100
AcDbEllipse
 62
7
  6
CONTINUOUS
 10
6.2584400017
 20
4.7427657418
 30
0.0
 11
0.014211119
 21
-0.014211119
 31
0.0
 40
0.9951458158
 41
-0.782965171
 42
0.782965171
  0
ELLIPSE
  5
3F3
100
AcDbEntity
  8
0
100
AcDbEllipse
 62
7
  6
CONTINUOUS
 10
6.2584400017
 20
4.9456719506
 30
0.0
 11
0.014211119
 21
0.014211119
 31
0.0
 40
0.9951458158
 41
-0.782965171
 42
0.782965171
  0
ELLIPSE
  5
3F4
100
AcDbEntity
  8
0
100
AcDbEllipse
 62
7
  6
CONTINUOUS
 10
6.0555337929
 20
4.9456719506
 30
0.0
 11
0.014211119
 21
-0.014211119
 31
0.0
 40
0.9951458158
 41
2.3586274826
 42
3.9245578246
  0
ELLIPSE
  5
3F5
100
AcDbEntity
  8
0
100
AcDbEllipse
 62
7
  6
CONTINUOUS
 10
6.0555337929
 20
4.7427657418
 30
0.0
 11
0.014211119
 21
0.014211119
 31
0.0
 40
0.9951458158
 41
-3.9245578246
 42
-2.3586274826
  0
ELLIPSE
  5
3F6
100
AcDbEntity
  8
0
100
AcDbEllipse
 62
7
  6
CONTINUOUS
 10
5.8666955003
 20
4.7348857288
 30
0.0
 11
0.014211119
 21
-0.014211119
 31
0.0
 40
0.9951458158
 41
-0.782965171
 42
0.782965171
  0
ELLIPSE
  5
3F7
100
AcDbEntity
  8
0
100
AcDbEllipse
 62
7
  6
CONTINUOUS
 10
5.8666955003
 20
4.9535519636
 30
0.0
 11
0.014211119
 21
0.014211119
 31
0.0
 40
0.9951458158
 41
-0.782965171
 42
0.782965171
  0
ELLIPSE
  5
3F8
100
AcDbEntity
  8
0
100
AcDbEllipse
 62
7
  6
CONTINUOUS
 10
5.6480292655
 20
4.9535519636
 30
0.0
 11
0.014211119
 21
-0.014211119
 31
0.0
 40
0.9951458158
 41
2.3586274826
 42
3.9245578246
  0
ELLIPSE
  5
3F9
100
AcDbEntity
  8
0
100
AcDbEllipse
 62
7
  6
CONTINUOUS
 10
5.6480292655
 20
4.7348857288
 30
0.0
 11
0.014211119
 21
0.014211119
 31
0.0
 40
0.9951458158
 41
-3.9245578246
 42
-2.3586274826
  0
ELLIPSE
  5
3FA
100
AcDbEntity
  8
0
100
AcDbEllipse
 62
7
  6
CONTINUOUS
 10
5.4812700986
 20
4.720686616
 30
0.0
 11
-0.014211119
 21
0.014211119
 31
0.0
 40
0.9951458158
 41
-3.9245578246
 42
-2.3586274826
  0
ELLIPSE
  5
3FB
100
AcDbEntity
  8
0
100
AcDbEllipse
 62
7
  6
CONTINUOUS
 10
5.4812700986
 20
4.9677510763
 30
0.0
 11
0.014211119
 21
0.014211119
 31
0.0
 40
0.9951458158
 41
-0.782965171
 42
0.782965171
  0
ELLIPSE
  5
3FC
100
AcDbEntity
  8
0
100
AcDbEllipse
 62
7
  6
CONTINUOUS
 10
5.2342056383
 20
4.9677510763
 30
0.0
 11
0.014211119
 21
-0.014211119
 31
0.0
 40
0.9951458158
 41
2.3586274826
 42
3.9245578246
  0
ELLIPSE
  5
3FD
100
AcDbEntity
  8
0
100
AcDbEllipse
 62
7
  6
CONTINUOUS
 10
5.2342056383
 20
4.720686616
 30
0.0
 11
0.014211119
 21
0.014211119
 31
0.0
 40
0.9951458158
 41
-3.9245578246
 42
-2.3586274826
  0
ELLIPSE
  5
3FE
100
AcDbEntity
  8
0
100
AcDbEllipse
 62
7
  6
CONTINUOUS
 10
5.0897212753
 20
4.712610925
 30
0.0
 11
0.014211119
 21
-0.014211119
 31
0.0
 40
0.9951458158
 41
-0.782965171
 42
0.782965171
  0
ELLIPSE
  5
3FF
100
AcDbEntity
  8
0
100
AcDbEllipse
 62
7
  6
CONTINUOUS
 10
5.0897212753
 20
4.9758267674
 30
0.0
 11
0.014211119
 21
0.014211119
 31
0.0
 40
0.9951458158
 41
-0.782965171
 42
0.782965171
  0
ELLIPSE
  5
400
100
AcDbEntity
  8
0
100
AcDbEllipse
 62
7
  6
CONTINUOUS
 10
4.8265054328
 20
4.9758267674
 30
0.0
 11
0.014211119
 21
-0.014211119
 31
0.0
 40
0.9951458158
 41
2.3586274826
 42
3.9245578246
  0
ELLIPSE
  5
401
100
AcDbEntity
  8
0
100
AcDbEllipse
 62
7
  6
CONTINUOUS
 10
4.8265054328
 20
4.712610925
 30
0.0
 11
0.014211119
 21
0.014211119
 31
0.0
 40
0.9951458158
 41
2.3586274826
 42
3.9245578246
  0
ELLIPSE
  5
402
100
AcDbEntity
  8
0
100
AcDbEllipse
 62
7
  6
CONTINUOUS
 10
4.6820210698
 20
4.720686616
 30
0.0
 11
-0.014211119
 21
0.014211119
 31
0.0
 40
0.9951458158
 41
-3.9245578246
 42
-2.3586274826
  0
ELLIPSE
  5
403
100
AcDbEntity
  8
0
100
AcDbEllipse
 62
7
  6
CONTINUOUS
 10
4.6820210698
 20
4.9677510763
 30
0.0
 11
0.014211119
 21
0.014211119
 31
0.0
 40
0.9951458158
 41
-0.782965171
 42
0.782965171
  0
ELLIPSE
  5
404
100
AcDbEntity
  8
0
100
AcDbEllipse
 62
7
  6
CONTINUOUS
 10
4.4349566094
 20
4.9677510763
 30
0.0
 11
0.014211119
 21
-0.014211119
 31
0.0
 40
0.9951458158
 41
2.3586274826
 42
3.9245578246
  0
ELLIPSE
  5
405
100
AcDbEntity
  8
0
100
AcDbEllipse
 62
7
  6
CONTINUOUS
 10
4.4349566094
 20
4.720686616
 30
0.0
 11
0.014211119
 21
0.014211119
 31
0.0
 40
0.9951458158
 41
-3.9245578246
 42
-2.3586274826
  0
ELLIPSE
  5
406
100
AcDbEntity
  8
0
100
AcDbEllipse
 62
7
  6
CONTINUOUS
 10
4.2681974426
 20
4.7348857288
 30
0.0
 11
0.014211119
 21
-0.014211119
 31
0.0
 40
0.9951458158
 41
-0.782965171
 42
0.782965171
  0
ELLIPSE
  5
407
100
AcDbEntity
  8
0
100
AcDbEllipse
 62
7
  6
CONTINUOUS
 10
4.2681974426
 20
4.9535519636
 30
0.0
 11
0.014211119
 21
0.014211119
 31
0.0
 40
0.9951458158
 41
-0.782965171
 42
0.782965171
  0
ELLIPSE
  5
408
100
AcDbEntity
  8
0
100
AcDbEllipse
 62
7
  6
CONTINUOUS
 10
4.0495312078
 20
4.9535519636
 30
0.0
 11
0.014211119
 21
-0.014211119
 31
0.0
 40
0.9951458158
 41
2.3586274826
 42
3.9245578246
  0
ELLIPSE
  5
409
100
AcDbEntity
  8
0
100
AcDbEllipse
 62
7
  6
CONTINUOUS
 10
4.0495312078
 20
4.7348857288
 30
0.0
 11
0.014211119
 21
0.014211119
 31
0.0
 40
0.9951458158
 41
2.3586274826
 42
3.9245578246
  0
ELLIPSE
  5
40A
100
AcDbEntity
  8
0
100
AcDbEllipse
 62
7
  6
CONTINUOUS
 10
3.6577867064
 20
4.7427657418
 30
0.0
 11
0.014211119
 21
0.014211119
 31
0.0
 40
0.9951458158
 41
2.3586274826
 42
3.9245578246
  0
ELLIPSE
  5
40B
100
AcDbEntity
  8
0
100
AcDbEllipse
 62
7
  6
CONTINUOUS
 10
3.8606929152
 20
4.7427657418
 30
0.0
 11
0.014211119
 21
-0.014211119
 31
0.0
 40
0.9951458158
 41
-0.782965171
 42
0.782965171
  0
ELLIPSE
  5
40C
100
AcDbEntity
  8
0
100
AcDbEllipse
 62
7
  6
CONTINUOUS
 10
3.8606929152
 20
4.9456719506
 30
0.0
 11
0.014211119
 21
0.014211119
 31
0.0
 40
0.9951458158
 41
-0.782965171
 42
0.782965171
  0
ELLIPSE
  5
40D
100
AcDbEntity
  8
0
100
AcDbEllipse
 62
7
  6
CONTINUOUS
 10
3.6577867064
 20
4.9456719506
 30
0.0
 11
0.014211119
 21
-0.014211119
 31
0.0
 40
0.9951458158
 41
2.3586274826
 42
3.9245578246
  0
ELLIPSE
  5
40E
100
AcDbEntity
  8
0
100
AcDbEllipse
 62
7
  6
CONTINUOUS
 10
3.4610684008
 20
4.7427657418
 30
0.0
 11
0.014211119
 21
-0.014211119
 31
0.0
 40
0.9951458158
 41
-0.782965171
 42
0.782965171
  0
ELLIPSE
  5
40F
100
AcDbEntity
  8
0
100
AcDbEllipse
 62
7
  6
CONTINUOUS
 10
3.4610684008
 20
4.9456719506
 30
0.0
 11
0.014211119
 21
0.014211119
 31
0.0
 40
0.9951458158
 41
-0.782965171
 42
0.782965171
  0
ELLIPSE
  5
410
100
AcDbEntity
  8
0
100
AcDbEllipse
 62
7
  6
CONTINUOUS
 10
6.6580645161
 20
5.1423902562
 30
0.0
 11
0.014211119
 21
-0.014211119
 31
0.0
 40
0.9951458158
 41
-0.782965171
 42
0.782965171
  0
ELLIPSE
  5
411
100
AcDbEntity
  8
0
100
AcDbEllipse
 62
7
  6
CONTINUOUS
 10
6.4551583073
 20
5.1423902562
 30
0.0
 11
0.014211119
 21
0.014211119
 31
0.0
 40
0.9951458158
 41
-3.9245578246
 42
-2.3586274826
  0
ELLIPSE
  5
412
100
AcDbEntity
  8
0
100
AcDbEllipse
 62
7
  6
CONTINUOUS
 10
6.4551583073
 20
5.345296465
 30
0.0
 11
0.014211119
 21
-0.014211119
 31
0.0
 40
0.9951458158
 41
2.3586274826
 42
3.9245578246
  0
ELLIPSE
  5
413
100
AcDbEntity
  8
0
100
AcDbEllipse
 62
7
  6
CONTINUOUS
 10
6.0555337929
 20
5.345296465
 30
0.0
 11
0.014211119
 21
-0.014211119
 31
0.0
 40
0.9951458158
 41
2.3586274826
 42
3.9245578246
  0
ELLIPSE
  5
414
100
AcDbEntity
  8
0
100
AcDbEllipse
 62
7
  6
CONTINUOUS
 10
6.2584400017
 20
5.345296465
 30
0.0
 11
0.014211119
 21
0.014211119
 31
0.0
 40
0.9951458158
 41
-0.782965171
 42
0.782965171
  0
ELLIPSE
  5
415
100
AcDbEntity
  8
0
100
AcDbEllipse
 62
7
  6
CONTINUOUS
 10
6.2584400017
 20
5.1423902562
 30
0.0
 11
0.014211119
 21
-0.014211119
 31
0.0
 40
0.9951458158
 41
-0.782965171
 42
0.782965171
  0
ELLIPSE
  5
416
100
AcDbEntity
  8
0
100
AcDbEllipse
 62
7
  6
CONTINUOUS
 10
6.0555337929
 20
5.1423902562
 30
0.0
 11
0.014211119
 21
0.014211119
 31
0.0
 40
0.9951458158
 41
-3.9245578246
 42
-2.3586274826
  0
ELLIPSE
  5
417
100
AcDbEntity
  8
0
100
AcDbEllipse
 62
7
  6
CONTINUOUS
 10
5.8588154872
 20
5.1423902562
 30
0.0
 11
0.014211119
 21
-0.014211119
 31
0.0
 40
0.9951458158
 41
-0.782965171
 42
0.782965171
  0
ELLIPSE
  5
418
100
AcDbEntity
  8
0
100
AcDbEllipse
 62
7
  6
CONTINUOUS
 10
5.8588154872
 20
5.345296465
 30
0.0
 11
0.014211119
 21
0.014211119
 31
0.0
 40
0.9951458158
 41
-0.782965171
 42
0.782965171
  0
ELLIPSE
  5
419
100
AcDbEntity
  8
0
100
AcDbEllipse
 62
7
  6
CONTINUOUS
 10
5.6559092785
 20
5.345296465
 30
0.0
 11
0.014211119
 21
-0.014211119
 31
0.0
 40
0.9951458158
 41
2.3586274826
 42
3.9245578246
  0
ELLIPSE
  5
41A
100
AcDbEntity
  8
0
100
AcDbEllipse
 62
7
  6
CONTINUOUS
 10
5.6559092785
 20
5.1423902562
 30
0.0
 11
0.014211119
 21
0.014211119
 31
0.0
 40
0.9951458158
 41
-3.9245578246
 42
-2.3586274826
  0
ELLIPSE
  5
41B
100
AcDbEntity
  8
0
100
AcDbEllipse
 62
7
  6
CONTINUOUS
 10
5.4670709858
 20
5.1345102432
 30
0.0
 11
0.014211119
 21
-0.014211119
 31
0.0
 40
0.9951458158
 41
-0.782965171
 42
0.782965171
  0
ELLIPSE
  5
41C
100
AcDbEntity
  8
0
100
AcDbEllipse
 62
7
  6
CONTINUOUS
 10
5.4670709858
 20
5.353176478
 30
0.0
 11
0.014211119
 21
0.014211119
 31
0.0
 40
0.9951458158
 41
-0.782965171
 42
0.782965171
  0
ELLIPSE
  5
41D
100
AcDbEntity
  8
0
100
AcDbEllipse
 62
7
  6
CONTINUOUS
 10
5.2484047511
 20
5.353176478
 30
0.0
 11
0.014211119
 21
-0.014211119
 31
0.0
 40
0.9951458158
 41
2.3586274826
 42
3.9245578246
  0
ELLIPSE
  5
41E
100
AcDbEntity
  8
0
100
AcDbEllipse
 62
7
  6
CONTINUOUS
 10
5.2484047511
 20
5.1345102432
 30
0.0
 11
0.014211119
 21
0.014211119
 31
0.0
 40
0.9951458158
 41
-3.9245578246
 42
-2.3586274826
  0
ELLIPSE
  5
41F
100
AcDbEntity
  8
0
100
AcDbEllipse
 62
7
  6
CONTINUOUS
 10
5.0816455842
 20
5.1203111304
 30
0.0
 11
-0.014211119
 21
0.014211119
 31
0.0
 40
0.9951458158
 41
-3.9245578246
 42
-2.3586274826
  0
ELLIPSE
  5
420
100
AcDbEntity
  8
0
100
AcDbEllipse
 62
7
  6
CONTINUOUS
 10
5.0816455842
 20
5.3673755908
 30
0.0
 11
0.014211119
 21
0.014211119
 31
0.0
 40
0.9951458158
 41
-0.782965171
 42
0.782965171
  0
ELLIPSE
  5
421
100
AcDbEntity
  8
0
100
AcDbEllipse
 62
7
  6
CONTINUOUS
 10
4.8345811239
 20
5.3673755908
 30
0.0
 11
-0.014211119
 21
0.014211119
 31
0.0
 40
0.9951458158
 41
-0.782965171
 42
0.782965171
  0
ELLIPSE
  5
422
100
AcDbEntity
  8
0
100
AcDbEllipse
 62
7
  6
CONTINUOUS
 10
4.8345811239
 20
5.1203111304
 30
0.0
 11
0.014211119
 21
0.014211119
 31
0.0
 40
0.9951458158
 41
-3.9245578246
 42
-2.3586274826
  0
ELLIPSE
  5
423
100
AcDbEntity
  8
0
100
AcDbEllipse
 62
7
  6
CONTINUOUS
 10
4.667821957
 20
5.1345102432
 30
0.0
 11
0.014211119
 21
-0.014211119
 31
0.0
 40
0.9951458158
 41
-0.782965171
 42
0.782965171
  0
ELLIPSE
  5
424
100
AcDbEntity
  8
0
100
AcDbEllipse
 62
7
  6
CONTINUOUS
 10
4.667821957
 20
5.353176478
 30
0.0
 11
0.014211119
 21
0.014211119
 31
0.0
 40
0.9951458158
 41
-0.782965171
 42
0.782965171
  0
ELLIPSE
  5
425
100
AcDbEntity
  8
0
100
AcDbEllipse
 62
7
  6
CONTINUOUS
 10
4.4491557222
 20
5.353176478
 30
0.0
 11
-0.014211119
 21
0.014211119
 31
0.0
 40
0.9951458158
 41
-0.782965171
 42
0.782965171
  0
ELLIPSE
  5
426
100
AcDbEntity
  8
0
100
AcDbEllipse
 62
7
  6
CONTINUOUS
 10
4.4491557222
 20
5.1345102432
 30
0.0
 11
0.014211119
 21
0.014211119
 31
0.0
 40
0.9951458158
 41
2.3586274826
 42
3.9245578246
  0
ELLIPSE
  5
427
100
AcDbEntity
  8
0
100
AcDbEllipse
 62
7
  6
CONTINUOUS
 10
4.2603174296
 20
5.1423902562
 30
0.0
 11
0.014211119
 21
-0.014211119
 31
0.0
 40
0.9951458158
 41
-0.782965171
 42
0.782965171
  0
ELLIPSE
  5
428
100
AcDbEntity
  8
0
100
AcDbEllipse
 62
7
  6
CONTINUOUS
 10
4.2603174296
 20
5.345296465
 30
0.0
 11
0.014211119
 21
0.014211119
 31
0.0
 40
0.9951458158
 41
-0.782965171
 42
0.782965171
  0
ELLIPSE
  5
429
100
AcDbEntity
  8
0
100
AcDbEllipse
 62
7
  6
CONTINUOUS
 10
4.0574112208
 20
5.345296465
 30
0.0
 11
-0.014211119
 21
0.014211119
 31
0.0
 40
0.9951458158
 41
-0.782965171
 42
0.782965171
  0
ELLIPSE
  5
42A
100
AcDbEntity
  8
0
100
AcDbEllipse
 62
7
  6
CONTINUOUS
 10
4.0574112208
 20
5.1423902562
 30
0.0
 11
0.014211119
 21
0.014211119
 31
0.0
 40
0.9951458158
 41
2.3586274826
 42
3.9245578246
  0
ELLIPSE
  5
42B
100
AcDbEntity
  8
0
100
AcDbEllipse
 62
7
  6
CONTINUOUS
 10
3.8606929152
 20
5.1423902562
 30
0.0
 11
0.014211119
 21
-0.014211119
 31
0.0
 40
0.9951458158
 41
-0.782965171
 42
0.782965171
  0
ELLIPSE
  5
42C
100
AcDbEntity
  8
0
100
AcDbEllipse
 62
7
  6
CONTINUOUS
 10
3.8606929152
 20
5.345296465
 30
0.0
 11
0.014211119
 21
0.014211119
 31
0.0
 40
0.9951458158
 41
-0.782965171
 42
0.782965171
  0
ELLIPSE
  5
42D
100
AcDbEntity
  8
0
100
AcDbEllipse
 62
7
  6
CONTINUOUS
 10
3.6577867064
 20
5.345296465
 30
0.0
 11
-0.014211119
 21
0.014211119
 31
0.0
 40
0.9951458158
 41
-0.782965171
 42
0.782965171
  0
ELLIPSE
  5
42E
100
AcDbEntity
  8
0
100
AcDbEllipse
 62
7
  6
CONTINUOUS
 10
3.6577867064
 20
5.1423902562
 30
0.0
 11
0.014211119
 21
0.014211119
 31
0.0
 40
0.9951458158
 41
2.3586274826
 42
3.9245578246
  0
ELLIPSE
  5
42F
100
AcDbEntity
  8
0
100
AcDbEllipse
 62
7
  6
CONTINUOUS
 10
3.258162192
 20
5.1423902562
 30
0.0
 11
0.014211119
 21
0.014211119
 31
0.0
 40
0.9951458158
 41
2.3586274826
 42
3.9245578246
  0
ELLIPSE
  5
430
100
AcDbEntity
  8
0
100
AcDbEllipse
 62
7
  6
CONTINUOUS
 10
3.4610684008
 20
5.1423902562
 30
0.0
 11
0.014211119
 21
-0.014211119
 31
0.0
 40
0.9951458158
 41
-0.782965171
 42
0.782965171
  0
ELLIPSE
  5
431
100
AcDbEntity
  8
0
100
AcDbEllipse
 62
7
  6
CONTINUOUS
 10
3.4610684008
 20
5.345296465
 30
0.0
 11
0.014211119
 21
0.014211119
 31
0.0
 40
0.9951458158
 41
-0.782965171
 42
0.782965171
  0
ELLIPSE
  5
432
100
AcDbEntity
  8
0
100
AcDbEllipse
 62
7
  6
CONTINUOUS
 10
6.0555337929
 20
5.7449209794
 30
0.0
 11
0.014211119
 21
-0.014211119
 31
0.0
 40
0.9951458158
 41
2.3586274826
 42
3.9245578246
  0
ELLIPSE
  5
433
100
AcDbEntity
  8
0
100
AcDbEllipse
 62
7
  6
CONTINUOUS
 10
6.2584400017
 20
5.7449209794
 30
0.0
 11
0.014211119
 21
0.014211119
 31
0.0
 40
0.9951458158
 41
-0.782965171
 42
0.782965171
  0
ELLIPSE
  5
434
100
AcDbEntity
  8
0
100
AcDbEllipse
 62
7
  6
CONTINUOUS
 10
6.2584400017
 20
5.5420147706
 30
0.0
 11
0.014211119
 21
-0.014211119
 31
0.0
 40
0.9951458158
 41
-0.782965171
 42
0.782965171
  0
ELLIPSE
  5
435
100
AcDbEntity
  8
0
100
AcDbEllipse
 62
7
  6
CONTINUOUS
 10
6.0555337929
 20
5.5420147706
 30
0.0
 11
0.014211119
 21
0.014211119
 31
0.0
 40
0.9951458158
 41
-3.9245578246
 42
-2.3586274826
  0
ELLIPSE
  5
436
100
AcDbEntity
  8
0
100
AcDbEllipse
 62
7
  6
CONTINUOUS
 10
5.6559092785
 20
5.5420147706
 30
0.0
 11
0.014211119
 21
0.014211119
 31
0.0
 40
0.9951458158
 41
-3.9245578246
 42
-2.3586274826
  0
ELLIPSE
  5
437
100
AcDbEntity
  8
0
100
AcDbEllipse
 62
7
  6
CONTINUOUS
 10
5.8588154872
 20
5.5420147706
 30
0.0
 11
0.014211119
 21
-0.014211119
 31
0.0
 40
0.9951458158
 41
-0.782965171
 42
0.782965171
  0
ELLIPSE
  5
438
100
AcDbEntity
  8
0
100
AcDbEllipse
 62
7
  6
CONTINUOUS
 10
5.8588154872
 20
5.7449209794
 30
0.0
 11
0.014211119
 21
0.014211119
 31
0.0
 40
0.9951458158
 41
-0.782965171
 42
0.782965171
  0
ELLIPSE
  5
439
100
AcDbEntity
  8
0
100
AcDbEllipse
 62
7
  6
CONTINUOUS
 10
5.6559092785
 20
5.7449209794
 30
0.0
 11
0.014211119
 21
-0.014211119
 31
0.0
 40
0.9951458158
 41
2.3586274826
 42
3.9245578246
  0
ELLIPSE
  5
43A
100
AcDbEntity
  8
0
100
AcDbEllipse
 62
7
  6
CONTINUOUS
 10
5.4591909728
 20
5.7449209794
 30
0.0
 11
0.014211119
 21
0.014211119
 31
0.0
 40
0.9951458158
 41
-0.782965171
 42
0.782965171
  0
ELLIPSE
  5
43B
100
AcDbEntity
  8
0
100
AcDbEllipse
 62
7
  6
CONTINUOUS
 10
5.4591909728
 20
5.5420147706
 30
0.0
 11
0.014211119
 21
-0.014211119
 31
0.0
 40
0.9951458158
 41
-0.782965171
 42
0.782965171
  0
ELLIPSE
  5
43C
100
AcDbEntity
  8
0
100
AcDbEllipse
 62
7
  6
CONTINUOUS
 10
5.2562847641
 20
5.5420147706
 30
0.0
 11
0.014211119
 21
0.014211119
 31
0.0
 40
0.9951458158
 41
-3.9245578246
 42
-2.3586274826
  0
ELLIPSE
  5
43D
100
AcDbEntity
  8
0
100
AcDbEllipse
 62
7
  6
CONTINUOUS
 10
5.2562847641
 20
5.7449209794
 30
0.0
 11
0.014211119
 21
-0.014211119
 31
0.0
 40
0.9951458158
 41
2.3586274826
 42
3.9245578246
  0
ELLIPSE
  5
43E
100
AcDbEntity
  8
0
100
AcDbEllipse
 62
7
  6
CONTINUOUS
 10
5.0674464714
 20
5.5341347576
 30
0.0
 11
0.014211119
 21
-0.014211119
 31
0.0
 40
0.9951458158
 41
-0.782965171
 42
0.782965171
  0
ELLIPSE
  5
43F
100
AcDbEntity
  8
0
100
AcDbEllipse
 62
7
  6
CONTINUOUS
 10
5.0674464714
 20
5.7528009924
 30
0.0
 11
0.014211119
 21
0.014211119
 31
0.0
 40
0.9951458158
 41
-0.782965171
 42
0.782965171
  0
ELLIPSE
  5
440
100
AcDbEntity
  8
0
100
AcDbEllipse
 62
7
  6
CONTINUOUS
 10
4.8487802366
 20
5.7528009924
 30
0.0
 11
0.014211119
 21
-0.014211119
 31
0.0
 40
0.9951458158
 41
2.3586274826
 42
3.9245578246
  0
ELLIPSE
  5
441
100
AcDbEntity
  8
0
100
AcDbEllipse
 62
7
  6
CONTINUOUS
 10
4.8487802366
 20
5.5341347576
 30
0.0
 11
0.014211119
 21
0.014211119
 31
0.0
 40
0.9951458158
 41
2.3586274826
 42
3.9245578246
  0
ELLIPSE
  5
442
100
AcDbEntity
  8
0
100
AcDbEllipse
 62
7
  6
CONTINUOUS
 10
4.659941944
 20
5.5420147706
 30
0.0
 11
0.014211119
 21
-0.014211119
 31
0.0
 40
0.9951458158
 41
-0.782965171
 42
0.782965171
  0
ELLIPSE
  5
443
100
AcDbEntity
  8
0
100
AcDbEllipse
 62
7
  6
CONTINUOUS
 10
4.659941944
 20
5.7449209794
 30
0.0
 11
0.014211119
 21
0.014211119
 31
0.0
 40
0.9951458158
 41
-0.782965171
 42
0.782965171
  0
ELLIPSE
  5
444
100
AcDbEntity
  8
0
100
AcDbEllipse
 62
7
  6
CONTINUOUS
 10
4.4570357352
 20
5.7449209794
 30
0.0
 11
0.014211119
 21
-0.014211119
 31
0.0
 40
0.9951458158
 41
2.3586274826
 42
3.9245578246
  0
ELLIPSE
  5
445
100
AcDbEntity
  8
0
100
AcDbEllipse
 62
7
  6
CONTINUOUS
 10
4.4570357352
 20
5.5420147706
 30
0.0
 11
0.014211119
 21
0.014211119
 31
0.0
 40
0.9951458158
 41
-3.9245578246
 42
-2.3586274826
  0
ELLIPSE
  5
446
100
AcDbEntity
  8
0
100
AcDbEllipse
 62
7
  6
CONTINUOUS
 10
4.2603174296
 20
5.5420147706
 30
0.0
 11
0.014211119
 21
-0.014211119
 31
0.0
 40
0.9951458158
 41
-0.782965171
 42
0.782965171
  0
ELLIPSE
  5
447
100
AcDbEntity
  8
0
100
AcDbEllipse
 62
7
  6
CONTINUOUS
 10
4.2603174296
 20
5.7449209794
 30
0.0
 11
0.014211119
 21
0.014211119
 31
0.0
 40
0.9951458158
 41
-0.782965171
 42
0.782965171
  0
ELLIPSE
  5
448
100
AcDbEntity
  8
0
100
AcDbEllipse
 62
7
  6
CONTINUOUS
 10
4.0574112208
 20
5.7449209794
 30
0.0
 11
0.014211119
 21
-0.014211119
 31
0.0
 40
0.9951458158
 41
2.3586274826
 42
3.9245578246
  0
ELLIPSE
  5
449
100
AcDbEntity
  8
0
100
AcDbEllipse
 62
7
  6
CONTINUOUS
 10
4.0574112208
 20
5.5420147706
 30
0.0
 11
0.014211119
 21
0.014211119
 31
0.0
 40
0.9951458158
 41
-3.9245578246
 42
-2.3586274826
  0
ELLIPSE
  5
44A
100
AcDbEntity
  8
0
100
AcDbEllipse
 62
7
  6
CONTINUOUS
 10
3.6577867064
 20
5.5420147706
 30
0.0
 11
0.014211119
 21
0.014211119
 31
0.0
 40
0.9951458158
 41
-3.9245578246
 42
-2.3586274826
  0
ELLIPSE
  5
44B
100
AcDbEntity
  8
0
100
AcDbEllipse
 62
7
  6
CONTINUOUS
 10
3.8606929152
 20
5.5420147706
 30
0.0
 11
-0.014211119
 21
0.014211119
 31
0.0
 40
0.9951458158
 41
-3.9245578246
 42
-2.3586274826
  0
ELLIPSE
  5
44C
100
AcDbEntity
  8
0
100
AcDbEllipse
 62
7
  6
CONTINUOUS
 10
3.8606929152
 20
5.7449209794
 30
0.0
 11
0.014211119
 21
0.014211119
 31
0.0
 40
0.9951458158
 41
-0.782965171
 42
0.782965171
  0
ELLIPSE
  5
44D
100
AcDbEntity
  8
0
100
AcDbEllipse
 62
7
  6
CONTINUOUS
 10
3.6577867064
 20
5.7449209794
 30
0.0
 11
-0.014211119
 21
0.014211119
 31
0.0
 40
0.9951458158
 41
-0.782965171
 42
0.782965171
  0
ELLIPSE
  5
44E
100
AcDbEntity
  8
0
100
AcDbEllipse
 62
7
  6
CONTINUOUS
 10
4.659941944
 20
5.941639285
 30
0.0
 11
-0.014211119
 21
0.014211119
 31
0.0
 40
0.9951458158
 41
-3.9245578246
 42
-2.3586274826
  0
ELLIPSE
  5
44F
100
AcDbEntity
  8
0
100
AcDbEllipse
 62
7
  6
CONTINUOUS
 10
4.4570357352
 20
5.941639285
 30
0.0
 11
0.014211119
 21
0.014211119
 31
0.0
 40
0.9951458158
 41
-3.9245578246
 42
-2.3586274826
  0
ELLIPSE
  5
450
100
AcDbEntity
  8
0
100
AcDbEllipse
 62
7
  6
CONTINUOUS
 10
4.0574112208
 20
5.941639285
 30
0.0
 11
0.014211119
 21
0.014211119
 31
0.0
 40
0.9951458158
 41
-3.9245578246
 42
-2.3586274826
  0
ELLIPSE
  5
451
100
AcDbEntity
  8
0
100
AcDbEllipse
 62
7
  6
CONTINUOUS
 10
4.2603174296
 20
5.941639285
 30
0.0
 11
-0.014211119
 21
0.014211119
 31
0.0
 40
0.9951458158
 41
-3.9245578246
 42
-2.3586274826
  0
ELLIPSE
  5
452
100
AcDbEntity
  8
0
100
AcDbEllipse
 62
7
  6
CONTINUOUS
 10
4.2603174296
 20
6.1445454938
 30
0.0
 11
0.014211119
 21
0.014211119
 31
0.0
 40
0.9951458158
 41
-0.782965171
 42
0.782965171
  0
ELLIPSE
  5
453
100
AcDbEntity
  8
0
100
AcDbEllipse
 62
7
  6
CONTINUOUS
 10
5.6559092785
 20
6.1445454938
 30
0.0
 11
0.014211119
 21
-0.014211119
 31
0.0
 40
0.9951458158
 41
2.3586274826
 42
3.9245578246
  0
ELLIPSE
  5
454
100
AcDbEntity
  8
0
100
AcDbEllipse
 62
7
  6
CONTINUOUS
 10
5.6559092785
 20
5.941639285
 30
0.0
 11
0.014211119
 21
0.014211119
 31
0.0
 40
0.9951458158
 41
-3.9245578246
 42
-2.3586274826
  0
ELLIPSE
  5
455
100
AcDbEntity
  8
0
100
AcDbEllipse
 62
7
  6
CONTINUOUS
 10
5.8588154872
 20
5.941639285
 30
0.0
 11
0.014211119
 21
-0.014211119
 31
0.0
 40
0.9951458158
 41
-0.782965171
 42
0.782965171
  0
ELLIPSE
  5
456
100
AcDbEntity
  8
0
100
AcDbEllipse
 62
7
  6
CONTINUOUS
 10
5.4591909728
 20
5.941639285
 30
0.0
 11
0.014211119
 21
-0.014211119
 31
0.0
 40
0.9951458158
 41
-0.782965171
 42
0.782965171
  0
ELLIPSE
  5
457
100
AcDbEntity
  8
0
100
AcDbEllipse
 62
7
  6
CONTINUOUS
 10
5.2562847641
 20
5.941639285
 30
0.0
 11
0.014211119
 21
0.014211119
 31
0.0
 40
0.9951458158
 41
-3.9245578246
 42
-2.3586274826
  0
ELLIPSE
  5
458
100
AcDbEntity
  8
0
100
AcDbEllipse
 62
7
  6
CONTINUOUS
 10
5.0595664584
 20
5.941639285
 30
0.0
 11
-0.014211119
 21
0.014211119
 31
0.0
 40
0.9951458158
 41
-3.9245578246
 42
-2.3586274826
  0
ELLIPSE
  5
459
100
AcDbEntity
  8
0
100
AcDbEllipse
 62
7
  6
CONTINUOUS
 10
4.8566602497
 20
5.941639285
 30
0.0
 11
0.014211119
 21
0.014211119
 31
0.0
 40
0.9951458158
 41
-3.9245578246
 42
-2.3586274826
  0
ENDSEC
  0
SECTION
  2
OBJECTS
  0
DICTIONARY
  5
C
100
AcDbDictionary
280
0
281
1
  3
ACAD_GROUP
350
D
  3
ACAD_MLINESTYLE
350
17
  3
ACAD_LAYOUT
350
1A
  3
ACAD_PLOTSETTINGS
350
19
  3
ACAD_PLOTSTYLENAME
350
E
  0
DICTIONARY
  5
D
102
{ACAD_REACTORS
330
C
102
}
100
AcDbDictionary
280
0
281
1
  0
ACDBDICTIONARYWDFLT
  5
E
102
{ACAD_REACTORS
330
C
102
}
100
AcDbDictionary
281
1
  3
Normal
350
F
100
AcDbDictionaryWithDefault
340
F
  0
DICTIONARY
  5
17
102
{ACAD_REACTORS
330
C
102
}
100
AcDbDictionary
280
0
281
1
  3
Standard
350
18
  0
DICTIONARY
  5
19
102
{ACAD_REACTORS
330
C
102
}
100
AcDbDictionary
281
1
  0
DICTIONARY
  5
1A
102
{ACAD_REACTORS
330
C
102
}
100
AcDbDictionary
281
1
  3
Model
350
45A
  3
Layout1
350
45B
  0
ACDBPLACEHOLDER
  5
F
102
{ACAD_REACTORS
330
E
102
}
  0
MLINESTYLE
  5
18
102
{ACAD_REACTORS
330
17
102
}
100
AcDbMlineStyle
  2
STANDARD
 70
0
  3

 62
256
 51
90.0
 52
90.0
 71
2
 49
0.5
 62
256
  6
BYLAYER
 49
-0.5
 62
256
  6
BYLAYER
  0
LAYOUT
  5
45A
102
{ACAD_REACTORS
330
1A
102
}
100
AcDbPlotSettings
  1

  2
none_device
  4
ANSI_A_(11.00_x_8.50_Inches)
  6

 40
0.0
 41
0.0
 42
0.0
 43
0.0
 44
279.4
 45
215.9
 46
0.0
 47
0.0
 48
0.0
 49
0.0
140
0.0
141
0.0
142
1.0
143
1.0
 70
1024
 72
0
 73
0
 74
0
  7

 75
0
147
1.0
148
0.0
149
0.0
100
AcDbLayout
  1
Model
 70
0
 71
0
 10
0.0
 20
0.0
 11
11.0
 21
8.5
 12
0.0
 22
0.0
 32
0.0
 14
0.0
 24
0.0
 34
0.0
 15
0.0
 25
0.0
 35
0.0
146
0.0
 13
0.0
 23
0.0
 33
0.0
 16
1.0
 26
0.0
 36
0.0
 17
0.0
 27
1.0
 37
0.0
 76
0
330
20A
345
0
346
0
  0
LAYOUT
  5
45B
102
{ACAD_REACTORS
330
1A
102
}
100
AcDbPlotSettings
  1

  2
none_device
  4
ANSI_A_(11.00_x_8.50_Inches)
  6

 40
0.0
 41
0.0
 42
0.0
 43
0.0
 44
279.4
 45
215.9
 46
0.0
 47
0.0
 48
0.0
 49
0.0
140
0.0
141
0.0
142
1.0
143
1.0
 70
0
 72
0
 73
0
 74
0
  7

 75
0
147
1.0
148
0.0
149
0.0
100
AcDbLayout
  1
Layout1
 70
0
 71
1
 10
0.0
 20
0.0
 11
11.0
 21
8.5
 12
0.0
 22
0.0
 32
0.0
 14
0.0
 24
0.0
 34
0.0
 15
0.0
 25
0.0
 35
0.0
146
0.0
 13
0.0
 23
0.0
 33
0.0
 16
1.0
 26
0.0
 36
0.0
 17
0.0
 27
1.0
 37
0.0
 76
0
330
20B
345
0
346
0
  0
ENDSEC
  0
EOF
