999
DXF file: 243-404_front.dxf
999
Pro/ENGINEER 2018400 by Parametric Technology Corporation
  0
SECTION
  2
HEADER
  9
$ACADVER
  1
AC1027
  9
$DWGCODEPAGE
  3
ANSI_1252
  9
$EXTMAX
 10
11.0
 20
8.5
 30
0.0
  9
$EXTMIN
 10
0.0
 20
0.0
 30
0.0
  9
$LIMMIN
 10
0.0
 20
0.0
  9
$LIMMAX
 10
11.0
 20
8.5
  9
$VIEWCTR
 10
5.5
 20
4.25
  9
$VIEWSIZE
 40
8.5
  9
$CLAYER
  8
0
  9
$LTSCALE
 40
0.605
  9
$CELTYPE
  6
BYLAYER
  9
$DIMSCALE
 40
1.0
  9
$DIMASZ
 40
0.1
  9
$DIMEXO
 40
0.0625
  9
$DIMDLI
 40
0.418
  9
$DIMEXE
 40
0.125
  9
$DIMCEN
 40
0.099
  9
$DIMLFAC
 40
1.0
  9
$DIMBLK
  1
_FILLED
  9
$DIMALT
 70
0
  9
$DIMALTF
 40
25.4
  9
$DIMTXT
 40
0.08
  9
$DIMTOL
 70
1
  9
$DIMLIM
 70
0
  9
$DIMTFAC
 40
1.0
  9
$DIMTP
 40
0.001
  9
$DIMTM
 40
0.001
  9
$DIMGAP
 40
0.09
  9
$DIMDSEP
 70
46
  9
$AUNITS
 70
0
  9
$PDMODE
 70
3
  9
$PDSIZE
 40
0.06
  9
$HANDSEED
  5
328
  9
$TILEMODE
 70
1
  9
$MEASUREMENT
 70
0
  9
$INSUNITS
 70
1
  0
ENDSEC
  0
SECTION
  2
CLASSES
  0
CLASS
  1
ACDBDICTIONARYWDFLT
  2
AcDbDictionaryWithDefault
  3
AutoCAD 2000
 90
0
 91
1
280
0
281
0
  0
CLASS
  1
ACDBPLACEHOLDER
  2
AcDbPlaceHolder
  3
AutoCAD 2000
 90
0
 91
1
280
0
281
0
  0
CLASS
  1
LAYOUT
  2
AcDbLayout
  3
AutoCAD 2000
 90
0
 91
0
280
0
281
0
  0
ENDSEC
  0
SECTION
  2
TABLES
  0
TABLE
  2
VPORT
  5
8
100
AcDbSymbolTable
 70
2
  0
VPORT
  5
1F4
100
AcDbSymbolTableRecord
100
AcDbViewportTableRecord
  2
*ACTIVE
 70
0
 10
0.0
 20
0.0
 11
1.0
 21
1.0
 12
5.5
 22
4.25
 13
0.0
 23
0.0
 14
1.0
 24
1.0
 15
0.0
 25
0.0
 16
0.0
 26
0.0
 36
1.0
 17
0.0
 27
0.0
 37
0.0
 40
8.5
 41
1.2941176471
 42
50.0
 43
0.0
 44
0.0
 50
0.0
 51
0.0
 71
0
 72
100
 73
1
 74
1
 75
0
 76
0
 77
0
 78
0
  0
ENDTAB
  0
TABLE
  2
LTYPE
  5
5
100
AcDbSymbolTable
 70
6
  0
LTYPE
  5
14
100
AcDbSymbolTableRecord
100
AcDbLinetypeTableRecord
  2
BYBLOCK
 70
0
  3

 72
65
 73
0
 40
0.0
  0
LTYPE
  5
15
100
AcDbSymbolTableRecord
100
AcDbLinetypeTableRecord
  2
BYLAYER
 70
0
  3

 72
65
 73
0
 40
0.0
  0
LTYPE
  5
16
100
AcDbSymbolTableRecord
100
AcDbLinetypeTableRecord
  2
CONTINUOUS
 70
64
  3
Solid line
 72
65
 73
0
 40
0.0
  0
LTYPE
  5
1F5
100
AcDbSymbolTableRecord
100
AcDbLinetypeTableRecord
  2
CENTER
 70
64
  3
____ _ ____ _ ____ _ ____ _ ____ _ ____ _ ____
 72
65
 73
4
 40
0.6
 49
0.375
 74
0
 49
-0.075
 74
0
 49
0.075
 74
0
 49
-0.075
 74
0
  0
LTYPE
  5
1F6
100
AcDbSymbolTableRecord
100
AcDbLinetypeTableRecord
  2
HIDDEN
 70
64
  3
- - - - - - - - - - - - - - - - - - - -
 72
65
 73
2
 40
0.2
 49
0.1
 74
0
 49
-0.1
 74
0
  0
LTYPE
  5
1F7
100
AcDbSymbolTableRecord
100
AcDbLinetypeTableRecord
  2
PHANTOM
 70
64
  3
_____ _ _ _____ _ _ _____ _ _ _____
 72
65
 73
6
 40
0.8
 49
0.45
 74
0
 49
-0.05
 74
0
 49
0.1
 74
0
 49
-0.05
 74
0
 49
0.1
 74
0
 49
-0.05
 74
0
  0
LTYPE
  5
1F8
100
AcDbSymbolTableRecord
100
AcDbLinetypeTableRecord
  2
DOT
 70
64
  3
. . . . . . . . . . . . . . . . . . . .
 72
65
 73
2
 40
0.2
 49
0.1
 74
0
 49
-0.1
 74
0
  0
LTYPE
  5
1F9
100
AcDbSymbolTableRecord
100
AcDbLinetypeTableRecord
  2
DASHED
 70
64
  3
- - - - - - - - - - - - - - - - - - - -
 72
65
 73
2
 40
0.2
 49
0.1
 74
0
 49
-0.1
 74
0
  0
ENDTAB
  0
TABLE
  2
LAYER
  5
2
100
AcDbSymbolTable
 70
36
  0
LAYER
  5
10
100
AcDbSymbolTableRecord
100
AcDbLayerTableRecord
  2
0
 70
0
 62
7
  6
CONTINUOUS
370
-3
390
F
  0
LAYER
  5
1FA
100
AcDbSymbolTableRecord
100
AcDbLayerTableRecord
  2
DEFAULT_1
 70
0
 62
7
  6
CENTER
370
-3
390
F
  0
LAYER
  5
1FB
100
AcDbSymbolTableRecord
100
AcDbLayerTableRecord
  2
DEFAULT_2
 70
0
 62
8
  6
HIDDEN
370
-3
390
F
  0
LAYER
  5
1FC
100
AcDbSymbolTableRecord
100
AcDbLayerTableRecord
  2
DEFAULT_3
 70
0
 62
7
  6
PHANTOM
370
-3
390
F
  0
LAYER
  5
1FD
100
AcDbSymbolTableRecord
100
AcDbLayerTableRecord
  2
ALL_FEATURES
 70
0
 62
7
  6
CONTINUOUS
370
-3
390
F
  0
LAYER
  5
1FE
100
AcDbSymbolTableRecord
100
AcDbLayerTableRecord
  2
AXES_FEATURES
 70
0
 62
7
  6
CONTINUOUS
370
-3
390
F
  0
LAYER
  5
1FF
100
AcDbSymbolTableRecord
100
AcDbLayerTableRecord
  2
DEFAULT_COORDINATE_SYSTEM
 70
0
 62
7
  6
CONTINUOUS
370
-3
390
F
  0
LAYER
  5
200
100
AcDbSymbolTableRecord
100
AcDbLayerTableRecord
  2
DEFAULT_DATUM_AXES
 70
0
 62
7
  6
CONTINUOUS
370
-3
390
F
  0
LAYER
  5
201
100
AcDbSymbolTableRecord
100
AcDbLayerTableRecord
  2
DEFAULT_DATUM_CURVES
 70
0
 62
7
  6
CONTINUOUS
370
-3
390
F
  0
LAYER
  5
202
100
AcDbSymbolTableRecord
100
AcDbLayerTableRecord
  2
DEFAULT_DATUM_PLANES
 70
0
 62
7
  6
CONTINUOUS
370
-3
390
F
  0
LAYER
  5
203
100
AcDbSymbolTableRecord
100
AcDbLayerTableRecord
  2
DEFAULT_SURFACES
 70
0
 62
7
  6
CONTINUOUS
370
-3
390
F
  0
LAYER
  5
204
100
AcDbSymbolTableRecord
100
AcDbLayerTableRecord
  2
DIMENSIONS
 70
0
 62
7
  6
CONTINUOUS
370
-3
390
F
  0
LAYER
  5
205
100
AcDbSymbolTableRecord
100
AcDbLayerTableRecord
  2
INTF_1
 70
0
 62
7
  6
CONTINUOUS
370
-3
390
F
  0
LAYER
  5
206
100
AcDbSymbolTableRecord
100
AcDbLayerTableRecord
  2
LIGHT_DULL_AZURE
 70
0
 62
7
  6
CONTINUOUS
370
-3
390
F
  0
LAYER
  5
207
100
AcDbSymbolTableRecord
100
AcDbLayerTableRecord
  2
RGB____0____0____0__
 70
0
 62
7
  6
CONTINUOUS
370
-3
390
F
  0
ENDTAB
  0
TABLE
  2
STYLE
  5
3
100
AcDbSymbolTable
 70
1
  0
STYLE
  5
11
100
AcDbSymbolTableRecord
100
AcDbTextStyleTableRecord
  2
STANDARD
 70
0
 40
0.0
 41
0.8
 50
0.0
 71
0
 42
0.2
  3
txt
  4

  0
STYLE
  5
208
100
AcDbSymbolTableRecord
100
AcDbTextStyleTableRecord
  2
TEXTSTYLE_1
 70
0
 40
0.0
 41
0.8
 50
0.0
 71
0
 42
0.2
  3
gdt
  4

  0
ENDTAB
  0
TABLE
  2
VIEW
  5
6
100
AcDbSymbolTable
 70
0
  0
ENDTAB
  0
TABLE
  2
UCS
  5
7
100
AcDbSymbolTable
 70
0
  0
ENDTAB
  0
TABLE
  2
APPID
  5
9
100
AcDbSymbolTable
 70
1
  0
APPID
  5
209
100
AcDbSymbolTableRecord
100
AcDbRegAppTableRecord
  2
ACAD
 70
0
  0
ENDTAB
  0
TABLE
  2
BLOCK_RECORD
  5
1
100
AcDbSymbolTable
 70
0
  0
BLOCK_RECORD
  5
20A
100
AcDbSymbolTableRecord
100
AcDbBlockTableRecord
  2
*Model_Space
  0
BLOCK_RECORD
  5
20B
100
AcDbSymbolTableRecord
100
AcDbBlockTableRecord
  2
*Paper_Space
  0
BLOCK_RECORD
  5
20C
100
AcDbSymbolTableRecord
100
AcDbBlockTableRecord
  2
_FILLED
  0
ENDTAB
  0
TABLE
  2
DIMSTYLE
  5
A
100
AcDbSymbolTable
 70
1
100
AcDbDimStyleTable
 71
0
  0
DIMSTYLE
105
20D
100
AcDbSymbolTableRecord
100
AcDbDimStyleTableRecord
  2
STANDARD
 70
0
  3

  4

 40
1.0
 41
0.1
 42
0.0625
 43
0.38
 44
0.125
 45
0.0
 46
0.0
 47
0.001
 48
0.001
140
0.08
141
0.09
142
0.0
143
25.4
144
1.0
145
0.0
146
1.0
147
0.09
 71
1.0
 72
0.0
 73
1
 74
1
 75
0
 76
0
 77
0
 78
4
 79
1
170
0
171
2
172
0
173
0
174
0
175
0
176
0
177
0
178
0
270
2
179
3
271
3
272
3
273
2
274
2
275
0
280
0
281
0
282
0
283
1
284
4
285
0
286
0
287
3
288
0
340
11
278
46
341
20C
342
20C
343
20C
344
20C
  0
ENDTAB
  0
ENDSEC
  0
SECTION
  2
BLOCKS
  0
BLOCK
  5
20
100
AcDbEntity
  8
0
100
AcDbBlockBegin
  2
*Model_Space
 70
0
 10
0.0
 20
0.0
 30
0.0
  3
*Model_Space
  1

  0
ENDBLK
  5
21
100
AcDbEntity
  8
0
100
AcDbBlockEnd
  0
BLOCK
  5
1C
100
AcDbEntity
  8
0
100
AcDbBlockBegin
  2
*Paper_Space
 70
0
 10
0.0
 20
0.0
 30
0.0
  3
*Paper_Space
  1

  0
ENDBLK
  5
1D
100
AcDbEntity
  8
0
100
AcDbBlockEnd
  0
BLOCK
  5
20E
100
AcDbEntity
  8
0
100
AcDbBlockBegin
  2
_FILLED
 70
64
 10
0.0
 20
0.0
  3
_FILLED
  1

  0
SOLID
  5
20F
100
AcDbEntity
  8
0
  6
BYBLOCK
 62
0
100
AcDbTrace
 10
0.0
 20
0.0
 11
-1.0
 21
0.2
 12
-1.0
 22
-0.2
 13
-1.0
 23
-0.2
  0
ENDBLK
  5
210
100
AcDbEntity
  8
0
  6
BYBLOCK
 62
0
100
AcDbBlockEnd
  0
ENDSEC
  0
SECTION
  2
ENTITIES
  0
LINE
  5
211
100
AcDbEntity
  8
0
100
AcDbLine
 62
7
  6
CONTINUOUS
 10
0.0
 20
0.0
 11
0.0
 21
8.5
  0
LINE
  5
212
100
AcDbEntity
  8
0
100
AcDbLine
 62
7
  6
CONTINUOUS
 10
0.0
 20
0.0
 11
11.0
 21
0.0
  0
LINE
  5
213
100
AcDbEntity
  8
0
100
AcDbLine
 62
7
  6
CONTINUOUS
 10
0.0
 20
8.5
 11
11.0
 21
8.5
  0
LINE
  5
214
100
AcDbEntity
  8
0
100
AcDbLine
 62
7
  6
CONTINUOUS
 10
11.0
 20
0.0
 11
11.0
 21
8.5
  0
LINE
  5
215
100
AcDbEntity
  8
0
100
AcDbLine
 62
7
  6
CONTINUOUS
 10
3.0477024366
 20
4.2895001501
 11
3.0477024366
 21
4.0363834266
  0
LINE
  5
216
100
AcDbEntity
  8
0
100
AcDbLine
 62
7
  6
CONTINUOUS
 10
3.0477024366
 20
5.0521534191
 11
3.0477024366
 21
5.3052701426
  0
LINE
  5
217
100
AcDbEntity
  8
0
100
AcDbLine
 62
7
  6
CONTINUOUS
 10
3.050551782
 20
5.318014769
 11
3.1552887922
 21
5.5405418377
  0
LINE
  5
218
100
AcDbEntity
  8
0
100
AcDbLine
 62
7
  6
CONTINUOUS
 10
3.2616833205
 20
5.716573727
 11
3.325580636
 21
5.8044908364
  0
LINE
  5
219
100
AcDbEntity
  8
0
100
AcDbLine
 62
7
  6
CONTINUOUS
 10
3.6607855679
 20
6.1403524572
 11
3.7511838904
 21
6.2064622624
  0
LINE
  5
21A
100
AcDbEntity
  8
0
100
AcDbLine
 62
7
  6
CONTINUOUS
 10
5.4111500652
 20
2.9208267846
 11
5.1775715932
 21
2.9208267846
  0
LINE
  5
21B
100
AcDbEntity
  8
0
100
AcDbLine
 62
7
  6
CONTINUOUS
 10
4.182254808
 20
2.9208267846
 11
4.41583328
 21
2.9208267846
  0
LINE
  5
21C
100
AcDbEntity
  8
0
100
AcDbLine
 62
7
  6
CONTINUOUS
 10
3.6607855679
 20
3.2013011121
 11
3.7511838904
 21
3.1351913068
  0
LINE
  5
21D
100
AcDbEntity
  8
0
100
AcDbLine
 62
7
  6
CONTINUOUS
 10
3.2616833205
 20
3.6250798422
 11
3.325580636
 21
3.5371627329
  0
LINE
  5
21E
100
AcDbEntity
  8
0
100
AcDbLine
 62
7
  6
CONTINUOUS
 10
3.050551782
 20
4.0236388002
 11
3.1552887922
 21
3.8011117315
  0
LINE
  5
21F
100
AcDbEntity
  8
0
100
AcDbLine
 62
7
  6
CONTINUOUS
 10
3.1157457343
 20
4.6003353067
 11
3.0801485287
 21
4.511668233
  0
LINE
  5
220
100
AcDbEntity
  8
0
100
AcDbLine
 62
7
  6
CONTINUOUS
 10
4.9640815861
 20
6.3775888078
 11
4.8767982722
 21
6.3464639805
  0
LINE
  5
221
100
AcDbEntity
  8
0
100
AcDbLine
 62
7
  6
CONTINUOUS
 10
4.9640815861
 20
2.9640647614
 11
4.8767982722
 21
2.9951895887
  0
LINE
  5
222
100
AcDbEntity
  8
0
100
AcDbLine
 62
7
  6
CONTINUOUS
 10
3.1157457343
 20
4.7413182625
 11
3.0801485287
 21
4.8299853362
  0
LINE
  5
223
100
AcDbEntity
  8
0
100
AcDbLine
 62
7
  6
CONTINUOUS
 10
3.764496914
 20
3.73054499
 11
3.8977133945
 21
3.8755691542
  0
LINE
  5
224
100
AcDbEntity
  8
0
100
AcDbLine
 62
7
  6
CONTINUOUS
 10
5.590152517
 20
5.5664531225
 11
5.7392865737
 21
5.7031715702
  0
LINE
  5
225
100
AcDbEntity
  8
0
100
AcDbLine
 62
7
  6
CONTINUOUS
 10
5.590152517
 20
3.7752004467
 11
5.7392865737
 21
3.638481999
  0
LINE
  5
226
100
AcDbEntity
  8
0
100
AcDbLine
 62
7
  6
CONTINUOUS
 10
3.764496914
 20
5.6111085792
 11
3.8977133945
 21
5.466084415
  0
LINE
  5
227
100
AcDbEntity
  8
0
100
AcDbLine
 62
7
  6
CONTINUOUS
 10
5.8289079591
 20
5.6111085792
 11
5.6956914787
 21
5.466084415
  0
LINE
  5
228
100
AcDbEntity
  8
0
100
AcDbLine
 62
7
  6
CONTINUOUS
 10
4.0032523562
 20
3.7752004467
 11
3.8541182994
 21
3.638481999
  0
LINE
  5
229
100
AcDbEntity
  8
0
100
AcDbLine
 62
7
  6
CONTINUOUS
 10
4.0032523562
 20
5.5664531225
 11
3.8541182994
 21
5.7031715702
  0
LINE
  5
22A
100
AcDbEntity
  8
0
100
AcDbLine
 62
7
  6
CONTINUOUS
 10
5.8289079591
 20
3.73054499
 11
5.6956914787
 21
3.8755691542
  0
LINE
  5
22B
100
AcDbEntity
  8
0
100
AcDbLine
 62
7
  6
CONTINUOUS
 10
6.4776591389
 20
4.7413182625
 11
6.5132563445
 21
4.8299853362
  0
LINE
  5
22C
100
AcDbEntity
  8
0
100
AcDbLine
 62
7
  6
CONTINUOUS
 10
6.4776591389
 20
4.6003353067
 11
6.5132563445
 21
4.511668233
  0
LINE
  5
22D
100
AcDbEntity
  8
0
100
AcDbLine
 62
7
  6
CONTINUOUS
 10
4.629323287
 20
2.9640647614
 11
4.716606601
 21
2.9951895887
  0
LINE
  5
22E
100
AcDbEntity
  8
0
100
AcDbLine
 62
7
  6
CONTINUOUS
 10
4.629323287
 20
6.3775888078
 11
4.716606601
 21
6.3464639805
  0
LINE
  5
22F
100
AcDbEntity
  8
0
100
AcDbLine
 62
7
  6
CONTINUOUS
 10
6.5457024366
 20
4.2895001501
 11
6.5457024366
 21
4.0363834266
  0
LINE
  5
230
100
AcDbEntity
  8
0
100
AcDbLine
 62
7
  6
CONTINUOUS
 10
6.5457024366
 20
5.0521534191
 11
6.5457024366
 21
5.3052701426
  0
LINE
  5
231
100
AcDbEntity
  8
0
100
AcDbLine
 62
7
  6
CONTINUOUS
 10
6.5428530912
 20
4.0236388002
 11
6.4381160809
 21
3.8011117315
  0
LINE
  5
232
100
AcDbEntity
  8
0
100
AcDbLine
 62
7
  6
CONTINUOUS
 10
6.3317215527
 20
3.6250798422
 11
6.2678242372
 21
3.5371627329
  0
LINE
  5
233
100
AcDbEntity
  8
0
100
AcDbLine
 62
7
  6
CONTINUOUS
 10
5.9326193053
 20
3.2013011121
 11
5.8422209828
 21
3.1351913068
  0
LINE
  5
234
100
AcDbEntity
  8
0
100
AcDbLine
 62
7
  6
CONTINUOUS
 10
5.4111500652
 20
6.4208267846
 11
5.1775715932
 21
6.4208267846
  0
LINE
  5
235
100
AcDbEntity
  8
0
100
AcDbLine
 62
7
  6
CONTINUOUS
 10
4.182254808
 20
6.4208267846
 11
4.41583328
 21
6.4208267846
  0
LINE
  5
236
100
AcDbEntity
  8
0
100
AcDbLine
 62
7
  6
CONTINUOUS
 10
5.9326193053
 20
6.1403524572
 11
5.8422209828
 21
6.2064622624
  0
LINE
  5
237
100
AcDbEntity
  8
0
100
AcDbLine
 62
7
  6
CONTINUOUS
 10
6.3317215527
 20
5.716573727
 11
6.2678242372
 21
5.8044908364
  0
LINE
  5
238
100
AcDbEntity
  8
0
100
AcDbLine
 62
7
  6
CONTINUOUS
 10
6.5428530912
 20
5.318014769
 11
6.4381160809
 21
5.5405418377
  0
ARC
  5
239
100
AcDbEntity
  8
0
100
AcDbCircle
 62
7
  6
CONTINUOUS
 10
3.7227024366
 20
2.8678267846
 40
1.026
100
AcDbArc
 50
8.9843321477
 51
11.6122705828
  0
ARC
  5
23A
100
AcDbEntity
  8
0
100
AcDbCircle
 62
7
  6
CONTINUOUS
 10
4.3032564119
 20
4.3029831623
 40
0.4320988992
100
AcDbArc
 50
345.645710621
 51
11.803004662
  0
ARC
  5
23B
100
AcDbEntity
  8
0
100
AcDbCircle
 62
7
  6
CONTINUOUS
 10
4.4223112304
 20
4.1795478375
 40
0.4301990273
100
AcDbArc
 50
77.4093480455
 51
103.6804552122
  0
ARC
  5
23C
100
AcDbEntity
  8
0
100
AcDbCircle
 62
7
  6
CONTINUOUS
 10
4.7437024366
 20
4.6178267846
 40
0.1133348211
100
AcDbArc
 50
158.2873268972
 51
291.7126706483
  0
ARC
  5
23D
100
AcDbEntity
  8
0
100
AcDbCircle
 62
7
  6
CONTINUOUS
 10
3.1435238637
 20
4.5891822259
 40
0.0299332492
100
AcDbArc
 50
112.5532508127
 51
158.1242520075
  0
ARC
  5
23E
100
AcDbEntity
  8
0
100
AcDbCircle
 62
7
  6
CONTINUOUS
 10
4.1822546281
 20
2.9507526524
 40
0.0299258678
100
AcDbArc
 50
250.6200322297
 51
270.0003444662
  0
ARC
  5
23F
100
AcDbEntity
  8
0
100
AcDbCircle
 62
7
  6
CONTINUOUS
 10
3.7688511925
 20
3.1593234188
 40
0.029907925
100
AcDbArc
 50
233.7918591067
 51
312.3358317144
  0
ARC
  5
240
100
AcDbEntity
  8
0
100
AcDbCircle
 62
7
  6
CONTINUOUS
 10
3.2858678485
 20
3.64267514
 40
0.0299075908
100
AcDbArc
 50
140.3039714679
 51
216.0375217003
  0
ARC
  5
241
100
AcDbEntity
  8
0
100
AcDbCircle
 62
7
  6
CONTINUOUS
 10
4.7065764307
 20
3.0233650545
 40
0.0299073954
100
AcDbArc
 50
289.5951960367
 51
9.015136107
  0
ARC
  5
242
100
AcDbEntity
  8
0
100
AcDbCircle
 62
7
  6
CONTINUOUS
 10
4.3763525619
 20
4.2497970781
 40
0.02
100
AcDbArc
 50
166.8802564384
 51
284.6306801352
  0
ARC
  5
243
100
AcDbEntity
  8
0
100
AcDbCircle
 62
7
  6
CONTINUOUS
 10
4.702491259
 20
4.2008003032
 40
0.02
100
AcDbArc
 50
232.0965877641
 51
345.690701169
  0
ARC
  5
244
100
AcDbEntity
  8
0
100
AcDbCircle
 62
7
  6
CONTINUOUS
 10
4.7066485102
 20
4.3872935292
 40
0.02
100
AcDbArc
 50
11.7601310667
 51
99.1106325875
  0
ARC
  5
245
100
AcDbEntity
  8
0
100
AcDbCircle
 62
7
  6
CONTINUOUS
 10
4.5117444913
 20
4.5798887936
 40
0.02
100
AcDbArc
 50
352.2822269977
 51
77.4513797064
  0
ARC
  5
246
100
AcDbEntity
  8
0
100
AcDbCircle
 62
7
  6
CONTINUOUS
 10
4.3252800545
 20
4.5781107154
 40
0.02
100
AcDbArc
 50
103.6357940313
 51
217.2562439604
  0
ARC
  5
247
100
AcDbEntity
  8
0
100
AcDbCircle
 62
7
  6
CONTINUOUS
 10
3.7497678861
 20
3.7440747991
 40
0.02
100
AcDbArc
 50
251.5577036544
 51
317.43
  0
ARC
  5
248
100
AcDbEntity
  8
0
100
AcDbCircle
 62
7
  6
CONTINUOUS
 10
3.8829843665
 20
3.8890989634
 40
0.02
100
AcDbArc
 50
317.43
 51
98.0961968472
  0
ARC
  5
249
100
AcDbEntity
  8
0
100
AcDbCircle
 62
7
  6
CONTINUOUS
 10
3.4520855535
 20
4.1059423125
 40
0.02
100
AcDbArc
 50
35.6781450676
 51
181.3384510677
  0
ARC
  5
24A
100
AcDbEntity
  8
0
100
AcDbCircle
 62
7
  6
CONTINUOUS
 10
4.2406931658
 20
3.3285056264
 40
0.02
100
AcDbArc
 50
265.8837050716
 51
56.8695507421
  0
ARC
  5
24B
100
AcDbEntity
  8
0
100
AcDbCircle
 62
7
  6
CONTINUOUS
 10
4.0167675056
 20
3.7604579661
 40
0.02
100
AcDbArc
 50
354.1189134535
 51
132.513
  0
ARC
  5
24C
100
AcDbEntity
  8
0
100
AcDbCircle
 62
7
  6
CONTINUOUS
 10
3.8676334489
 20
3.6237395184
 40
0.02
100
AcDbArc
 50
132.513
 51
197.0264862157
  0
ARC
  5
24D
100
AcDbEntity
  8
0
100
AcDbCircle
 62
7
  6
CONTINUOUS
 10
3.8238042861
 20
4.4287677661
 40
0.02
100
AcDbArc
 50
337.6645805018
 51
138.5697666198
  0
ARC
  5
24E
100
AcDbEntity
  8
0
100
AcDbCircle
 62
7
  6
CONTINUOUS
 10
4.5542131391
 20
3.7010309376
 40
0.02
100
AcDbArc
 50
311.0743322869
 51
112.9099833908
  0
ARC
  5
24F
100
AcDbEntity
  8
0
100
AcDbCircle
 62
7
  6
CONTINUOUS
 10
3.7227024366
 20
6.4738267846
 40
1.026
100
AcDbArc
 50
348.387729416
 51
351.0156678523
  0
ARC
  5
250
100
AcDbEntity
  8
0
100
AcDbCircle
 62
7
  6
CONTINUOUS
 10
4.3029442448
 20
5.038663446
 40
0.432408141
100
AcDbArc
 50
348.2063588541
 51
14.3449282474
  0
ARC
  5
251
100
AcDbEntity
  8
0
100
AcDbCircle
 62
7
  6
CONTINUOUS
 10
4.4223112304
 20
5.1621057262
 40
0.4301990273
100
AcDbArc
 50
256.3195446202
 51
282.5906521258
  0
ARC
  5
252
100
AcDbEntity
  8
0
100
AcDbCircle
 62
7
  6
CONTINUOUS
 10
4.4848032064
 20
5.5002869576
 40
0.1466819038
100
AcDbArc
 50
246.8776752897
 51
267.5992082043
  0
ARC
  5
253
100
AcDbEntity
  8
0
100
AcDbCircle
 62
7
  6
CONTINUOUS
 10
4.7437024366
 20
4.7238267846
 40
0.1133348211
100
AcDbArc
 50
68.2873293504
 51
201.7126730544
  0
ARC
  5
254
100
AcDbEntity
  8
0
100
AcDbCircle
 62
7
  6
CONTINUOUS
 10
3.1435238701
 20
4.7524713495
 40
0.0299332575
100
AcDbArc
 50
201.8757544952
 51
247.4467424758
  0
ARC
  5
255
100
AcDbEntity
  8
0
100
AcDbCircle
 62
7
  6
CONTINUOUS
 10
4.1822546281
 20
6.3909009168
 40
0.0299258678
100
AcDbArc
 50
89.9996555337
 51
109.3799677704
  0
ARC
  5
256
100
AcDbEntity
  8
0
100
AcDbCircle
 62
7
  6
CONTINUOUS
 10
4.6106146262
 20
4.6708267846
 40
0.0299176293
100
AcDbArc
 50
338.2805201386
 51
21.7194799915
  0
ARC
  5
257
100
AcDbEntity
  8
0
100
AcDbCircle
 62
7
  6
CONTINUOUS
 10
3.7688512034
 20
6.1823301534
 40
0.0299079227
100
AcDbArc
 50
47.6641799637
 51
126.208161214
  0
ARC
  5
258
100
AcDbEntity
  8
0
100
AcDbCircle
 62
7
  6
CONTINUOUS
 10
3.2858678401
 20
5.6989784289
 40
0.0299075845
100
AcDbArc
 50
143.9624683772
 51
219.696038459
  0
ARC
  5
259
100
AcDbEntity
  8
0
100
AcDbCircle
 62
7
  6
CONTINUOUS
 10
4.7065764369
 20
6.3182884932
 40
0.0299074006
100
AcDbArc
 50
350.9849027101
 51
70.4048289224
  0
ARC
  5
25A
100
AcDbEntity
  8
0
100
AcDbCircle
 62
7
  6
CONTINUOUS
 10
4.3252800545
 20
4.7635428538
 40
0.02
100
AcDbArc
 50
142.7437582563
 51
256.3642059632
  0
ARC
  5
25B
100
AcDbEntity
  8
0
100
AcDbCircle
 62
7
  6
CONTINUOUS
 10
4.5117444913
 20
4.7617647757
 40
0.02
100
AcDbArc
 50
282.548620297
 51
7.7177730023
  0
ARC
  5
25C
100
AcDbEntity
  8
0
100
AcDbCircle
 62
7
  6
CONTINUOUS
 10
4.7066485102
 20
4.9543600401
 40
0.02
100
AcDbArc
 50
260.8893674125
 51
348.2398689286
  0
ARC
  5
25D
100
AcDbEntity
  8
0
100
AcDbCircle
 62
7
  6
CONTINUOUS
 10
4.702491259
 20
5.1408532661
 40
0.02
100
AcDbArc
 50
14.3092988327
 51
127.9033696084
  0
ARC
  5
25E
100
AcDbEntity
  8
0
100
AcDbCircle
 62
7
  6
CONTINUOUS
 10
4.3763525619
 20
5.0918564911
 40
0.02
100
AcDbArc
 50
75.3693201617
 51
193.1197459006
  0
ARC
  5
25F
100
AcDbEntity
  8
0
100
AcDbCircle
 62
7
  6
CONTINUOUS
 10
3.4520855535
 20
5.2357112567
 40
0.02
100
AcDbArc
 50
178.6615721846
 51
324.3218559054
  0
ARC
  5
260
100
AcDbEntity
  8
0
100
AcDbCircle
 62
7
  6
CONTINUOUS
 10
3.8829843665
 20
5.4525546058
 40
0.02
100
AcDbArc
 50
261.9038037598
 51
42.57
  0
ARC
  5
261
100
AcDbEntity
  8
0
100
AcDbCircle
 62
7
  6
CONTINUOUS
 10
3.7497678861
 20
5.5975787701
 40
0.02
100
AcDbArc
 50
42.57
 51
108.4422950826
  0
ARC
  5
262
100
AcDbEntity
  8
0
100
AcDbCircle
 62
7
  6
CONTINUOUS
 10
3.8676334489
 20
5.7179140508
 40
0.02
100
AcDbArc
 50
162.9734997876
 51
227.487
  0
ARC
  5
263
100
AcDbEntity
  8
0
100
AcDbCircle
 62
7
  6
CONTINUOUS
 10
4.0167675056
 20
5.5811956031
 40
0.02
100
AcDbArc
 50
227.487
 51
5.8810805506
  0
ARC
  5
264
100
AcDbEntity
  8
0
100
AcDbCircle
 62
7
  6
CONTINUOUS
 10
4.2406931658
 20
6.0131479429
 40
0.02
100
AcDbArc
 50
303.1304468321
 51
94.1162981954
  0
ARC
  5
265
100
AcDbEntity
  8
0
100
AcDbCircle
 62
7
  6
CONTINUOUS
 10
3.8238042861
 20
4.9128858031
 40
0.02
100
AcDbArc
 50
221.4302377927
 51
22.3353881936
  0
ARC
  5
266
100
AcDbEntity
  8
0
100
AcDbCircle
 62
7
  6
CONTINUOUS
 10
4.5542131391
 20
5.6406226316
 40
0.02
100
AcDbArc
 50
247.0900166271
 51
48.9256684556
  0
ARC
  5
267
100
AcDbEntity
  8
0
100
AcDbCircle
 62
7
  6
CONTINUOUS
 10
4.7967024366
 20
4.6440986404
 40
1.8816451506
100
AcDbArc
 50
109.3796233041
 51
117.5113230307
  0
ARC
  5
268
100
AcDbEntity
  8
0
100
AcDbCircle
 62
7
  6
CONTINUOUS
 10
4.7967024366
 20
4.6440986404
 40
1.8816451506
100
AcDbArc
 50
62.4886768153
 51
70.620376696
  0
ARC
  5
269
100
AcDbEntity
  8
0
100
AcDbCircle
 62
7
  6
CONTINUOUS
 10
5.8707024366
 20
2.8678267846
 40
1.026
100
AcDbArc
 50
168.387729416
 51
171.0156678523
  0
ARC
  5
26A
100
AcDbEntity
  8
0
100
AcDbCircle
 62
7
  6
CONTINUOUS
 10
5.2901484557
 20
4.3029831622
 40
0.4320988992
100
AcDbArc
 50
168.1969951658
 51
194.3542895406
  0
ARC
  5
26B
100
AcDbEntity
  8
0
100
AcDbCircle
 62
7
  6
CONTINUOUS
 10
5.1710934737
 20
4.1795478391
 40
0.4301990273
100
AcDbArc
 50
76.3195228698
 51
102.5906300352
  0
ARC
  5
26C
100
AcDbEntity
  8
0
100
AcDbCircle
 62
7
  6
CONTINUOUS
 10
5.1086016602
 20
3.8413666146
 40
0.1466819038
100
AcDbArc
 50
66.8776724624
 51
87.5992055827
  0
ARC
  5
26D
100
AcDbEntity
  8
0
100
AcDbCircle
 62
7
  6
CONTINUOUS
 10
4.8497024366
 20
4.6178267846
 40
0.1133348211
100
AcDbArc
 50
248.2873293504
 51
21.7126706483
  0
ARC
  5
26E
100
AcDbEntity
  8
0
100
AcDbCircle
 62
7
  6
CONTINUOUS
 10
6.4498810015
 20
4.5891822183
 40
0.0299332575
100
AcDbArc
 50
21.8757558196
 51
67.4467407404
  0
ARC
  5
26F
100
AcDbEntity
  8
0
100
AcDbCircle
 62
7
  6
CONTINUOUS
 10
5.4111502451
 20
2.9507526524
 40
0.0299258678
100
AcDbArc
 50
269.9996555337
 51
289.3799677704
  0
ARC
  5
270
100
AcDbEntity
  8
0
100
AcDbCircle
 62
7
  6
CONTINUOUS
 10
4.7967024366
 20
4.484738968
 40
0.0299176356
100
AcDbArc
 50
68.2805152845
 51
111.7194847188
  0
ARC
  5
271
100
AcDbEntity
  8
0
100
AcDbCircle
 62
7
  6
CONTINUOUS
 10
6.3075348379
 20
3.6426750702
 40
0.0299095672
100
AcDbArc
 50
323.9650508902
 51
39.6934559496
  0
ARC
  5
272
100
AcDbEntity
  8
0
100
AcDbCircle
 62
7
  6
CONTINUOUS
 10
5.8245536592
 20
3.1593234299
 40
0.0299079332
100
AcDbArc
 50
227.6642130289
 51
306.2081615345
  0
ARC
  5
273
100
AcDbEntity
  8
0
100
AcDbCircle
 62
7
  6
CONTINUOUS
 10
4.886828436
 20
3.0233650764
 40
0.0299074008
100
AcDbArc
 50
170.9849035059
 51
250.4048297218
  0
ARC
  5
274
100
AcDbEntity
  8
0
100
AcDbCircle
 62
7
  6
CONTINUOUS
 10
5.2681248187
 20
4.5781107154
 40
0.02
100
AcDbArc
 50
322.7437582563
 51
76.3642059632
  0
ARC
  5
275
100
AcDbEntity
  8
0
100
AcDbCircle
 62
7
  6
CONTINUOUS
 10
5.0816603818
 20
4.5798887936
 40
0.02
100
AcDbArc
 50
102.548620297
 51
187.7177730023
  0
ARC
  5
276
100
AcDbEntity
  8
0
100
AcDbCircle
 62
7
  6
CONTINUOUS
 10
4.886756363
 20
4.3872935292
 40
0.02
100
AcDbArc
 50
80.8893674125
 51
168.2398689286
  0
ARC
  5
277
100
AcDbEntity
  8
0
100
AcDbCircle
 62
7
  6
CONTINUOUS
 10
4.8909136141
 20
4.2008003032
 40
0.02
100
AcDbArc
 50
194.3092988327
 51
307.9033696084
  0
ARC
  5
278
100
AcDbEntity
  8
0
100
AcDbCircle
 62
7
  6
CONTINUOUS
 10
5.2170523113
 20
4.2497970781
 40
0.02
100
AcDbArc
 50
255.3693201617
 51
13.1197459006
  0
ARC
  5
279
100
AcDbEntity
  8
0
100
AcDbCircle
 62
7
  6
CONTINUOUS
 10
6.1413193197
 20
4.1059423125
 40
0.02
100
AcDbArc
 50
358.6615721846
 51
144.3218559054
  0
ARC
  5
27A
100
AcDbEntity
  8
0
100
AcDbCircle
 62
7
  6
CONTINUOUS
 10
5.7104205066
 20
3.8890989634
 40
0.02
100
AcDbArc
 50
81.9038037598
 51
222.57
  0
ARC
  5
27B
100
AcDbEntity
  8
0
100
AcDbCircle
 62
7
  6
CONTINUOUS
 10
5.8436369871
 20
3.7440747991
 40
0.02
100
AcDbArc
 50
222.57
 51
288.4422950826
  0
ARC
  5
27C
100
AcDbEntity
  8
0
100
AcDbCircle
 62
7
  6
CONTINUOUS
 10
5.7257714243
 20
3.6237395184
 40
0.02
100
AcDbArc
 50
342.9734997876
 51
47.487
  0
ARC
  5
27D
100
AcDbEntity
  8
0
100
AcDbCircle
 62
7
  6
CONTINUOUS
 10
5.5766373675
 20
3.7604579661
 40
0.02
100
AcDbArc
 50
47.487
 51
185.8810805506
  0
ARC
  5
27E
100
AcDbEntity
  8
0
100
AcDbCircle
 62
7
  6
CONTINUOUS
 10
5.3527117074
 20
3.3285056264
 40
0.02
100
AcDbArc
 50
123.1304468321
 51
274.1162981954
  0
ARC
  5
27F
100
AcDbEntity
  8
0
100
AcDbCircle
 62
7
  6
CONTINUOUS
 10
5.7696005871
 20
4.4287677661
 40
0.02
100
AcDbArc
 50
41.4302377927
 51
202.3353881936
  0
ARC
  5
280
100
AcDbEntity
  8
0
100
AcDbCircle
 62
7
  6
CONTINUOUS
 10
5.039191734
 20
3.7010309376
 40
0.02
100
AcDbArc
 50
67.0900166271
 51
228.9256684556
  0
CIRCLE
  5
281
100
AcDbEntity
  8
0
100
AcDbCircle
 62
7
  6
CONTINUOUS
 10
4.7967024366
 20
4.6708267846
 40
2.02
  0
ARC
  5
282
100
AcDbEntity
  8
0
100
AcDbCircle
 62
7
  6
CONTINUOUS
 10
4.7967024366
 20
4.6975549288
 40
1.8816451506
100
AcDbArc
 50
289.3796233041
 51
297.5113230307
  0
ARC
  5
283
100
AcDbEntity
  8
0
100
AcDbCircle
 62
7
  6
CONTINUOUS
 10
4.7967024366
 20
4.6975549288
 40
1.8816451506
100
AcDbArc
 50
242.4886768153
 51
250.620376696
  0
ARC
  5
284
100
AcDbEntity
  8
0
100
AcDbCircle
 62
7
  6
CONTINUOUS
 10
5.8707024366
 20
6.4738267846
 40
1.026
100
AcDbArc
 50
188.9843321477
 51
191.6122705828
  0
ARC
  5
285
100
AcDbEntity
  8
0
100
AcDbCircle
 62
7
  6
CONTINUOUS
 10
5.2904606274
 20
5.038663443
 40
0.4324081401
100
AcDbArc
 50
165.6550713392
 51
191.7936407868
  0
ARC
  5
286
100
AcDbEntity
  8
0
100
AcDbCircle
 62
7
  6
CONTINUOUS
 10
5.1710934765
 20
5.1621057246
 40
0.4301990273
100
AcDbArc
 50
257.4093694436
 51
283.6804769471
  0
ARC
  5
287
100
AcDbEntity
  8
0
100
AcDbCircle
 62
7
  6
CONTINUOUS
 10
4.8497024366
 20
4.7238267846
 40
0.1133348211
100
AcDbArc
 50
338.2873293504
 51
111.7126706483
  0
ARC
  5
288
100
AcDbEntity
  8
0
100
AcDbCircle
 62
7
  6
CONTINUOUS
 10
6.4498810081
 20
4.7524713449
 40
0.0299332492
100
AcDbArc
 50
292.5532521373
 51
338.1242502713
  0
ARC
  5
289
100
AcDbEntity
  8
0
100
AcDbCircle
 62
7
  6
CONTINUOUS
 10
5.4111502451
 20
6.3909009168
 40
0.0299258678
100
AcDbArc
 50
70.6200322297
 51
90.0003444662
  0
ARC
  5
28A
100
AcDbEntity
  8
0
100
AcDbCircle
 62
7
  6
CONTINUOUS
 10
4.7967024366
 20
4.8569146004
 40
0.0299176356
100
AcDbArc
 50
248.2805147199
 51
291.7194852834
  0
ARC
  5
28B
100
AcDbEntity
  8
0
100
AcDbCircle
 62
7
  6
CONTINUOUS
 10
4.9827902524
 20
4.6708267846
 40
0.0299176356
100
AcDbArc
 50
158.2805147199
 51
201.7194852834
  0
ARC
  5
28C
100
AcDbEntity
  8
0
100
AcDbCircle
 62
7
  6
CONTINUOUS
 10
6.3075348403
 20
5.698978499
 40
0.0299095653
100
AcDbArc
 50
320.3065412201
 51
36.034951948
  0
ARC
  5
28D
100
AcDbEntity
  8
0
100
AcDbCircle
 62
7
  6
CONTINUOUS
 10
5.8245536807
 20
6.1823301504
 40
0.029907925
100
AcDbArc
 50
53.7918591074
 51
132.3358317138
  0
ARC
  5
28E
100
AcDbEntity
  8
0
100
AcDbCircle
 62
7
  6
CONTINUOUS
 10
4.8868284424
 20
6.3182885147
 40
0.0299073954
100
AcDbArc
 50
109.5951960409
 51
189.0151361028
  0
ARC
  5
28F
100
AcDbEntity
  8
0
100
AcDbCircle
 62
7
  6
CONTINUOUS
 10
5.2170523113
 20
5.0918564911
 40
0.02
100
AcDbArc
 50
346.8802564384
 51
104.6306801352
  0
ARC
  5
290
100
AcDbEntity
  8
0
100
AcDbCircle
 62
7
  6
CONTINUOUS
 10
4.8909136141
 20
5.1408532661
 40
0.02
100
AcDbArc
 50
52.0965877641
 51
165.690701169
  0
ARC
  5
291
100
AcDbEntity
  8
0
100
AcDbCircle
 62
7
  6
CONTINUOUS
 10
4.886756363
 20
4.9543600401
 40
0.02
100
AcDbArc
 50
191.7601310667
 51
279.1106325875
  0
ARC
  5
292
100
AcDbEntity
  8
0
100
AcDbCircle
 62
7
  6
CONTINUOUS
 10
5.0816603818
 20
4.7617647757
 40
0.02
100
AcDbArc
 50
172.2822269977
 51
257.4513797064
  0
ARC
  5
293
100
AcDbEntity
  8
0
100
AcDbCircle
 62
7
  6
CONTINUOUS
 10
5.2681248187
 20
4.7635428538
 40
0.02
100
AcDbArc
 50
283.6357940313
 51
37.2562439604
  0
ARC
  5
294
100
AcDbEntity
  8
0
100
AcDbCircle
 62
7
  6
CONTINUOUS
 10
5.8436369871
 20
5.5975787701
 40
0.02
100
AcDbArc
 50
71.5577036544
 51
137.43
  0
ARC
  5
295
100
AcDbEntity
  8
0
100
AcDbCircle
 62
7
  6
CONTINUOUS
 10
5.7104205066
 20
5.4525546058
 40
0.02
100
AcDbArc
 50
137.43
 51
278.0961968472
  0
ARC
  5
296
100
AcDbEntity
  8
0
100
AcDbCircle
 62
7
  6
CONTINUOUS
 10
6.1413193197
 20
5.2357112567
 40
0.02
100
AcDbArc
 50
215.6781450676
 51
1.3384510677
  0
ARC
  5
297
100
AcDbEntity
  8
0
100
AcDbCircle
 62
7
  6
CONTINUOUS
 10
5.3527117074
 20
6.0131479429
 40
0.02
100
AcDbArc
 50
85.8837050716
 51
236.8695507421
  0
ARC
  5
298
100
AcDbEntity
  8
0
100
AcDbCircle
 62
7
  6
CONTINUOUS
 10
5.5766373675
 20
5.5811956031
 40
0.02
100
AcDbArc
 50
174.1189134535
 51
312.513
  0
ARC
  5
299
100
AcDbEntity
  8
0
100
AcDbCircle
 62
7
  6
CONTINUOUS
 10
5.7257714243
 20
5.7179140508
 40
0.02
100
AcDbArc
 50
312.513
 51
17.0264862157
  0
ARC
  5
29A
100
AcDbEntity
  8
0
100
AcDbCircle
 62
7
  6
CONTINUOUS
 10
5.7696005871
 20
4.9128858031
 40
0.02
100
AcDbArc
 50
157.6645805018
 51
318.5697666198
  0
ARC
  5
29B
100
AcDbEntity
  8
0
100
AcDbCircle
 62
7
  6
CONTINUOUS
 10
5.039191734
 20
5.6406226316
 40
0.02
100
AcDbArc
 50
131.0743322869
 51
292.9099833908
  0
SPLINE
  5
29C
100
AcDbEntity
  8
0
100
AcDbSpline
 62
7
  6
CONTINUOUS
 70
0
 71
3
 72
24
 73
20
 74
0
 42
0.0000001
 43
0.0000001
 44
0.0000000001
 40
0.0
 40
0.0
 40
0.0
 40
0.0
 40
0.0649237699
 40
0.128248786
 40
0.1905253798
 40
0.2522088463
 40
0.3136555794
 40
0.3751255184
 40
0.4367894822
 40
0.4677275603
 40
0.4987428934
 40
0.5298365896
 40
0.5610024627
 40
0.6235018801
 40
0.6861585547
 40
0.7489030269
 40
0.8116836811
 40
0.8744688964
 40
1.0
 40
1.0
 40
1.0
 40
1.0
 10
4.3093613333
 20
4.7756504678
 30
0.0
 10
4.3136090905
 20
4.7812352925
 30
0.0
 10
4.3215269935
 20
4.7926369882
 30
0.0
 10
4.3317878257
 20
4.8105160481
 30
0.0
 10
4.3404019875
 20
4.8288562296
 30
0.0
 10
4.3475218544
 20
4.8476054178
 30
0.0
 10
4.3533020134
 20
4.8667153985
 30
0.0
 10
4.3578965117
 20
4.8861388336
 30
0.0
 10
4.3608619879
 20
4.9025312644
 30
0.0
 10
4.3627954542
 20
4.9157513809
 30
0.0
 10
4.364046147
 20
4.9257301075
 30
0.0
 10
4.3651166933
 20
4.9357543685
 30
0.0
 10
4.3663162776
 20
4.9491848543
 30
0.0
 10
4.3673638912
 20
4.9660510892
 30
0.0
 10
4.3678527719
 20
4.9863577812
 30
0.0
 10
4.3675246926
 20
5.0066985911
 30
0.0
 10
4.3663299235
 20
5.0270226154
 30
0.0
 10
4.3635168839
 20
5.0540193678
 30
0.0
 10
4.3599540853
 20
5.0741040267
 30
0.0
 10
4.3568746059
 20
5.087316752
 30
0.0
  0
SPLINE
  5
29D
100
AcDbEntity
  8
0
100
AcDbSpline
 62
7
  6
CONTINUOUS
 70
0
 71
3
 72
15
 73
11
 74
0
 42
0.0000001
 43
0.0000001
 44
0.0000000001
 40
0.0
 40
0.0
 40
0.0
 40
0.0
 40
0.1289289292
 40
0.25295022
 40
0.373868577
 40
0.4936290642
 40
0.61423278
 40
0.7376398098
 40
0.8656815625
 40
1.0
 40
1.0
 40
1.0
 40
1.0
 10
4.576702194
 20
4.8958265581
 30
0.0
 10
4.5721545725
 20
4.8915796847
 30
0.0
 10
4.5636576338
 20
4.8827729629
 30
0.0
 10
4.5527050004
 20
4.8683804933
 30
0.0
 10
4.5438517692
 20
4.8531123189
 30
0.0
 10
4.5371111239
 20
4.8369784767
 30
0.0
 10
4.5324885681
 20
4.8199918358
 30
0.0
 10
4.5299829946
 20
4.8021660213
 30
0.0
 10
4.5295869165
 20
4.7835139981
 30
0.0
 10
4.5306928575
 20
4.7708743246
 30
0.0
 10
4.5315633231
 20
4.7644506473
 30
0.0
  0
SPLINE
  5
29E
100
AcDbEntity
  8
0
100
AcDbSpline
 62
7
  6
CONTINUOUS
 70
0
 71
3
 72
15
 73
11
 74
0
 42
0.0000001
 43
0.0000001
 44
0.0000000001
 40
0.0
 40
0.0
 40
0.0
 40
0.0
 40
0.1327415554
 40
0.2598515485
 40
0.3829074369
 40
0.5036456846
 40
0.6239031949
 40
0.7455386528
 40
0.8703491969
 40
1.0
 40
1.0
 40
1.0
 40
1.0
 10
4.7034816841
 20
4.9346123513
 30
0.0
 10
4.6974613379
 20
4.9355776709
 30
0.0
 10
4.6855755978
 20
4.9369094687
 30
0.0
 10
4.6679523012
 20
4.9369851916
 30
0.0
 10
4.6509810183
 20
4.9350815854
 30
0.0
 10
4.6346731887
 20
4.931192793
 30
0.0
 10
4.6190400758
 20
4.9253184104
 30
0.0
 10
4.6040920662
 20
4.917463187
 30
0.0
 10
4.5898375043
 20
4.9076379053
 30
0.0
 10
4.5809959263
 20
4.8999532025
 30
0.0
 10
4.576702197
 20
4.8958265544
 30
0.0
  0
SPLINE
  5
29F
100
AcDbEntity
  8
0
100
AcDbSpline
 62
7
  6
CONTINUOUS
 70
0
 71
3
 72
23
 73
19
 74
0
 42
0.0000001
 43
0.0000001
 44
0.0000000001
 40
0.0
 40
0.0
 40
0.0
 40
0.0
 40
0.062531233
 40
0.1247986217
 40
0.1870379031
 40
0.218194757
 40
0.2493892339
 40
0.2806255885
 40
0.3118957277
 40
0.3744834987
 40
0.4370728285
 40
0.4996219402
 40
0.6246248312
 40
0.74989121
 40
0.8125192382
 40
0.875047442
 40
0.9375046111
 40
1.0
 40
1.0
 40
1.0
 40
1.0
 10
4.3814043118
 20
5.1112079722
 30
0.0
 10
4.3878931463
 20
5.109514046
 30
0.0
 10
4.4009657186
 20
5.1065880516
 30
0.0
 10
4.420781673
 20
5.1034118584
 30
0.0
 10
4.4373854095
 20
5.1016143426
 30
0.0
 10
4.450707885
 20
5.1005809598
 30
0.0
 10
4.4607275208
 20
5.0999825667
 30
0.0
 10
4.4707668854
 20
5.099531205
 30
0.0
 10
4.4841772158
 20
5.0991273396
 30
0.0
 10
4.5009590668
 20
5.0990351857
 30
0.0
 10
4.5210875198
 20
5.0996931709
 30
0.0
 10
4.5478428909
 20
5.1017433285
 30
0.0
 10
4.5810798015
 20
5.106796311
 30
0.0
 10
4.6134933118
 20
5.1158845593
 30
0.0
 10
4.6384813635
 20
5.125782605
 30
0.0
 10
4.6566058881
 20
5.1345684251
 30
0.0
 10
4.6739628783
 20
5.1447601491
 30
0.0
 10
4.6849159841
 20
5.1525168145
 30
0.0
 10
4.6902046269
 20
5.1566342252
 30
0.0
  0
SPLINE
  5
2A0
100
AcDbEntity
  8
0
100
AcDbSpline
 62
7
  6
CONTINUOUS
 70
0
 71
3
 72
48
 73
44
 74
0
 42
0.0000001
 43
0.0000001
 44
0.0000000001
 40
0.0
 40
0.0
 40
0.0
 40
0.0
 40
0.0310585001
 40
0.0621941035
 40
0.0778132949
 40
0.0934766983
 40
0.1091779836
 40
0.1248963506
 40
0.1563104894
 40
0.1876180324
 40
0.2187970992
 40
0.2343636266
 40
0.2499389894
 40
0.2655534753
 40
0.2812321524
 40
0.2969600295
 40
0.312713844
 40
0.3442000783
 40
0.359907647
 40
0.3755680659
 40
0.391172629
 40
0.3989538388
 40
0.4067225376
 40
0.4222427534
 40
0.4377737017
 40
0.4689542912
 40
0.5003626439
 40
0.5319399852
 40
0.5477439917
 40
0.5635197749
 40
0.5792460456
 40
0.5949249759
 40
0.6261618905
 40
0.6572826336
 40
0.6883444647
 40
0.7194115461
 40
0.734970195
 40
0.7505536278
 40
0.7817615726
 40
0.8129785028
 40
0.8753143116
 40
0.9377621253
 40
1.0
 40
1.0
 40
1.0
 40
1.0
 10
4.4450857538
 20
6.3845821572
 30
0.0
 10
4.4435786382
 20
6.377603876
 30
0.0
 10
4.4403096693
 20
6.3636831551
 30
0.0
 10
4.4356488351
 20
6.3464116893
 30
0.0
 10
4.4316006511
 20
6.3326466277
 30
0.0
 10
4.4284104081
 20
6.3223284098
 30
0.0
 10
4.4250609656
 20
6.3120365453
 30
0.0
 10
4.4203360647
 20
6.2983875274
 30
0.0
 10
4.4138769287
 20
6.2815449134
 30
0.0
 10
4.4049801739
 20
6.2618636205
 30
0.0
 10
4.396397447
 20
6.2460828006
 30
0.0
 10
4.3887247014
 20
6.2339801519
 30
0.0
 10
4.3825351819
 20
6.2251882137
 30
0.0
 10
4.3758792555
 20
6.2167102172
 30
0.0
 10
4.3687412822
 20
6.2085869583
 30
0.0
 10
4.3611460257
 20
6.2008440586
 30
0.0
 10
4.3504535512
 20
6.1910809116
 30
0.0
 10
4.3389651579
 20
6.1822236587
 30
0.0
 10
4.3267968349
 20
6.1744224577
 30
0.0
 10
4.3173707008
 20
6.1691428645
 30
0.0
 10
4.3092792765
 20
6.1652443693
 30
0.0
 10
4.3026847412
 20
6.1624494971
 30
0.0
 10
4.296021407
 20
6.1598763469
 30
0.0
 10
4.287550524
 20
6.157052196
 30
0.0
 10
4.2737347662
 20
6.1533194121
 30
0.0
 10
4.2560490975
 20
6.1500306641
 30
0.0
 10
4.2344822708
 20
6.1479581757
 30
0.0
 10
4.2163648529
 20
6.1474983586
 30
0.0
 10
4.2018482151
 20
6.1477238964
 30
0.0
 10
4.1909816419
 20
6.1481471507
 30
0.0
 10
4.1801549039
 20
6.1487917512
 30
0.0
 10
4.165802008
 20
6.1499550818
 30
0.0
 10
4.1479734752
 20
6.1519879953
 30
0.0
 10
4.1267633959
 20
6.1553901976
 30
0.0
 10
4.1057753897
 20
6.1597823536
 30
0.0
 10
4.0884883143
 20
6.1642910305
 30
0.0
 10
4.0747958405
 20
6.1684180878
 30
0.0
 10
4.0611820332
 20
6.1729013042
 30
0.0
 10
4.0443778908
 20
6.1791910786
 30
0.0
 10
4.0181481301
 20
6.1908083184
 30
0.0
 10
3.9867947386
 20
6.2085184304
 30
0.0
 10
3.9530175834
 20
6.2352862131
 30
0.0
 10
3.9318796933
 20
6.2546337059
 30
0.0
 10
3.9212711738
 20
6.2642318693
 30
0.0
  0
SPLINE
  5
2A1
100
AcDbEntity
  8
0
100
AcDbSpline
 62
7
  6
CONTINUOUS
 70
0
 71
3
 72
50
 73
46
 74
0
 42
0.0000001
 43
0.0000001
 44
0.0000000001
 40
0.0
 40
0.0
 40
0.0
 40
0.0
 40
0.062496279
 40
0.0937839449
 40
0.1250805855
 40
0.156366099
 40
0.1876200094
 40
0.218829203
 40
0.2499893113
 40
0.2655539086
 40
0.2811094206
 40
0.3122123458
 40
0.3745406641
 40
0.3901839211
 40
0.4058542603
 40
0.4215530808
 40
0.437279766
 40
0.4530223551
 40
0.4687652983
 40
0.500201098
 40
0.5315309098
 40
0.5627614161
 40
0.5939781412
 40
0.625318784
 40
0.656707812
 40
0.6723812408
 40
0.6880242148
 40
0.7036371013
 40
0.7114359685
 40
0.7192324134
 40
0.7348287217
 40
0.7504438303
 40
0.7660788634
 40
0.7817221127
 40
0.7973508367
 40
0.8129502464
 40
0.8441127007
 40
0.8752980558
 40
0.8909073445
 40
0.9065228877
 40
0.9221378589
 40
0.9377434923
 40
0.9533350153
 40
0.9689101288
 40
1.0
 40
1.0
 40
1.0
 40
1.0
 10
3.2036188184
 20
5.5488674272
 30
0.0
 10
3.2137169068
 20
5.5386819009
 30
0.0
 10
3.2279737674
 20
5.5224758388
 30
0.0
 10
3.245122367
 20
5.4994453888
 30
0.0
 10
3.2570809896
 20
5.4815139861
 30
0.0
 10
3.268126342
 20
5.4630168395
 30
0.0
 10
3.2781971112
 20
5.4439928339
 30
0.0
 10
3.2872310364
 20
5.424486674
 30
0.0
 10
3.293845999
 20
5.4078580662
 30
0.0
 10
3.2985555476
 20
5.3943612291
 30
0.0
 10
3.3028643338
 20
5.3807444802
 30
0.0
 10
3.3093664787
 20
5.3565801814
 30
0.0
 10
3.3138485021
 20
5.3318932548
 30
0.0
 10
3.3163594735
 20
5.310549619
 30
0.0
 10
3.317359058
 20
5.2998054069
 30
0.0
 10
3.3181041488
 20
5.2890217848
 30
0.0
 10
3.3186033151
 20
5.2782073127
 30
0.0
 10
3.3188380552
 20
5.2673734222
 30
0.0
 10
3.3187624502
 20
5.2529318902
 30
0.0
 10
3.3178785898
 20
5.2349231846
 30
0.0
 10
3.3153463875
 20
5.2134808755
 30
0.0
 10
3.3111331071
 20
5.1923495246
 30
0.0
 10
3.3050290704
 20
5.1716740954
 30
0.0
 10
3.2968545569
 20
5.1516822238
 30
0.0
 10
3.2882785192
 20
5.1358171804
 30
0.0
 10
3.2803546486
 20
5.1237955378
 30
0.0
 10
3.2738863407
 20
5.1151752294
 30
0.0
 10
3.2680553586
 20
5.1083590054
 30
0.0
 10
3.263129486
 20
5.1031579543
 30
0.0
 10
3.2580336579
 20
5.0981287852
 30
0.0
 10
3.2513612271
 20
5.0921510222
 30
0.0
 10
3.2429398539
 20
5.085458715
 30
0.0
 10
3.2341630669
 20
5.0792225092
 30
0.0
 10
3.2250911753
 20
5.0734199253
 30
0.0
 10
3.2157810224
 20
5.0680254167
 30
0.0
 10
3.2031136359
 20
5.0613434811
 30
0.0
 10
3.186840658
 20
5.0538775523
 30
0.0
 10
3.1701465017
 20
5.0474193039
 30
0.0
 10
3.1566089641
 20
5.0427385191
 30
0.0
 10
3.1463771047
 20
5.039439921
 30
0.0
 10
3.1360885994
 20
5.036326436
 30
0.0
 10
3.1257608321
 20
5.033366109
 30
0.0
 10
3.115402348
 20
5.0305497567
 30
0.0
 10
3.101565908
 20
5.0269857342
 30
0.0
 10
3.0911437807
 20
5.02451485
 30
0.0
 10
3.0841818186
 20
5.0229526333
 30
0.0
  0
SPLINE
  5
2A2
100
AcDbEntity
  8
0
100
AcDbSpline
 62
7
  6
CONTINUOUS
 70
0
 71
3
 72
34
 73
30
 74
0
 42
0.0000001
 43
0.0000001
 44
0.0000000001
 40
0.0
 40
0.0
 40
0.0
 40
0.0
 40
0.0624164139
 40
0.1246166493
 40
0.1556575365
 40
0.1866923705
 40
0.2022231498
 40
0.2177706223
 40
0.2489027856
 40
0.2800675099
 40
0.3112541229
 40
0.3424676014
 40
0.3737293457
 40
0.405039499
 40
0.4363557693
 40
0.4676413385
 40
0.4988710622
 40
0.5300339664
 40
0.5455939107
 40
0.5611439777
 40
0.5922450779
 40
0.6233997527
 40
0.6546458143
 40
0.6860024638
 40
0.7490214753
 40
0.8123315673
 40
0.8755967907
 40
0.9383436284
 40
1.0
 40
1.0
 40
1.0
 40
1.0
 10
3.376328736
 20
5.8007264191
 30
0.0
 10
3.3807738713
 20
5.7921963484
 30
0.0
 10
3.3893985436
 20
5.7750374024
 30
0.0
 10
3.4002651034
 20
5.7536495377
 30
0.0
 10
3.4094303503
 20
5.7368311515
 30
0.0
 10
3.4154439787
 20
5.7264906934
 30
0.0
 10
3.4204797007
 20
5.7183496245
 30
0.0
 10
3.4256863332
 20
5.7102989763
 30
0.0
 10
3.4325148919
 20
5.7004308631
 30
0.0
 10
3.4412388641
 20
5.6889597887
 30
0.0
 10
3.4505146556
 20
5.6779126105
 30
0.0
 10
3.4603597572
 20
5.6673479552
 30
0.0
 10
3.4707898145
 20
5.6573315036
 30
0.0
 10
3.4817961463
 20
5.6479268198
 30
0.0
 10
3.4933430454
 20
5.639187632
 30
0.0
 10
3.5053929528
 20
5.6311772084
 30
0.0
 10
3.5179064857
 20
5.6239587975
 30
0.0
 10
3.5286952218
 20
5.6186523956
 30
0.0
 10
3.5375168006
 20
5.6148696469
 30
0.0
 10
3.5464559991
 20
5.6114002724
 30
0.0
 10
3.5578491035
 20
5.6076323818
 30
0.0
 10
3.5718010774
 20
5.6039949142
 30
0.0
 10
3.5859866804
 20
5.6012047672
 30
0.0
 10
3.6051736857
 20
5.598563789
 30
0.0
 10
3.6294839603
 20
5.5972143582
 30
0.0
 10
3.6587160668
 20
5.5984189273
 30
0.0
 10
3.6876859697
 20
5.602160215
 30
0.0
 10
3.7160062866
 20
5.6081589676
 30
0.0
 10
3.7344272046
 20
5.6135457764
 30
0.0
 10
3.7434408981
 20
5.616551625
 30
0.0
  0
SPLINE
  5
2A3
100
AcDbEntity
  8
0
100
AcDbSpline
 62
7
  6
CONTINUOUS
 70
0
 71
3
 72
20
 73
16
 74
0
 42
0.0000001
 43
0.0000001
 44
0.0000000001
 40
0.0
 40
0.0
 40
0.0
 40
0.0
 40
0.1246248271
 40
0.187554079
 40
0.250818144
 40
0.3143338398
 40
0.3779915201
 40
0.4416591206
 40
0.5051857395
 40
0.5684048
 40
0.631139983
 40
0.6933323815
 40
0.755087967
 40
0.8777299086
 40
1.0
 40
1.0
 40
1.0
 40
1.0
 10
3.4320910101
 20
5.2361784137
 30
0.0
 10
3.4325608692
 20
5.2562945727
 30
0.0
 10
3.4313076268
 20
5.2866470186
 30
0.0
 10
3.4262468609
 20
5.3268367033
 30
0.0
 10
3.4208246487
 20
5.3569983577
 30
0.0
 10
3.4138924281
 20
5.3869658987
 30
0.0
 10
3.4055534508
 20
5.4166399144
 30
0.0
 10
3.3959108533
 20
5.4459168958
 30
0.0
 10
3.3850678665
 20
5.4746943717
 30
0.0
 10
3.3731264592
 20
5.502869516
 30
0.0
 10
3.3601831326
 20
5.5303601439
 30
0.0
 10
3.3462929984
 20
5.5571192221
 30
0.0
 10
3.3265781646
 20
5.5917191864
 30
0.0
 10
3.2995557785
 20
5.633272015
 30
0.0
 10
3.2754570216
 20
5.6646796308
 30
0.0
 10
3.2628553554
 20
5.6798757838
 30
0.0
  0
SPLINE
  5
2A4
100
AcDbEntity
  8
0
100
AcDbSpline
 62
7
  6
CONTINUOUS
 70
0
 71
3
 72
28
 73
24
 74
0
 42
0.0000001
 43
0.0000001
 44
0.0000000001
 40
0.0
 40
0.0
 40
0.0
 40
0.0
 40
0.062749486
 40
0.125851903
 40
0.1890476271
 40
0.2521138426
 40
0.3148793947
 40
0.3772413682
 40
0.4391834863
 40
0.5007958214
 40
0.5623390439
 40
0.6241978488
 40
0.6865329843
 40
0.7178677341
 40
0.7492815928
 40
0.7807410348
 40
0.7964755616
 40
0.8122068825
 40
0.8436491395
 40
0.875049763
 40
0.9063941242
 40
0.9376714733
 40
1.0
 40
1.0
 40
1.0
 40
1.0
 10
3.8801676564
 20
5.4327539457
 30
0.0
 10
3.8700232622
 20
5.4341970196
 30
0.0
 10
3.8495694792
 20
5.4363831796
 30
0.0
 10
3.8186952971
 20
5.4375083435
 30
0.0
 10
3.7877649835
 20
5.4364072757
 30
0.0
 10
3.7570570184
 20
5.4329914591
 30
0.0
 10
3.7268473859
 20
5.4271715142
 30
0.0
 10
3.6974127419
 20
5.4188557924
 30
0.0
 10
3.669031562
 20
5.4079519445
 30
0.0
 10
3.6419743725
 20
5.3943565207
 30
0.0
 10
3.6165273487
 20
5.3779793336
 30
0.0
 10
3.5925388129
 20
5.3593716459
 30
0.0
 10
3.5735878331
 20
5.3424402928
 30
0.0
 10
3.558893754
 20
5.3282515687
 30
0.0
 10
3.5480603584
 20
5.3173280426
 30
0.0
 10
3.5391821323
 20
5.3080568918
 30
0.0
 10
3.5321499238
 20
5.3005649368
 30
0.0
 10
3.5251643817
 20
5.2930332775
 30
0.0
 10
3.5165333472
 20
5.2835389968
 30
0.0
 10
3.5063653724
 20
5.2719986727
 30
0.0
 10
3.4964224417
 20
5.260298631
 30
0.0
 10
3.4835265057
 20
5.2444865003
 30
0.0
 10
3.4742676891
 20
5.2323140937
 30
0.0
 10
3.4683316748
 20
5.2240466289
 30
0.0
  0
SPLINE
  5
2A5
100
AcDbEntity
  8
0
100
AcDbSpline
 62
7
  6
CONTINUOUS
 70
0
 71
3
 72
37
 73
33
 74
0
 42
0.0000001
 43
0.0000001
 44
0.0000000001
 40
0.0
 40
0.0
 40
0.0
 40
0.0
 40
0.0613893422
 40
0.1241437853
 40
0.1875561341
 40
0.2510445031
 40
0.3141831956
 40
0.3455564686
 40
0.3767866266
 40
0.4078959072
 40
0.4389307551
 40
0.4544445124
 40
0.4699688851
 40
0.5010711571
 40
0.5322671383
 40
0.5635529297
 40
0.6262446438
 40
0.6888209788
 40
0.7200309466
 40
0.7511818655
 40
0.7667361557
 40
0.7822751353
 40
0.7977985643
 40
0.813308946
 40
0.8288161477
 40
0.8443282666
 40
0.8753835251
 40
0.9064869519
 40
0.9376281748
 40
0.9687960444
 40
0.9843917897
 40
1.0
 40
1.0
 40
1.0
 40
1.0
 10
3.8485100604
 20
5.7237703304
 30
0.0
 10
3.8512832549
 20
5.732826131
 30
0.0
 10
3.856338122
 20
5.7513142798
 30
0.0
 10
3.8621601148
 20
5.779679519
 30
0.0
 10
3.8659796798
 20
5.8087175133
 30
0.0
 10
3.8674357845
 20
5.8380349207
 30
0.0
 10
3.8663690288
 20
5.8624334094
 30
0.0
 10
3.8639473985
 20
5.8816897886
 30
0.0
 10
3.8613081628
 20
5.8959137619
 30
0.0
 10
3.8577956562
 20
5.9098944455
 30
0.0
 10
3.8540999424
 20
5.9213020275
 30
0.0
 10
3.8506642613
 20
5.9302428957
 30
0.0
 10
3.846896507
 20
5.9390603565
 30
0.0
 10
3.8415788041
 20
5.9498367535
 30
0.0
 10
3.8343175916
 20
5.9623278063
 30
0.0
 10
3.8235565173
 20
5.9783763734
 30
0.0
 10
3.8083104633
 20
5.9971817074
 30
0.0
 10
3.7911357618
 20
6.0142142297
 30
0.0
 10
3.77641058
 20
6.0266630375
 30
0.0
 10
3.7668290397
 20
6.0339319886
 30
0.0
 10
3.7589544388
 20
6.0394293627
 30
0.0
 10
3.752950257
 20
6.043389795
 30
0.0
 10
3.7468493065
 20
6.0471866072
 30
0.0
 10
3.740654862
 20
6.0508189977
 30
0.0
 10
3.7343819131
 20
6.0543099923
 30
0.0
 10
3.7259271776
 20
6.0588086656
 30
0.0
 10
3.7152227166
 20
6.0641966532
 30
0.0
 10
3.702267872
 20
6.0704702172
 30
0.0
 10
3.6892939403
 20
6.0767441654
 30
0.0
 10
3.6785484487
 20
6.0821306191
 30
0.0
 10
3.6700408474
 20
6.086627406
 30
0.0
 10
3.6658268989
 20
6.0889556771
 30
0.0
 10
3.6637303978
 20
6.0901401697
 30
0.0
  0
SPLINE
  5
2A6
100
AcDbEntity
  8
0
100
AcDbSpline
 62
7
  6
CONTINUOUS
 70
0
 71
3
 72
28
 73
24
 74
0
 42
0.0000001
 43
0.0000001
 44
0.0000000001
 40
0.0
 40
0.0
 40
0.0
 40
0.0
 40
0.0635538314
 40
0.1279115294
 40
0.1924951528
 40
0.2567898004
 40
0.320386727
 40
0.3830474103
 40
0.4140051517
 40
0.4447197623
 40
0.4752158595
 40
0.5055341065
 40
0.5206455681
 40
0.535735913
 40
0.5658896199
 40
0.5960701513
 40
0.626334439
 40
0.6872546715
 40
0.7488543484
 40
0.8111336932
 40
0.8739440795
 40
0.9370189775
 40
1.0
 40
1.0
 40
1.0
 40
1.0
 10
4.2516241067
 20
5.9963993749
 30
0.0
 10
4.2427595381
 20
5.9906139186
 30
0.0
 10
4.2250463599
 20
5.9787711882
 30
0.0
 10
4.1989229254
 20
5.9601729473
 30
0.0
 10
4.1734118283
 20
5.9405346387
 30
0.0
 10
4.1489286461
 20
5.9198168334
 30
0.0
 10
4.1258845257
 20
5.8979646045
 30
0.0
 10
4.1081576588
 20
5.8786527449
 30
0.0
 10
4.0951355526
 20
5.8625430294
 30
0.0
 10
4.0860349107
 20
5.8501725458
 30
0.0
 10
4.0776146498
 20
5.8374562022
 30
0.0
 10
4.0712012885
 20
5.8265487477
 30
0.0
 10
4.0664689032
 20
5.8176470626
 30
0.0
 10
4.0620147005
 20
5.8086335032
 30
0.0
 10
4.0569471308
 20
5.7971301372
 30
0.0
 10
4.0516386158
 20
5.7829968574
 30
0.0
 10
4.0455317021
 20
5.7637187795
 30
0.0
 10
4.0396549474
 20
5.7389177379
 30
0.0
 10
4.0351439604
 20
5.7084389039
 30
0.0
 10
4.0328592196
 20
5.6774040528
 30
0.0
 10
4.0325101261
 20
5.646048466
 30
0.0
 10
4.0338084446
 20
5.6146062428
 30
0.0
 10
4.0355873892
 20
5.5936797317
 30
0.0
 10
4.0366622397
 20
5.5832448846
 30
0.0
  0
SPLINE
  5
2A7
100
AcDbEntity
  8
0
100
AcDbSpline
 62
7
  6
CONTINUOUS
 70
0
 71
3
 72
21
 73
17
 74
0
 42
0.0000001
 43
0.0000001
 44
0.0000000001
 40
0.0
 40
0.0
 40
0.0
 40
0.0
 40
0.1240598666
 40
0.248429775
 40
0.3106539887
 40
0.3728649526
 40
0.4350546893
 40
0.4972283593
 40
0.5594056144
 40
0.621621921
 40
0.6839298127
 40
0.7464000159
 40
0.8091223878
 40
0.8722065969
 40
0.9357824777
 40
1.0
 40
1.0
 40
1.0
 40
1.0
 10
3.788993525
 20
6.2044384934
 30
0.0
 10
3.804137158
 20
6.1906557941
 30
0.0
 10
3.8355916612
 20
6.1642687287
 30
0.0
 10
3.8775468253
 20
6.1346764487
 30
0.0
 10
3.912607254
 20
6.1132709061
 30
0.0
 10
3.9396105023
 20
6.098426273
 30
0.0
 10
3.9672734674
 20
6.084868913
 30
0.0
 10
3.9955571747
 20
6.0726710569
 30
0.0
 10
4.0244220149
 20
6.0619054256
 30
0.0
 10
4.0538285079
 20
6.0526447657
 30
0.0
 10
4.0837370461
 20
6.0449619803
 30
0.0
 10
4.1141079606
 20
6.038930094
 30
0.0
 10
4.1449012859
 20
6.0346222312
 30
0.0
 10
4.1760773935
 20
6.0321116312
 30
0.0
 10
4.2075944407
 20
6.0314714155
 30
0.0
 10
4.2286854973
 20
6.0323355195
 30
0.0
 10
4.2392575424
 20
6.033096351
 30
0.0
  0
SPLINE
  5
2A8
100
AcDbEntity
  8
0
100
AcDbSpline
 62
7
  6
CONTINUOUS
 70
0
 71
3
 72
23
 73
19
 74
0
 42
0.0000001
 43
0.0000001
 44
0.0000000001
 40
0.0
 40
0.0
 40
0.0
 40
0.0
 40
0.0623919881
 40
0.1249625626
 40
0.1875010456
 40
0.2499821432
 40
0.3124605511
 40
0.3749695682
 40
0.4374815902
 40
0.4999996722
 40
0.5625177889
 40
0.6250298055
 40
0.6875387283
 40
0.7500170108
 40
0.8124980719
 40
0.8750368704
 40
0.9376079184
 40
1.0
 40
1.0
 40
1.0
 40
1.0
 10
4.0665904283
 20
4.9577178338
 30
0.0
 10
4.0676902102
 20
4.9567908092
 30
0.0
 10
4.0700289149
 20
4.9550894081
 30
0.0
 10
4.0738573409
 20
4.953052984
 30
0.0
 10
4.0779405659
 20
4.9515829852
 30
0.0
 10
4.0821898895
 20
4.9507132153
 30
0.0
 10
4.0865198625
 20
4.9504651109
 30
0.0
 10
4.0908407374
 20
4.9508463351
 30
0.0
 10
4.0950625108
 20
4.9518480977
 30
0.0
 10
4.099091214
 20
4.953459787
 30
0.0
 10
4.1028445646
 20
4.955637018
 30
0.0
 10
4.1062369191
 20
4.9583423415
 30
0.0
 10
4.1092020178
 20
4.9615083153
 30
0.0
 10
4.1116774509
 20
4.965069544
 30
0.0
 10
4.1136139294
 20
4.9689506903
 30
0.0
 10
4.1149755621
 20
4.9730713352
 30
0.0
 10
4.115734222
 20
4.9773408188
 30
0.0
 10
4.1158375685
 20
4.9802311045
 30
0.0
 10
4.1157862028
 20
4.9816685545
 30
0.0
  0
SPLINE
  5
2A9
100
AcDbEntity
  8
0
100
AcDbSpline
 62
7
  6
CONTINUOUS
 70
0
 71
3
 72
82
 73
78
 74
0
 42
0.0000001
 43
0.0000001
 44
0.0000000001
 40
0.0
 40
0.0
 40
0.0
 40
0.0
 40
0.0155149888
 40
0.0310645107
 40
0.0466928552
 40
0.0624006646
 40
0.0781555134
 40
0.0860339736
 40
0.0939021011
 40
0.1017535061
 40
0.1095882378
 40
0.1252126224
 40
0.1563259362
 40
0.1873870598
 40
0.2029667348
 40
0.2185864891
 40
0.2342160771
 40
0.249829635
 40
0.2576246391
 40
0.2654089745
 40
0.273181397
 40
0.2809418913
 40
0.2886959008
 40
0.2964505327
 40
0.3119847897
 40
0.3275852636
 40
0.3354195656
 40
0.3432799227
 40
0.3511679672
 40
0.35907932
 40
0.3749330232
 40
0.3907613848
 40
0.4064940969
 40
0.4220868846
 40
0.4298297359
 40
0.4375422635
 40
0.4452344162
 40
0.4529212312
 40
0.4567692193
 40
0.4606240419
 40
0.468359993
 40
0.4761338014
 40
0.483944354
 40
0.4996524111
 40
0.5154264253
 40
0.5311725731
 40
0.5468390426
 40
0.5624645667
 40
0.5780826267
 40
0.5937124094
 40
0.6093600903
 40
0.6250195419
 40
0.6406788426
 40
0.6563301563
 40
0.6719714826
 40
0.6876075447
 40
0.7032505863
 40
0.7189090942
 40
0.7345719937
 40
0.7502269318
 40
0.765864299
 40
0.7814786748
 40
0.7970737491
 40
0.8126654473
 40
0.8282703997
 40
0.8438920182
 40
0.8594987129
 40
0.8672937701
 40
0.8750843268
 40
0.8906628847
 40
0.906258881
 40
0.9218696215
 40
0.9374704818
 40
0.9530574608
 40
0.9686508411
 40
0.9842961192
 40
1.0
 40
1.0
 40
1.0
 40
1.0
 10
3.106729509
 20
4.8710383093
 30
0.0
 10
3.1151792136
 20
4.8713749517
 30
0.0
 10
3.1320728467
 20
4.8728403947
 30
0.0
 10
3.1571942712
 20
4.8770367539
 30
0.0
 10
3.1820936826
 20
4.8828489135
 30
0.0
 10
3.2067797507
 20
4.8899024669
 30
0.0
 10
3.2271833227
 20
4.8965058355
 30
0.0
 10
3.2434338685
 20
4.9020486797
 30
0.0
 10
3.2555781161
 20
4.9062855701
 30
0.0
 10
3.2676823963
 20
4.9105641782
 30
0.0
 10
3.2837409381
 20
4.9163405373
 30
0.0
 10
3.3116301562
 20
4.9266831412
 30
0.0
 10
3.3509970788
 20
4.9424763225
 30
0.0
 10
3.3894633137
 20
4.9603368969
 30
0.0
 10
3.4194508697
 20
4.9762370266
 30
0.0
 10
3.4415315091
 20
4.9890539403
 30
0.0
 10
3.4630844089
 20
5.0027750839
 30
0.0
 10
3.4805192783
 20
5.0149862641
 30
0.0
 10
3.4940905466
 20
5.0252294858
 30
0.0
 10
3.5040588317
 20
5.0331456452
 30
0.0
 10
3.5138080006
 20
5.0413009821
 30
0.0
 10
3.5233241083
 20
5.0497021807
 30
0.0
 10
3.5326155867
 20
5.0583366889
 30
0.0
 10
3.5447338308
 20
5.0701466289
 30
0.0
 10
3.5594195916
 20
5.0854403788
 30
0.0
 10
3.5735532457
 20
5.1013005936
 30
0.0
 10
3.5846110494
 20
5.1142887279
 30
0.0
 10
3.5928133106
 20
5.1241857008
 30
0.0
 10
3.6009244032
 20
5.1342114036
 30
0.0
 10
3.6116631803
 20
5.1477143525
 30
0.0
 10
3.625005826
 20
5.1646754184
 30
0.0
 10
3.6412068124
 20
5.1848121957
 30
0.0
 10
3.6579011418
 20
5.2043602803
 30
0.0
 10
3.6725068375
 20
5.2198750304
 30
0.0
 10
3.6847274377
 20
5.2315864391
 30
0.0
 10
3.6941757397
 20
5.2399530966
 30
0.0
 10
3.7039635077
 20
5.2478726004
 30
0.0
 10
3.7124310311
 20
5.2540558204
 30
0.0
 10
3.7194016933
 20
5.258723378
 30
0.0
 10
3.7265249791
 20
5.2632051148
 30
0.0
 10
3.7356967403
 20
5.2684399821
 30
0.0
 10
3.7470643644
 20
5.2741396924
 30
0.0
 10
3.7626870583
 20
5.2809985199
 30
0.0
 10
3.782901608
 20
5.2881727724
 30
0.0
 10
3.8078486883
 20
5.2946353263
 30
0.0
 10
3.8332101217
 20
5.2990651659
 30
0.0
 10
3.8587514073
 20
5.3015453346
 30
0.0
 10
3.8843325544
 20
5.3021787732
 30
0.0
 10
3.909875521
 20
5.3010862626
 30
0.0
 10
3.9353086305
 20
5.2983860436
 30
0.0
 10
3.9605603041
 20
5.2942005549
 30
0.0
 10
3.985560209
 20
5.2886347171
 30
0.0
 10
4.0102065999
 20
5.2816564504
 30
0.0
 10
4.0343921273
 20
5.2732455143
 30
0.0
 10
4.058008581
 20
5.263378272
 30
0.0
 10
4.0809481758
 20
5.2520329449
 30
0.0
 10
4.1030945717
 20
5.2391861405
 30
0.0
 10
4.1243233504
 20
5.2248468855
 30
0.0
 10
4.1445299084
 20
5.2090892843
 30
0.0
 10
4.1635942129
 20
5.19198373
 30
0.0
 10
4.1813964032
 20
5.1736040425
 30
0.0
 10
4.1978157697
 20
5.1540200926
 30
0.0
 10
4.2127390388
 20
5.1333037745
 30
0.0
 10
4.2261107711
 20
5.1115601263
 30
0.0
 10
4.237875113
 20
5.0888905757
 30
0.0
 10
4.2479683615
 20
5.0654188089
 30
0.0
 10
4.2547724218
 20
5.0452364722
 30
0.0
 10
4.2591032136
 20
5.0287902888
 30
0.0
 10
4.2626421373
 20
5.0121710524
 30
0.0
 10
4.2655115042
 20
4.9910906425
 30
0.0
 10
4.2665330723
 20
4.9655752766
 30
0.0
 10
4.2651956949
 20
4.9400599357
 30
0.0
 10
4.2613694954
 20
4.9147967361
 30
0.0
 10
4.25491765
 20
4.8900771561
 30
0.0
 10
4.2457344854
 20
4.8662024278
 30
0.0
 10
4.2337684278
 20
4.8435217849
 30
0.0
 10
4.2239355221
 20
4.8294734267
 30
0.0
 10
4.2185390115
 20
4.8228296048
 30
0.0
  0
SPLINE
  5
2AA
100
AcDbEntity
  8
0
100
AcDbSpline
 62
7
  6
CONTINUOUS
 70
0
 71
3
 72
57
 73
53
 74
0
 42
0.0000001
 43
0.0000001
 44
0.0000000001
 40
0.0
 40
0.0
 40
0.0
 40
0.0
 40
0.0077868073
 40
0.0155437035
 40
0.0194139691
 40
0.0232818619
 40
0.0310200832
 40
0.0387749944
 40
0.0465575323
 40
0.0622255259
 40
0.0780451683
 40
0.0939848208
 40
0.1099755821
 40
0.1259195496
 40
0.1417338684
 40
0.157430615
 40
0.1730430651
 40
0.1886089126
 40
0.2041702349
 40
0.2197691641
 40
0.2510640328
 40
0.2667349315
 40
0.2823841931
 40
0.2901934534
 40
0.2979901772
 40
0.3135676131
 40
0.3291525144
 40
0.3447569126
 40
0.3603759973
 40
0.3681865954
 40
0.3759951367
 40
0.3916044525
 40
0.4072034361
 40
0.4227925617
 40
0.4383730907
 40
0.4539473829
 40
0.469519206
 40
0.4850940431
 40
0.5006788038
 40
0.5162758466
 40
0.5318839469
 40
0.5631257008
 40
0.594391255
 40
0.6256634034
 40
0.6569224544
 40
0.6881466083
 40
0.7193212068
 40
0.7504713814
 40
0.8127891921
 40
0.8751858527
 40
0.9376187569
 40
1.0
 40
1.0
 40
1.0
 40
1.0
 10
3.8088090468
 20
4.8996516502
 30
0.0
 10
3.8075408321
 20
4.9010889829
 30
0.0
 10
3.8049725785
 20
4.903926213
 30
0.0
 10
3.8016292209
 20
4.9073436464
 30
0.0
 10
3.7988570912
 20
4.9099643905
 30
0.0
 10
3.7960116855
 20
4.9124985282
 30
0.0
 10
3.7923073273
 20
4.9155022562
 30
0.0
 10
3.7876527054
 20
4.9188486473
 30
0.0
 10
3.7811762997
 20
4.9229856006
 30
0.0
 10
3.7726358631
 20
4.9275504496
 30
0.0
 10
3.7618703472
 20
4.9321026603
 30
0.0
 10
3.7507037891
 20
4.9358086298
 30
0.0
 10
3.7392779088
 20
4.9387302453
 30
0.0
 10
3.7277254279
 20
4.9409337964
 30
0.0
 10
3.716139373
 20
4.9424749064
 30
0.0
 10
3.7045633815
 20
4.943325022
 30
0.0
 10
3.6930179272
 20
4.9434701968
 30
0.0
 10
3.6815190823
 20
4.9428945091
 30
0.0
 10
3.670082981
 20
4.9415837016
 30
0.0
 10
3.6549481064
 20
4.9388327644
 30
0.0
 10
3.6400831959
 20
4.9346226923
 30
0.0
 10
3.6256932244
 20
4.9290809407
 30
0.0
 10
3.6169241066
 20
4.9250788138
 30
0.0
 10
3.6100761354
 20
4.9215692721
 30
0.0
 10
3.6033521986
 20
4.9178638638
 30
0.0
 10
3.5951434889
 20
4.9128967465
 30
0.0
 10
3.5855518986
 20
4.9065258055
 30
0.0
 10
3.5761487962
 20
4.8998641302
 30
0.0
 10
3.5684098461
 20
4.8941683122
 30
0.0
 10
3.5622380935
 20
4.8895811586
 30
0.0
 10
3.5560685288
 20
4.8849950677
 30
0.0
 10
3.5483540724
 20
4.8792735464
 30
0.0
 10
3.5390741064
 20
4.8724477151
 30
0.0
 10
3.5297553373
 20
4.8656869049
 30
0.0
 10
3.5203801589
 20
4.8590148607
 30
0.0
 10
3.5109309679
 20
4.8524553123
 30
0.0
 10
3.5013900084
 20
4.8460322497
 30
0.0
 10
3.4917402166
 20
4.8397687876
 30
0.0
 10
3.481963929
 20
4.8336926525
 30
0.0
 10
3.4720602952
 20
4.8278102846
 30
0.0
 10
3.4586909222
 20
4.8202213496
 30
0.0
 10
3.4416930277
 20
4.8112191691
 30
0.0
 10
3.4208911233
 20
4.8011964018
 30
0.0
 10
3.3997262582
 20
4.7919540879
 30
0.0
 10
3.3782468497
 20
4.7834969399
 30
0.0
 10
3.3564993129
 20
4.7758270452
 30
0.0
 10
3.3345169498
 20
4.7689499026
 30
0.0
 10
3.3049581033
 20
4.7607065436
 30
0.0
 10
3.2676111147
 20
4.7518537752
 30
0.0
 10
3.2224632762
 20
4.7426731606
 30
0.0
 10
3.1771959351
 20
4.7340344821
 30
0.0
 10
3.1470601404
 20
4.7280355162
 30
0.0
 10
3.1320429998
 20
4.7248267846
 30
0.0
  0
SPLINE
  5
2AB
100
AcDbEntity
  8
0
100
AcDbSpline
 62
7
  6
CONTINUOUS
 70
0
 71
3
 72
37
 73
33
 74
0
 42
0.0000001
 43
0.0000001
 44
0.0000000001
 40
0.0
 40
0.0
 40
0.0
 40
0.0
 40
0.0307282628
 40
0.0614987516
 40
0.0923336416
 40
0.1232331186
 40
0.1850985121
 40
0.2470090186
 40
0.2780020885
 40
0.3090259516
 40
0.3711752296
 40
0.4336578305
 40
0.465126939
 40
0.4967915993
 40
0.5127255384
 40
0.5287336033
 40
0.5609156228
 40
0.5932246838
 40
0.6255225483
 40
0.6894808805
 40
0.7210158816
 40
0.7521677445
 40
0.7829750246
 40
0.7982945813
 40
0.8135860038
 40
0.828882012
 40
0.8442114823
 40
0.8750275037
 40
0.9061082737
 40
0.9374004132
 40
0.9687649597
 40
1.0
 40
1.0
 40
1.0
 40
1.0
 10
4.1157862253
 20
4.9816685553
 30
0.0
 10
4.1156181863
 20
4.9863716648
 30
0.0
 10
4.1148010835
 20
4.9957736584
 30
0.0
 10
4.1121964113
 20
5.0096937831
 30
0.0
 10
4.1082734152
 20
5.023330007
 30
0.0
 10
4.1013678735
 20
5.0409791705
 30
0.0
 10
4.089739294
 20
5.0617765865
 30
0.0
 10
4.0745128549
 20
5.0801329052
 30
0.0
 10
4.0604239008
 20
5.0928883597
 30
0.0
 10
4.0451754797
 20
5.1042911779
 30
0.0
 10
4.0241665313
 20
5.115857719
 30
0.0
 10
4.0013179659
 20
5.1233844276
 30
0.0
 10
3.9823545417
 20
5.1267663703
 30
0.0
 10
3.970261956
 20
5.1277340572
 30
0.0
 10
3.9605172298
 20
5.1277909888
 30
0.0
 10
3.9507023574
 20
5.1273597868
 30
0.0
 10
3.9384378095
 20
5.1259212388
 30
0.0
 10
3.9239204968
 20
5.1228126091
 30
0.0
 10
3.9051163188
 20
5.1169070804
 30
0.0
 10
3.8873162489
 20
5.1084113448
 30
0.0
 10
3.8712893262
 20
5.0974328874
 30
0.0
 10
3.8604189089
 20
5.0880638369
 30
0.0
 10
3.8524208168
 20
5.0792941531
 30
0.0
 10
3.8467864959
 20
5.0717544496
 30
0.0
 10
3.8429663349
 20
5.0658452357
 30
0.0
 10
3.8395613246
 20
5.0596860767
 30
0.0
 10
3.8355504665
 20
5.0511677105
 30
0.0
 10
3.8315160292
 20
5.0400176296
 30
0.0
 10
3.8281707763
 20
5.0261171242
 30
0.0
 10
3.8262198295
 20
5.0118717283
 30
0.0
 10
3.8255766335
 20
4.9974886792
 30
0.0
 10
3.8259649266
 20
4.9878962744
 30
0.0
 10
3.8263535912
 20
4.9831283648
 30
0.0
  0
SPLINE
  5
2AC
100
AcDbEntity
  8
0
100
AcDbSpline
 62
7
  6
CONTINUOUS
 70
0
 71
3
 72
22
 73
18
 74
0
 42
0.0000001
 43
0.0000001
 44
0.0000000001
 40
0.0
 40
0.0
 40
0.0
 40
0.0
 40
0.0624163961
 40
0.1250178518
 40
0.1876039106
 40
0.2501356808
 40
0.3126452128
 40
0.3751662893
 40
0.4376828242
 40
0.5001965374
 40
0.5627110388
 40
0.625225564
 40
0.6877431523
 40
0.7502387335
 40
0.8127422867
 40
0.8753013708
 40
1.0
 40
1.0
 40
1.0
 40
1.0
 10
4.4786587093
 20
5.3537321039
 30
0.0
 10
4.4800744667
 20
5.3536712668
 30
0.0
 10
4.4829225388
 20
5.3537498608
 30
0.0
 10
4.4871362949
 20
5.3544555184
 30
0.0
 10
4.4912123935
 20
5.3557489655
 30
0.0
 10
4.4950626589
 20
5.3576043543
 30
0.0
 10
4.4986103782
 20
5.3599857878
 30
0.0
 10
4.5017805917
 20
5.3628499498
 30
0.0
 10
4.5045123627
 20
5.3661353904
 30
0.0
 10
4.5067402732
 20
5.3697812161
 30
0.0
 10
4.5084260097
 20
5.3737071809
 30
0.0
 10
4.5095269356
 20
5.377835621
 30
0.0
 10
4.5100290267
 20
5.3820780499
 30
0.0
 10
4.5099214424
 20
5.3863482015
 30
0.0
 10
4.5092077096
 20
5.390561867
 30
0.0
 10
4.5074786907
 20
5.395975887
 30
0.0
 10
4.5053302878
 20
5.3997290557
 30
0.0
 10
4.5035957869
 20
5.4019665839
 30
0.0
  0
SPLINE
  5
2AD
100
AcDbEntity
  8
0
100
AcDbSpline
 62
7
  6
CONTINUOUS
 70
0
 71
3
 72
43
 73
39
 74
0
 42
0.0000001
 43
0.0000001
 44
0.0000000001
 40
0.0
 40
0.0
 40
0.0
 40
0.0
 40
0.0321453454
 40
0.0641040518
 40
0.0957356849
 40
0.1269585287
 40
0.157766559
 40
0.1882484334
 40
0.2186061935
 40
0.2338430518
 40
0.2491569344
 40
0.2645442267
 40
0.2799963541
 40
0.3110381078
 40
0.3421982433
 40
0.3577991835
 40
0.3733962978
 40
0.3889824455
 40
0.4045573862
 40
0.4357198337
 40
0.4669947626
 40
0.4984234228
 40
0.530001152
 40
0.5616909655
 40
0.5934366831
 40
0.6251755823
 40
0.6568508324
 40
0.6884387202
 40
0.7199682239
 40
0.7514523428
 40
0.7828819239
 40
0.8142341014
 40
0.8454807581
 40
0.876597056
 40
0.9075701357
 40
0.938412675
 40
0.9691936666
 40
1.0
 40
1.0
 40
1.0
 40
1.0
 10
4.54642745
 20
5.6222002798
 30
0.0
 10
4.5417809291
 20
5.6241640022
 30
0.0
 10
4.5324443351
 20
5.6279170317
 30
0.0
 10
4.5182601434
 20
5.6328866473
 30
0.0
 10
4.5039555977
 20
5.6370142693
 30
0.0
 10
4.4895759277
 20
5.6401214578
 30
0.0
 10
4.4751647555
 20
5.642027501
 30
0.0
 10
4.4607681356
 20
5.6425481227
 30
0.0
 10
4.4488321694
 20
5.6416716314
 30
0.0
 10
4.4393985148
 20
5.6401011848
 30
0.0
 10
4.4323700542
 20
5.6384778704
 30
0.0
 10
4.4254195042
 20
5.6364262208
 30
0.0
 10
4.4162797979
 20
5.633131367
 30
0.0
 10
4.4051931128
 20
5.6280047131
 30
0.0
 10
4.394745176
 20
5.6216322905
 30
0.0
 10
4.3868602577
 20
5.6158289969
 30
0.0
 10
4.3812097044
 20
5.6111347574
 30
0.0
 10
4.3758526975
 20
5.6061137155
 30
0.0
 10
4.3691356867
 20
5.5989979875
 30
0.0
 10
4.3615420225
 20
5.5893571089
 30
0.0
 10
4.35377332
 20
5.5768085024
 30
0.0
 10
4.3473626692
 20
5.5634440796
 30
0.0
 10
4.3423331385
 20
5.5494341055
 30
0.0
 10
4.3387076787
 20
5.5349467118
 30
0.0
 10
4.3365108395
 20
5.5201498468
 30
0.0
 10
4.3357679221
 20
5.5052113351
 30
0.0
 10
4.3365064475
 20
5.4902958885
 30
0.0
 10
4.3387534836
 20
5.475565688
 30
0.0
 10
4.3424282544
 20
5.4611583967
 30
0.0
 10
4.3474531441
 20
5.447192137
 30
0.0
 10
4.3537511134
 20
5.4337833786
 30
0.0
 10
4.3612460976
 20
5.421048583
 30
0.0
 10
4.3698625814
 20
5.4091043974
 30
0.0
 10
4.3795260587
 20
5.398068352
 30
0.0
 10
4.3901618017
 20
5.388056212
 30
0.0
 10
4.4017046107
 20
5.3791886304
 30
0.0
 10
4.4140561686
 20
5.3715403074
 30
0.0
 10
4.4227578649
 20
5.3672911892
 30
0.0
 10
4.4272024438
 20
5.3653895316
 30
0.0
  0
SPLINE
  5
2AE
100
AcDbEntity
  8
0
100
AcDbSpline
 62
7
  6
CONTINUOUS
 70
0
 71
3
 72
55
 73
51
 74
0
 42
0.0000001
 43
0.0000001
 44
0.0000000001
 40
0.0
 40
0.0
 40
0.0
 40
0.0
 40
0.0623590448
 40
0.1247609939
 40
0.1871722662
 40
0.2495915318
 40
0.3120544982
 40
0.3433195218
 40
0.3745885986
 40
0.4058425497
 40
0.4370657371
 40
0.4682463875
 40
0.4838187382
 40
0.4993779896
 40
0.5149239125
 40
0.5304582769
 40
0.5615383115
 40
0.5771087998
 40
0.5927132935
 40
0.6083610883
 40
0.6162040147
 40
0.6240592226
 40
0.6397775528
 40
0.6554581416
 40
0.6710600142
 40
0.6865723687
 40
0.6943043928
 40
0.7020303131
 40
0.7097604721
 40
0.7175030811
 40
0.7330457022
 40
0.7486866817
 40
0.7644245152
 40
0.7802352634
 40
0.7881557425
 40
0.7960775019
 40
0.8119011917
 40
0.8276714938
 40
0.8433686607
 40
0.8589912611
 40
0.8745597902
 40
0.8901202086
 40
0.8979211593
 40
0.9057453822
 40
0.9214476709
 40
0.9371964715
 40
0.9529549174
 40
0.9686883625
 40
0.9843681408
 40
1.0
 40
1.0
 40
1.0
 40
1.0
 10
4.7277024367
 20
6.2673055999
 30
0.0
 10
4.7248874412
 20
6.253606906
 30
0.0
 10
4.7188957574
 20
6.2262720038
 30
0.0
 10
4.7086442731
 20
6.1855592479
 30
0.0
 10
4.6969426944
 20
6.1452222902
 30
0.0
 10
4.683611221
 20
6.1053776607
 30
0.0
 10
4.6709976632
 20
6.0726940052
 30
0.0
 10
4.6599253715
 20
6.0469380004
 30
0.0
 10
4.6511103203
 20
6.0278380529
 30
0.0
 10
4.6417731283
 20
6.0089981134
 30
0.0
 10
4.6319002371
 20
5.9904555295
 30
0.0
 10
4.623211352
 20
5.9752759469
 30
0.0
 10
4.6159783443
 20
5.9633183873
 30
0.0
 10
4.6104131572
 20
5.9544515571
 30
0.0
 10
4.6047041495
 20
5.9456867615
 30
0.0
 10
4.5968924875
 20
5.9341399462
 30
0.0
 10
4.5888226464
 20
5.9227641516
 30
0.0
 10
4.5805969431
 20
5.9114830391
 30
0.0
 10
4.5743621911
 20
5.9030335582
 30
0.0
 10
4.5691378827
 20
5.8959923492
 30
0.0
 10
4.5649504604
 20
5.8903458028
 30
0.0
 10
4.5607594266
 20
5.8846822772
 30
0.0
 10
4.5555748862
 20
5.8775671186
 30
0.0
 10
4.5495816331
 20
5.8688938597
 30
0.0
 10
4.5439696109
 20
5.8600215468
 30
0.0
 10
4.5397358525
 20
5.8523996569
 30
0.0
 10
4.5367015742
 20
5.8461501272
 30
0.0
 10
4.5346251473
 20
5.841380671
 30
0.0
 10
4.5327489418
 20
5.8365265515
 30
0.0
 10
4.5304944011
 20
5.8299448861
 30
0.0
 10
4.5281205561
 20
5.8215361955
 30
0.0
 10
4.5259071686
 20
5.8112429201
 30
0.0
 10
4.5242428996
 20
5.8007872809
 30
0.0
 10
4.5232459323
 20
5.7919895102
 30
0.0
 10
4.5226414118
 20
5.7849163908
 30
0.0
 10
4.5221499853
 20
5.7778316372
 30
0.0
 10
4.5217550776
 20
5.7689763533
 30
0.0
 10
4.5217168461
 20
5.7583671652
 30
0.0
 10
4.522194506
 20
5.7478124259
 30
0.0
 10
4.5232702453
 20
5.7373454915
 30
0.0
 10
4.5250263763
 20
5.7270005226
 30
0.0
 10
4.5271245786
 20
5.7185156205
 30
0.0
 10
4.5292200216
 20
5.7118411091
 30
0.0
 10
4.5316083708
 20
5.705231952
 30
0.0
 10
4.5351200543
 20
5.6971421937
 30
0.0
 10
4.5401267922
 20
5.6878001954
 30
0.0
 10
4.5458894355
 20
5.678895554
 30
0.0
 10
4.5523642216
 20
5.6705138836
 30
0.0
 10
4.5595170123
 20
5.6627386087
 30
0.0
 10
4.5647110943
 20
5.6580031297
 30
0.0
 10
4.5673538908
 20
5.655699788
 30
0.0
  0
SPLINE
  5
2AF
100
AcDbEntity
  8
0
100
AcDbSpline
 62
7
  6
CONTINUOUS
 70
0
 71
3
 72
40
 73
36
 74
0
 42
0.0000001
 43
0.0000001
 44
0.0000000001
 40
0.0
 40
0.0
 40
0.0
 40
0.0
 40
0.0315995663
 40
0.0629948746
 40
0.0941807238
 40
0.1251872407
 40
0.1406538675
 40
0.1561115202
 40
0.1870552897
 40
0.218141565
 40
0.2494281339
 40
0.2809391816
 40
0.3126777538
 40
0.3445741135
 40
0.3764868131
 40
0.408272803
 40
0.4398137363
 40
0.4710418536
 40
0.5019682157
 40
0.5327506614
 40
0.5636708678
 40
0.5948804654
 40
0.6263861372
 40
0.6580786908
 40
0.6897595146
 40
0.7212330077
 40
0.752477056
 40
0.7835171563
 40
0.814396833
 40
0.8451796845
 40
0.8605636852
 40
0.875956506
 40
0.9067938996
 40
0.9377416987
 40
1.0
 40
1.0
 40
1.0
 40
1.0
 10
4.5035958061
 20
5.4019665987
 30
0.0
 10
4.501618532
 20
5.4045172613
 30
0.0
 10
4.4979464382
 20
5.4098181948
 30
0.0
 10
4.4933563574
 20
5.4182927108
 30
0.0
 10
4.4897705615
 20
5.4271751844
 30
0.0
 10
4.4876799327
 20
5.4348478319
 30
0.0
 10
4.486588239
 20
5.4410817176
 30
0.0
 10
4.4858954481
 20
5.4473661096
 30
0.0
 10
4.4857837014
 20
5.4553016904
 30
0.0
 10
4.4868106756
 20
5.4647988871
 30
0.0
 10
4.4889556509
 20
5.4741664116
 30
0.0
 10
4.4921751087
 20
5.4832908437
 30
0.0
 10
4.4964275644
 20
5.4920508474
 30
0.0
 10
4.5016390052
 20
5.5003239781
 30
0.0
 10
4.5077176361
 20
5.5079886348
 30
0.0
 10
4.5145749917
 20
5.5149156141
 30
0.0
 10
4.5221228657
 20
5.5209749348
 30
0.0
 10
4.5302737193
 20
5.5260353642
 30
0.0
 10
4.5389481629
 20
5.5299626809
 30
0.0
 10
4.5480565669
 20
5.5326243043
 30
0.0
 10
4.5574469075
 20
5.5341318499
 30
0.0
 10
4.5670146553
 20
5.5346089362
 30
0.0
 10
4.5766593273
 20
5.5341775759
 30
0.0
 10
4.5862814325
 20
5.532955496
 30
0.0
 10
4.5957880671
 20
5.5310606039
 30
0.0
 10
4.6051129408
 20
5.5285865499
 30
0.0
 10
4.61419226
 20
5.525520726
 30
0.0
 10
4.6229822207
 20
5.5218569481
 30
0.0
 10
4.6314414605
 20
5.5175858726
 30
0.0
 10
4.6381834021
 20
5.5135113875
 30
0.0
 10
4.6433625811
 20
5.5099443787
 30
0.0
 10
4.6483977459
 20
5.5061676661
 30
0.0
 10
4.6544181411
 20
5.5010656516
 30
0.0
 10
4.6634405704
 20
5.4921606398
 30
0.0
 10
4.6694721675
 20
5.4847425423
 30
0.0
 10
4.6731431395
 20
5.4795507468
 30
0.0
  0
SPLINE
  5
2B0
100
AcDbEntity
  8
0
100
AcDbSpline
 62
7
  6
CONTINUOUS
 70
0
 71
3
 72
24
 73
20
 74
0
 42
0.0000001
 43
0.0000001
 44
0.0000000001
 40
0.0
 40
0.0
 40
0.0
 40
0.0
 40
0.1255311036
 40
0.1883163189
 40
0.2510969732
 40
0.3138414453
 40
0.37649812
 40
0.4389975374
 40
0.4701634105
 40
0.5012571066
 40
0.5322724398
 40
0.5632105179
 40
0.6248744818
 40
0.6863444208
 40
0.7477911538
 40
0.8094746203
 40
0.8717512141
 40
0.9350762302
 40
1.0
 40
1.0
 40
1.0
 40
1.0
 10
5.2365302674
 20
5.0873167528
 30
0.0
 10
5.233450788
 20
5.0741040275
 30
0.0
 10
5.2298879893
 20
5.0540193686
 30
0.0
 10
5.2270749497
 20
5.0270226162
 30
0.0
 10
5.2258801806
 20
5.0066985919
 30
0.0
 10
5.2255521012
 20
4.986357782
 30
0.0
 10
5.2260409819
 20
4.96605109
 30
0.0
 10
5.2270885955
 20
4.9491848551
 30
0.0
 10
5.2282881798
 20
4.9357543692
 30
0.0
 10
5.2293587261
 20
4.9257301083
 30
0.0
 10
5.2306094189
 20
4.9157513817
 30
0.0
 10
5.2325428851
 20
4.9025312652
 30
0.0
 10
5.2355083614
 20
4.8861388343
 30
0.0
 10
5.2401028596
 20
4.8667153992
 30
0.0
 10
5.2458830186
 20
4.8476054185
 30
0.0
 10
5.2530028854
 20
4.8288562303
 30
0.0
 10
5.2616170471
 20
4.8105160488
 30
0.0
 10
5.2718778793
 20
4.7926369889
 30
0.0
 10
5.2797957822
 20
4.7812352931
 30
0.0
 10
5.2840435393
 20
4.7756504684
 30
0.0
  0
SPLINE
  5
2B1
100
AcDbEntity
  8
0
100
AcDbSpline
 62
7
  6
CONTINUOUS
 70
0
 71
3
 72
23
 73
19
 74
0
 42
0.0000001
 43
0.0000001
 44
0.0000000001
 40
0.0
 40
0.0
 40
0.0
 40
0.0
 40
0.0624953888
 40
0.1249525579
 40
0.1874807618
 40
0.2501087901
 40
0.3753751688
 40
0.5003780598
 40
0.5629271715
 40
0.6255165013
 40
0.6881042723
 40
0.7193744115
 40
0.7506107661
 40
0.781805243
 40
0.8129620969
 40
0.8752013783
 40
0.937468767
 40
1.0
 40
1.0
 40
1.0
 40
1.0
 10
4.903200258
 20
5.1566342161
 30
0.0
 10
4.9084889008
 20
5.1525168059
 30
0.0
 10
4.9194420066
 20
5.1447601416
 30
0.0
 10
4.9367989966
 20
5.134568419
 30
0.0
 10
4.9549235207
 20
5.1257826002
 30
0.0
 10
4.9799115717
 20
5.115884556
 30
0.0
 10
5.0123250807
 20
5.1067963092
 30
0.0
 10
5.0455619899
 20
5.1017433277
 30
0.0
 10
5.0723173599
 20
5.0996931706
 30
0.0
 10
5.0924458119
 20
5.0990351857
 30
0.0
 10
5.1092276621
 20
5.0991273397
 30
0.0
 10
5.1226379918
 20
5.0995312052
 30
0.0
 10
5.132677356
 20
5.0999825669
 30
0.0
 10
5.1426969913
 20
5.10058096
 30
0.0
 10
5.1560194662
 20
5.1016143429
 30
0.0
 10
5.1726232019
 20
5.1034118586
 30
0.0
 10
5.1924391554
 20
5.1065880517
 30
0.0
 10
5.2055117271
 20
5.1095140461
 30
0.0
 10
5.2120005613
 20
5.1112079722
 30
0.0
  0
SPLINE
  5
2B2
100
AcDbEntity
  8
0
100
AcDbSpline
 62
7
  6
CONTINUOUS
 70
0
 71
3
 72
15
 73
11
 74
0
 42
0.0000001
 43
0.0000001
 44
0.0000000001
 40
0.0
 40
0.0
 40
0.0
 40
0.0
 40
0.1296508031
 40
0.2544613472
 40
0.3760968051
 40
0.4963543154
 40
0.6170925631
 40
0.7401484515
 40
0.8672584446
 40
1.0
 40
1.0
 40
1.0
 40
1.0
 10
5.0167026762
 20
4.8958265544
 30
0.0
 10
5.0124089468
 20
4.8999532025
 30
0.0
 10
5.0035673689
 20
4.9076379053
 30
0.0
 10
4.9893128069
 20
4.917463187
 30
0.0
 10
4.9743647973
 20
4.9253184104
 30
0.0
 10
4.9587316845
 20
4.931192793
 30
0.0
 10
4.9424238549
 20
4.9350815854
 30
0.0
 10
4.925452572
 20
4.9369851916
 30
0.0
 10
4.9078292753
 20
4.9369094687
 30
0.0
 10
4.8959435353
 20
4.9355776709
 30
0.0
 10
4.889923189
 20
4.9346123513
 30
0.0
  0
SPLINE
  5
2B3
100
AcDbEntity
  8
0
100
AcDbSpline
 62
7
  6
CONTINUOUS
 70
0
 71
3
 72
15
 73
11
 74
0
 42
0.0000001
 43
0.0000001
 44
0.0000000001
 40
0.0
 40
0.0
 40
0.0
 40
0.0
 40
0.1343184375
 40
0.2623601902
 40
0.38576722
 40
0.5063709358
 40
0.626131423
 40
0.74704978
 40
0.8710710708
 40
1.0
 40
1.0
 40
1.0
 40
1.0
 10
5.06184155
 20
4.7644506473
 30
0.0
 10
5.0627120156
 20
4.7708743246
 30
0.0
 10
5.0638179567
 20
4.7835139981
 30
0.0
 10
5.0634218786
 20
4.8021660213
 30
0.0
 10
5.0609163051
 20
4.8199918358
 30
0.0
 10
5.0562937493
 20
4.8369784767
 30
0.0
 10
5.049553104
 20
4.8531123189
 30
0.0
 10
5.0406998728
 20
4.8683804933
 30
0.0
 10
5.0297472394
 20
4.8827729629
 30
0.0
 10
5.0212503006
 20
4.8915796847
 30
0.0
 10
5.0167026792
 20
4.8958265581
 30
0.0
  0
SPLINE
  5
2B4
100
AcDbEntity
  8
0
100
AcDbSpline
 62
7
  6
CONTINUOUS
 70
0
 71
3
 72
50
 73
46
 74
0
 42
0.0000001
 43
0.0000001
 44
0.0000000001
 40
0.0
 40
0.0
 40
0.0
 40
0.0
 40
0.0310898712
 40
0.0466649847
 40
0.0622565077
 40
0.0778621411
 40
0.0934771123
 40
0.1090926555
 40
0.1247019442
 40
0.1558872993
 40
0.1870497536
 40
0.2026491633
 40
0.2182778873
 40
0.2339211366
 40
0.2495561697
 40
0.2651712783
 40
0.2807675866
 40
0.2885640315
 40
0.2963628987
 40
0.3119757852
 40
0.3276187592
 40
0.343292188
 40
0.374681216
 40
0.4060218588
 40
0.4372385839
 40
0.4684690902
 40
0.499798902
 40
0.5312347017
 40
0.5469776449
 40
0.562720234
 40
0.5784469192
 40
0.5941457397
 40
0.6098160789
 40
0.6254593359
 40
0.6877876542
 40
0.7188905794
 40
0.7344460914
 40
0.7500106887
 40
0.781170797
 40
0.8123799906
 40
0.843633901
 40
0.8749194145
 40
0.9062160551
 40
0.937503721
 40
1.0
 40
1.0
 40
1.0
 40
1.0
 10
6.5092230546
 20
5.0229526333
 30
0.0
 10
6.5022610924
 20
5.02451485
 30
0.0
 10
6.4918389652
 20
5.0269857342
 30
0.0
 10
6.4780025252
 20
5.0305497567
 30
0.0
 10
6.4676440411
 20
5.033366109
 30
0.0
 10
6.4573162737
 20
5.036326436
 30
0.0
 10
6.4470277684
 20
5.039439921
 30
0.0
 10
6.436795909
 20
5.0427385191
 30
0.0
 10
6.4232583715
 20
5.0474193039
 30
0.0
 10
6.4065642152
 20
5.0538775523
 30
0.0
 10
6.3902912373
 20
5.0613434811
 30
0.0
 10
6.3776238508
 20
5.0680254167
 30
0.0
 10
6.3683136979
 20
5.0734199253
 30
0.0
 10
6.3592418063
 20
5.0792225092
 30
0.0
 10
6.3504650192
 20
5.085458715
 30
0.0
 10
6.3420436461
 20
5.0921510222
 30
0.0
 10
6.3353712152
 20
5.0981287852
 30
0.0
 10
6.3302753871
 20
5.1031579543
 30
0.0
 10
6.3253495145
 20
5.1083590054
 30
0.0
 10
6.3195185325
 20
5.1151752294
 30
0.0
 10
6.3130502246
 20
5.1237955377
 30
0.0
 10
6.3051263539
 20
5.1358171804
 30
0.0
 10
6.2965503162
 20
5.1516822238
 30
0.0
 10
6.2883758027
 20
5.1716740954
 30
0.0
 10
6.2822717661
 20
5.1923495246
 30
0.0
 10
6.2780584857
 20
5.2134808755
 30
0.0
 10
6.2755262834
 20
5.2349231846
 30
0.0
 10
6.274642423
 20
5.2529318902
 30
0.0
 10
6.274566818
 20
5.2673734222
 30
0.0
 10
6.274801558
 20
5.2782073127
 30
0.0
 10
6.2753007243
 20
5.2890217848
 30
0.0
 10
6.2760458151
 20
5.2998054069
 30
0.0
 10
6.2770453996
 20
5.3105496189
 30
0.0
 10
6.2795563711
 20
5.3318932548
 30
0.0
 10
6.2840383945
 20
5.3565801814
 30
0.0
 10
6.2905405393
 20
5.3807444802
 30
0.0
 10
6.2948493256
 20
5.3943612291
 30
0.0
 10
6.2995588742
 20
5.4078580662
 30
0.0
 10
6.3061738368
 20
5.424486674
 30
0.0
 10
6.315207762
 20
5.4439928338
 30
0.0
 10
6.3252785311
 20
5.4630168394
 30
0.0
 10
6.3363238836
 20
5.4815139861
 30
0.0
 10
6.3482825062
 20
5.4994453888
 30
0.0
 10
6.3654311057
 20
5.5224758388
 30
0.0
 10
6.3796879663
 20
5.5386819009
 30
0.0
 10
6.3897860548
 20
5.5488674272
 30
0.0
  0
SPLINE
  5
2B5
100
AcDbEntity
  8
0
100
AcDbSpline
 62
7
  6
CONTINUOUS
 70
0
 71
3
 72
48
 73
44
 74
0
 42
0.0000001
 43
0.0000001
 44
0.0000000001
 40
0.0
 40
0.0
 40
0.0
 40
0.0
 40
0.0622378747
 40
0.1246856884
 40
0.1870214972
 40
0.2182384274
 40
0.2494463722
 40
0.265029805
 40
0.2805884539
 40
0.3116555353
 40
0.3427173664
 40
0.3738381095
 40
0.4050750241
 40
0.4207539544
 40
0.4364802251
 40
0.4522560083
 40
0.4680600148
 40
0.4996373561
 40
0.5310457088
 40
0.5622262983
 40
0.5777572466
 40
0.5932774624
 40
0.6010461612
 40
0.608827371
 40
0.6244319341
 40
0.640092353
 40
0.6557999217
 40
0.687286156
 40
0.7030399705
 40
0.7187678476
 40
0.7344465247
 40
0.7500610106
 40
0.7656363734
 40
0.7812029008
 40
0.8123819676
 40
0.8436895106
 40
0.8751036494
 40
0.8908220164
 40
0.9065233017
 40
0.9221867051
 40
0.9378058965
 40
0.9689414999
 40
1.0
 40
1.0
 40
1.0
 40
1.0
 10
5.672133699
 20
6.2642318689
 30
0.0
 10
5.6615251795
 20
6.2546337056
 30
0.0
 10
5.6403872894
 20
6.2352862128
 30
0.0
 10
5.6066101342
 20
6.2085184301
 30
0.0
 10
5.5752567427
 20
6.1908083182
 30
0.0
 10
5.549026982
 20
6.1791910784
 30
0.0
 10
5.5322228396
 20
6.172901304
 30
0.0
 10
5.5186090323
 20
6.1684180877
 30
0.0
 10
5.5049165585
 20
6.1642910304
 30
0.0
 10
5.4876294831
 20
6.1597823535
 30
0.0
 10
5.4666414769
 20
6.1553901976
 30
0.0
 10
5.4454313976
 20
6.1519879953
 30
0.0
 10
5.4276028649
 20
6.1499550818
 30
0.0
 10
5.413249969
 20
6.1487917512
 30
0.0
 10
5.402423231
 20
6.1481471507
 30
0.0
 10
5.3915566578
 20
6.1477238964
 30
0.0
 10
5.37704002
 20
6.1474983586
 30
0.0
 10
5.3589226021
 20
6.1479581757
 30
0.0
 10
5.3373557754
 20
6.1500306642
 30
0.0
 10
5.3196701068
 20
6.1533194121
 30
0.0
 10
5.3058543489
 20
6.1570521961
 30
0.0
 10
5.297383466
 20
6.159876347
 30
0.0
 10
5.2907201317
 20
6.1624494972
 30
0.0
 10
5.2841255964
 20
6.1652443694
 30
0.0
 10
5.2760341722
 20
6.1691428646
 30
0.0
 10
5.2666080381
 20
6.1744224578
 30
0.0
 10
5.2544397151
 20
6.1822236588
 30
0.0
 10
5.2429513219
 20
6.1910809117
 30
0.0
 10
5.2322588473
 20
6.2008440587
 30
0.0
 10
5.2246635908
 20
6.2085869585
 30
0.0
 10
5.2175256176
 20
6.2167102173
 30
0.0
 10
5.2108696912
 20
6.2251882139
 30
0.0
 10
5.2046801717
 20
6.233980152
 30
0.0
 10
5.1970074261
 20
6.2460828007
 30
0.0
 10
5.1884246992
 20
6.2618636206
 30
0.0
 10
5.1795279444
 20
6.2815449135
 30
0.0
 10
5.1730688084
 20
6.2983875274
 30
0.0
 10
5.1683439076
 20
6.3120365454
 30
0.0
 10
5.164994465
 20
6.3223284098
 30
0.0
 10
5.161804222
 20
6.3326466278
 30
0.0
 10
5.157756038
 20
6.3464116893
 30
0.0
 10
5.1530952038
 20
6.3636831551
 30
0.0
 10
5.1498262349
 20
6.377603876
 30
0.0
 10
5.1483191194
 20
6.3845821572
 30
0.0
  0
SPLINE
  5
2B6
100
AcDbEntity
  8
0
100
AcDbSpline
 62
7
  6
CONTINUOUS
 70
0
 71
3
 72
34
 73
30
 74
0
 42
0.0000001
 43
0.0000001
 44
0.0000000001
 40
0.0
 40
0.0
 40
0.0
 40
0.0
 40
0.0616563717
 40
0.1244032093
 40
0.1876684327
 40
0.2509785247
 40
0.3139975362
 40
0.3453541858
 40
0.3766002473
 40
0.4077549221
 40
0.4388560223
 40
0.4544060893
 40
0.4699660336
 40
0.5011289379
 40
0.5323586615
 40
0.5636442307
 40
0.594960501
 40
0.6262706543
 40
0.6575323986
 40
0.6887458771
 40
0.7199324901
 40
0.7510972144
 40
0.7822293777
 40
0.7977768502
 40
0.8133076295
 40
0.8443424635
 40
0.8753833507
 40
0.9375835861
 40
1.0
 40
1.0
 40
1.0
 40
1.0
 10
5.8499639755
 20
5.6165516249
 30
0.0
 10
5.8589776689
 20
5.6135457762
 30
0.0
 10
5.877398587
 20
5.6081589675
 30
0.0
 10
5.9057189039
 20
5.6021602149
 30
0.0
 10
5.9346888067
 20
5.5984189272
 30
0.0
 10
5.9639209132
 20
5.5972143582
 30
0.0
 10
5.9882311878
 20
5.598563789
 30
0.0
 10
6.0074181931
 20
5.6012047673
 30
0.0
 10
6.021603796
 20
5.6039949143
 30
0.0
 10
6.0355557699
 20
5.6076323819
 30
0.0
 10
6.0469488743
 20
5.6114002725
 30
0.0
 10
6.0558880728
 20
5.614869647
 30
0.0
 10
6.0647096515
 20
5.6186523957
 30
0.0
 10
6.0754983877
 20
5.6239587976
 30
0.0
 10
6.0880119206
 20
5.6311772086
 30
0.0
 10
6.1000618279
 20
5.6391876322
 30
0.0
 10
6.111608727
 20
5.6479268199
 30
0.0
 10
6.1226150588
 20
5.6573315037
 30
0.0
 10
6.1330451161
 20
5.6673479553
 30
0.0
 10
6.1428902176
 20
5.6779126106
 30
0.0
 10
6.1521660091
 20
5.6889597888
 30
0.0
 10
6.1608899814
 20
5.7004308632
 30
0.0
 10
6.16771854
 20
5.7102989764
 30
0.0
 10
6.1729251725
 20
5.7183496246
 30
0.0
 10
6.1779608945
 20
5.7264906935
 30
0.0
 10
6.1839745229
 20
5.7368311516
 30
0.0
 10
6.1931397698
 20
5.7536495378
 30
0.0
 10
6.2040063296
 20
5.7750374024
 30
0.0
 10
6.2126310018
 20
5.7921963484
 30
0.0
 10
6.2170761371
 20
5.8007264191
 30
0.0
  0
SPLINE
  5
2B7
100
AcDbEntity
  8
0
100
AcDbSpline
 62
7
  6
CONTINUOUS
 70
0
 71
3
 72
28
 73
24
 74
0
 42
0.0000001
 43
0.0000001
 44
0.0000000001
 40
0.0
 40
0.0
 40
0.0
 40
0.0
 40
0.0623285267
 40
0.0936058758
 40
0.124950237
 40
0.1563508605
 40
0.1877931175
 40
0.2035244384
 40
0.2192589652
 40
0.2507184072
 40
0.2821322659
 40
0.3134670157
 40
0.3758021512
 40
0.4376609561
 40
0.4992041786
 40
0.5608165137
 40
0.6227586318
 40
0.6851206053
 40
0.7478861574
 40
0.8109523728
 40
0.874148097
 40
0.937250514
 40
1.0
 40
1.0
 40
1.0
 40
1.0
 10
6.1250731986
 20
5.2240466286
 30
0.0
 10
6.1191371843
 20
5.2323140934
 30
0.0
 10
6.1098783677
 20
5.2444865
 30
0.0
 10
6.0969824317
 20
5.2602986307
 30
0.0
 10
6.087039501
 20
5.2719986725
 30
0.0
 10
6.0768715262
 20
5.2835389966
 30
0.0
 10
6.0682404917
 20
5.2930332773
 30
0.0
 10
6.0612549495
 20
5.3005649366
 30
0.0
 10
6.0542227411
 20
5.3080568916
 30
0.0
 10
6.045344515
 20
5.3173280424
 30
0.0
 10
6.0345111194
 20
5.3282515685
 30
0.0
 10
6.0198170403
 20
5.3424402926
 30
0.0
 10
6.0008660605
 20
5.3593716457
 30
0.0
 10
5.9768775247
 20
5.3779793334
 30
0.0
 10
5.9514305009
 20
5.3943565205
 30
0.0
 10
5.9243733115
 20
5.4079519443
 30
0.0
 10
5.8959921315
 20
5.4188557923
 30
0.0
 10
5.8665574875
 20
5.4271715141
 30
0.0
 10
5.836347855
 20
5.4329914591
 30
0.0
 10
5.8056398899
 20
5.4364072757
 30
0.0
 10
5.7747095762
 20
5.4375083435
 30
0.0
 10
5.7438353942
 20
5.4363831796
 30
0.0
 10
5.7233816112
 20
5.4341970196
 30
0.0
 10
5.713237217
 20
5.4327539457
 30
0.0
  0
SPLINE
  5
2B8
100
AcDbEntity
  8
0
100
AcDbSpline
 62
7
  6
CONTINUOUS
 70
0
 71
3
 72
20
 73
16
 74
0
 42
0.0000001
 43
0.0000001
 44
0.0000000001
 40
0.0
 40
0.0
 40
0.0
 40
0.0
 40
0.1222700914
 40
0.244912033
 40
0.3066676184
 40
0.3688600169
 40
0.4315951998
 40
0.4948142602
 40
0.5583408791
 40
0.6220084795
 40
0.6856661599
 40
0.7491818557
 40
0.8124459208
 40
0.8753751727
 40
1.0
 40
1.0
 40
1.0
 40
1.0
 10
6.3305495177
 20
5.6798757838
 30
0.0
 10
6.3179478518
 20
5.6646796311
 30
0.0
 10
6.2938490953
 20
5.6332720159
 30
0.0
 10
6.2668267096
 20
5.591719188
 30
0.0
 10
6.247111876
 20
5.5571192243
 30
0.0
 10
6.233221742
 20
5.5303601466
 30
0.0
 10
6.2202784154
 20
5.5028695193
 30
0.0
 10
6.2083370083
 20
5.4746943756
 30
0.0
 10
6.1974940215
 20
5.4459169002
 30
0.0
 10
6.1878514239
 20
5.4166399194
 30
0.0
 10
6.1795124464
 20
5.3869659042
 30
0.0
 10
6.1725802257
 20
5.3569983638
 30
0.0
 10
6.1671580133
 20
5.32683671
 30
0.0
 10
6.1620972469
 20
5.2866470259
 30
0.0
 10
6.1608440041
 20
5.2562945805
 30
0.0
 10
6.1613138628
 20
5.2361784218
 30
0.0
  0
SPLINE
  5
2B9
100
AcDbEntity
  8
0
100
AcDbSpline
 62
7
  6
CONTINUOUS
 70
0
 71
3
 72
37
 73
33
 74
0
 42
0.0000001
 43
0.0000001
 44
0.0000000001
 40
0.0
 40
0.0
 40
0.0
 40
0.0
 40
0.0156082103
 40
0.0312039556
 40
0.0623718252
 40
0.0935130482
 40
0.1246164751
 40
0.1556717336
 40
0.1711838525
 40
0.1866910542
 40
0.2022014359
 40
0.2177248649
 40
0.2332638445
 40
0.2488181347
 40
0.2799690536
 40
0.3111790214
 40
0.3737553563
 40
0.4364470705
 40
0.4677328619
 40
0.4989288431
 40
0.5300311152
 40
0.5455554879
 40
0.5610692452
 40
0.5921040931
 40
0.6232133737
 40
0.6544435317
 40
0.6858168047
 40
0.7489554972
 40
0.8124438663
 40
0.8758562151
 40
0.938610658
 40
1.0
 40
1.0
 40
1.0
 40
1.0
 10
5.929674486
 20
6.0901401757
 30
0.0
 10
5.9275779848
 20
6.088955683
 30
0.0
 10
5.9233640362
 20
6.0866274116
 30
0.0
 10
5.9148564347
 20
6.0821306243
 30
0.0
 10
5.9041109428
 20
6.0767441702
 30
0.0
 10
5.8911370106
 20
6.0704702217
 30
0.0
 10
5.8781821655
 20
6.0641966576
 30
0.0
 10
5.8674777041
 20
6.0588086699
 30
0.0
 10
5.8590229681
 20
6.0543099967
 30
0.0
 10
5.8527500189
 20
6.0508190021
 30
0.0
 10
5.8465555741
 20
6.0471866117
 30
0.0
 10
5.8404546232
 20
6.0433897995
 30
0.0
 10
5.8344504411
 20
6.0394293673
 30
0.0
 10
5.8265758397
 20
6.0339319932
 30
0.0
 10
5.8169942989
 20
6.0266630421
 30
0.0
 10
5.8022691162
 20
6.0142142342
 30
0.0
 10
5.7850944137
 20
5.9971817116
 30
0.0
 10
5.7698483588
 20
5.9783763773
 30
0.0
 10
5.7590872837
 20
5.9623278098
 30
0.0
 10
5.7518260707
 20
5.9498367566
 30
0.0
 10
5.7465083675
 20
5.9390603593
 30
0.0
 10
5.7427406128
 20
5.9302428983
 30
0.0
 10
5.7393049316
 20
5.9213020298
 30
0.0
 10
5.7356092175
 20
5.9098944474
 30
0.0
 10
5.7320967107
 20
5.8959137633
 30
0.0
 10
5.7294574748
 20
5.8816897895
 30
0.0
 10
5.7270358443
 20
5.8624334095
 30
0.0
 10
5.7259690887
 20
5.8380349199
 30
0.0
 10
5.7274251935
 20
5.8087175115
 30
0.0
 10
5.7312447588
 20
5.7796795162
 30
0.0
 10
5.7370667521
 20
5.751314276
 30
0.0
 10
5.7421216195
 20
5.7328261266
 30
0.0
 10
5.7448948142
 20
5.7237703258
 30
0.0
  0
SPLINE
  5
2BA
100
AcDbEntity
  8
0
100
AcDbSpline
 62
7
  6
CONTINUOUS
 70
0
 71
3
 72
21
 73
17
 74
0
 42
0.0000001
 43
0.0000001
 44
0.0000000001
 40
0.0
 40
0.0
 40
0.0
 40
0.0
 40
0.0642175223
 40
0.1277934032
 40
0.1908776122
 40
0.2535999842
 40
0.3160701874
 40
0.378378079
 40
0.4405943856
 40
0.5027716407
 40
0.5649453107
 40
0.6271350474
 40
0.6893460113
 40
0.751570225
 40
0.8759401334
 40
1.0
 40
1.0
 40
1.0
 40
1.0
 10
5.3541473297
 20
6.033096351
 30
0.0
 10
5.3647193747
 20
6.0323355196
 30
0.0
 10
5.3858104315
 20
6.0314714155
 30
0.0
 10
5.4173274787
 20
6.0321116311
 30
0.0
 10
5.4485035864
 20
6.0346222311
 30
0.0
 10
5.4792969118
 20
6.0389300939
 30
0.0
 10
5.5096678263
 20
6.0449619802
 30
0.0
 10
5.5395763646
 20
6.0526447655
 30
0.0
 10
5.5689828577
 20
6.0619054254
 30
0.0
 10
5.597847698
 20
6.0726710567
 30
0.0
 10
5.6261314054
 20
6.0848689128
 30
0.0
 10
5.6537943705
 20
6.0984262728
 30
0.0
 10
5.6807976188
 20
6.1132709059
 30
0.0
 10
5.7158580477
 20
6.1346764486
 30
0.0
 10
5.7578132119
 20
6.1642687287
 30
0.0
 10
5.7892677152
 20
6.190655794
 30
0.0
 10
5.8044113482
 20
6.2044384935
 30
0.0
  0
SPLINE
  5
2BB
100
AcDbEntity
  8
0
100
AcDbSpline
 62
7
  6
CONTINUOUS
 70
0
 71
3
 72
28
 73
24
 74
0
 42
0.0000001
 43
0.0000001
 44
0.0000000001
 40
0.0
 40
0.0
 40
0.0
 40
0.0
 40
0.0629810225
 40
0.1260559205
 40
0.1888663068
 40
0.2511456515
 40
0.3127453284
 40
0.3736655609
 40
0.4039298486
 40
0.4341103799
 40
0.4642640868
 40
0.4793544318
 40
0.4944658934
 40
0.5247841404
 40
0.5552802376
 40
0.5859948482
 40
0.6169525897
 40
0.679613273
 40
0.7432101996
 40
0.8075048472
 40
0.8720884706
 40
0.9364461687
 40
1.0
 40
1.0
 40
1.0
 40
1.0
 10
5.5567426336
 20
5.5832448867
 30
0.0
 10
5.5578174842
 20
5.5936797338
 30
0.0
 10
5.5595964287
 20
5.6146062448
 30
0.0
 10
5.5608947471
 20
5.646048468
 30
0.0
 10
5.5605456535
 20
5.6774040547
 30
0.0
 10
5.5582609125
 20
5.7084389056
 30
0.0
 10
5.5537499255
 20
5.7389177395
 30
0.0
 10
5.5478731706
 20
5.763718781
 30
0.0
 10
5.5417662569
 20
5.7829968589
 30
0.0
 10
5.5364577418
 20
5.7971301386
 30
0.0
 10
5.531390172
 20
5.8086335046
 30
0.0
 10
5.5269359693
 20
5.8176470639
 30
0.0
 10
5.522203584
 20
5.8265487489
 30
0.0
 10
5.5157902227
 20
5.8374562034
 30
0.0
 10
5.5073699617
 20
5.8501725469
 30
0.0
 10
5.4982693198
 20
5.8625430305
 30
0.0
 10
5.4852472135
 20
5.8786527459
 30
0.0
 10
5.4675203466
 20
5.8979646054
 30
0.0
 10
5.4444762262
 20
5.9198168342
 30
0.0
 10
5.419993044
 20
5.9405346394
 30
0.0
 10
5.3944819469
 20
5.9601729479
 30
0.0
 10
5.3683585125
 20
5.9787711887
 30
0.0
 10
5.3506453343
 20
5.9906139191
 30
0.0
 10
5.3417807658
 20
5.9963993753
 30
0.0
  0
SPLINE
  5
2BC
100
AcDbEntity
  8
0
100
AcDbSpline
 62
7
  6
CONTINUOUS
 70
0
 71
3
 72
23
 73
19
 74
0
 42
0.0000001
 43
0.0000001
 44
0.0000000001
 40
0.0
 40
0.0
 40
0.0
 40
0.0
 40
0.0623957727
 40
0.1249779239
 40
0.1875327134
 40
0.2500255657
 40
0.3125031403
 40
0.375001426
 40
0.4374975908
 40
0.4999946948
 40
0.5624928789
 40
0.6249930424
 40
0.6874959828
 40
0.7499758878
 40
0.8124688576
 40
0.8750229213
 40
0.9376044133
 40
1.0
 40
1.0
 40
1.0
 40
1.0
 10
5.4776186546
 20
4.9816686791
 30
0.0
 10
5.4775672904
 20
4.9802311417
 30
0.0
 10
5.4776707429
 20
4.9773405079
 30
0.0
 10
5.4784296165
 20
4.973070346
 30
0.0
 10
5.4797915547
 20
4.9689488172
 30
0.0
 10
5.4817289216
 20
4.9650674231
 30
0.0
 10
5.4842041907
 20
4.9615060598
 30
0.0
 10
5.4871694466
 20
4.9583410492
 30
0.0
 10
5.4905610481
 20
4.9556366096
 30
0.0
 10
5.4943131136
 20
4.9534597591
 30
0.0
 10
5.4983407562
 20
4.9518486448
 30
0.0
 10
5.5025616023
 20
4.9508469443
 30
0.0
 10
5.5068820428
 20
4.9504648191
 30
0.0
 10
5.5112121911
 20
4.9507130698
 30
0.0
 10
5.5154622971
 20
4.9515823236
 30
0.0
 10
5.5195463928
 20
4.9530526199
 30
0.0
 10
5.5233755013
 20
4.9550892255
 30
0.0
 10
5.5257145584
 20
4.9567907334
 30
0.0
 10
5.5268144068
 20
4.9577178112
 30
0.0
  0
SPLINE
  5
2BD
100
AcDbEntity
  8
0
100
AcDbSpline
 62
7
  6
CONTINUOUS
 70
0
 71
3
 72
44
 73
40
 74
0
 42
0.0000001
 43
0.0000001
 44
0.0000000001
 40
0.0
 40
0.0
 40
0.0
 40
0.0
 40
0.0305137588
 40
0.0609184404
 40
0.0913711889
 40
0.1220872173
 40
0.1532319805
 40
0.1846145434
 40
0.2159944664
 40
0.2471940383
 40
0.278123452
 40
0.2934979671
 40
0.3088270228
 40
0.3241375959
 40
0.3394650826
 40
0.3548410745
 40
0.37028903
 40
0.401443842
 40
0.4329977682
 40
0.4649194458
 40
0.4971180503
 40
0.5294645043
 40
0.561810603
 40
0.5940069347
 40
0.6100116649
 40
0.625939619
 40
0.6575972435
 40
0.6890670364
 40
0.7204022017
 40
0.7516368212
 40
0.7827926001
 40
0.8138858479
 40
0.8449345854
 40
0.8604548702
 40
0.8759744578
 40
0.9070065405
 40
0.9380347891
 40
0.9690403007
 40
1.0
 40
1.0
 40
1.0
 40
1.0
 10
5.7511010877
 20
4.9204863639
 30
0.0
 10
5.7529484531
 20
4.9249828759
 30
0.0
 10
5.7564195952
 20
4.9340516906
 30
0.0
 10
5.7608167112
 20
4.9479382536
 30
0.0
 10
5.7642597035
 20
4.9621283771
 30
0.0
 10
5.7666123094
 20
4.9766621126
 30
0.0
 10
5.7677467708
 20
4.9914917146
 30
0.0
 10
5.767593708
 20
5.006471145
 30
0.0
 10
5.7660567314
 20
5.021384903
 30
0.0
 10
5.7630391303
 20
5.0360005853
 30
0.0
 10
5.7591957307
 20
5.0477683016
 30
0.0
 10
5.7552805903
 20
5.0567793117
 30
0.0
 10
5.7519187653
 20
5.0633001754
 30
0.0
 10
5.7481117875
 20
5.069563308
 30
0.0
 10
5.7438603152
 20
5.0755425595
 30
0.0
 10
5.7391958337
 20
5.0812333554
 30
0.0
 10
5.7324434949
 20
5.0884457069
 30
0.0
 10
5.7230855757
 20
5.0967103431
 30
0.0
 10
5.7106798921
 20
5.1053296883
 30
0.0
 10
5.6972731983
 20
5.1126400051
 30
0.0
 10
5.683076998
 20
5.1185929822
 30
0.0
 10
5.6683001603
 20
5.1231401426
 30
0.0
 10
5.653152897
 20
5.1262306731
 30
0.0
 10
5.6403655443
 20
5.1275524448
 30
0.0
 10
5.6301485815
 20
5.1278229888
 30
0.0
 10
5.620017241
 20
5.127565117
 30
0.0
 10
5.6074649917
 20
5.1262791989
 30
0.0
 10
5.5926993522
 20
5.1232502906
 30
0.0
 10
5.5783665816
 20
5.1188075348
 30
0.0
 10
5.5645777045
 20
5.1130188063
 30
0.0
 10
5.5514422461
 20
5.1059511941
 30
0.0
 10
5.5390711266
 20
5.0976719091
 30
0.0
 10
5.5294865159
 20
5.08981408
 30
0.0
 10
5.5223181451
 20
5.0829931413
 30
0.0
 10
5.5154986234
 20
5.075827092
 30
0.0
 10
5.5076436212
 20
5.0662577673
 30
0.0
 10
5.4993637077
 20
5.0539319761
 30
0.0
 10
5.492293808
 20
5.0408886194
 30
0.0
 10
5.4884271274
 20
5.0317862965
 30
0.0
 10
5.4867193034
 20
5.0271591504
 30
0.0
  0
SPLINE
  5
2BE
100
AcDbEntity
  8
0
100
AcDbSpline
 62
7
  6
CONTINUOUS
 70
0
 71
3
 72
57
 73
53
 74
0
 42
0.0000001
 43
0.0000001
 44
0.0000000001
 40
0.0
 40
0.0
 40
0.0
 40
0.0
 40
0.0623812431
 40
0.1248141473
 40
0.1872108079
 40
0.2495286186
 40
0.2806787932
 40
0.3118533917
 40
0.3430775456
 40
0.3743365966
 40
0.405608745
 40
0.4368742992
 40
0.4681160531
 40
0.4837241534
 40
0.4993211962
 40
0.5149059569
 40
0.530480794
 40
0.5460526171
 40
0.5616269093
 40
0.5772074383
 40
0.5927965639
 40
0.6083955475
 40
0.6240048633
 40
0.6318134046
 40
0.6396240027
 40
0.6552430874
 40
0.6708474856
 40
0.6864323869
 40
0.7020098228
 40
0.7098065466
 40
0.7176158069
 40
0.7332650685
 40
0.7489359672
 40
0.7802308359
 40
0.7958297651
 40
0.8113910874
 40
0.8269569349
 40
0.842569385
 40
0.8582661316
 40
0.8740804504
 40
0.8900244179
 40
0.9060151791
 40
0.9219548316
 40
0.937774474
 40
0.9534424677
 40
0.9612250057
 40
0.9689799168
 40
0.9767181381
 40
0.9805860309
 40
0.9844562965
 40
0.9922131927
 40
1.0
 40
1.0
 40
1.0
 40
1.0
 10
6.4613618733
 20
4.7248267846
 30
0.0
 10
6.4463447328
 20
4.7280355162
 30
0.0
 10
6.4162089382
 20
4.7340344821
 30
0.0
 10
6.3709415972
 20
4.7426731605
 30
0.0
 10
6.3257937587
 20
4.7518537751
 30
0.0
 10
6.2884467702
 20
4.7607065435
 30
0.0
 10
6.2588879238
 20
4.7689499025
 30
0.0
 10
6.2369055607
 20
4.775827045
 30
0.0
 10
6.215158024
 20
4.7834969397
 30
0.0
 10
6.1936786155
 20
4.7919540877
 30
0.0
 10
6.1725137504
 20
4.8011964015
 30
0.0
 10
6.1517118461
 20
4.8112191688
 30
0.0
 10
6.1347139516
 20
4.8202213493
 30
0.0
 10
6.1213445786
 20
4.8278102842
 30
0.0
 10
6.1114409449
 20
4.8336926521
 30
0.0
 10
6.1016646573
 20
4.8397687872
 30
0.0
 10
6.0920148655
 20
4.8460322493
 30
0.0
 10
6.082473906
 20
4.8524553118
 30
0.0
 10
6.073024715
 20
4.8590148602
 30
0.0
 10
6.0636495366
 20
4.8656869044
 30
0.0
 10
6.0543307675
 20
4.8724477145
 30
0.0
 10
6.0450508016
 20
4.8792735458
 30
0.0
 10
6.0373363451
 20
4.8849950672
 30
0.0
 10
6.0311667804
 20
4.889581158
 30
0.0
 10
6.0249950279
 20
4.8941683116
 30
0.0
 10
6.0172560778
 20
4.8998641296
 30
0.0
 10
6.0078529754
 20
4.9065258049
 30
0.0
 10
5.9982613852
 20
4.912896746
 30
0.0
 10
5.9900526755
 20
4.9178638632
 30
0.0
 10
5.9833287388
 20
4.9215692716
 30
0.0
 10
5.9764807676
 20
4.9250788133
 30
0.0
 10
5.9677116498
 20
4.9290809403
 30
0.0
 10
5.9533216784
 20
4.9346226919
 30
0.0
 10
5.938456768
 20
4.9388327641
 30
0.0
 10
5.9233218934
 20
4.9415837015
 30
0.0
 10
5.9118857921
 20
4.942894509
 30
0.0
 10
5.9003869473
 20
4.9434701967
 30
0.0
 10
5.8888414929
 20
4.943325022
 30
0.0
 10
5.8772655015
 20
4.9424749066
 30
0.0
 10
5.8656794466
 20
4.9409337966
 30
0.0
 10
5.8541269658
 20
4.9387302456
 30
0.0
 10
5.8427010855
 20
4.9358086302
 30
0.0
 10
5.8315345273
 20
4.9321026608
 30
0.0
 10
5.8207690114
 20
4.9275504502
 30
0.0
 10
5.8122285747
 20
4.9229856013
 30
0.0
 10
5.805752169
 20
4.9188486481
 30
0.0
 10
5.8010975471
 20
4.9155022571
 30
0.0
 10
5.7973931888
 20
4.9124985292
 30
0.0
 10
5.7945477831
 20
4.9099643916
 30
0.0
 10
5.7917756533
 20
4.9073436475
 30
0.0
 10
5.7884322957
 20
4.9039262141
 30
0.0
 10
5.7858640421
 20
4.9010889841
 30
0.0
 10
5.7845958274
 20
4.8996516514
 30
0.0
  0
SPLINE
  5
2BF
100
AcDbEntity
  8
0
100
AcDbSpline
 62
7
  6
CONTINUOUS
 70
0
 71
3
 72
40
 73
36
 74
0
 42
0.0000001
 43
0.0000001
 44
0.0000000001
 40
0.0
 40
0.0
 40
0.0
 40
0.0
 40
0.0312089088
 40
0.06220731
 40
0.0930787874
 40
0.108531197
 40
0.124030735
 40
0.139595836
 40
0.1552346395
 40
0.1867229401
 40
0.2184715836
 40
0.2503857583
 40
0.2823405518
 40
0.3142043429
 40
0.3458620189
 40
0.377263893
 40
0.4084391845
 40
0.4394349022
 40
0.4703229321
 40
0.485767783
 40
0.5012327705
 40
0.5322668759
 40
0.5634901411
 40
0.5948659888
 40
0.6262920455
 40
0.6576189829
 40
0.6887350078
 40
0.7197264744
 40
0.7506912155
 40
0.7816928297
 40
0.8127637129
 40
0.843908568
 40
0.8751108541
 40
0.9375714527
 40
1.0
 40
1.0
 40
1.0
 40
1.0
 10
5.5268144114
 20
4.9577178058
 30
0.0
 10
5.5292287512
 20
4.9597528881
 30
0.0
 10
5.5342534943
 20
4.9635665843
 30
0.0
 10
5.5423586545
 20
4.9684004864
 30
0.0
 10
5.5495356245
 20
4.9715721766
 30
0.0
 10
5.5554825298
 20
4.9735245695
 30
0.0
 10
5.5600475767
 20
4.9746847058
 30
0.0
 10
5.5646973081
 20
4.9755451337
 30
0.0
 10
5.5709985016
 20
4.9763023011
 30
0.0
 10
5.5789964605
 20
4.9765236009
 30
0.0
 10
5.5886063581
 20
4.9756816977
 30
0.0
 10
5.5981112447
 20
4.973778264
 30
0.0
 10
5.6073656386
 20
4.9708561414
 30
0.0
 10
5.6162254303
 20
4.9669578606
 30
0.0
 10
5.6245464125
 20
4.962119849
 30
0.0
 10
5.6321917674
 20
4.9563865561
 30
0.0
 10
5.6390645911
 20
4.9498429545
 30
0.0
 10
5.6450723234
 20
4.9425640618
 30
0.0
 10
5.6492846505
 20
4.9359441747
 30
0.0
 10
5.6521212042
 20
4.930367941
 30
0.0
 10
5.6546078236
 20
4.9246111544
 30
0.0
 10
5.6570701436
 20
4.9171227725
 30
0.0
 10
5.6590244599
 20
4.9078355414
 30
0.0
 10
5.6600282703
 20
4.8983598639
 30
0.0
 10
5.6601239434
 20
4.8888229917
 30
0.0
 10
5.6593530073
 20
4.8793439819
 30
0.0
 10
5.6577474495
 20
4.8700156255
 30
0.0
 10
5.6553616262
 20
4.8608948869
 30
0.0
 10
5.6522506702
 20
4.8520088341
 30
0.0
 10
5.6484681792
 20
4.8433795731
 30
0.0
 10
5.6440674903
 20
4.8350291465
 30
0.0
 10
5.6391014865
 20
4.8269788623
 30
0.0
 10
5.6317933033
 20
4.8166719796
 30
0.0
 10
5.621449034
 20
4.8046807802
 30
0.0
 10
5.6120269983
 20
4.7962019296
 30
0.0
 10
5.6070694083
 20
4.7922880566
 30
0.0
  0
SPLINE
  5
2C0
100
AcDbEntity
  8
0
100
AcDbSpline
 62
7
  6
CONTINUOUS
 70
0
 71
3
 72
23
 73
19
 74
0
 42
0.0000001
 43
0.0000001
 44
0.0000000001
 40
0.0
 40
0.0
 40
0.0
 40
0.0
 40
0.0623969446
 40
0.1249723107
 40
0.1875207645
 40
0.2500118932
 40
0.3124921315
 40
0.3749947522
 40
0.4374963282
 40
0.4999988168
 40
0.5625016573
 40
0.6250042724
 40
0.6875076426
 40
0.7499870648
 40
0.8124766657
 40
0.8750253701
 40
0.9376023711
 40
1.0
 40
1.0
 40
1.0
 40
1.0
 10
5.0898090311
 20
5.4019664819
 30
0.0
 10
5.0889408632
 20
5.4008465275
 30
0.0
 10
5.0873583642
 20
5.3984775108
 30
0.0
 10
5.0854978025
 20
5.3946321668
 30
0.0
 10
5.0841963764
 20
5.3905597942
 30
0.0
 10
5.0834835503
 20
5.3863468214
 30
0.0
 10
5.0833758038
 20
5.3820760548
 30
0.0
 10
5.0838786519
 20
5.3778335055
 30
0.0
 10
5.0849796947
 20
5.3737047104
 30
0.0
 10
5.0866662034
 20
5.3697785649
 30
0.0
 10
5.0888946718
 20
5.3661325984
 30
0.0
 10
5.0916269905
 20
5.3628471655
 30
0.0
 10
5.0947978603
 20
5.3599839853
 30
0.0
 10
5.0983446744
 20
5.3576026368
 30
0.0
 10
5.1021941451
 20
5.3557483381
 30
0.0
 10
5.1062692611
 20
5.3544555238
 30
0.0
 10
5.1104824516
 20
5.3537499513
 30
0.0
 10
5.1133303855
 20
5.3536712772
 30
0.0
 10
5.1147461388
 20
5.3537321067
 30
0.0
  0
SPLINE
  5
2C1
100
AcDbEntity
  8
0
100
AcDbSpline
 62
7
  6
CONTINUOUS
 70
0
 71
3
 72
96
 73
92
 74
0
 42
0.0000001
 43
0.0000001
 44
0.0000000001
 40
0.0
 40
0.0
 40
0.0
 40
0.0
 40
0.0311752695
 40
0.0623525364
 40
0.0779334813
 40
0.0935095832
 40
0.1090857127
 40
0.1246685225
 40
0.1402570207
 40
0.1558493254
 40
0.1870453558
 40
0.2026633862
 40
0.2182911608
 40
0.2339094888
 40
0.2495017395
 40
0.257284676
 40
0.2650570213
 40
0.2728183883
 40
0.2805727684
 40
0.2960855057
 40
0.3116403517
 40
0.3272699392
 40
0.3429973095
 40
0.3588235341
 40
0.3746907059
 40
0.390527841
 40
0.4062738068
 40
0.421889285
 40
0.437369709
 40
0.4450724468
 40
0.4527628526
 40
0.4604562849
 40
0.4643105275
 40
0.4681727549
 40
0.4759229274
 40
0.4837094084
 40
0.4993818383
 40
0.5151636615
 40
0.5309963487
 40
0.5468009533
 40
0.5624992096
 40
0.5781014499
 40
0.5936517595
 40
0.6014213418
 40
0.6091926269
 40
0.6247533199
 40
0.6403580447
 40
0.6560161453
 40
0.6717257723
 40
0.6874752026
 40
0.695359055
 40
0.7032424421
 40
0.7189862815
 40
0.7346786494
 40
0.7503099216
 40
0.7658936668
 40
0.7736809194
 40
0.7814737702
 40
0.7892770201
 40
0.797088273
 40
0.8127157559
 40
0.8283234658
 40
0.8361117928
 40
0.8438962822
 40
0.8516849773
 40
0.8594829504
 40
0.8633863474
 40
0.8672927752
 40
0.8712021029
 40
0.8751124507
 40
0.8829239672
 40
0.890711989
 40
0.8945976821
 40
0.8984803482
 40
0.9023638012
 40
0.9062513133
 40
0.914044306
 40
0.9218625253
 40
0.9257776295
 40
0.9296931113
 40
0.933606559
 40
0.9375166775
 40
0.9453236957
 40
0.9531141852
 40
0.9608974219
 40
0.9647927663
 40
0.9686929741
 40
0.9765051175
 40
0.9843303232
 40
0.9921635267
 40
1.0
 40
1.0
 40
1.0
 40
1.0
 10
5.0035135312
 20
6.3550951505
 30
0.0
 10
5.0067300067
 20
6.3385005882
 30
0.0
 10
5.0133676774
 20
6.3053489734
 30
0.0
 10
5.0227253722
 20
6.2641334012
 30
0.0
 10
5.0311730479
 20
6.2314056073
 30
0.0
 10
5.0380683109
 20
6.2070201718
 30
0.0
 10
5.0456040077
 20
6.1828230461
 30
0.0
 10
5.0538589696
 20
6.1588541268
 30
0.0
 10
5.062865378
 20
6.1351469889
 30
0.0
 10
5.0759130459
 20
6.10393939
 30
0.0
 10
5.090582676
 20
6.0734080672
 30
0.0
 10
5.106958791
 20
6.0437679937
 30
0.0
 10
5.1201215296
 20
6.022024391
 30
0.0
 10
5.134169487
 20
6.0008586712
 30
0.0
 10
5.1466261959
 20
5.9837656861
 30
0.0
 10
5.1570415145
 20
5.9704697459
 30
0.0
 10
5.1650725332
 20
5.9607041965
 30
0.0
 10
5.1733316832
 20
5.9511512559
 30
0.0
 10
5.1846377473
 20
5.9386909673
 30
0.0
 10
5.1992997042
 20
5.9235783774
 30
0.0
 10
5.2176133832
 20
5.9060875248
 30
0.0
 10
5.2365524837
 20
5.8891033348
 30
0.0
 10
5.2560169416
 20
5.8724983076
 30
0.0
 10
5.2758728888
 20
5.8561624556
 30
0.0
 10
5.2958086388
 20
5.8398307885
 30
0.0
 10
5.3154948108
 20
5.8232639407
 30
0.0
 10
5.3345956161
 20
5.8062235562
 30
0.0
 10
5.3527736471
 20
5.7884703035
 30
0.0
 10
5.3668946194
 20
5.7728501328
 30
0.0
 10
5.3773603237
 20
5.7597794167
 30
0.0
 10
5.3847475519
 20
5.7496684647
 30
0.0
 10
5.3904890272
 20
5.7409539738
 30
0.0
 10
5.394808554
 20
5.7338007661
 30
0.0
 10
5.3989487916
 20
5.7265069672
 30
0.0
 10
5.4037791711
 20
5.7171576702
 30
0.0
 10
5.4107861382
 20
5.7017486156
 30
0.0
 10
5.4181920079
 20
5.6817673885
 30
0.0
 10
5.4249735333
 20
5.6570110445
 30
0.0
 10
5.4297380031
 20
5.6317181691
 30
0.0
 10
5.4325501123
 20
5.606183182
 30
0.0
 10
5.4334727297
 20
5.5806362645
 30
0.0
 10
5.432533864
 20
5.55522896
 30
0.0
 10
5.4302338702
 20
5.5342311604
 30
0.0
 10
5.4275066678
 20
5.5175923968
 30
0.0
 10
5.4241984696
 20
5.5010535751
 30
0.0
 10
5.4190099122
 20
5.4805723625
 30
0.0
 10
5.4112303147
 20
5.4563897367
 30
0.0
 10
5.4020156929
 20
5.4326316158
 30
0.0
 10
5.3914875613
 20
5.4093419366
 30
0.0
 10
5.3817214668
 20
5.3903666572
 30
0.0
 10
5.3733710808
 20
5.37545575
 30
0.0
 10
5.3646585216
 20
5.3607569348
 30
0.0
 10
5.353067591
 20
5.3428498089
 30
0.0
 10
5.3379425336
 20
5.3222736962
 30
0.0
 10
5.3215300013
 20
5.3028178014
 30
0.0
 10
5.3067082736
 20
5.2877000583
 30
0.0
 10
5.2941511949
 20
5.2763870592
 30
0.0
 10
5.2843690686
 20
5.2683146384
 30
0.0
 10
5.2742277562
 20
5.2606767351
 30
0.0
 10
5.2602647304
 20
5.2510781645
 30
0.0
 10
5.2420645917
 20
5.2402104295
 30
0.0
 10
5.2230352985
 20
5.2309005198
 30
0.0
 10
5.2074143985
 20
5.2244248278
 30
0.0
 10
5.1955362802
 20
5.2200170263
 30
0.0
 10
5.1835113311
 20
5.2160129513
 30
0.0
 10
5.1733875295
 20
5.2129773424
 30
0.0
 10
5.165234988
 20
5.2107068373
 30
0.0
 10
5.1590930929
 20
5.2090775078
 30
0.0
 10
5.1529301658
 20
5.2075142228
 30
0.0
 10
5.1446896964
 20
5.2055321522
 30
0.0
 10
5.1343434859
 20
5.2033149847
 30
0.0
 10
5.1239108533
 20
5.2016072679
 30
0.0
 10
5.1155288402
 20
5.2006515415
 30
0.0
 10
5.1092281065
 20
5.200167523
 30
0.0
 10
5.1029122952
 20
5.1999319077
 30
0.0
 10
5.0944719849
 20
5.1999166706
 30
0.0
 10
5.0839045224
 20
5.200412503
 30
0.0
 10
5.0733653892
 20
5.2014581187
 30
0.0
 10
5.0649504349
 20
5.2025476261
 30
0.0
 10
5.0586495552
 20
5.2034694437
 30
0.0
 10
5.052366546
 20
5.2044896842
 30
0.0
 10
5.0440269941
 20
5.206000806
 30
0.0
 10
5.0336775646
 20
5.2082019059
 30
0.0
 10
5.02141607
 20
5.211443669
 30
0.0
 10
5.0113749502
 20
5.2147251287
 30
0.0
 10
5.0034842804
 20
5.2177438616
 30
0.0
 10
4.9956869651
 20
5.2210364062
 30
0.0
 10
4.9861410842
 20
5.2256493233
 30
0.0
 10
4.975071219
 20
5.2319457493
 30
0.0
 10
4.9644362449
 20
5.238975215
 30
0.0
 10
4.9576733531
 20
5.2441306777
 30
0.0
 10
4.9543838252
 20
5.2468200718
 30
0.0
  0
SPLINE
  5
2C2
100
AcDbEntity
  8
0
100
AcDbSpline
 62
7
  6
CONTINUOUS
 70
0
 71
3
 72
55
 73
51
 74
0
 42
0.0000001
 43
0.0000001
 44
0.0000000001
 40
0.0
 40
0.0
 40
0.0
 40
0.0
 40
0.0156318592
 40
0.0313116375
 40
0.0470450826
 40
0.0628035285
 40
0.0785523291
 40
0.0942546178
 40
0.1020788407
 40
0.1098797914
 40
0.1254402098
 40
0.1410087389
 40
0.1566313393
 40
0.1723285062
 40
0.1880988083
 40
0.2039224981
 40
0.2118442575
 40
0.2197647366
 40
0.2355754848
 40
0.2513133183
 40
0.2669542978
 40
0.2824969189
 40
0.2902395279
 40
0.2979696869
 40
0.3056956072
 40
0.3134276313
 40
0.3289399858
 40
0.3445418584
 40
0.3602224472
 40
0.3759407774
 40
0.3837959853
 40
0.3916389117
 40
0.4072867065
 40
0.4228912002
 40
0.4384616885
 40
0.4695417231
 40
0.4850760875
 40
0.5006220104
 40
0.5161812619
 40
0.5317536125
 40
0.5629342629
 40
0.5941574503
 40
0.6254114014
 40
0.6566804782
 40
0.6879455018
 40
0.7504084682
 40
0.8128277338
 40
0.8752390061
 40
0.9376409552
 40
1.0
 40
1.0
 40
1.0
 40
1.0
 10
5.0260509822
 20
5.6556997878
 30
0.0
 10
5.0286937787
 20
5.6580031295
 30
0.0
 10
5.0338878607
 20
5.6627386085
 30
0.0
 10
5.0410406514
 20
5.6705138834
 30
0.0
 10
5.0475154375
 20
5.6788955538
 30
0.0
 10
5.0532780808
 20
5.6878001952
 30
0.0
 10
5.0582848188
 20
5.6971421934
 30
0.0
 10
5.0617965022
 20
5.7052319518
 30
0.0
 10
5.0641848515
 20
5.7118411089
 30
0.0
 10
5.0662802945
 20
5.7185156203
 30
0.0
 10
5.0683784968
 20
5.7270005224
 30
0.0
 10
5.0701346278
 20
5.7373454913
 30
0.0
 10
5.0712103671
 20
5.7478124257
 30
0.0
 10
5.0716880271
 20
5.758367165
 30
0.0
 10
5.0716497956
 20
5.7689763531
 30
0.0
 10
5.0712548879
 20
5.777831637
 30
0.0
 10
5.0707634613
 20
5.7849163906
 30
0.0
 10
5.0701589409
 20
5.79198951
 30
0.0
 10
5.0691619736
 20
5.8007872807
 30
0.0
 10
5.0674977046
 20
5.8112429199
 30
0.0
 10
5.0652843171
 20
5.8215361953
 30
0.0
 10
5.0629104722
 20
5.8299448859
 30
0.0
 10
5.0606559315
 20
5.8365265513
 30
0.0
 10
5.0587797259
 20
5.8413806708
 30
0.0
 10
5.056703299
 20
5.846150127
 30
0.0
 10
5.0536690207
 20
5.8523996567
 30
0.0
 10
5.0494352624
 20
5.8600215466
 30
0.0
 10
5.0438232401
 20
5.8688938596
 30
0.0
 10
5.037829987
 20
5.8775671185
 30
0.0
 10
5.0326454467
 20
5.8846822771
 30
0.0
 10
5.0284544129
 20
5.8903458027
 30
0.0
 10
5.0242669906
 20
5.8959923491
 30
0.0
 10
5.0190426821
 20
5.9030335581
 30
0.0
 10
5.0128079301
 20
5.9114830389
 30
0.0
 10
5.0045822269
 20
5.9227641515
 30
0.0
 10
4.9965123857
 20
5.9341399461
 30
0.0
 10
4.9887007237
 20
5.9456867614
 30
0.0
 10
4.982991716
 20
5.954451557
 30
0.0
 10
4.9774265289
 20
5.9633183872
 30
0.0
 10
4.9701935212
 20
5.9752759468
 30
0.0
 10
4.9615046362
 20
5.9904555295
 30
0.0
 10
4.9516317449
 20
6.0089981133
 30
0.0
 10
4.942294553
 20
6.0278380528
 30
0.0
 10
4.9334795017
 20
6.0469380003
 30
0.0
 10
4.9224072099
 20
6.0726940051
 30
0.0
 10
4.9097936522
 20
6.1053776607
 30
0.0
 10
4.8964621788
 20
6.1452222902
 30
0.0
 10
4.8847606001
 20
6.1855592479
 30
0.0
 10
4.8745091158
 20
6.2262720038
 30
0.0
 10
4.868517432
 20
6.253606906
 30
0.0
 10
4.8657024365
 20
6.2673055999
 30
0.0
  0
SPLINE
  5
2C3
100
AcDbEntity
  8
0
100
AcDbSpline
 62
7
  6
CONTINUOUS
 70
0
 71
3
 72
40
 73
36
 74
0
 42
0.0000001
 43
0.0000001
 44
0.0000000001
 40
0.0
 40
0.0
 40
0.0
 40
0.0
 40
0.0317107762
 40
0.0630717034
 40
0.0941773731
 40
0.1251140143
 40
0.1559625082
 40
0.1868017508
 40
0.2177117117
 40
0.2487506083
 40
0.2799267186
 40
0.3112276638
 40
0.3740473896
 40
0.4055807191
 40
0.4371576647
 40
0.4687858944
 40
0.4846329805
 40
0.5005028339
 40
0.5322840504
 40
0.5640909228
 40
0.627483864
 40
0.6590424436
 40
0.6904509517
 40
0.7217237015
 40
0.7529209046
 40
0.7841392149
 40
0.8153810047
 40
0.8465750836
 40
0.8776319673
 40
0.8930871875
 40
0.9084769251
 40
0.9237941471
 40
0.9390402908
 40
0.9694508178
 40
1.0
 40
1.0
 40
1.0
 40
1.0
 10
5.1147461399
 20
5.3537320792
 30
0.0
 10
5.1194980529
 20
5.3539362573
 30
0.0
 10
5.1289365021
 20
5.3547945481
 30
0.0
 10
5.1428363684
 20
5.3574239191
 30
0.0
 10
5.1563097428
 20
5.3613412459
 30
0.0
 10
5.1692743628
 20
5.3665018399
 30
0.0
 10
5.181649951
 20
5.3728614268
 30
0.0
 10
5.1933563969
 20
5.3803748073
 30
0.0
 10
5.2043072453
 20
5.3889988137
 30
0.0
 10
5.2144209961
 20
5.3986620125
 30
0.0
 10
5.2236409092
 20
5.4092597474
 30
0.0
 10
5.2346604825
 20
5.4245065435
 30
0.0
 10
5.2436242683
 20
5.4412210624
 30
0.0
 10
5.2502527343
 20
5.4589288892
 30
0.0
 10
5.2540077241
 20
5.4726552759
 30
0.0
 10
5.2560568253
 20
5.4843534458
 30
0.0
 10
5.2570138989
 20
5.4938096466
 30
0.0
 10
5.2575113137
 20
5.5033237798
 30
0.0
 10
5.2572785468
 20
5.5152601588
 30
0.0
 10
5.2551229669
 20
5.5342031985
 30
0.0
 10
5.2503293031
 20
5.552742754
 30
0.0
 10
5.2429750834
 20
5.5702361996
 30
0.0
 10
5.2362090069
 20
5.5826763879
 30
0.0
 10
5.2282070049
 20
5.5942948072
 30
0.0
 10
5.218989816
 20
5.6049428162
 30
0.0
 10
5.2085955452
 20
5.614439325
 30
0.0
 10
5.1971976908
 20
5.6226995323
 30
0.0
 10
5.1849834373
 20
5.6296439281
 30
0.0
 10
5.1742573114
 20
5.6342698885
 30
0.0
 10
5.165449701
 20
5.6372206384
 30
0.0
 10
5.1587663729
 20
5.6390446942
 30
0.0
 10
5.1520190891
 20
5.6404720321
 30
0.0
 10
5.1429699237
 20
5.641828188
 30
0.0
 10
5.1315372891
 20
5.642539955
 30
0.0
 10
5.1223858145
 20
5.6421585569
 30
0.0
 10
5.1178210006
 20
5.6417612667
 30
0.0
  0
SPLINE
  5
2C4
100
AcDbEntity
  8
0
100
AcDbSpline
 62
7
  6
CONTINUOUS
 70
0
 71
3
 72
24
 73
20
 74
0
 42
0.0000001
 43
0.0000001
 44
0.0000000001
 40
0.0
 40
0.0
 40
0.0
 40
0.0
 40
0.0649237699
 40
0.128248786
 40
0.1905253798
 40
0.2522088463
 40
0.3136555794
 40
0.3751255184
 40
0.4367894822
 40
0.4677275603
 40
0.4987428934
 40
0.5298365896
 40
0.5610024627
 40
0.6235018801
 40
0.6861585547
 40
0.7489030269
 40
0.8116836811
 40
0.8744688964
 40
1.0
 40
1.0
 40
1.0
 40
1.0
 10
5.2840435398
 20
4.5660031014
 30
0.0
 10
5.2797957826
 20
4.5604182768
 30
0.0
 10
5.2718778797
 20
4.549016581
 30
0.0
 10
5.2616170475
 20
4.5311375211
 30
0.0
 10
5.2530028857
 20
4.5127973397
 30
0.0
 10
5.2458830188
 20
4.4940481514
 30
0.0
 10
5.2401028598
 20
4.4749381708
 30
0.0
 10
5.2355083615
 20
4.4555147356
 30
0.0
 10
5.2325428852
 20
4.4391223048
 30
0.0
 10
5.230609419
 20
4.4259021883
 30
0.0
 10
5.2293587262
 20
4.4159234617
 30
0.0
 10
5.2282881799
 20
4.4058992008
 30
0.0
 10
5.2270885955
 20
4.392468715
 30
0.0
 10
5.2260409819
 20
4.37560248
 30
0.0
 10
5.2255521012
 20
4.355295788
 30
0.0
 10
5.2258801806
 20
4.3349549782
 30
0.0
 10
5.2270749496
 20
4.3146309539
 30
0.0
 10
5.2298879892
 20
4.2876342015
 30
0.0
 10
5.2334507879
 20
4.2675495426
 30
0.0
 10
5.2365302673
 20
4.2543368173
 30
0.0
  0
SPLINE
  5
2C5
100
AcDbEntity
  8
0
100
AcDbSpline
 62
7
  6
CONTINUOUS
 70
0
 71
3
 72
15
 73
11
 74
0
 42
0.0000001
 43
0.0000001
 44
0.0000000001
 40
0.0
 40
0.0
 40
0.0
 40
0.0
 40
0.1289289292
 40
0.25295022
 40
0.373868577
 40
0.4936290642
 40
0.61423278
 40
0.7376398098
 40
0.8656815625
 40
1.0
 40
1.0
 40
1.0
 40
1.0
 10
5.0167026792
 20
4.4458270111
 30
0.0
 10
5.0212503006
 20
4.4500738845
 30
0.0
 10
5.0297472394
 20
4.4588806063
 30
0.0
 10
5.0406998728
 20
4.473273076
 30
0.0
 10
5.049553104
 20
4.4885412503
 30
0.0
 10
5.0562937493
 20
4.5046750926
 30
0.0
 10
5.0609163051
 20
4.5216617334
 30
0.0
 10
5.0634218786
 20
4.539487548
 30
0.0
 10
5.0638179567
 20
4.5581395711
 30
0.0
 10
5.0627120156
 20
4.5707792447
 30
0.0
 10
5.06184155
 20
4.577202922
 30
0.0
  0
SPLINE
  5
2C6
100
AcDbEntity
  8
0
100
AcDbSpline
 62
7
  6
CONTINUOUS
 70
0
 71
3
 72
15
 73
11
 74
0
 42
0.0000001
 43
0.0000001
 44
0.0000000001
 40
0.0
 40
0.0
 40
0.0
 40
0.0
 40
0.1327415554
 40
0.2598515485
 40
0.3829074369
 40
0.5036456846
 40
0.6239031949
 40
0.7455386528
 40
0.8703491969
 40
1.0
 40
1.0
 40
1.0
 40
1.0
 10
4.889923189
 20
4.407041218
 30
0.0
 10
4.8959435353
 20
4.4060758983
 30
0.0
 10
4.9078292753
 20
4.4047441005
 30
0.0
 10
4.925452572
 20
4.4046683776
 30
0.0
 10
4.9424238549
 20
4.4065719839
 30
0.0
 10
4.9587316845
 20
4.4104607762
 30
0.0
 10
4.9743647973
 20
4.4163351588
 30
0.0
 10
4.9893128069
 20
4.4241903823
 30
0.0
 10
5.0035673689
 20
4.434015664
 30
0.0
 10
5.0124089468
 20
4.4417003667
 30
0.0
 10
5.0167026762
 20
4.4458270149
 30
0.0
  0
SPLINE
  5
2C7
100
AcDbEntity
  8
0
100
AcDbSpline
 62
7
  6
CONTINUOUS
 70
0
 71
3
 72
23
 73
19
 74
0
 42
0.0000001
 43
0.0000001
 44
0.0000000001
 40
0.0
 40
0.0
 40
0.0
 40
0.0
 40
0.062531233
 40
0.1247986217
 40
0.1870379031
 40
0.218194757
 40
0.2493892339
 40
0.2806255885
 40
0.3118957277
 40
0.3744834987
 40
0.4370728285
 40
0.4996219402
 40
0.6246248312
 40
0.74989121
 40
0.8125192382
 40
0.875047442
 40
0.9375046111
 40
1.0
 40
1.0
 40
1.0
 40
1.0
 10
5.2120005614
 20
4.230445597
 30
0.0
 10
5.2055117269
 20
4.2321395232
 30
0.0
 10
5.1924391545
 20
4.2350655177
 30
0.0
 10
5.1726232001
 20
4.2382417108
 30
0.0
 10
5.1560194637
 20
4.2400392266
 30
0.0
 10
5.1426969881
 20
4.2410726095
 30
0.0
 10
5.1326773523
 20
4.2416710025
 30
0.0
 10
5.1226379877
 20
4.2421223642
 30
0.0
 10
5.1092276573
 20
4.2425262296
 30
0.0
 10
5.0924458064
 20
4.2426183835
 30
0.0
 10
5.0723173534
 20
4.2419603983
 30
0.0
 10
5.0455619822
 20
4.2399102407
 30
0.0
 10
5.0123250716
 20
4.2348572582
 30
0.0
 10
4.9799115614
 20
4.2257690099
 30
0.0
 10
4.9549235096
 20
4.2158709642
 30
0.0
 10
4.9367989851
 20
4.2070851441
 30
0.0
 10
4.9194419949
 20
4.1968934201
 30
0.0
 10
4.9084888891
 20
4.1891367547
 30
0.0
 10
4.9032002463
 20
4.185019344
 30
0.0
  0
SPLINE
  5
2C8
100
AcDbEntity
  8
0
100
AcDbSpline
 62
7
  6
CONTINUOUS
 70
0
 71
3
 72
50
 73
46
 74
0
 42
0.0000001
 43
0.0000001
 44
0.0000000001
 40
0.0
 40
0.0
 40
0.0
 40
0.0
 40
0.062496279
 40
0.0937839449
 40
0.1250805855
 40
0.156366099
 40
0.1876200094
 40
0.218829203
 40
0.2499893113
 40
0.2655539086
 40
0.2811094206
 40
0.3122123458
 40
0.3745406641
 40
0.3901839211
 40
0.4058542603
 40
0.4215530808
 40
0.437279766
 40
0.4530223551
 40
0.4687652983
 40
0.500201098
 40
0.5315309098
 40
0.5627614161
 40
0.5939781412
 40
0.625318784
 40
0.656707812
 40
0.6723812408
 40
0.6880242148
 40
0.7036371013
 40
0.7114359685
 40
0.7192324134
 40
0.7348287217
 40
0.7504438303
 40
0.7660788634
 40
0.7817221127
 40
0.7973508367
 40
0.8129502464
 40
0.8441127007
 40
0.8752980558
 40
0.8909073445
 40
0.9065228877
 40
0.9221378589
 40
0.9377434923
 40
0.9533350153
 40
0.9689101288
 40
1.0
 40
1.0
 40
1.0
 40
1.0
 10
6.3897860548
 20
3.792786142
 30
0.0
 10
6.3796879663
 20
3.8029716683
 30
0.0
 10
6.3654311057
 20
3.8191777304
 30
0.0
 10
6.3482825062
 20
3.8422081805
 30
0.0
 10
6.3363238836
 20
3.8601395831
 30
0.0
 10
6.3252785311
 20
3.8786367298
 30
0.0
 10
6.315207762
 20
3.8976607354
 30
0.0
 10
6.3061738368
 20
3.9171668952
 30
0.0
 10
6.2995588742
 20
3.933795503
 30
0.0
 10
6.2948493256
 20
3.9472923401
 30
0.0
 10
6.2905405393
 20
3.960909089
 30
0.0
 10
6.2840383945
 20
3.9850733878
 30
0.0
 10
6.2795563711
 20
4.0097603145
 30
0.0
 10
6.2770453997
 20
4.0311039503
 30
0.0
 10
6.2760458151
 20
4.0418481623
 30
0.0
 10
6.2753007243
 20
4.0526317844
 30
0.0
 10
6.274801558
 20
4.0634462565
 30
0.0
 10
6.274566818
 20
4.074280147
 30
0.0
 10
6.274642423
 20
4.088721679
 30
0.0
 10
6.2755262834
 20
4.1067303846
 30
0.0
 10
6.2780584857
 20
4.1281726937
 30
0.0
 10
6.2822717661
 20
4.1493040446
 30
0.0
 10
6.2883758027
 20
4.1699794739
 30
0.0
 10
6.2965503162
 20
4.1899713454
 30
0.0
 10
6.3051263539
 20
4.2058363889
 30
0.0
 10
6.3130502246
 20
4.2178580315
 30
0.0
 10
6.3195185325
 20
4.2264783398
 30
0.0
 10
6.3253495145
 20
4.2332945639
 30
0.0
 10
6.3302753871
 20
4.238495615
 30
0.0
 10
6.3353712152
 20
4.243524784
 30
0.0
 10
6.3420436461
 20
4.249502547
 30
0.0
 10
6.3504650192
 20
4.2561948542
 30
0.0
 10
6.3592418063
 20
4.26243106
 30
0.0
 10
6.3683136979
 20
4.268233644
 30
0.0
 10
6.3776238508
 20
4.2736281525
 30
0.0
 10
6.3902912373
 20
4.2803100881
 30
0.0
 10
6.4065642152
 20
4.2877760169
 30
0.0
 10
6.4232583715
 20
4.2942342654
 30
0.0
 10
6.436795909
 20
4.2989150501
 30
0.0
 10
6.4470277684
 20
4.3022136482
 30
0.0
 10
6.4573162737
 20
4.3053271332
 30
0.0
 10
6.4676440411
 20
4.3082874602
 30
0.0
 10
6.4780025252
 20
4.3111038125
 30
0.0
 10
6.4918389652
 20
4.314667835
 30
0.0
 10
6.5022610924
 20
4.3171387192
 30
0.0
 10
6.5092230546
 20
4.318700936
 30
0.0
  0
SPLINE
  5
2C9
100
AcDbEntity
  8
0
100
AcDbSpline
 62
7
  6
CONTINUOUS
 70
0
 71
3
 72
48
 73
44
 74
0
 42
0.0000001
 43
0.0000001
 44
0.0000000001
 40
0.0
 40
0.0
 40
0.0
 40
0.0
 40
0.0310585001
 40
0.0621941035
 40
0.0778132949
 40
0.0934766983
 40
0.1091779836
 40
0.1248963506
 40
0.1563104894
 40
0.1876180324
 40
0.2187970992
 40
0.2343636266
 40
0.2499389894
 40
0.2655534753
 40
0.2812321524
 40
0.2969600295
 40
0.312713844
 40
0.3442000783
 40
0.359907647
 40
0.3755680659
 40
0.391172629
 40
0.3989538388
 40
0.4067225376
 40
0.4222427534
 40
0.4377737017
 40
0.4689542912
 40
0.5003626439
 40
0.5319399852
 40
0.5477439917
 40
0.5635197749
 40
0.5792460456
 40
0.5949249759
 40
0.6261618905
 40
0.6572826336
 40
0.6883444647
 40
0.7194115461
 40
0.734970195
 40
0.7505536278
 40
0.7817615726
 40
0.8129785028
 40
0.8753143116
 40
0.9377621253
 40
1.0
 40
1.0
 40
1.0
 40
1.0
 10
5.1483191194
 20
2.957071412
 30
0.0
 10
5.1498262349
 20
2.9640496932
 30
0.0
 10
5.1530952038
 20
2.9779704141
 30
0.0
 10
5.1577560381
 20
2.99524188
 30
0.0
 10
5.161804222
 20
3.0090069415
 30
0.0
 10
5.1649944651
 20
3.0193251594
 30
0.0
 10
5.1683439076
 20
3.0296170239
 30
0.0
 10
5.1730688084
 20
3.0432660419
 30
0.0
 10
5.1795279444
 20
3.0601086558
 30
0.0
 10
5.1884246993
 20
3.0797899488
 30
0.0
 10
5.1970074262
 20
3.0955707687
 30
0.0
 10
5.2046801718
 20
3.1076734174
 30
0.0
 10
5.2108696913
 20
3.1164653555
 30
0.0
 10
5.2175256177
 20
3.124943352
 30
0.0
 10
5.2246635909
 20
3.1330666109
 30
0.0
 10
5.2322588474
 20
3.1408095106
 30
0.0
 10
5.242951322
 20
3.1505726576
 30
0.0
 10
5.2544397153
 20
3.1594299106
 30
0.0
 10
5.2666080383
 20
3.1672311115
 30
0.0
 10
5.2760341724
 20
3.1725107047
 30
0.0
 10
5.2841255966
 20
3.1764091999
 30
0.0
 10
5.2907201319
 20
3.1792040721
 30
0.0
 10
5.2973834662
 20
3.1817772223
 30
0.0
 10
5.3058543491
 20
3.1846013732
 30
0.0
 10
5.319670107
 20
3.1883341572
 30
0.0
 10
5.3373557756
 20
3.1916229051
 30
0.0
 10
5.3589226024
 20
3.1936953935
 30
0.0
 10
5.3770400203
 20
3.1941552106
 30
0.0
 10
5.3915566581
 20
3.1939296728
 30
0.0
 10
5.4024232313
 20
3.1935064185
 30
0.0
 10
5.4132499693
 20
3.192861818
 30
0.0
 10
5.4276028652
 20
3.1916984874
 30
0.0
 10
5.4454313979
 20
3.1896655739
 30
0.0
 10
5.4666414772
 20
3.1862633716
 30
0.0
 10
5.4876294834
 20
3.1818712156
 30
0.0
 10
5.5049165588
 20
3.1773625388
 30
0.0
 10
5.5186090327
 20
3.1732354814
 30
0.0
 10
5.53222284
 20
3.1687522651
 30
0.0
 10
5.5490269824
 20
3.1624624906
 30
0.0
 10
5.5752567431
 20
3.1508452509
 30
0.0
 10
5.6066101346
 20
3.1331351388
 30
0.0
 10
5.6403872897
 20
3.1063673561
 30
0.0
 10
5.6615251798
 20
3.0870198633
 30
0.0
 10
5.6721336994
 20
3.0774217
 30
0.0
  0
SPLINE
  5
2CA
100
AcDbEntity
  8
0
100
AcDbSpline
 62
7
  6
CONTINUOUS
 70
0
 71
3
 72
34
 73
30
 74
0
 42
0.0000001
 43
0.0000001
 44
0.0000000001
 40
0.0
 40
0.0
 40
0.0
 40
0.0
 40
0.0624164139
 40
0.1246166493
 40
0.1556575365
 40
0.1866923705
 40
0.2022231498
 40
0.2177706223
 40
0.2489027856
 40
0.2800675099
 40
0.3112541229
 40
0.3424676014
 40
0.3737293457
 40
0.405039499
 40
0.4363557693
 40
0.4676413385
 40
0.4988710622
 40
0.5300339664
 40
0.5455939107
 40
0.5611439777
 40
0.5922450779
 40
0.6233997527
 40
0.6546458143
 40
0.6860024638
 40
0.7490214753
 40
0.8123315673
 40
0.8755967907
 40
0.9383436284
 40
1.0
 40
1.0
 40
1.0
 40
1.0
 10
6.2170761371
 20
3.5409271501
 30
0.0
 10
6.2126310018
 20
3.5494572208
 30
0.0
 10
6.2040063296
 20
3.5666161669
 30
0.0
 10
6.1931397697
 20
3.5880040315
 30
0.0
 10
6.1839745229
 20
3.6048224177
 30
0.0
 10
6.1779608944
 20
3.6151628758
 30
0.0
 10
6.1729251724
 20
3.6233039447
 30
0.0
 10
6.1677185399
 20
3.6313545929
 30
0.0
 10
6.1608899813
 20
3.6412227061
 30
0.0
 10
6.152166009
 20
3.6526937806
 30
0.0
 10
6.1428902175
 20
3.6637409588
 30
0.0
 10
6.133045116
 20
3.674305614
 30
0.0
 10
6.1226150587
 20
3.6843220656
 30
0.0
 10
6.1116087269
 20
3.6937267494
 30
0.0
 10
6.1000618277
 20
3.7024659372
 30
0.0
 10
6.0880119204
 20
3.7104763608
 30
0.0
 10
6.0754983875
 20
3.7176947717
 30
0.0
 10
6.0647096513
 20
3.7230011736
 30
0.0
 10
6.0558880726
 20
3.7267839223
 30
0.0
 10
6.0469488741
 20
3.7302532968
 30
0.0
 10
6.0355557697
 20
3.7340211874
 30
0.0
 10
6.0216037958
 20
3.737658655
 30
0.0
 10
6.0074181928
 20
3.740448802
 30
0.0
 10
5.9882311874
 20
3.7430897802
 30
0.0
 10
5.9639209129
 20
3.744439211
 30
0.0
 10
5.9346888063
 20
3.743234642
 30
0.0
 10
5.9057189035
 20
3.7394933542
 30
0.0
 10
5.8773985865
 20
3.7334946016
 30
0.0
 10
5.8589776685
 20
3.7281077929
 30
0.0
 10
5.8499639751
 20
3.7251019442
 30
0.0
  0
SPLINE
  5
2CB
100
AcDbEntity
  8
0
100
AcDbSpline
 62
7
  6
CONTINUOUS
 70
0
 71
3
 72
20
 73
16
 74
0
 42
0.0000001
 43
0.0000001
 44
0.0000000001
 40
0.0
 40
0.0
 40
0.0
 40
0.0
 40
0.1246248271
 40
0.187554079
 40
0.250818144
 40
0.3143338398
 40
0.3779915201
 40
0.4416591206
 40
0.5051857395
 40
0.5684048
 40
0.631139983
 40
0.6933323815
 40
0.755087967
 40
0.8777299086
 40
1.0
 40
1.0
 40
1.0
 40
1.0
 10
6.161313863
 20
4.1054751555
 30
0.0
 10
6.1608440039
 20
4.0853589966
 30
0.0
 10
6.1620972463
 20
4.0550065507
 30
0.0
 10
6.1671580122
 20
4.0148168659
 30
0.0
 10
6.1725802245
 20
3.9846552115
 30
0.0
 10
6.179512445
 20
3.9546876705
 30
0.0
 10
6.1878514224
 20
3.9250136548
 30
0.0
 10
6.1974940199
 20
3.8957366735
 30
0.0
 10
6.2083370067
 20
3.8669591975
 30
0.0
 10
6.220278414
 20
3.8387840533
 30
0.0
 10
6.2332217406
 20
3.8112934254
 30
0.0
 10
6.2471118748
 20
3.7845343471
 30
0.0
 10
6.2668267086
 20
3.7499343828
 30
0.0
 10
6.2938490947
 20
3.7083815542
 30
0.0
 10
6.3179478516
 20
3.6769739384
 30
0.0
 10
6.3305495177
 20
3.6617777855
 30
0.0
  0
SPLINE
  5
2CC
100
AcDbEntity
  8
0
100
AcDbSpline
 62
7
  6
CONTINUOUS
 70
0
 71
3
 72
28
 73
24
 74
0
 42
0.0000001
 43
0.0000001
 44
0.0000000001
 40
0.0
 40
0.0
 40
0.0
 40
0.0
 40
0.062749486
 40
0.125851903
 40
0.1890476271
 40
0.2521138426
 40
0.3148793947
 40
0.3772413682
 40
0.4391834863
 40
0.5007958214
 40
0.5623390439
 40
0.6241978488
 40
0.6865329843
 40
0.7178677341
 40
0.7492815928
 40
0.7807410348
 40
0.7964755616
 40
0.8122068825
 40
0.8436491395
 40
0.875049763
 40
0.9063941242
 40
0.9376714733
 40
1.0
 40
1.0
 40
1.0
 40
1.0
 10
5.7132372168
 20
3.9088996236
 30
0.0
 10
5.723381611
 20
3.9074565496
 30
0.0
 10
5.743835394
 20
3.9052703896
 30
0.0
 10
5.774709576
 20
3.9041452258
 30
0.0
 10
5.8056398897
 20
3.9052462935
 30
0.0
 10
5.8363478548
 20
3.9086621101
 30
0.0
 10
5.8665574872
 20
3.914482055
 30
0.0
 10
5.8959921312
 20
3.9227977768
 30
0.0
 10
5.9243733112
 20
3.9337016248
 30
0.0
 10
5.9514305007
 20
3.9472970485
 30
0.0
 10
5.9768775245
 20
3.9636742357
 30
0.0
 10
6.0008660603
 20
3.9822819233
 30
0.0
 10
6.0198170401
 20
3.9992132764
 30
0.0
 10
6.0345111192
 20
4.0134020005
 30
0.0
 10
6.0453445148
 20
4.0243255266
 30
0.0
 10
6.0542227409
 20
4.0335966774
 30
0.0
 10
6.0612549493
 20
4.0410886324
 30
0.0
 10
6.0682404915
 20
4.0486202917
 30
0.0
 10
6.076871526
 20
4.0581145724
 30
0.0
 10
6.0870395008
 20
4.0696548965
 30
0.0
 10
6.0969824315
 20
4.0813549383
 30
0.0
 10
6.1098783675
 20
4.0971670689
 30
0.0
 10
6.1191371841
 20
4.1093394755
 30
0.0
 10
6.1250731984
 20
4.1176069404
 30
0.0
  0
SPLINE
  5
2CD
100
AcDbEntity
  8
0
100
AcDbSpline
 62
7
  6
CONTINUOUS
 70
0
 71
3
 72
37
 73
33
 74
0
 42
0.0000001
 43
0.0000001
 44
0.0000000001
 40
0.0
 40
0.0
 40
0.0
 40
0.0
 40
0.0613893422
 40
0.1241437853
 40
0.1875561341
 40
0.2510445031
 40
0.3141831956
 40
0.3455564686
 40
0.3767866266
 40
0.4078959072
 40
0.4389307551
 40
0.4544445124
 40
0.4699688851
 40
0.5010711571
 40
0.5322671383
 40
0.5635529297
 40
0.6262446438
 40
0.6888209788
 40
0.7200309466
 40
0.7511818655
 40
0.7667361557
 40
0.7822751353
 40
0.7977985643
 40
0.813308946
 40
0.8288161477
 40
0.8443282666
 40
0.8753835251
 40
0.9064869519
 40
0.9376281748
 40
0.9687960444
 40
0.9843917897
 40
1.0
 40
1.0
 40
1.0
 40
1.0
 10
5.7448948128
 20
3.6178832388
 30
0.0
 10
5.7421216182
 20
3.6088274382
 30
0.0
 10
5.7370667512
 20
3.5903392894
 30
0.0
 10
5.7312447584
 20
3.5619740502
 30
0.0
 10
5.7274251933
 20
3.5329360559
 30
0.0
 10
5.7259690887
 20
3.5036186486
 30
0.0
 10
5.7270358444
 20
3.4792201598
 30
0.0
 10
5.7294574746
 20
3.4599637806
 30
0.0
 10
5.7320967104
 20
3.4457398073
 30
0.0
 10
5.7356092169
 20
3.4317591237
 30
0.0
 10
5.7393049308
 20
3.4203515417
 30
0.0
 10
5.7427406118
 20
3.4114106735
 30
0.0
 10
5.7465083662
 20
3.4025932127
 30
0.0
 10
5.7518260691
 20
3.3918168157
 30
0.0
 10
5.7590872815
 20
3.3793257629
 30
0.0
 10
5.7698483559
 20
3.3632771958
 30
0.0
 10
5.7850944098
 20
3.3444718619
 30
0.0
 10
5.8022691114
 20
3.3274393395
 30
0.0
 10
5.8169942931
 20
3.3149905318
 30
0.0
 10
5.8265758335
 20
3.3077215807
 30
0.0
 10
5.8344504344
 20
3.3022242065
 30
0.0
 10
5.8404546161
 20
3.2982637743
 30
0.0
 10
5.8465555667
 20
3.294466962
 30
0.0
 10
5.8527500112
 20
3.2908345715
 30
0.0
 10
5.8590229601
 20
3.287343577
 30
0.0
 10
5.8674776956
 20
3.2828449036
 30
0.0
 10
5.8781821565
 20
3.277456916
 30
0.0
 10
5.8911370011
 20
3.2711833521
 30
0.0
 10
5.9041109328
 20
3.2649094039
 30
0.0
 10
5.9148564245
 20
3.2595229502
 30
0.0
 10
5.9233640257
 20
3.2550261632
 30
0.0
 10
5.9275779742
 20
3.2526978921
 30
0.0
 10
5.9296744754
 20
3.2515133996
 30
0.0
  0
SPLINE
  5
2CE
100
AcDbEntity
  8
0
100
AcDbSpline
 62
7
  6
CONTINUOUS
 70
0
 71
3
 72
28
 73
24
 74
0
 42
0.0000001
 43
0.0000001
 44
0.0000000001
 40
0.0
 40
0.0
 40
0.0
 40
0.0
 40
0.0635538314
 40
0.1279115294
 40
0.1924951528
 40
0.2567898004
 40
0.320386727
 40
0.3830474103
 40
0.4140051517
 40
0.4447197623
 40
0.4752158595
 40
0.5055341065
 40
0.5206455681
 40
0.535735913
 40
0.5658896199
 40
0.5960701513
 40
0.626334439
 40
0.6872546715
 40
0.7488543484
 40
0.8111336932
 40
0.8739440795
 40
0.9370189775
 40
1.0
 40
1.0
 40
1.0
 40
1.0
 10
5.3417807665
 20
3.3452541944
 30
0.0
 10
5.3506453351
 20
3.3510396506
 30
0.0
 10
5.3683585133
 20
3.362882381
 30
0.0
 10
5.3944819478
 20
3.381480622
 30
0.0
 10
5.4199930449
 20
3.4011189306
 30
0.0
 10
5.4444762271
 20
3.4218367358
 30
0.0
 10
5.4675203474
 20
3.4436889647
 30
0.0
 10
5.4852472144
 20
3.4630008243
 30
0.0
 10
5.4982693206
 20
3.4791105398
 30
0.0
 10
5.5073699624
 20
3.4914810235
 30
0.0
 10
5.5157902234
 20
3.504197367
 30
0.0
 10
5.5222035847
 20
3.5151048215
 30
0.0
 10
5.52693597
 20
3.5240065066
 30
0.0
 10
5.5313901726
 20
3.533020066
 30
0.0
 10
5.5364577424
 20
3.544523432
 30
0.0
 10
5.5417662574
 20
3.5586567118
 30
0.0
 10
5.5478731711
 20
3.5779347897
 30
0.0
 10
5.5537499258
 20
3.6027358314
 30
0.0
 10
5.5582609127
 20
3.6332146654
 30
0.0
 10
5.5605456536
 20
3.6642495164
 30
0.0
 10
5.560894747
 20
3.6956051032
 30
0.0
 10
5.5595964285
 20
3.7270473264
 30
0.0
 10
5.557817484
 20
3.7479738375
 30
0.0
 10
5.5567426334
 20
3.7584086847
 30
0.0
  0
SPLINE
  5
2CF
100
AcDbEntity
  8
0
100
AcDbSpline
 62
7
  6
CONTINUOUS
 70
0
 71
3
 72
21
 73
17
 74
0
 42
0.0000001
 43
0.0000001
 44
0.0000000001
 40
0.0
 40
0.0
 40
0.0
 40
0.0
 40
0.1240598666
 40
0.248429775
 40
0.3106539887
 40
0.3728649526
 40
0.4350546893
 40
0.4972283593
 40
0.5594056144
 40
0.621621921
 40
0.6839298127
 40
0.7464000159
 40
0.8091223878
 40
0.8722065969
 40
0.9357824777
 40
1.0
 40
1.0
 40
1.0
 40
1.0
 10
5.8044113482
 20
3.1372150758
 30
0.0
 10
5.7892677152
 20
3.1509977752
 30
0.0
 10
5.7578132119
 20
3.1773848405
 30
0.0
 10
5.7158580479
 20
3.2069771205
 30
0.0
 10
5.6807976191
 20
3.2283826631
 30
0.0
 10
5.6537943709
 20
3.2432272963
 30
0.0
 10
5.6261314058
 20
3.2567846563
 30
0.0
 10
5.5978476985
 20
3.2689825123
 30
0.0
 10
5.5689828583
 20
3.2797481436
 30
0.0
 10
5.5395763653
 20
3.2890088035
 30
0.0
 10
5.509667827
 20
3.2966915889
 30
0.0
 10
5.4792969126
 20
3.3027234752
 30
0.0
 10
5.4485035873
 20
3.307031338
 30
0.0
 10
5.4173274796
 20
3.309541938
 30
0.0
 10
5.3858104325
 20
3.3101821538
 30
0.0
 10
5.3647193758
 20
3.3093180497
 30
0.0
 10
5.3541473308
 20
3.3085572183
 30
0.0
  0
SPLINE
  5
2D0
100
AcDbEntity
  8
0
100
AcDbSpline
 62
7
  6
CONTINUOUS
 70
0
 71
3
 72
23
 73
19
 74
0
 42
0.0000001
 43
0.0000001
 44
0.0000000001
 40
0.0
 40
0.0
 40
0.0
 40
0.0
 40
0.0623919881
 40
0.1249625626
 40
0.1875010456
 40
0.2499821432
 40
0.3124605511
 40
0.3749695682
 40
0.4374815902
 40
0.4999996722
 40
0.5625177889
 40
0.6250298055
 40
0.6875387283
 40
0.7500170108
 40
0.8124980719
 40
0.8750368704
 40
0.9376079184
 40
1.0
 40
1.0
 40
1.0
 40
1.0
 10
5.5268144448
 20
4.3839357355
 30
0.0
 10
5.5257146629
 20
4.38486276
 30
0.0
 10
5.5233759583
 20
4.3865641611
 30
0.0
 10
5.5195475322
 20
4.3886005852
 30
0.0
 10
5.5154643073
 20
4.3900705841
 30
0.0
 10
5.5112149837
 20
4.3909403539
 30
0.0
 10
5.5068850107
 20
4.3911884583
 30
0.0
 10
5.5025641357
 20
4.3908072341
 30
0.0
 10
5.4983423624
 20
4.3898054715
 30
0.0
 10
5.4943136592
 20
4.3881937822
 30
0.0
 10
5.4905603085
 20
4.3860165512
 30
0.0
 10
5.4871679541
 20
4.3833112278
 30
0.0
 10
5.4842028554
 20
4.3801452539
 30
0.0
 10
5.4817274223
 20
4.3765840252
 30
0.0
 10
5.4797909438
 20
4.3727028789
 30
0.0
 10
5.4784293111
 20
4.3685822341
 30
0.0
 10
5.4776706511
 20
4.3643127504
 30
0.0
 10
5.4775673047
 20
4.3614224647
 30
0.0
 10
5.4776186704
 20
4.3599850147
 30
0.0
  0
SPLINE
  5
2D1
100
AcDbEntity
  8
0
100
AcDbSpline
 62
7
  6
CONTINUOUS
 70
0
 71
3
 72
82
 73
78
 74
0
 42
0.0000001
 43
0.0000001
 44
0.0000000001
 40
0.0
 40
0.0
 40
0.0
 40
0.0
 40
0.0155149888
 40
0.0310645107
 40
0.0466928552
 40
0.0624006646
 40
0.0781555134
 40
0.0860339736
 40
0.0939021011
 40
0.1017535061
 40
0.1095882378
 40
0.1252126224
 40
0.1563259362
 40
0.1873870598
 40
0.2029667348
 40
0.2185864891
 40
0.2342160771
 40
0.249829635
 40
0.2576246391
 40
0.2654089745
 40
0.273181397
 40
0.2809418913
 40
0.2886959008
 40
0.2964505327
 40
0.3119847897
 40
0.3275852636
 40
0.3354195656
 40
0.3432799227
 40
0.3511679672
 40
0.35907932
 40
0.3749330232
 40
0.3907613848
 40
0.4064940969
 40
0.4220868846
 40
0.4298297359
 40
0.4375422635
 40
0.4452344162
 40
0.4529212312
 40
0.4567692193
 40
0.4606240419
 40
0.468359993
 40
0.4761338014
 40
0.483944354
 40
0.4996524111
 40
0.5154264253
 40
0.5311725731
 40
0.5468390426
 40
0.5624645667
 40
0.5780826267
 40
0.5937124094
 40
0.6093600903
 40
0.6250195419
 40
0.6406788426
 40
0.6563301563
 40
0.6719714826
 40
0.6876075447
 40
0.7032505863
 40
0.7189090942
 40
0.7345719937
 40
0.7502269318
 40
0.765864299
 40
0.7814786748
 40
0.7970737491
 40
0.8126654473
 40
0.8282703997
 40
0.8438920182
 40
0.8594987129
 40
0.8672937701
 40
0.8750843268
 40
0.8906628847
 40
0.906258881
 40
0.9218696215
 40
0.9374704818
 40
0.9530574608
 40
0.9686508411
 40
0.9842961192
 40
1.0
 40
1.0
 40
1.0
 40
1.0
 10
6.4866753641
 20
4.47061526
 30
0.0
 10
6.4782256596
 20
4.4702786176
 30
0.0
 10
6.4613320265
 20
4.4688131745
 30
0.0
 10
6.436210602
 20
4.4646168154
 30
0.0
 10
6.4113111906
 20
4.4588046557
 30
0.0
 10
6.3866251225
 20
4.4517511024
 30
0.0
 10
6.3662215505
 20
4.4451477338
 30
0.0
 10
6.3499710046
 20
4.4396048895
 30
0.0
 10
6.3378267571
 20
4.4353679991
 30
0.0
 10
6.3257224768
 20
4.431089391
 30
0.0
 10
6.3096639351
 20
4.4253130319
 30
0.0
 10
6.281774717
 20
4.414970428
 30
0.0
 10
6.2424077944
 20
4.3991772467
 30
0.0
 10
6.2039415595
 20
4.3813166723
 30
0.0
 10
6.1739540035
 20
4.3654165427
 30
0.0
 10
6.1518733641
 20
4.3525996289
 30
0.0
 10
6.1303204643
 20
4.3388784853
 30
0.0
 10
6.1128855949
 20
4.3266673051
 30
0.0
 10
6.0993143265
 20
4.3164240834
 30
0.0
 10
6.0893460415
 20
4.308507924
 30
0.0
 10
6.0795968726
 20
4.3003525871
 30
0.0
 10
6.0700807648
 20
4.2919513886
 30
0.0
 10
6.0607892865
 20
4.2833168803
 30
0.0
 10
6.0486710424
 20
4.2715069403
 30
0.0
 10
6.0339852815
 20
4.2562131904
 30
0.0
 10
6.0198516275
 20
4.2403529756
 30
0.0
 10
6.0087938238
 20
4.2273648413
 30
0.0
 10
6.0005915626
 20
4.2174678685
 30
0.0
 10
5.99248047
 20
4.2074421656
 30
0.0
 10
5.9817416929
 20
4.1939392167
 30
0.0
 10
5.9683990472
 20
4.1769781509
 30
0.0
 10
5.9521980607
 20
4.1568413736
 30
0.0
 10
5.9355037313
 20
4.1372932889
 30
0.0
 10
5.9208980357
 20
4.1217785388
 30
0.0
 10
5.9086774354
 20
4.1100671301
 30
0.0
 10
5.8992291335
 20
4.1017004727
 30
0.0
 10
5.8894413655
 20
4.0937809688
 30
0.0
 10
5.8809738421
 20
4.0875977488
 30
0.0
 10
5.8740031799
 20
4.0829301913
 30
0.0
 10
5.866879894
 20
4.0784484545
 30
0.0
 10
5.8577081328
 20
4.0732135871
 30
0.0
 10
5.8463405088
 20
4.0675138768
 30
0.0
 10
5.8307178149
 20
4.0606550494
 30
0.0
 10
5.8105032652
 20
4.0534807968
 30
0.0
 10
5.7855561849
 20
4.0470182429
 30
0.0
 10
5.7601947515
 20
4.0425884034
 30
0.0
 10
5.7346534659
 20
4.0401082347
 30
0.0
 10
5.7090723187
 20
4.0394747961
 30
0.0
 10
5.6835293522
 20
4.0405673066
 30
0.0
 10
5.6580962427
 20
4.0432675256
 30
0.0
 10
5.632844569
 20
4.0474530143
 30
0.0
 10
5.6078446641
 20
4.0530188521
 30
0.0
 10
5.5831982733
 20
4.0599971188
 30
0.0
 10
5.5590127458
 20
4.0684080549
 30
0.0
 10
5.5353962922
 20
4.0782752972
 30
0.0
 10
5.5124566973
 20
4.0896206243
 30
0.0
 10
5.4903103014
 20
4.1024674287
 30
0.0
 10
5.4690815228
 20
4.1168066837
 30
0.0
 10
5.4488749648
 20
4.132564285
 30
0.0
 10
5.4298106603
 20
4.1496698393
 30
0.0
 10
5.41200847
 20
4.1680495267
 30
0.0
 10
5.3955891034
 20
4.1876334766
 30
0.0
 10
5.3806658343
 20
4.2083497948
 30
0.0
 10
5.3672941021
 20
4.2300934429
 30
0.0
 10
5.3555297601
 20
4.2527629935
 30
0.0
 10
5.3454365116
 20
4.2762347603
 30
0.0
 10
5.3386324514
 20
4.2964170971
 30
0.0
 10
5.3343016595
 20
4.3128632804
 30
0.0
 10
5.3307627359
 20
4.3294825169
 30
0.0
 10
5.327893369
 20
4.3505629268
 30
0.0
 10
5.3268718009
 20
4.3760782926
 30
0.0
 10
5.3282091783
 20
4.4015936335
 30
0.0
 10
5.3320353778
 20
4.4268568331
 30
0.0
 10
5.3384872232
 20
4.4515764131
 30
0.0
 10
5.3476703878
 20
4.4754511414
 30
0.0
 10
5.3596364454
 20
4.4981317843
 30
0.0
 10
5.3694693511
 20
4.5121801425
 30
0.0
 10
5.3748658617
 20
4.5188239644
 30
0.0
  0
SPLINE
  5
2D2
100
AcDbEntity
  8
0
100
AcDbSpline
 62
7
  6
CONTINUOUS
 70
0
 71
3
 72
57
 73
53
 74
0
 42
0.0000001
 43
0.0000001
 44
0.0000000001
 40
0.0
 40
0.0
 40
0.0
 40
0.0
 40
0.0077868073
 40
0.0155437035
 40
0.0194139691
 40
0.0232818619
 40
0.0310200832
 40
0.0387749944
 40
0.0465575323
 40
0.0622255259
 40
0.0780451683
 40
0.0939848208
 40
0.1099755821
 40
0.1259195496
 40
0.1417338684
 40
0.157430615
 40
0.1730430651
 40
0.1886089126
 40
0.2041702349
 40
0.2197691641
 40
0.2510640328
 40
0.2667349315
 40
0.2823841931
 40
0.2901934534
 40
0.2979901772
 40
0.3135676131
 40
0.3291525144
 40
0.3447569126
 40
0.3603759973
 40
0.3681865954
 40
0.3759951367
 40
0.3916044525
 40
0.4072034361
 40
0.4227925617
 40
0.4383730907
 40
0.4539473829
 40
0.469519206
 40
0.4850940431
 40
0.5006788038
 40
0.5162758466
 40
0.5318839469
 40
0.5631257008
 40
0.594391255
 40
0.6256634034
 40
0.6569224544
 40
0.6881466083
 40
0.7193212068
 40
0.7504713814
 40
0.8127891921
 40
0.8751858527
 40
0.9376187569
 40
1.0
 40
1.0
 40
1.0
 40
1.0
 10
5.7845958264
 20
4.442001919
 30
0.0
 10
5.7858640411
 20
4.4405645863
 30
0.0
 10
5.7884322947
 20
4.4377273563
 30
0.0
 10
5.7917756522
 20
4.4343099228
 30
0.0
 10
5.794547782
 20
4.4316891787
 30
0.0
 10
5.7973931877
 20
4.429155041
 30
0.0
 10
5.8010975459
 20
4.426151313
 30
0.0
 10
5.8057521678
 20
4.422804922
 30
0.0
 10
5.8122285735
 20
4.4186679687
 30
0.0
 10
5.82076901
 20
4.4141031196
 30
0.0
 10
5.831534526
 20
4.409550909
 30
0.0
 10
5.8427010841
 20
4.4058449394
 30
0.0
 10
5.8541269644
 20
4.4029233239
 30
0.0
 10
5.8656794453
 20
4.4007197729
 30
0.0
 10
5.8772655002
 20
4.3991786628
 30
0.0
 10
5.8888414916
 20
4.3983285473
 30
0.0
 10
5.900386946
 20
4.3981833725
 30
0.0
 10
5.9118857909
 20
4.3987590601
 30
0.0
 10
5.9233218922
 20
4.4000698676
 30
0.0
 10
5.9384567668
 20
4.4028208048
 30
0.0
 10
5.9533216773
 20
4.4070308769
 30
0.0
 10
5.9677116488
 20
4.4125726285
 30
0.0
 10
5.9764807666
 20
4.4165747554
 30
0.0
 10
5.9833287378
 20
4.4200842971
 30
0.0
 10
5.9900526745
 20
4.4237897054
 30
0.0
 10
5.9982613843
 20
4.4287568227
 30
0.0
 10
6.0078529745
 20
4.4351277637
 30
0.0
 10
6.017256077
 20
4.441789439
 30
0.0
 10
6.0249950271
 20
4.447485257
 30
0.0
 10
6.0311667796
 20
4.4520724107
 30
0.0
 10
6.0373363444
 20
4.4566585015
 30
0.0
 10
6.0450508008
 20
4.4623800229
 30
0.0
 10
6.0543307668
 20
4.4692058542
 30
0.0
 10
6.0636495359
 20
4.4759666643
 30
0.0
 10
6.0730247143
 20
4.4826387085
 30
0.0
 10
6.0824739053
 20
4.489198257
 30
0.0
 10
6.0920148648
 20
4.4956213195
 30
0.0
 10
6.1016646566
 20
4.5018847816
 30
0.0
 10
6.1114409442
 20
4.5079609167
 30
0.0
 10
6.121344578
 20
4.5138432847
 30
0.0
 10
6.134713951
 20
4.5214322196
 30
0.0
 10
6.1517118455
 20
4.5304344001
 30
0.0
 10
6.1725137499
 20
4.5404571675
 30
0.0
 10
6.193678615
 20
4.5496994813
 30
0.0
 10
6.2151580235
 20
4.5581566293
 30
0.0
 10
6.2369055603
 20
4.565826524
 30
0.0
 10
6.2588879234
 20
4.5727036666
 30
0.0
 10
6.2884467699
 20
4.5809470256
 30
0.0
 10
6.3257937585
 20
4.5897997941
 30
0.0
 10
6.370941597
 20
4.5989804086
 30
0.0
 10
6.4162089381
 20
4.6076190871
 30
0.0
 10
6.4463447328
 20
4.613618053
 30
0.0
 10
6.4613618733
 20
4.6168267846
 30
0.0
  0
SPLINE
  5
2D3
100
AcDbEntity
  8
0
100
AcDbSpline
 62
7
  6
CONTINUOUS
 70
0
 71
3
 72
37
 73
33
 74
0
 42
0.0000001
 43
0.0000001
 44
0.0000000001
 40
0.0
 40
0.0
 40
0.0
 40
0.0
 40
0.0307282628
 40
0.0614987516
 40
0.0923336416
 40
0.1232331186
 40
0.1850985121
 40
0.2470090186
 40
0.2780020885
 40
0.3090259516
 40
0.3711752296
 40
0.4336578305
 40
0.465126939
 40
0.4967915993
 40
0.5127255384
 40
0.5287336033
 40
0.5609156228
 40
0.5932246838
 40
0.6255225483
 40
0.6894808805
 40
0.7210158816
 40
0.7521677445
 40
0.7829750246
 40
0.7982945813
 40
0.8135860038
 40
0.828882012
 40
0.8442114823
 40
0.8750275037
 40
0.9061082737
 40
0.9374004132
 40
0.9687649597
 40
1.0
 40
1.0
 40
1.0
 40
1.0
 10
5.4776186479
 20
4.3599850139
 30
0.0
 10
5.4777866869
 20
4.3552819044
 30
0.0
 10
5.4786037897
 20
4.3458799108
 30
0.0
 10
5.4812084619
 20
4.3319597862
 30
0.0
 10
5.485131458
 20
4.3183235623
 30
0.0
 10
5.4920369996
 20
4.3006743987
 30
0.0
 10
5.5036655792
 20
4.2798769828
 30
0.0
 10
5.5188920182
 20
4.2615206641
 30
0.0
 10
5.5329809724
 20
4.2487652095
 30
0.0
 10
5.5482293935
 20
4.2373623914
 30
0.0
 10
5.5692383419
 20
4.2257958502
 30
0.0
 10
5.5920869072
 20
4.2182691416
 30
0.0
 10
5.6110503315
 20
4.2148871989
 30
0.0
 10
5.6231429172
 20
4.2139195121
 30
0.0
 10
5.6328876434
 20
4.2138625805
 30
0.0
 10
5.6427025157
 20
4.2142937824
 30
0.0
 10
5.6549670636
 20
4.2157323304
 30
0.0
 10
5.6694843764
 20
4.2188409602
 30
0.0
 10
5.6882885544
 20
4.2247464889
 30
0.0
 10
5.7060886243
 20
4.2332422244
 30
0.0
 10
5.722115547
 20
4.2442206818
 30
0.0
 10
5.7329859642
 20
4.2535897323
 30
0.0
 10
5.7409840563
 20
4.2623594162
 30
0.0
 10
5.7466183773
 20
4.2698991196
 30
0.0
 10
5.7504385383
 20
4.2758083335
 30
0.0
 10
5.7538435486
 20
4.2819674925
 30
0.0
 10
5.7578544067
 20
4.2904858587
 30
0.0
 10
5.761888844
 20
4.3016359397
 30
0.0
 10
5.7652340968
 20
4.315536445
 30
0.0
 10
5.7671850437
 20
4.3297818409
 30
0.0
 10
5.7678282396
 20
4.34416489
 30
0.0
 10
5.7674399465
 20
4.3537572949
 30
0.0
 10
5.7670512819
 20
4.3585252045
 30
0.0
  0
SPLINE
  5
2D4
100
AcDbEntity
  8
0
100
AcDbSpline
 62
7
  6
CONTINUOUS
 70
0
 71
3
 72
22
 73
18
 74
0
 42
0.0000001
 43
0.0000001
 44
0.0000000001
 40
0.0
 40
0.0
 40
0.0
 40
0.0
 40
0.0624163961
 40
0.1250178518
 40
0.1876039106
 40
0.2501356808
 40
0.3126452128
 40
0.3751662893
 40
0.4376828242
 40
0.5001965374
 40
0.5627110388
 40
0.625225564
 40
0.6877431523
 40
0.7502387335
 40
0.8127422867
 40
0.8753013708
 40
1.0
 40
1.0
 40
1.0
 40
1.0
 10
5.1147461639
 20
3.9879214653
 30
0.0
 10
5.1133304064
 20
3.9879823024
 30
0.0
 10
5.1104823344
 20
3.9879037084
 30
0.0
 10
5.1062685783
 20
3.9871980508
 30
0.0
 10
5.1021924797
 20
3.9859046038
 30
0.0
 10
5.0983422143
 20
3.9840492149
 30
0.0
 10
5.0947944949
 20
3.9816677815
 30
0.0
 10
5.0916242814
 20
3.9788036194
 30
0.0
 10
5.0888925105
 20
3.9755181788
 30
0.0
 10
5.0866646
 20
3.9718723531
 30
0.0
 10
5.0849788635
 20
3.9679463883
 30
0.0
 10
5.0838779376
 20
3.9638179482
 30
0.0
 10
5.0833758464
 20
3.9595755193
 30
0.0
 10
5.0834834308
 20
3.9553053677
 30
0.0
 10
5.0841971636
 20
3.9510917022
 30
0.0
 10
5.0859261825
 20
3.9456776823
 30
0.0
 10
5.0880745853
 20
3.9419245135
 30
0.0
 10
5.0898090862
 20
3.9396869853
 30
0.0
  0
SPLINE
  5
2D5
100
AcDbEntity
  8
0
100
AcDbSpline
 62
7
  6
CONTINUOUS
 70
0
 71
3
 72
43
 73
39
 74
0
 42
0.0000001
 43
0.0000001
 44
0.0000000001
 40
0.0
 40
0.0
 40
0.0
 40
0.0
 40
0.0321453454
 40
0.0641040518
 40
0.0957356849
 40
0.1269585287
 40
0.157766559
 40
0.1882484334
 40
0.2186061935
 40
0.2338430518
 40
0.2491569344
 40
0.2645442267
 40
0.2799963541
 40
0.3110381078
 40
0.3421982433
 40
0.3577991835
 40
0.3733962978
 40
0.3889824455
 40
0.4045573862
 40
0.4357198337
 40
0.4669947626
 40
0.4984234228
 40
0.530001152
 40
0.5616909655
 40
0.5934366831
 40
0.6251755823
 40
0.6568508324
 40
0.6884387202
 40
0.7199682239
 40
0.7514523428
 40
0.7828819239
 40
0.8142341014
 40
0.8454807581
 40
0.876597056
 40
0.9075701357
 40
0.938412675
 40
0.9691936666
 40
1.0
 40
1.0
 40
1.0
 40
1.0
 10
5.0469774231
 20
3.7194532894
 30
0.0
 10
5.0516239441
 20
3.717489567
 30
0.0
 10
5.0609605381
 20
3.7137365375
 30
0.0
 10
5.0751447298
 20
3.7087669219
 30
0.0
 10
5.0894492755
 20
3.7046392999
 30
0.0
 10
5.1038289454
 20
3.7015321114
 30
0.0
 10
5.1182401177
 20
3.6996260683
 30
0.0
 10
5.1326367375
 20
3.6991054465
 30
0.0
 10
5.1445727038
 20
3.6999819378
 30
0.0
 10
5.1540063583
 20
3.7015523845
 30
0.0
 10
5.161034819
 20
3.7031756989
 30
0.0
 10
5.167985369
 20
3.7052273485
 30
0.0
 10
5.1771250752
 20
3.7085222022
 30
0.0
 10
5.1882117604
 20
3.7136488562
 30
0.0
 10
5.1986596971
 20
3.7200212787
 30
0.0
 10
5.2065446154
 20
3.7258245723
 30
0.0
 10
5.2121951687
 20
3.7305188118
 30
0.0
 10
5.2175521756
 20
3.7355398537
 30
0.0
 10
5.2242691865
 20
3.7426555817
 30
0.0
 10
5.2318628507
 20
3.7522964603
 30
0.0
 10
5.2396315532
 20
3.7648450668
 30
0.0
 10
5.246042204
 20
3.7782094896
 30
0.0
 10
5.2510717347
 20
3.7922194637
 30
0.0
 10
5.2546971944
 20
3.8067068574
 30
0.0
 10
5.2568940337
 20
3.8215037224
 30
0.0
 10
5.2576369511
 20
3.8364422341
 30
0.0
 10
5.2568984256
 20
3.8513576808
 30
0.0
 10
5.2546513896
 20
3.8660878812
 30
0.0
 10
5.2509766188
 20
3.8804951726
 30
0.0
 10
5.245951729
 20
3.8944614323
 30
0.0
 10
5.2396537598
 20
3.9078701906
 30
0.0
 10
5.2321587756
 20
3.9206049862
 30
0.0
 10
5.2235422918
 20
3.9325491719
 30
0.0
 10
5.2138788145
 20
3.9435852172
 30
0.0
 10
5.2032430715
 20
3.9535973572
 30
0.0
 10
5.1917002625
 20
3.9624649389
 30
0.0
 10
5.1793487046
 20
3.9701132618
 30
0.0
 10
5.1706470083
 20
3.9743623801
 30
0.0
 10
5.1662024294
 20
3.9762640376
 30
0.0
  0
SPLINE
  5
2D6
100
AcDbEntity
  8
0
100
AcDbSpline
 62
7
  6
CONTINUOUS
 70
0
 71
3
 72
55
 73
51
 74
0
 42
0.0000001
 43
0.0000001
 44
0.0000000001
 40
0.0
 40
0.0
 40
0.0
 40
0.0
 40
0.0623590448
 40
0.1247609939
 40
0.1871722662
 40
0.2495915318
 40
0.3120544982
 40
0.3433195218
 40
0.3745885986
 40
0.4058425497
 40
0.4370657371
 40
0.4682463875
 40
0.4838187382
 40
0.4993779896
 40
0.5149239125
 40
0.5304582769
 40
0.5615383115
 40
0.5771087998
 40
0.5927132935
 40
0.6083610883
 40
0.6162040147
 40
0.6240592226
 40
0.6397775528
 40
0.6554581416
 40
0.6710600142
 40
0.6865723687
 40
0.6943043928
 40
0.7020303131
 40
0.7097604721
 40
0.7175030811
 40
0.7330457022
 40
0.7486866817
 40
0.7644245152
 40
0.7802352634
 40
0.7881557425
 40
0.7960775019
 40
0.8119011917
 40
0.8276714938
 40
0.8433686607
 40
0.8589912611
 40
0.8745597902
 40
0.8901202086
 40
0.8979211593
 40
0.9057453822
 40
0.9214476709
 40
0.9371964715
 40
0.9529549174
 40
0.9686883625
 40
0.9843681408
 40
1.0
 40
1.0
 40
1.0
 40
1.0
 10
4.8657024365
 20
3.0743479693
 30
0.0
 10
4.868517432
 20
3.0880466633
 30
0.0
 10
4.8745091158
 20
3.1153815655
 30
0.0
 10
4.8847606001
 20
3.1560943213
 30
0.0
 10
4.8964621788
 20
3.196431279
 30
0.0
 10
4.9097936522
 20
3.2362759085
 30
0.0
 10
4.9224072099
 20
3.2689595641
 30
0.0
 10
4.9334795017
 20
3.2947155688
 30
0.0
 10
4.9422945529
 20
3.3138155163
 30
0.0
 10
4.9516317449
 20
3.3326554559
 30
0.0
 10
4.9615046361
 20
3.3511980397
 30
0.0
 10
4.9701935211
 20
3.3663776223
 30
0.0
 10
4.9774265288
 20
3.3783351819
 30
0.0
 10
4.982991716
 20
3.3872020121
 30
0.0
 10
4.9887007236
 20
3.3959668078
 30
0.0
 10
4.9965123857
 20
3.407513623
 30
0.0
 10
5.0045822268
 20
3.4188894176
 30
0.0
 10
5.01280793
 20
3.4301705302
 30
0.0
 10
5.019042682
 20
3.438620011
 30
0.0
 10
5.0242669905
 20
3.44566122
 30
0.0
 10
5.0284544128
 20
3.4513077664
 30
0.0
 10
5.0326454466
 20
3.456971292
 30
0.0
 10
5.0378299869
 20
3.4640864506
 30
0.0
 10
5.04382324
 20
3.4727597095
 30
0.0
 10
5.0494352623
 20
3.4816320225
 30
0.0
 10
5.0536690206
 20
3.4892539124
 30
0.0
 10
5.0567032989
 20
3.495503442
 30
0.0
 10
5.0587797258
 20
3.5002728982
 30
0.0
 10
5.0606559314
 20
3.5051270177
 30
0.0
 10
5.0629104721
 20
3.5117086832
 30
0.0
 10
5.0652843171
 20
3.5201173737
 30
0.0
 10
5.0674977046
 20
3.5304106491
 30
0.0
 10
5.0691619735
 20
3.5408662883
 30
0.0
 10
5.0701589409
 20
3.549664059
 30
0.0
 10
5.0707634613
 20
3.5567371785
 30
0.0
 10
5.0712548878
 20
3.563821932
 30
0.0
 10
5.0716497956
 20
3.5726772159
 30
0.0
 10
5.0716880271
 20
3.583286404
 30
0.0
 10
5.0712103671
 20
3.5938411433
 30
0.0
 10
5.0701346279
 20
3.6043080777
 30
0.0
 10
5.0683784968
 20
3.6146530466
 30
0.0
 10
5.0662802945
 20
3.6231379487
 30
0.0
 10
5.0641848516
 20
3.6298124602
 30
0.0
 10
5.0617965023
 20
3.6364216173
 30
0.0
 10
5.0582848189
 20
3.6445113756
 30
0.0
 10
5.0532780809
 20
3.6538533738
 30
0.0
 10
5.0475154377
 20
3.6627580152
 30
0.0
 10
5.0410406515
 20
3.6711396856
 30
0.0
 10
5.0338878609
 20
3.6789149605
 30
0.0
 10
5.0286937789
 20
3.6836504395
 30
0.0
 10
5.0260509824
 20
3.6859537812
 30
0.0
  0
SPLINE
  5
2D7
100
AcDbEntity
  8
0
100
AcDbSpline
 62
7
  6
CONTINUOUS
 70
0
 71
3
 72
40
 73
36
 74
0
 42
0.0000001
 43
0.0000001
 44
0.0000000001
 40
0.0
 40
0.0
 40
0.0
 40
0.0
 40
0.0315995663
 40
0.0629948746
 40
0.0941807238
 40
0.1251872407
 40
0.1406538675
 40
0.1561115202
 40
0.1870552897
 40
0.218141565
 40
0.2494281339
 40
0.2809391816
 40
0.3126777538
 40
0.3445741135
 40
0.3764868131
 40
0.408272803
 40
0.4398137363
 40
0.4710418536
 40
0.5019682157
 40
0.5327506614
 40
0.5636708678
 40
0.5948804654
 40
0.6263861372
 40
0.6580786908
 40
0.6897595146
 40
0.7212330077
 40
0.752477056
 40
0.7835171563
 40
0.814396833
 40
0.8451796845
 40
0.8605636852
 40
0.875956506
 40
0.9067938996
 40
0.9377416987
 40
1.0
 40
1.0
 40
1.0
 40
1.0
 10
5.0898090671
 20
3.9396869705
 30
0.0
 10
5.0917863412
 20
3.937136308
 30
0.0
 10
5.095458435
 20
3.9318353744
 30
0.0
 10
5.1000485158
 20
3.9233608585
 30
0.0
 10
5.1036343117
 20
3.9144783848
 30
0.0
 10
5.1057249405
 20
3.9068057374
 30
0.0
 10
5.1068166342
 20
3.9005718516
 30
0.0
 10
5.1075094251
 20
3.8942874596
 30
0.0
 10
5.1076211718
 20
3.8863518788
 30
0.0
 10
5.1065941976
 20
3.8768546822
 30
0.0
 10
5.1044492223
 20
3.8674871576
 30
0.0
 10
5.1012297645
 20
3.8583627255
 30
0.0
 10
5.0969773088
 20
3.8496027219
 30
0.0
 10
5.0917658679
 20
3.8413295911
 30
0.0
 10
5.085687237
 20
3.8336649344
 30
0.0
 10
5.0788298815
 20
3.8267379551
 30
0.0
 10
5.0712820075
 20
3.8206786344
 30
0.0
 10
5.0631311538
 20
3.815618205
 30
0.0
 10
5.0544567102
 20
3.8116908884
 30
0.0
 10
5.0453483063
 20
3.8090292649
 30
0.0
 10
5.0359579657
 20
3.8075217193
 30
0.0
 10
5.0263902179
 20
3.807044633
 30
0.0
 10
5.0167455459
 20
3.8074759934
 30
0.0
 10
5.0071234407
 20
3.8086980733
 30
0.0
 10
4.997616806
 20
3.8105929653
 30
0.0
 10
4.9882919324
 20
3.8130670193
 30
0.0
 10
4.9792126132
 20
3.8161328432
 30
0.0
 10
4.9704226525
 20
3.8197966211
 30
0.0
 10
4.9619634126
 20
3.8240676966
 30
0.0
 10
4.9552214711
 20
3.8281421817
 30
0.0
 10
4.9500422921
 20
3.8317091906
 30
0.0
 10
4.9450071273
 20
3.8354859031
 30
0.0
 10
4.938986732
 20
3.8405879176
 30
0.0
 10
4.9299643028
 20
3.8494929294
 30
0.0
 10
4.9239327057
 20
3.8569110269
 30
0.0
 10
4.9202617337
 20
3.8621028225
 30
0.0
  0
SPLINE
  5
2D8
100
AcDbEntity
  8
0
100
AcDbSpline
 62
7
  6
CONTINUOUS
 70
0
 71
3
 72
24
 73
20
 74
0
 42
0.0000001
 43
0.0000001
 44
0.0000000001
 40
0.0
 40
0.0
 40
0.0
 40
0.0
 40
0.1255311036
 40
0.1883163189
 40
0.2510969732
 40
0.3138414453
 40
0.37649812
 40
0.4389975374
 40
0.4701634105
 40
0.5012571066
 40
0.5322724398
 40
0.5632105179
 40
0.6248744818
 40
0.6863444208
 40
0.7477911538
 40
0.8094746203
 40
0.8717512141
 40
0.9350762302
 40
1.0
 40
1.0
 40
1.0
 40
1.0
 10
4.3568746057
 20
4.2543368165
 30
0.0
 10
4.3599540851
 20
4.2675495418
 30
0.0
 10
4.3635168838
 20
4.2876342007
 30
0.0
 10
4.3663299235
 20
4.3146309531
 30
0.0
 10
4.3675246926
 20
4.3349549774
 30
0.0
 10
4.3678527719
 20
4.3552957872
 30
0.0
 10
4.3673638913
 20
4.3756024792
 30
0.0
 10
4.3663162777
 20
4.3924687142
 30
0.0
 10
4.3651166933
 20
4.4058992
 30
0.0
 10
4.3640461471
 20
4.4159234609
 30
0.0
 10
4.3627954543
 20
4.4259021876
 30
0.0
 10
4.360861988
 20
4.439122304
 30
0.0
 10
4.3578965118
 20
4.4555147349
 30
0.0
 10
4.3533020136
 20
4.47493817
 30
0.0
 10
4.3475218546
 20
4.4940481507
 30
0.0
 10
4.3404019878
 20
4.512797339
 30
0.0
 10
4.331787826
 20
4.5311375204
 30
0.0
 10
4.3215269939
 20
4.5490165803
 30
0.0
 10
4.313609091
 20
4.5604182761
 30
0.0
 10
4.3093613338
 20
4.5660031008
 30
0.0
  0
SPLINE
  5
2D9
100
AcDbEntity
  8
0
100
AcDbSpline
 62
7
  6
CONTINUOUS
 70
0
 71
3
 72
23
 73
19
 74
0
 42
0.0000001
 43
0.0000001
 44
0.0000000001
 40
0.0
 40
0.0
 40
0.0
 40
0.0
 40
0.0624953888
 40
0.1249525579
 40
0.1874807618
 40
0.2501087901
 40
0.3753751688
 40
0.5003780598
 40
0.5629271715
 40
0.6255165013
 40
0.6881042723
 40
0.7193744115
 40
0.7506107661
 40
0.781805243
 40
0.8129620969
 40
0.8752013783
 40
0.937468767
 40
1.0
 40
1.0
 40
1.0
 40
1.0
 10
4.6902046152
 20
4.1850193532
 30
0.0
 10
4.6849159723
 20
4.1891367633
 30
0.0
 10
4.6739628666
 20
4.1968934277
 30
0.0
 10
4.6566058766
 20
4.2070851502
 30
0.0
 10
4.6384813525
 20
4.2158709691
 30
0.0
 10
4.6134933014
 20
4.2257690133
 30
0.0
 10
4.5810797924
 20
4.2348572601
 30
0.0
 10
4.5478428833
 20
4.2399102416
 30
0.0
 10
4.5210875133
 20
4.2419603986
 30
0.0
 10
4.5009590613
 20
4.2426183836
 30
0.0
 10
4.4841772111
 20
4.2425262295
 30
0.0
 10
4.4707668813
 20
4.242122364
 30
0.0
 10
4.4607275172
 20
4.2416710023
 30
0.0
 10
4.4507078819
 20
4.2410726092
 30
0.0
 10
4.4373854069
 20
4.2400392264
 30
0.0
 10
4.4207816713
 20
4.2382417106
 30
0.0
 10
4.4009657178
 20
4.2350655175
 30
0.0
 10
4.3878931461
 20
4.2321395232
 30
0.0
 10
4.3814043119
 20
4.230445597
 30
0.0
  0
SPLINE
  5
2DA
100
AcDbEntity
  8
0
100
AcDbSpline
 62
7
  6
CONTINUOUS
 70
0
 71
3
 72
15
 73
11
 74
0
 42
0.0000001
 43
0.0000001
 44
0.0000000001
 40
0.0
 40
0.0
 40
0.0
 40
0.0
 40
0.1296508031
 40
0.2544613472
 40
0.3760968051
 40
0.4963543154
 40
0.6170925631
 40
0.7401484515
 40
0.8672584446
 40
1.0
 40
1.0
 40
1.0
 40
1.0
 10
4.576702197
 20
4.4458270149
 30
0.0
 10
4.5809959263
 20
4.4417003667
 30
0.0
 10
4.5898375043
 20
4.434015664
 30
0.0
 10
4.6040920662
 20
4.4241903823
 30
0.0
 10
4.6190400758
 20
4.4163351588
 30
0.0
 10
4.6346731887
 20
4.4104607762
 30
0.0
 10
4.6509810183
 20
4.4065719839
 30
0.0
 10
4.6679523012
 20
4.4046683776
 30
0.0
 10
4.6855755978
 20
4.4047441005
 30
0.0
 10
4.6974613379
 20
4.4060758983
 30
0.0
 10
4.7034816841
 20
4.407041218
 30
0.0
  0
SPLINE
  5
2DB
100
AcDbEntity
  8
0
100
AcDbSpline
 62
7
  6
CONTINUOUS
 70
0
 71
3
 72
15
 73
11
 74
0
 42
0.0000001
 43
0.0000001
 44
0.0000000001
 40
0.0
 40
0.0
 40
0.0
 40
0.0
 40
0.1343184375
 40
0.2623601902
 40
0.38576722
 40
0.5063709358
 40
0.626131423
 40
0.74704978
 40
0.8710710708
 40
1.0
 40
1.0
 40
1.0
 40
1.0
 10
4.5315633231
 20
4.577202922
 30
0.0
 10
4.5306928575
 20
4.5707792447
 30
0.0
 10
4.5295869165
 20
4.5581395711
 30
0.0
 10
4.5299829946
 20
4.539487548
 30
0.0
 10
4.5324885681
 20
4.5216617334
 30
0.0
 10
4.5371111239
 20
4.5046750926
 30
0.0
 10
4.5438517692
 20
4.4885412503
 30
0.0
 10
4.5527050004
 20
4.473273076
 30
0.0
 10
4.5636576338
 20
4.4588806063
 30
0.0
 10
4.5721545725
 20
4.4500738845
 30
0.0
 10
4.576702194
 20
4.4458270111
 30
0.0
  0
SPLINE
  5
2DC
100
AcDbEntity
  8
0
100
AcDbSpline
 62
7
  6
CONTINUOUS
 70
0
 71
3
 72
50
 73
46
 74
0
 42
0.0000001
 43
0.0000001
 44
0.0000000001
 40
0.0
 40
0.0
 40
0.0
 40
0.0
 40
0.0310898712
 40
0.0466649847
 40
0.0622565077
 40
0.0778621411
 40
0.0934771123
 40
0.1090926555
 40
0.1247019442
 40
0.1558872993
 40
0.1870497536
 40
0.2026491633
 40
0.2182778873
 40
0.2339211366
 40
0.2495561697
 40
0.2651712783
 40
0.2807675866
 40
0.2885640315
 40
0.2963628987
 40
0.3119757852
 40
0.3276187592
 40
0.343292188
 40
0.374681216
 40
0.4060218588
 40
0.4372385839
 40
0.4684690902
 40
0.499798902
 40
0.5312347017
 40
0.5469776449
 40
0.562720234
 40
0.5784469192
 40
0.5941457397
 40
0.6098160789
 40
0.6254593359
 40
0.6877876542
 40
0.7188905794
 40
0.7344460914
 40
0.7500106887
 40
0.781170797
 40
0.8123799906
 40
0.843633901
 40
0.8749194145
 40
0.9062160551
 40
0.937503721
 40
1.0
 40
1.0
 40
1.0
 40
1.0
 10
3.0841818186
 20
4.318700936
 30
0.0
 10
3.0911437807
 20
4.3171387192
 30
0.0
 10
3.101565908
 20
4.314667835
 30
0.0
 10
3.115402348
 20
4.3111038125
 30
0.0
 10
3.1257608321
 20
4.3082874602
 30
0.0
 10
3.1360885995
 20
4.3053271332
 30
0.0
 10
3.1463771047
 20
4.3022136482
 30
0.0
 10
3.1566089641
 20
4.2989150501
 30
0.0
 10
3.1701465017
 20
4.2942342654
 30
0.0
 10
3.186840658
 20
4.2877760169
 30
0.0
 10
3.2031136359
 20
4.2803100881
 30
0.0
 10
3.2157810224
 20
4.2736281525
 30
0.0
 10
3.2250911753
 20
4.268233644
 30
0.0
 10
3.2341630669
 20
4.26243106
 30
0.0
 10
3.2429398539
 20
4.2561948542
 30
0.0
 10
3.2513612271
 20
4.249502547
 30
0.0
 10
3.2580336579
 20
4.243524784
 30
0.0
 10
3.263129486
 20
4.238495615
 30
0.0
 10
3.2680553586
 20
4.2332945639
 30
0.0
 10
3.2738863407
 20
4.2264783398
 30
0.0
 10
3.2803546486
 20
4.2178580315
 30
0.0
 10
3.2882785192
 20
4.2058363889
 30
0.0
 10
3.2968545569
 20
4.1899713454
 30
0.0
 10
3.3050290704
 20
4.1699794739
 30
0.0
 10
3.3111331071
 20
4.1493040446
 30
0.0
 10
3.3153463875
 20
4.1281726937
 30
0.0
 10
3.3178785898
 20
4.1067303846
 30
0.0
 10
3.3187624502
 20
4.088721679
 30
0.0
 10
3.3188380552
 20
4.074280147
 30
0.0
 10
3.3186033151
 20
4.0634462565
 30
0.0
 10
3.3181041488
 20
4.0526317845
 30
0.0
 10
3.317359058
 20
4.0418481623
 30
0.0
 10
3.3163594735
 20
4.0311039503
 30
0.0
 10
3.3138485021
 20
4.0097603145
 30
0.0
 10
3.3093664787
 20
3.9850733879
 30
0.0
 10
3.3028643338
 20
3.9609090891
 30
0.0
 10
3.2985555476
 20
3.9472923401
 30
0.0
 10
3.293845999
 20
3.9337955031
 30
0.0
 10
3.2872310364
 20
3.9171668952
 30
0.0
 10
3.2781971112
 20
3.8976607354
 30
0.0
 10
3.268126342
 20
3.8786367298
 30
0.0
 10
3.2570809896
 20
3.8601395831
 30
0.0
 10
3.245122367
 20
3.8422081805
 30
0.0
 10
3.2279737675
 20
3.8191777304
 30
0.0
 10
3.2137169068
 20
3.8029716683
 30
0.0
 10
3.2036188184
 20
3.792786142
 30
0.0
  0
SPLINE
  5
2DD
100
AcDbEntity
  8
0
100
AcDbSpline
 62
7
  6
CONTINUOUS
 70
0
 71
3
 72
48
 73
44
 74
0
 42
0.0000001
 43
0.0000001
 44
0.0000000001
 40
0.0
 40
0.0
 40
0.0
 40
0.0
 40
0.0622378747
 40
0.1246856884
 40
0.1870214972
 40
0.2182384274
 40
0.2494463722
 40
0.265029805
 40
0.2805884539
 40
0.3116555353
 40
0.3427173664
 40
0.3738381095
 40
0.4050750241
 40
0.4207539544
 40
0.4364802251
 40
0.4522560083
 40
0.4680600148
 40
0.4996373561
 40
0.5310457088
 40
0.5622262983
 40
0.5777572466
 40
0.5932774624
 40
0.6010461612
 40
0.608827371
 40
0.6244319341
 40
0.640092353
 40
0.6557999217
 40
0.687286156
 40
0.7030399705
 40
0.7187678476
 40
0.7344465247
 40
0.7500610106
 40
0.7656363734
 40
0.7812029008
 40
0.8123819676
 40
0.8436895106
 40
0.8751036494
 40
0.8908220164
 40
0.9065233017
 40
0.9221867051
 40
0.9378058965
 40
0.9689414999
 40
1.0
 40
1.0
 40
1.0
 40
1.0
 10
3.9212711742
 20
3.0774217003
 30
0.0
 10
3.9318796937
 20
3.0870198636
 30
0.0
 10
3.9530175838
 20
3.1063673564
 30
0.0
 10
3.9867947389
 20
3.1331351391
 30
0.0
 10
4.0181481305
 20
3.1508452511
 30
0.0
 10
4.0443778912
 20
3.1624624908
 30
0.0
 10
4.0611820336
 20
3.1687522652
 30
0.0
 10
4.0747958408
 20
3.1732354816
 30
0.0
 10
4.0884883147
 20
3.1773625389
 30
0.0
 10
4.1057753901
 20
3.1818712157
 30
0.0
 10
4.1267633963
 20
3.1862633717
 30
0.0
 10
4.1479734756
 20
3.189665574
 30
0.0
 10
4.1658020083
 20
3.1916984874
 30
0.0
 10
4.1801549042
 20
3.192861818
 30
0.0
 10
4.1909816422
 20
3.1935064185
 30
0.0
 10
4.2018482154
 20
3.1939296729
 30
0.0
 10
4.2163648531
 20
3.1941552106
 30
0.0
 10
4.2344822711
 20
3.1936953935
 30
0.0
 10
4.2560490978
 20
3.1916229051
 30
0.0
 10
4.2737347664
 20
3.1883341571
 30
0.0
 10
4.2875505243
 20
3.1846013731
 30
0.0
 10
4.2960214072
 20
3.1817772223
 30
0.0
 10
4.3026847414
 20
3.179204072
 30
0.0
 10
4.3092792767
 20
3.1764091998
 30
0.0
 10
4.317370701
 20
3.1725107047
 30
0.0
 10
4.3267968351
 20
3.1672311114
 30
0.0
 10
4.338965158
 20
3.1594299105
 30
0.0
 10
4.3504535513
 20
3.1505726575
 30
0.0
 10
4.3611460258
 20
3.1408095105
 30
0.0
 10
4.3687412823
 20
3.1330666108
 30
0.0
 10
4.3758792555
 20
3.1249433519
 30
0.0
 10
4.382535182
 20
3.1164653554
 30
0.0
 10
4.3887247015
 20
3.1076734172
 30
0.0
 10
4.3963974471
 20
3.0955707686
 30
0.0
 10
4.4049801739
 20
3.0797899487
 30
0.0
 10
4.4138769287
 20
3.0601086557
 30
0.0
 10
4.4203360648
 20
3.0432660418
 30
0.0
 10
4.4250609656
 20
3.0296170238
 30
0.0
 10
4.4284104081
 20
3.0193251594
 30
0.0
 10
4.4316006512
 20
3.0090069414
 30
0.0
 10
4.4356488351
 20
2.9952418799
 30
0.0
 10
4.4403096693
 20
2.9779704141
 30
0.0
 10
4.4435786382
 20
2.9640496932
 30
0.0
 10
4.4450857538
 20
2.957071412
 30
0.0
  0
SPLINE
  5
2DE
100
AcDbEntity
  8
0
100
AcDbSpline
 62
7
  6
CONTINUOUS
 70
0
 71
3
 72
34
 73
30
 74
0
 42
0.0000001
 43
0.0000001
 44
0.0000000001
 40
0.0
 40
0.0
 40
0.0
 40
0.0
 40
0.0616563717
 40
0.1244032093
 40
0.1876684327
 40
0.2509785247
 40
0.3139975362
 40
0.3453541858
 40
0.3766002473
 40
0.4077549221
 40
0.4388560223
 40
0.4544060893
 40
0.4699660336
 40
0.5011289379
 40
0.5323586615
 40
0.5636442307
 40
0.594960501
 40
0.6262706543
 40
0.6575323986
 40
0.6887458771
 40
0.7199324901
 40
0.7510972144
 40
0.7822293777
 40
0.7977768502
 40
0.8133076295
 40
0.8443424635
 40
0.8753833507
 40
0.9375835861
 40
1.0
 40
1.0
 40
1.0
 40
1.0
 10
3.7434408977
 20
3.7251019444
 30
0.0
 10
3.7344272042
 20
3.728107793
 30
0.0
 10
3.7160062862
 20
3.7334946017
 30
0.0
 10
3.6876859693
 20
3.7394933543
 30
0.0
 10
3.6587160665
 20
3.743234642
 30
0.0
 10
3.6294839599
 20
3.744439211
 30
0.0
 10
3.6051736854
 20
3.7430897802
 30
0.0
 10
3.5859866801
 20
3.740448802
 30
0.0
 10
3.5718010771
 20
3.7376586549
 30
0.0
 10
3.5578491032
 20
3.7340211874
 30
0.0
 10
3.5464559988
 20
3.7302532968
 30
0.0
 10
3.5375168004
 20
3.7267839222
 30
0.0
 10
3.5286952216
 20
3.7230011735
 30
0.0
 10
3.5179064855
 20
3.7176947716
 30
0.0
 10
3.5053929526
 20
3.7104763607
 30
0.0
 10
3.4933430453
 20
3.7024659371
 30
0.0
 10
3.4817961462
 20
3.6937267493
 30
0.0
 10
3.4707898143
 20
3.6843220655
 30
0.0
 10
3.4603597571
 20
3.6743056139
 30
0.0
 10
3.4505146555
 20
3.6637409587
 30
0.0
 10
3.4412388641
 20
3.6526937805
 30
0.0
 10
3.4325148918
 20
3.641222706
 30
0.0
 10
3.4256863332
 20
3.6313545928
 30
0.0
 10
3.4204797007
 20
3.6233039446
 30
0.0
 10
3.4154439787
 20
3.6151628758
 30
0.0
 10
3.4094303502
 20
3.6048224176
 30
0.0
 10
3.4002651034
 20
3.5880040314
 30
0.0
 10
3.3893985436
 20
3.5666161668
 30
0.0
 10
3.3807738713
 20
3.5494572208
 30
0.0
 10
3.376328736
 20
3.5409271501
 30
0.0
  0
SPLINE
  5
2DF
100
AcDbEntity
  8
0
100
AcDbSpline
 62
7
  6
CONTINUOUS
 70
0
 71
3
 72
28
 73
24
 74
0
 42
0.0000001
 43
0.0000001
 44
0.0000000001
 40
0.0
 40
0.0
 40
0.0
 40
0.0
 40
0.0623285267
 40
0.0936058758
 40
0.124950237
 40
0.1563508605
 40
0.1877931175
 40
0.2035244384
 40
0.2192589652
 40
0.2507184072
 40
0.2821322659
 40
0.3134670157
 40
0.3758021512
 40
0.4376609561
 40
0.4992041786
 40
0.5608165137
 40
0.6227586318
 40
0.6851206053
 40
0.7478861574
 40
0.8109523728
 40
0.874148097
 40
0.937250514
 40
1.0
 40
1.0
 40
1.0
 40
1.0
 10
3.4683316746
 20
4.1176069406
 30
0.0
 10
3.4742676889
 20
4.1093394758
 30
0.0
 10
3.4835265055
 20
4.0971670692
 30
0.0
 10
3.4964224415
 20
4.0813549385
 30
0.0
 10
3.5063653722
 20
4.0696548968
 30
0.0
 10
3.516533347
 20
4.0581145727
 30
0.0
 10
3.5251643815
 20
4.0486202919
 30
0.0
 10
3.5321499236
 20
4.0410886327
 30
0.0
 10
3.539182132
 20
4.0335966776
 30
0.0
 10
3.5480603582
 20
4.0243255268
 30
0.0
 10
3.5588937538
 20
4.0134020007
 30
0.0
 10
3.5735878329
 20
3.9992132766
 30
0.0
 10
3.5925388127
 20
3.9822819235
 30
0.0
 10
3.6165273484
 20
3.9636742358
 30
0.0
 10
3.6419743722
 20
3.9472970487
 30
0.0
 10
3.6690315617
 20
3.9337016249
 30
0.0
 10
3.6974127417
 20
3.9227977769
 30
0.0
 10
3.7268473857
 20
3.9144820551
 30
0.0
 10
3.7570570182
 20
3.9086621102
 30
0.0
 10
3.7877649833
 20
3.9052462936
 30
0.0
 10
3.8186952969
 20
3.9041452258
 30
0.0
 10
3.8495694789
 20
3.9052703896
 30
0.0
 10
3.8700232619
 20
3.9074565496
 30
0.0
 10
3.8801676562
 20
3.9088996235
 30
0.0
  0
SPLINE
  5
2E0
100
AcDbEntity
  8
0
100
AcDbSpline
 62
7
  6
CONTINUOUS
 70
0
 71
3
 72
20
 73
16
 74
0
 42
0.0000001
 43
0.0000001
 44
0.0000000001
 40
0.0
 40
0.0
 40
0.0
 40
0.0
 40
0.1222700914
 40
0.244912033
 40
0.3066676184
 40
0.3688600169
 40
0.4315951998
 40
0.4948142602
 40
0.5583408791
 40
0.6220084795
 40
0.6856661599
 40
0.7491818557
 40
0.8124459208
 40
0.8753751727
 40
1.0
 40
1.0
 40
1.0
 40
1.0
 10
3.2628553554
 20
3.6617777855
 30
0.0
 10
3.2754570214
 20
3.6769739381
 30
0.0
 10
3.2995557779
 20
3.7083815534
 30
0.0
 10
3.3265781636
 20
3.7499343812
 30
0.0
 10
3.3462929971
 20
3.7845343449
 30
0.0
 10
3.3601831312
 20
3.8112934226
 30
0.0
 10
3.3731264577
 20
3.83878405
 30
0.0
 10
3.3850678649
 20
3.8669591936
 30
0.0
 10
3.3959108517
 20
3.895736669
 30
0.0
 10
3.4055534493
 20
3.9250136499
 30
0.0
 10
3.4138924267
 20
3.954687665
 30
0.0
 10
3.4208246474
 20
3.9846552054
 30
0.0
 10
3.4262468599
 20
4.0148168593
 30
0.0
 10
3.4313076262
 20
4.0550065433
 30
0.0
 10
3.4325608691
 20
4.0853589888
 30
0.0
 10
3.4320910103
 20
4.1054751474
 30
0.0
  0
SPLINE
  5
2E1
100
AcDbEntity
  8
0
100
AcDbSpline
 62
7
  6
CONTINUOUS
 70
0
 71
3
 72
37
 73
33
 74
0
 42
0.0000001
 43
0.0000001
 44
0.0000000001
 40
0.0
 40
0.0
 40
0.0
 40
0.0
 40
0.0156082103
 40
0.0312039556
 40
0.0623718252
 40
0.0935130482
 40
0.1246164751
 40
0.1556717336
 40
0.1711838525
 40
0.1866910542
 40
0.2022014359
 40
0.2177248649
 40
0.2332638445
 40
0.2488181347
 40
0.2799690536
 40
0.3111790214
 40
0.3737553563
 40
0.4364470705
 40
0.4677328619
 40
0.4989288431
 40
0.5300311152
 40
0.5455554879
 40
0.5610692452
 40
0.5921040931
 40
0.6232133737
 40
0.6544435317
 40
0.6858168047
 40
0.7489554972
 40
0.8124438663
 40
0.8758562151
 40
0.938610658
 40
1.0
 40
1.0
 40
1.0
 40
1.0
 10
3.6637303872
 20
3.2515133936
 30
0.0
 10
3.6658268883
 20
3.2526978863
 30
0.0
 10
3.6700408369
 20
3.2550261576
 30
0.0
 10
3.6785484384
 20
3.2595229449
 30
0.0
 10
3.6892939304
 20
3.264909399
 30
0.0
 10
3.7022678626
 20
3.2711833475
 30
0.0
 10
3.7152227077
 20
3.2774569116
 30
0.0
 10
3.7259271691
 20
3.2828448993
 30
0.0
 10
3.7343819051
 20
3.2873435726
 30
0.0
 10
3.7406548543
 20
3.2908345671
 30
0.0
 10
3.7468492991
 20
3.2944669575
 30
0.0
 10
3.75295025
 20
3.2982637698
 30
0.0
 10
3.7589544321
 20
3.3022242019
 30
0.0
 10
3.7668290334
 20
3.3077215761
 30
0.0
 10
3.7764105743
 20
3.3149905272
 30
0.0
 10
3.7911357569
 20
3.327439335
 30
0.0
 10
3.8083104595
 20
3.3444718576
 30
0.0
 10
3.8235565144
 20
3.3632771919
 30
0.0
 10
3.8343175895
 20
3.3793257594
 30
0.0
 10
3.8415788024
 20
3.3918168126
 30
0.0
 10
3.8468965057
 20
3.4025932099
 30
0.0
 10
3.8506642603
 20
3.411410671
 30
0.0
 10
3.8540999416
 20
3.4203515394
 30
0.0
 10
3.8577956557
 20
3.4317591218
 30
0.0
 10
3.8613081625
 20
3.445739806
 30
0.0
 10
3.8639473984
 20
3.4599637797
 30
0.0
 10
3.8663690288
 20
3.4792201597
 30
0.0
 10
3.8674357845
 20
3.5036186493
 30
0.0
 10
3.8659796797
 20
3.5329360577
 30
0.0
 10
3.8621601143
 20
3.5619740531
 30
0.0
 10
3.8563381211
 20
3.5903392932
 30
0.0
 10
3.8512832537
 20
3.6088274426
 30
0.0
 10
3.8485100589
 20
3.6178832435
 30
0.0
  0
SPLINE
  5
2E2
100
AcDbEntity
  8
0
100
AcDbSpline
 62
7
  6
CONTINUOUS
 70
0
 71
3
 72
21
 73
17
 74
0
 42
0.0000001
 43
0.0000001
 44
0.0000000001
 40
0.0
 40
0.0
 40
0.0
 40
0.0
 40
0.0642175223
 40
0.1277934032
 40
0.1908776122
 40
0.2535999842
 40
0.3160701874
 40
0.378378079
 40
0.4405943856
 40
0.5027716407
 40
0.5649453107
 40
0.6271350474
 40
0.6893460113
 40
0.751570225
 40
0.8759401334
 40
1.0
 40
1.0
 40
1.0
 40
1.0
 10
4.2392575435
 20
3.3085572182
 30
0.0
 10
4.2286854984
 20
3.3093180497
 30
0.0
 10
4.2075944417
 20
3.3101821538
 30
0.0
 10
4.1760773945
 20
3.3095419381
 30
0.0
 10
4.1449012868
 20
3.3070313381
 30
0.0
 10
4.1141079614
 20
3.3027234754
 30
0.0
 10
4.0837370469
 20
3.2966915891
 30
0.0
 10
4.0538285085
 20
3.2890088037
 30
0.0
 10
4.0244220155
 20
3.2797481438
 30
0.0
 10
3.9955571752
 20
3.2689825125
 30
0.0
 10
3.9672734678
 20
3.2567846565
 30
0.0
 10
3.9396105026
 20
3.2432272964
 30
0.0
 10
3.9126072543
 20
3.2283826633
 30
0.0
 10
3.8775468255
 20
3.2069771206
 30
0.0
 10
3.8355916613
 20
3.1773848406
 30
0.0
 10
3.804137158
 20
3.1509977752
 30
0.0
 10
3.788993525
 20
3.1372150758
 30
0.0
  0
SPLINE
  5
2E3
100
AcDbEntity
  8
0
100
AcDbSpline
 62
7
  6
CONTINUOUS
 70
0
 71
3
 72
28
 73
24
 74
0
 42
0.0000001
 43
0.0000001
 44
0.0000000001
 40
0.0
 40
0.0
 40
0.0
 40
0.0
 40
0.0629810225
 40
0.1260559205
 40
0.1888663068
 40
0.2511456515
 40
0.3127453284
 40
0.3736655609
 40
0.4039298486
 40
0.4341103799
 40
0.4642640868
 40
0.4793544318
 40
0.4944658934
 40
0.5247841404
 40
0.5552802376
 40
0.5859948482
 40
0.6169525897
 40
0.679613273
 40
0.7432101996
 40
0.8075048472
 40
0.8720884706
 40
0.9364461687
 40
1.0
 40
1.0
 40
1.0
 40
1.0
 10
4.0366622395
 20
3.7584086826
 30
0.0
 10
4.035587389
 20
3.7479738355
 30
0.0
 10
4.0338084445
 20
3.7270473244
 30
0.0
 10
4.0325101261
 20
3.6956051012
 30
0.0
 10
4.0328592197
 20
3.6642495146
 30
0.0
 10
4.0351439606
 20
3.6332146636
 30
0.0
 10
4.0396549477
 20
3.6027358297
 30
0.0
 10
4.0455317025
 20
3.5779347882
 30
0.0
 10
4.0516386163
 20
3.5586567104
 30
0.0
 10
4.0569471314
 20
3.5445234306
 30
0.0
 10
4.0620147011
 20
3.5330200647
 30
0.0
 10
4.0664689039
 20
3.5240065054
 30
0.0
 10
4.0712012892
 20
3.5151048203
 30
0.0
 10
4.0776146505
 20
3.5041973658
 30
0.0
 10
4.0860349115
 20
3.4914810223
 30
0.0
 10
4.0951355534
 20
3.4791105388
 30
0.0
 10
4.1081576596
 20
3.4630008233
 30
0.0
 10
4.1258845266
 20
3.4436889638
 30
0.0
 10
4.148928647
 20
3.421836735
 30
0.0
 10
4.1734118292
 20
3.4011189299
 30
0.0
 10
4.1989229262
 20
3.3814806214
 30
0.0
 10
4.2250463607
 20
3.3628823805
 30
0.0
 10
4.2427595388
 20
3.3510396501
 30
0.0
 10
4.2516241074
 20
3.3452541939
 30
0.0
  0
SPLINE
  5
2E4
100
AcDbEntity
  8
0
100
AcDbSpline
 62
7
  6
CONTINUOUS
 70
0
 71
3
 72
23
 73
19
 74
0
 42
0.0000001
 43
0.0000001
 44
0.0000000001
 40
0.0
 40
0.0
 40
0.0
 40
0.0
 40
0.0623957727
 40
0.1249779239
 40
0.1875327134
 40
0.2500255657
 40
0.3125031403
 40
0.375001426
 40
0.4374975908
 40
0.4999946948
 40
0.5624928789
 40
0.6249930424
 40
0.6874959828
 40
0.7499758878
 40
0.8124688576
 40
0.8750229213
 40
0.9376044133
 40
1.0
 40
1.0
 40
1.0
 40
1.0
 10
4.1157862185
 20
4.3599848901
 30
0.0
 10
4.1158375828
 20
4.3614224275
 30
0.0
 10
4.1157341303
 20
4.3643130613
 30
0.0
 10
4.1149752567
 20
4.3685832233
 30
0.0
 10
4.1136133185
 20
4.3727047521
 30
0.0
 10
4.1116759516
 20
4.3765861461
 30
0.0
 10
4.1092006824
 20
4.3801475095
 30
0.0
 10
4.1062354266
 20
4.38331252
 30
0.0
 10
4.1028438251
 20
4.3860169596
 30
0.0
 10
4.0990917596
 20
4.3881938101
 30
0.0
 10
4.095064117
 20
4.3898049244
 30
0.0
 10
4.0908432709
 20
4.3908066249
 30
0.0
 10
4.0865228304
 20
4.3911887501
 30
0.0
 10
4.0821926821
 20
4.3909404994
 30
0.0
 10
4.0779425761
 20
4.3900712456
 30
0.0
 10
4.0738584804
 20
4.3886009494
 30
0.0
 10
4.0700293719
 20
4.3865643437
 30
0.0
 10
4.0676903147
 20
4.3848628358
 30
0.0
 10
4.0665904663
 20
4.383935758
 30
0.0
  0
SPLINE
  5
2E5
100
AcDbEntity
  8
0
100
AcDbSpline
 62
7
  6
CONTINUOUS
 70
0
 71
3
 72
44
 73
40
 74
0
 42
0.0000001
 43
0.0000001
 44
0.0000000001
 40
0.0
 40
0.0
 40
0.0
 40
0.0
 40
0.0305137588
 40
0.0609184404
 40
0.0913711889
 40
0.1220872173
 40
0.1532319805
 40
0.1846145434
 40
0.2159944664
 40
0.2471940383
 40
0.278123452
 40
0.2934979671
 40
0.3088270228
 40
0.3241375959
 40
0.3394650826
 40
0.3548410745
 40
0.37028903
 40
0.401443842
 40
0.4329977682
 40
0.4649194458
 40
0.4971180503
 40
0.5294645043
 40
0.561810603
 40
0.5940069347
 40
0.6100116649
 40
0.625939619
 40
0.6575972435
 40
0.6890670364
 40
0.7204022017
 40
0.7516368212
 40
0.7827926001
 40
0.8138858479
 40
0.8449345854
 40
0.8604548702
 40
0.8759744578
 40
0.9070065405
 40
0.9380347891
 40
0.9690403007
 40
1.0
 40
1.0
 40
1.0
 40
1.0
 10
3.8423037854
 20
4.4211672053
 30
0.0
 10
3.84045642
 20
4.4166706934
 30
0.0
 10
3.836985278
 20
4.4076018786
 30
0.0
 10
3.832588162
 20
4.3937153156
 30
0.0
 10
3.8291451697
 20
4.3795251921
 30
0.0
 10
3.8267925637
 20
4.3649914566
 30
0.0
 10
3.8256581024
 20
4.3501618546
 30
0.0
 10
3.8258111652
 20
4.3351824243
 30
0.0
 10
3.8273481417
 20
4.3202686663
 30
0.0
 10
3.8303657429
 20
4.3056529839
 30
0.0
 10
3.8342091425
 20
4.2938852676
 30
0.0
 10
3.8381242829
 20
4.2848742575
 30
0.0
 10
3.8414861079
 20
4.2783533938
 30
0.0
 10
3.8452930857
 20
4.2720902613
 30
0.0
 10
3.849544558
 20
4.2661110098
 30
0.0
 10
3.8542090394
 20
4.2604202138
 30
0.0
 10
3.8609613783
 20
4.2532078623
 30
0.0
 10
3.8703192975
 20
4.2449432262
 30
0.0
 10
3.8827249811
 20
4.2363238809
 30
0.0
 10
3.8961316748
 20
4.2290135641
 30
0.0
 10
3.9103278751
 20
4.223060587
 30
0.0
 10
3.9251047129
 20
4.2185134266
 30
0.0
 10
3.9402519761
 20
4.2154228962
 30
0.0
 10
3.9530393289
 20
4.2141011244
 30
0.0
 10
3.9632562917
 20
4.2138305805
 30
0.0
 10
3.9733876322
 20
4.2140884522
 30
0.0
 10
3.9859398815
 20
4.2153743704
 30
0.0
 10
4.000705521
 20
4.2184032786
 30
0.0
 10
4.0150382915
 20
4.2228460344
 30
0.0
 10
4.0288271687
 20
4.2286347629
 30
0.0
 10
4.0419626271
 20
4.2357023752
 30
0.0
 10
4.0543337465
 20
4.2439816601
 30
0.0
 10
4.0639183572
 20
4.2518394892
 30
0.0
 10
4.0710867281
 20
4.2586604279
 30
0.0
 10
4.0779062498
 20
4.2658264772
 30
0.0
 10
4.085761252
 20
4.2753958019
 30
0.0
 10
4.0940411654
 20
4.2877215931
 30
0.0
 10
4.1011110651
 20
4.3007649498
 30
0.0
 10
4.1049777458
 20
4.3098672727
 30
0.0
 10
4.1066855697
 20
4.3144944188
 30
0.0
  0
SPLINE
  5
2E6
100
AcDbEntity
  8
0
100
AcDbSpline
 62
7
  6
CONTINUOUS
 70
0
 71
3
 72
57
 73
53
 74
0
 42
0.0000001
 43
0.0000001
 44
0.0000000001
 40
0.0
 40
0.0
 40
0.0
 40
0.0
 40
0.0623812431
 40
0.1248141473
 40
0.1872108079
 40
0.2495286186
 40
0.2806787932
 40
0.3118533917
 40
0.3430775456
 40
0.3743365966
 40
0.405608745
 40
0.4368742992
 40
0.4681160531
 40
0.4837241534
 40
0.4993211962
 40
0.5149059569
 40
0.530480794
 40
0.5460526171
 40
0.5616269093
 40
0.5772074383
 40
0.5927965639
 40
0.6083955475
 40
0.6240048633
 40
0.6318134046
 40
0.6396240027
 40
0.6552430874
 40
0.6708474856
 40
0.6864323869
 40
0.7020098228
 40
0.7098065466
 40
0.7176158069
 40
0.7332650685
 40
0.7489359672
 40
0.7802308359
 40
0.7958297651
 40
0.8113910874
 40
0.8269569349
 40
0.842569385
 40
0.8582661316
 40
0.8740804504
 40
0.8900244179
 40
0.9060151791
 40
0.9219548316
 40
0.937774474
 40
0.9534424677
 40
0.9612250057
 40
0.9689799168
 40
0.9767181381
 40
0.9805860309
 40
0.9844562965
 40
0.9922131927
 40
1.0
 40
1.0
 40
1.0
 40
1.0
 10
3.1320429998
 20
4.6168267846
 30
0.0
 10
3.1470601404
 20
4.613618053
 30
0.0
 10
3.177195935
 20
4.6076190871
 30
0.0
 10
3.222463276
 20
4.5989804087
 30
0.0
 10
3.2676111144
 20
4.5897997941
 30
0.0
 10
3.304958103
 20
4.5809470257
 30
0.0
 10
3.3345169494
 20
4.5727036667
 30
0.0
 10
3.3564993125
 20
4.5658265242
 30
0.0
 10
3.3782468492
 20
4.5581566295
 30
0.0
 10
3.3997262576
 20
4.5496994815
 30
0.0
 10
3.4208911227
 20
4.5404571677
 30
0.0
 10
3.4416930271
 20
4.5304344004
 30
0.0
 10
3.4586909216
 20
4.5214322199
 30
0.0
 10
3.4720602945
 20
4.513843285
 30
0.0
 10
3.4819639283
 20
4.5079609171
 30
0.0
 10
3.4917402159
 20
4.5018847821
 30
0.0
 10
3.5013900077
 20
4.4956213199
 30
0.0
 10
3.5109309672
 20
4.4891982574
 30
0.0
 10
3.5203801582
 20
4.482638709
 30
0.0
 10
3.5297553365
 20
4.4759666648
 30
0.0
 10
3.5390741057
 20
4.4692058547
 30
0.0
 10
3.5483540716
 20
4.4623800234
 30
0.0
 10
3.556068528
 20
4.4566585021
 30
0.0
 10
3.5622380927
 20
4.4520724112
 30
0.0
 10
3.5684098453
 20
4.4474852576
 30
0.0
 10
3.5761487954
 20
4.4417894396
 30
0.0
 10
3.5855518978
 20
4.4351277643
 30
0.0
 10
3.595143488
 20
4.4287568233
 30
0.0
 10
3.6033521977
 20
4.423789706
 30
0.0
 10
3.6100761344
 20
4.4200842976
 30
0.0
 10
3.6169241056
 20
4.4165747559
 30
0.0
 10
3.6256932234
 20
4.412572629
 30
0.0
 10
3.6400831948
 20
4.4070308773
 30
0.0
 10
3.6549481052
 20
4.4028208051
 30
0.0
 10
3.6700829798
 20
4.4000698678
 30
0.0
 10
3.6815190811
 20
4.3987590602
 30
0.0
 10
3.6930179259
 20
4.3981833725
 30
0.0
 10
3.7045633802
 20
4.3983285472
 30
0.0
 10
3.7161393716
 20
4.3991786627
 30
0.0
 10
3.7277254265
 20
4.4007197726
 30
0.0
 10
3.7392779074
 20
4.4029233236
 30
0.0
 10
3.7507037877
 20
4.405844939
 30
0.0
 10
3.7618703458
 20
4.4095509085
 30
0.0
 10
3.7726358618
 20
4.414103119
 30
0.0
 10
3.7811762984
 20
4.4186679679
 30
0.0
 10
3.7876527042
 20
4.4228049211
 30
0.0
 10
3.7923073261
 20
4.4261513122
 30
0.0
 10
3.7960116844
 20
4.42915504
 30
0.0
 10
3.7988570901
 20
4.4316891777
 30
0.0
 10
3.8016292199
 20
4.4343099218
 30
0.0
 10
3.8049725774
 20
4.4377273551
 30
0.0
 10
3.8075408311
 20
4.4405645851
 30
0.0
 10
3.8088090458
 20
4.4420019179
 30
0.0
  0
SPLINE
  5
2E7
100
AcDbEntity
  8
0
100
AcDbSpline
 62
7
  6
CONTINUOUS
 70
0
 71
3
 72
40
 73
36
 74
0
 42
0.0000001
 43
0.0000001
 44
0.0000000001
 40
0.0
 40
0.0
 40
0.0
 40
0.0
 40
0.0312089088
 40
0.06220731
 40
0.0930787874
 40
0.108531197
 40
0.124030735
 40
0.139595836
 40
0.1552346395
 40
0.1867229401
 40
0.2184715836
 40
0.2503857583
 40
0.2823405518
 40
0.3142043429
 40
0.3458620189
 40
0.377263893
 40
0.4084391845
 40
0.4394349022
 40
0.4703229321
 40
0.485767783
 40
0.5012327705
 40
0.5322668759
 40
0.5634901411
 40
0.5948659888
 40
0.6262920455
 40
0.6576189829
 40
0.6887350078
 40
0.7197264744
 40
0.7506912155
 40
0.7816928297
 40
0.8127637129
 40
0.843908568
 40
0.8751108541
 40
0.9375714527
 40
1.0
 40
1.0
 40
1.0
 40
1.0
 10
4.0665904617
 20
4.3839357635
 30
0.0
 10
4.0641761219
 20
4.3819006811
 30
0.0
 10
4.0591513789
 20
4.378086985
 30
0.0
 10
4.0510462187
 20
4.3732530829
 30
0.0
 10
4.0438692487
 20
4.3700813926
 30
0.0
 10
4.0379223434
 20
4.3681289997
 30
0.0
 10
4.0333572965
 20
4.3669688634
 30
0.0
 10
4.0287075651
 20
4.3661084355
 30
0.0
 10
4.0224063716
 20
4.3653512681
 30
0.0
 10
4.0144084127
 20
4.3651299683
 30
0.0
 10
4.0047985151
 20
4.3659718716
 30
0.0
 10
3.9952936285
 20
4.3678753052
 30
0.0
 10
3.9860392346
 20
4.3707974278
 30
0.0
 10
3.9771794429
 20
4.3746957086
 30
0.0
 10
3.9688584606
 20
4.3795337202
 30
0.0
 10
3.9612131058
 20
4.3852670132
 30
0.0
 10
3.9543402821
 20
4.3918106147
 30
0.0
 10
3.9483325498
 20
4.3990895075
 30
0.0
 10
3.9441202227
 20
4.4057093945
 30
0.0
 10
3.941283669
 20
4.4112856282
 30
0.0
 10
3.9387970495
 20
4.4170424148
 30
0.0
 10
3.9363347296
 20
4.4245307967
 30
0.0
 10
3.9343804133
 20
4.4338180278
 30
0.0
 10
3.9333766029
 20
4.4432937053
 30
0.0
 10
3.9332809298
 20
4.4528305776
 30
0.0
 10
3.9340518659
 20
4.4623095873
 30
0.0
 10
3.9356574237
 20
4.4716379437
 30
0.0
 10
3.938043247
 20
4.4807586824
 30
0.0
 10
3.941154203
 20
4.4896447351
 30
0.0
 10
3.944936694
 20
4.4982739962
 30
0.0
 10
3.9493373829
 20
4.5066244228
 30
0.0
 10
3.9543033867
 20
4.514674707
 30
0.0
 10
3.9616115699
 20
4.5249815897
 30
0.0
 10
3.9719558392
 20
4.5369727891
 30
0.0
 10
3.9813778748
 20
4.5454516397
 30
0.0
 10
3.9863354649
 20
4.5493655126
 30
0.0
  0
SPLINE
  5
2E8
100
AcDbEntity
  8
0
100
AcDbSpline
 62
7
  6
CONTINUOUS
 70
0
 71
3
 72
23
 73
19
 74
0
 42
0.0000001
 43
0.0000001
 44
0.0000000001
 40
0.0
 40
0.0
 40
0.0
 40
0.0
 40
0.0623969446
 40
0.1249723107
 40
0.1875207645
 40
0.2500118932
 40
0.3124921315
 40
0.3749947522
 40
0.4374963282
 40
0.4999988168
 40
0.5625016573
 40
0.6250042724
 40
0.6875076426
 40
0.7499870648
 40
0.8124766657
 40
0.8750253701
 40
0.9376023711
 40
1.0
 40
1.0
 40
1.0
 40
1.0
 10
4.5035958421
 20
3.9396870873
 30
0.0
 10
4.5044640099
 20
3.9408070418
 30
0.0
 10
4.506046509
 20
3.9431760584
 30
0.0
 10
4.5079070707
 20
3.9470214025
 30
0.0
 10
4.5092084968
 20
3.951093775
 30
0.0
 10
4.5099213229
 20
3.9553067478
 30
0.0
 10
4.5100290694
 20
3.9595775144
 30
0.0
 10
4.5095262212
 20
3.9638200638
 30
0.0
 10
4.5084251785
 20
3.9679488588
 30
0.0
 10
4.5067386698
 20
3.9718750043
 30
0.0
 10
4.5045102013
 20
3.9755209709
 30
0.0
 10
4.5017778827
 20
3.9788064037
 30
0.0
 10
4.4986070129
 20
3.9816695839
 30
0.0
 10
4.4950601987
 20
3.9840509324
 30
0.0
 10
4.491210728
 20
3.9859052311
 30
0.0
 10
4.4871356121
 20
3.9871980454
 30
0.0
 10
4.4829224215
 20
3.987903618
 30
0.0
 10
4.4800744876
 20
3.987982292
 30
0.0
 10
4.4786587344
 20
3.9879214625
 30
0.0
  0
SPLINE
  5
2E9
100
AcDbEntity
  8
0
100
AcDbSpline
 62
7
  6
CONTINUOUS
 70
0
 71
3
 72
96
 73
92
 74
0
 42
0.0000001
 43
0.0000001
 44
0.0000000001
 40
0.0
 40
0.0
 40
0.0
 40
0.0
 40
0.0311752695
 40
0.0623525364
 40
0.0779334813
 40
0.0935095832
 40
0.1090857127
 40
0.1246685225
 40
0.1402570207
 40
0.1558493254
 40
0.1870453558
 40
0.2026633862
 40
0.2182911608
 40
0.2339094888
 40
0.2495017395
 40
0.257284676
 40
0.2650570213
 40
0.2728183883
 40
0.2805727684
 40
0.2960855057
 40
0.3116403517
 40
0.3272699392
 40
0.3429973095
 40
0.3588235341
 40
0.3746907059
 40
0.390527841
 40
0.4062738068
 40
0.421889285
 40
0.437369709
 40
0.4450724468
 40
0.4527628526
 40
0.4604562849
 40
0.4643105275
 40
0.4681727549
 40
0.4759229274
 40
0.4837094084
 40
0.4993818383
 40
0.5151636615
 40
0.5309963487
 40
0.5468009533
 40
0.5624992096
 40
0.5781014499
 40
0.5936517595
 40
0.6014213418
 40
0.6091926269
 40
0.6247533199
 40
0.6403580447
 40
0.6560161453
 40
0.6717257723
 40
0.6874752026
 40
0.695359055
 40
0.7032424421
 40
0.7189862815
 40
0.7346786494
 40
0.7503099216
 40
0.7658936668
 40
0.7736809194
 40
0.7814737702
 40
0.7892770201
 40
0.797088273
 40
0.8127157559
 40
0.8283234658
 40
0.8361117928
 40
0.8438962822
 40
0.8516849773
 40
0.8594829504
 40
0.8633863474
 40
0.8672927752
 40
0.8712021029
 40
0.8751124507
 40
0.8829239672
 40
0.890711989
 40
0.8945976821
 40
0.8984803482
 40
0.9023638012
 40
0.9062513133
 40
0.914044306
 40
0.9218625253
 40
0.9257776295
 40
0.9296931113
 40
0.933606559
 40
0.9375166775
 40
0.9453236957
 40
0.9531141852
 40
0.9608974219
 40
0.9647927663
 40
0.9686929741
 40
0.9765051175
 40
0.9843303232
 40
0.9921635267
 40
1.0
 40
1.0
 40
1.0
 40
1.0
 10
4.589891342
 20
2.9865584187
 30
0.0
 10
4.5866748665
 20
3.003152981
 30
0.0
 10
4.5800371957
 20
3.0363045958
 30
0.0
 10
4.5706795009
 20
3.0775201681
 30
0.0
 10
4.5622318252
 20
3.110247962
 30
0.0
 10
4.5553365623
 20
3.1346333974
 30
0.0
 10
4.5478008655
 20
3.1588305231
 30
0.0
 10
4.5395459036
 20
3.1827994424
 30
0.0
 10
4.5305394951
 20
3.2065065804
 30
0.0
 10
4.5174918273
 20
3.2377141793
 30
0.0
 10
4.5028221972
 20
3.268245502
 30
0.0
 10
4.4864460821
 20
3.2978855756
 30
0.0
 10
4.4732833435
 20
3.3196291782
 30
0.0
 10
4.4592353861
 20
3.3407948981
 30
0.0
 10
4.4467786773
 20
3.3578878831
 30
0.0
 10
4.4363633586
 20
3.3711838233
 30
0.0
 10
4.42833234
 20
3.3809493727
 30
0.0
 10
4.42007319
 20
3.3905023133
 30
0.0
 10
4.4087671259
 20
3.4029626019
 30
0.0
 10
4.3941051689
 20
3.4180751918
 30
0.0
 10
4.3757914899
 20
3.4355660445
 30
0.0
 10
4.3568523894
 20
3.4525502344
 30
0.0
 10
4.3373879315
 20
3.4691552617
 30
0.0
 10
4.3175319844
 20
3.4854911136
 30
0.0
 10
4.2975962344
 20
3.5018227807
 30
0.0
 10
4.2779100624
 20
3.5183896286
 30
0.0
 10
4.2588092571
 20
3.535430013
 30
0.0
 10
4.2406312261
 20
3.5531832658
 30
0.0
 10
4.2265102538
 20
3.5688034364
 30
0.0
 10
4.2160445495
 20
3.5818741525
 30
0.0
 10
4.2086573213
 20
3.5919851045
 30
0.0
 10
4.202915846
 20
3.6006995954
 30
0.0
 10
4.1985963192
 20
3.6078528032
 30
0.0
 10
4.1944560816
 20
3.6151466021
 30
0.0
 10
4.1896257021
 20
3.6244958991
 30
0.0
 10
4.182618735
 20
3.6399049537
 30
0.0
 10
4.1752128652
 20
3.6598861807
 30
0.0
 10
4.1684313398
 20
3.6846425247
 30
0.0
 10
4.16366687
 20
3.7099354001
 30
0.0
 10
4.1608547608
 20
3.7354703872
 30
0.0
 10
4.1599321434
 20
3.7610173047
 30
0.0
 10
4.1608710092
 20
3.7864246093
 30
0.0
 10
4.163171003
 20
3.8074224088
 30
0.0
 10
4.1658982053
 20
3.8240611725
 30
0.0
 10
4.1692064035
 20
3.8405999941
 30
0.0
 10
4.174394961
 20
3.8610812068
 30
0.0
 10
4.1821745585
 20
3.8852638325
 30
0.0
 10
4.1913891802
 20
3.9090219534
 30
0.0
 10
4.2019173118
 20
3.9323116326
 30
0.0
 10
4.2116834064
 20
3.951286912
 30
0.0
 10
4.2200337924
 20
3.9661978193
 30
0.0
 10
4.2287463516
 20
3.9808966345
 30
0.0
 10
4.2403372821
 20
3.9988037604
 30
0.0
 10
4.2554623395
 20
4.0193798731
 30
0.0
 10
4.2718748719
 20
4.0388357678
 30
0.0
 10
4.2866965996
 20
4.0539535109
 30
0.0
 10
4.2992536782
 20
4.06526651
 30
0.0
 10
4.3090358046
 20
4.0733389308
 30
0.0
 10
4.319177117
 20
4.0809768342
 30
0.0
 10
4.3331401428
 20
4.0905754047
 30
0.0
 10
4.3513402814
 20
4.1014431397
 30
0.0
 10
4.3703695747
 20
4.1107530495
 30
0.0
 10
4.3859904747
 20
4.1172287414
 30
0.0
 10
4.397868593
 20
4.1216365429
 30
0.0
 10
4.4098935421
 20
4.1256406179
 30
0.0
 10
4.4200173436
 20
4.1286762268
 30
0.0
 10
4.4281698852
 20
4.1309467319
 30
0.0
 10
4.4343117803
 20
4.1325760614
 30
0.0
 10
4.4404747073
 20
4.1341393464
 30
0.0
 10
4.4487151768
 20
4.136121417
 30
0.0
 10
4.4590613873
 20
4.1383385846
 30
0.0
 10
4.4694940199
 20
4.1400463013
 30
0.0
 10
4.477876033
 20
4.1410020277
 30
0.0
 10
4.4841767667
 20
4.1414860462
 30
0.0
 10
4.4904925779
 20
4.1417216615
 30
0.0
 10
4.4989328882
 20
4.1417368986
 30
0.0
 10
4.5095003507
 20
4.1412410662
 30
0.0
 10
4.520039484
 20
4.1401954505
 30
0.0
 10
4.5284544382
 20
4.1391059432
 30
0.0
 10
4.534755318
 20
4.1381841255
 30
0.0
 10
4.5410383272
 20
4.137163885
 30
0.0
 10
4.5493778791
 20
4.1356527632
 30
0.0
 10
4.5597273086
 20
4.1334516634
 30
0.0
 10
4.5719888031
 20
4.1302099002
 30
0.0
 10
4.582029923
 20
4.1269284405
 30
0.0
 10
4.5899205928
 20
4.1239097077
 30
0.0
 10
4.5977179081
 20
4.120617163
 30
0.0
 10
4.607263789
 20
4.1160042459
 30
0.0
 10
4.6183336541
 20
4.1097078199
 30
0.0
 10
4.6289686283
 20
4.1026783542
 30
0.0
 10
4.6357315201
 20
4.0975228915
 30
0.0
 10
4.6390210479
 20
4.0948334974
 30
0.0
  0
SPLINE
  5
2EA
100
AcDbEntity
  8
0
100
AcDbSpline
 62
7
  6
CONTINUOUS
 70
0
 71
3
 72
55
 73
51
 74
0
 42
0.0000001
 43
0.0000001
 44
0.0000000001
 40
0.0
 40
0.0
 40
0.0
 40
0.0
 40
0.0156318592
 40
0.0313116375
 40
0.0470450826
 40
0.0628035285
 40
0.0785523291
 40
0.0942546178
 40
0.1020788407
 40
0.1098797914
 40
0.1254402098
 40
0.1410087389
 40
0.1566313393
 40
0.1723285062
 40
0.1880988083
 40
0.2039224981
 40
0.2118442575
 40
0.2197647366
 40
0.2355754848
 40
0.2513133183
 40
0.2669542978
 40
0.2824969189
 40
0.2902395279
 40
0.2979696869
 40
0.3056956072
 40
0.3134276313
 40
0.3289399858
 40
0.3445418584
 40
0.3602224472
 40
0.3759407774
 40
0.3837959853
 40
0.3916389117
 40
0.4072867065
 40
0.4228912002
 40
0.4384616885
 40
0.4695417231
 40
0.4850760875
 40
0.5006220104
 40
0.5161812619
 40
0.5317536125
 40
0.5629342629
 40
0.5941574503
 40
0.6254114014
 40
0.6566804782
 40
0.6879455018
 40
0.7504084682
 40
0.8128277338
 40
0.8752390061
 40
0.9376409552
 40
1.0
 40
1.0
 40
1.0
 40
1.0
 10
4.567353891
 20
3.6859537814
 30
0.0
 10
4.5647110945
 20
3.6836504397
 30
0.0
 10
4.5595170125
 20
3.6789149607
 30
0.0
 10
4.5523642218
 20
3.6711396858
 30
0.0
 10
4.5458894356
 20
3.6627580154
 30
0.0
 10
4.5401267924
 20
3.653853374
 30
0.0
 10
4.5351200544
 20
3.6445113758
 30
0.0
 10
4.5316083709
 20
3.6364216175
 30
0.0
 10
4.5292200217
 20
3.6298124604
 30
0.0
 10
4.5271245787
 20
3.6231379489
 30
0.0
 10
4.5250263764
 20
3.6146530468
 30
0.0
 10
4.5232702453
 20
3.604308078
 30
0.0
 10
4.5221945061
 20
3.5938411435
 30
0.0
 10
4.5217168461
 20
3.5832864042
 30
0.0
 10
4.5217550776
 20
3.5726772161
 30
0.0
 10
4.5221499853
 20
3.5638219322
 30
0.0
 10
4.5226414118
 20
3.5567371787
 30
0.0
 10
4.5232459322
 20
3.5496640592
 30
0.0
 10
4.5242428996
 20
3.5408662885
 30
0.0
 10
4.5259071686
 20
3.5304106493
 30
0.0
 10
4.528120556
 20
3.5201173739
 30
0.0
 10
4.530494401
 20
3.5117086833
 30
0.0
 10
4.5327489417
 20
3.5051270179
 30
0.0
 10
4.5346251473
 20
3.5002728984
 30
0.0
 10
4.5367015742
 20
3.4955034422
 30
0.0
 10
4.5397358524
 20
3.4892539125
 30
0.0
 10
4.5439696108
 20
3.4816320226
 30
0.0
 10
4.549581633
 20
3.4727597096
 30
0.0
 10
4.5555748861
 20
3.4640864507
 30
0.0
 10
4.5607594265
 20
3.4569712921
 30
0.0
 10
4.5649504603
 20
3.4513077665
 30
0.0
 10
4.5691378826
 20
3.4456612202
 30
0.0
 10
4.574362191
 20
3.4386200112
 30
0.0
 10
4.580596943
 20
3.4301705303
 30
0.0
 10
4.5888226463
 20
3.4188894177
 30
0.0
 10
4.5968924874
 20
3.4075136231
 30
0.0
 10
4.6047041495
 20
3.3959668079
 30
0.0
 10
4.6104131571
 20
3.3872020122
 30
0.0
 10
4.6159783443
 20
3.378335182
 30
0.0
 10
4.623211352
 20
3.3663776224
 30
0.0
 10
4.631900237
 20
3.3511980398
 30
0.0
 10
4.6417731283
 20
3.332655456
 30
0.0
 10
4.6511103202
 20
3.3138155164
 30
0.0
 10
4.6599253715
 20
3.2947155689
 30
0.0
 10
4.6709976632
 20
3.2689595641
 30
0.0
 10
4.683611221
 20
3.2362759086
 30
0.0
 10
4.6969426944
 20
3.1964312791
 30
0.0
 10
4.7086442731
 20
3.1560943213
 30
0.0
 10
4.7188957574
 20
3.1153815655
 30
0.0
 10
4.7248874412
 20
3.0880466633
 30
0.0
 10
4.7277024367
 20
3.0743479693
 30
0.0
  0
SPLINE
  5
2EB
100
AcDbEntity
  8
0
100
AcDbSpline
 62
7
  6
CONTINUOUS
 70
0
 71
3
 72
40
 73
36
 74
0
 42
0.0000001
 43
0.0000001
 44
0.0000000001
 40
0.0
 40
0.0
 40
0.0
 40
0.0
 40
0.0317107762
 40
0.0630717034
 40
0.0941773731
 40
0.1251140143
 40
0.1559625082
 40
0.1868017508
 40
0.2177117117
 40
0.2487506083
 40
0.2799267186
 40
0.3112276638
 40
0.3740473896
 40
0.4055807191
 40
0.4371576647
 40
0.4687858944
 40
0.4846329805
 40
0.5005028339
 40
0.5322840504
 40
0.5640909228
 40
0.627483864
 40
0.6590424436
 40
0.6904509517
 40
0.7217237015
 40
0.7529209046
 40
0.7841392149
 40
0.8153810047
 40
0.8465750836
 40
0.8776319673
 40
0.8930871875
 40
0.9084769251
 40
0.9237941471
 40
0.9390402908
 40
0.9694508178
 40
1.0
 40
1.0
 40
1.0
 40
1.0
 10
4.4786587332
 20
3.98792149
 30
0.0
 10
4.4739068203
 20
3.9877173119
 30
0.0
 10
4.4644683711
 20
3.9868590211
 30
0.0
 10
4.4505685048
 20
3.9842296501
 30
0.0
 10
4.4370951303
 20
3.9803123234
 30
0.0
 10
4.4241305104
 20
3.9751517294
 30
0.0
 10
4.4117549221
 20
3.9687921424
 30
0.0
 10
4.4000484762
 20
3.9612787619
 30
0.0
 10
4.3890976279
 20
3.9526547555
 30
0.0
 10
4.3789838771
 20
3.9429915567
 30
0.0
 10
4.3697639639
 20
3.9323938218
 30
0.0
 10
4.3587443907
 20
3.9171470258
 30
0.0
 10
4.3497806049
 20
3.9004325068
 30
0.0
 10
4.3431521388
 20
3.88272468
 30
0.0
 10
4.339397149
 20
3.8689982933
 30
0.0
 10
4.3373480479
 20
3.8573001235
 30
0.0
 10
4.3363909743
 20
3.8478439226
 30
0.0
 10
4.3358935595
 20
3.8383297894
 30
0.0
 10
4.3361263263
 20
3.8263934104
 30
0.0
 10
4.3382819063
 20
3.8074503707
 30
0.0
 10
4.3430755701
 20
3.7889108152
 30
0.0
 10
4.3504297897
 20
3.7714173696
 30
0.0
 10
4.3571958663
 20
3.7589771813
 30
0.0
 10
4.3651978683
 20
3.747358762
 30
0.0
 10
4.3744150571
 20
3.7367107531
 30
0.0
 10
4.384809328
 20
3.7272142443
 30
0.0
 10
4.3962071824
 20
3.718954037
 30
0.0
 10
4.4084214359
 20
3.7120096411
 30
0.0
 10
4.4191475617
 20
3.7073836807
 30
0.0
 10
4.4279551722
 20
3.7044329308
 30
0.0
 10
4.4346385002
 20
3.702608875
 30
0.0
 10
4.4413857841
 20
3.7011815371
 30
0.0
 10
4.4504349495
 20
3.6998253812
 30
0.0
 10
4.4618675841
 20
3.6991136142
 30
0.0
 10
4.4710190587
 20
3.6994950123
 30
0.0
 10
4.4755838726
 20
3.6998923025
 30
0.0
  0
SPLINE
  5
2EC
100
AcDbEntity
  8
0
100
AcDbSpline
 62
7
  6
CONTINUOUS
 70
0
 71
3
 72
19
 73
15
 74
0
 42
0.0000001
 43
0.0000001
 44
0.0000000001
 40
0.0
 40
0.0
 40
0.0
 40
0.0
 40
0.1247819332
 40
0.1874162081
 40
0.2499986918
 40
0.3748647826
 40
0.4997564383
 40
0.5623061415
 40
0.6248402172
 40
0.6873755799
 40
0.749937051
 40
0.8125483127
 40
0.8752038025
 40
1.0
 40
1.0
 40
1.0
 40
1.0
 10
4.629323287
 20
2.9640647614
 30
0.0
 10
4.6273061837
 20
2.9633454717
 30
0.0
 10
4.6241464404
 20
2.9625910187
 30
0.0
 10
4.6198623456
 20
2.9622666776
 30
0.0
 10
4.6155650824
 20
2.9624077139
 30
0.0
 10
4.6102617664
 20
2.9634498344
 30
0.0
 10
4.6053081737
 20
2.9656106471
 30
0.0
 10
4.6016947971
 20
2.9679359572
 30
0.0
 10
4.599185816
 20
2.9699646624
 30
0.0
 10
4.5969115078
 20
2.9722530651
 30
0.0
 10
4.5948945302
 20
2.974772745
 30
0.0
 10
4.5931599153
 20
2.9774979556
 30
0.0
 10
4.5912582296
 20
2.9813513116
 30
0.0
 10
4.590298888
 20
2.9844557922
 30
0.0
 10
4.589891342
 20
2.9865584187
 30
0.0
  0
SPLINE
  5
2ED
100
AcDbEntity
  8
0
100
AcDbSpline
 62
7
  6
CONTINUOUS
 70
0
 71
3
 72
19
 73
15
 74
0
 42
0.0000001
 43
0.0000001
 44
0.0000000001
 40
0.0
 40
0.0
 40
0.0
 40
0.0
 40
0.1247733991
 40
0.1874273608
 40
0.2500304859
 40
0.3125820752
 40
0.3751088656
 40
0.4999968489
 40
0.6248866363
 40
0.6874160246
 40
0.7499701736
 40
0.8125744993
 40
0.8752280275
 40
1.0
 40
1.0
 40
1.0
 40
1.0
 10
4.4450857538
 20
2.957071412
 30
0.0
 10
4.4455539797
 20
2.9549034217
 30
0.0
 10
4.445892287
 20
2.9515529649
 30
0.0
 10
4.4456093834
 20
2.9471113094
 30
0.0
 10
4.4450237599
 20
2.9438168482
 30
0.0
 10
4.4440742726
 20
2.9406112829
 30
0.0
 10
4.4423451633
 20
2.936509531
 30
0.0
 10
4.4393332644
 20
2.9317874164
 30
0.0
 10
4.4353534003
 20
2.9278464512
 30
0.0
 10
4.4317089869
 20
2.925290371
 30
0.0
 10
4.4287760159
 20
2.9236855042
 30
0.0
 10
4.4256793927
 20
2.9224175327
 30
0.0
 10
4.4213975699
 20
2.9212033415
 30
0.0
 10
4.4180512307
 20
2.9208267846
 30
0.0
 10
4.41583328
 20
2.9208267846
 30
0.0
  0
SPLINE
  5
2EE
100
AcDbEntity
  8
0
100
AcDbSpline
 62
7
  6
CONTINUOUS
 70
0
 71
3
 72
19
 73
15
 74
0
 42
0.0000001
 43
0.0000001
 44
0.0000000001
 40
0.0
 40
0.0
 40
0.0
 40
0.0
 40
0.1248118516
 40
0.1874256485
 40
0.249988298
 40
0.3125241841
 40
0.3750635662
 40
0.4999452038
 40
0.6248406713
 40
0.6873903938
 40
0.7499440771
 40
0.8125292079
 40
0.875167233
 40
1.0
 40
1.0
 40
1.0
 40
1.0
 10
3.927525568
 20
3.0286870368
 30
0.0
 10
3.9254004401
 20
3.029793839
 30
0.0
 10
3.922393659
 20
3.0318509871
 30
0.0
 10
3.9189720881
 20
3.0352274793
 30
0.0
 10
3.9167253962
 20
3.0380569511
 30
0.0
 10
3.914834393
 20
3.04113335
 30
0.0
 10
3.9128302887
 20
3.0455041265
 30
0.0
 10
3.9113338357
 20
3.0513747398
 30
0.0
 10
3.9112978881
 20
3.0574332552
 30
0.0
 10
3.9121330461
 20
3.0621693349
 30
0.0
 10
3.9131856524
 20
3.0656246306
 30
0.0
 10
3.9146450321
 20
3.0689311295
 30
0.0
 10
3.9171040716
 20
3.0730631339
 30
0.0
 10
3.9194940978
 20
3.0758138746
 30
0.0
 10
3.9212711741
 20
3.0774217004
 30
0.0
  0
SPLINE
  5
2EF
100
AcDbEntity
  8
0
100
AcDbSpline
 62
7
  6
CONTINUOUS
 70
0
 71
3
 72
19
 73
15
 74
0
 42
0.0000001
 43
0.0000001
 44
0.0000000001
 40
0.0
 40
0.0
 40
0.0
 40
0.0
 40
0.1248112321
 40
0.1874481883
 40
0.2500303667
 40
0.3125797173
 40
0.3751249297
 40
0.4999941497
 40
0.6248689261
 40
0.6874171606
 40
0.7499683775
 40
0.8125515064
 40
0.8751887531
 40
1.0
 40
1.0
 40
1.0
 40
1.0
 10
3.6607855679
 20
3.2013011121
 30
0.0
 10
3.6587811686
 20
3.2027669464
 30
0.0
 10
3.656030273
 20
3.2053585597
 30
0.0
 10
3.6530931298
 20
3.2093843328
 30
0.0
 10
3.6512813185
 20
3.2126632704
 30
0.0
 10
3.649890676
 20
3.2161393023
 30
0.0
 10
3.6486339468
 20
3.2209623686
 30
0.0
 10
3.6482080392
 20
3.2272310284
 30
0.0
 10
3.6493637461
 20
3.2334069865
 30
0.0
 10
3.6511755641
 20
3.2380503397
 30
0.0
 10
3.652963016
 20
3.2413401111
 30
0.0
 10
3.6551457175
 20
3.2443848408
 30
0.0
 10
3.6585333697
 20
3.2480396679
 30
0.0
 10
3.6615683876
 20
3.2502919
 30
0.0
 10
3.6637303878
 20
3.2515133924
 30
0.0
  0
SPLINE
  5
2F0
100
AcDbEntity
  8
0
100
AcDbSpline
 62
7
  6
CONTINUOUS
 70
0
 71
3
 72
19
 73
15
 74
0
 42
0.0000001
 43
0.0000001
 44
0.0000000001
 40
0.0
 40
0.0
 40
0.0
 40
0.0
 40
0.1247997907
 40
0.1874285551
 40
0.2499955441
 40
0.3125346179
 40
0.3750878193
 40
0.4999921034
 40
0.6248926086
 40
0.6874440943
 40
0.7499854995
 40
0.8125577113
 40
0.8751934272
 40
1.0
 40
1.0
 40
1.0
 40
1.0
 10
3.376328736
 20
3.5409271501
 30
0.0
 10
3.3751600399
 20
3.5386844594
 30
0.0
 10
3.3729642644
 20
3.5355210767
 30
0.0
 10
3.3693416086
 20
3.5319666436
 30
0.0
 10
3.3663001352
 20
3.5296632494
 30
0.0
 10
3.3629938741
 20
3.5277633705
 30
0.0
 10
3.358304261
 20
3.5258171807
 30
0.0
 10
3.3520323057
 20
3.5245253384
 30
0.0
 10
3.3456383614
 20
3.5248772137
 30
0.0
 10
3.3407129906
 20
3.5261101816
 30
0.0
 10
3.3371624348
 20
3.527501327
 30
0.0
 10
3.3338140286
 20
3.5293307232
 30
0.0
 10
3.3297063331
 20
3.5323120596
 30
0.0
 10
3.3270675195
 20
3.5351169115
 30
0.0
 10
3.325580636
 20
3.5371627329
 30
0.0
  0
SPLINE
  5
2F1
100
AcDbEntity
  8
0
100
AcDbSpline
 62
7
  6
CONTINUOUS
 70
0
 71
3
 72
19
 73
15
 74
0
 42
0.0000001
 43
0.0000001
 44
0.0000000001
 40
0.0
 40
0.0
 40
0.0
 40
0.0
 40
0.1248254235
 40
0.1874530392
 40
0.2500284218
 40
0.3125732207
 40
0.3751148905
 40
0.4999949826
 40
0.6248798143
 40
0.6874239728
 40
0.7499702334
 40
0.8125464304
 40
0.8751744686
 40
1.0
 40
1.0
 40
1.0
 40
1.0
 10
3.2036188184
 20
3.792786142
 30
0.0
 10
3.20193641
 20
3.7910891659
 30
0.0
 10
3.1990888213
 20
3.7888327526
 30
0.0
 10
3.1948630678
 20
3.786568195
 30
0.0
 10
3.1915050358
 20
3.7852610585
 30
0.0
 10
3.1880170677
 20
3.7843644361
 30
0.0
 10
3.1832630474
 20
3.7837390928
 30
0.0
 10
3.1772295214
 20
3.7840357625
 30
0.0
 10
3.1714444551
 20
3.7857750027
 30
0.0
 10
3.1671735022
 20
3.7879549865
 30
0.0
 10
3.164186511
 20
3.7899670532
 30
0.0
 10
3.1614593706
 20
3.7923224856
 30
0.0
 10
3.158234903
 20
3.7958704802
 30
0.0
 10
3.1563064274
 20
3.7989496365
 30
0.0
 10
3.1552887922
 20
3.8011117315
 30
0.0
  0
SPLINE
  5
2F2
100
AcDbEntity
  8
0
100
AcDbSpline
 62
7
  6
CONTINUOUS
 70
0
 71
3
 72
19
 73
15
 74
0
 42
0.0000001
 43
0.0000001
 44
0.0000000001
 40
0.0
 40
0.0
 40
0.0
 40
0.0
 40
0.1247824412
 40
0.1874520417
 40
0.2500728744
 40
0.3126395134
 40
0.375177745
 40
0.4377147733
 40
0.5002703751
 40
0.6251597952
 40
0.7500206286
 40
0.8126062854
 40
0.8752440493
 40
1.0
 40
1.0
 40
1.0
 40
1.0
 10
3.0477024366
 20
4.2895001501
 30
0.0
 10
3.0477024366
 20
4.29172828
 30
0.0
 10
3.0480828267
 20
4.2950902697
 30
0.0
 10
3.0493079645
 20
4.2993906414
 30
0.0
 10
3.0505873145
 20
4.3024999197
 30
0.0
 10
3.0522065353
 20
4.3054427673
 30
0.0
 10
3.0541426299
 20
4.3081858829
 30
0.0
 10
3.056375937
 20
4.3106933511
 30
0.0
 10
3.059706245
 20
4.3136770496
 30
0.0
 10
3.0644626957
 20
4.3166832394
 30
0.0
 10
3.0697728173
 20
4.318545178
 30
0.0
 10
3.0741827333
 20
4.3193004829
 30
0.0
 10
3.0786458083
 20
4.3195542016
 30
0.0
 10
3.0820082127
 20
4.3191886783
 30
0.0
 10
3.0841818186
 20
4.318700936
 30
0.0
  0
SPLINE
  5
2F3
100
AcDbEntity
  8
0
100
AcDbSpline
 62
7
  6
CONTINUOUS
 70
0
 71
3
 72
19
 73
15
 74
0
 42
0.0000001
 43
0.0000001
 44
0.0000000001
 40
0.0
 40
0.0
 40
0.0
 40
0.0
 40
0.1248275006
 40
0.1874547967
 40
0.2500300832
 40
0.3125753108
 40
0.3751182591
 40
0.5000025865
 40
0.624884315
 40
0.6874260177
 40
0.749970683
 40
0.8125457122
 40
0.8751727566
 40
1.0
 40
1.0
 40
1.0
 40
1.0
 10
3.1067295091
 20
4.47061526
 30
0.0
 10
3.1043515168
 20
4.4707100009
 30
0.0
 10
3.1007791071
 20
4.4712827469
 30
0.0
 10
3.0962720562
 20
4.4728587665
 30
0.0
 10
3.0930510818
 20
4.4744411156
 30
0.0
 10
3.0900426971
 20
4.4763938991
 30
0.0
 10
3.0863782545
 20
4.4794559822
 30
0.0
 10
3.0825234125
 20
4.4840742238
 30
0.0
 10
3.0798870349
 20
4.489481371
 30
0.0
 10
3.0785927022
 20
4.4940779337
 30
0.0
 10
3.078041996
 20
4.4976219667
 30
0.0
 10
3.0779162627
 20
4.501208406
 30
0.0
 10
3.0783225731
 20
4.505965729
 30
0.0
 10
3.0792618669
 20
4.5094596971
 30
0.0
 10
3.0801485287
 20
4.511668233
 30
0.0
  0
SPLINE
  5
2F4
100
AcDbEntity
  8
0
100
AcDbSpline
 62
7
  6
CONTINUOUS
 70
0
 71
3
 72
17
 73
13
 74
0
 42
0.0000001
 43
0.0000001
 44
0.0000000001
 40
0.0
 40
0.0
 40
0.0
 40
0.0
 40
0.1248328631
 40
0.1874997046
 40
0.2501200146
 40
0.3750603314
 40
0.5000030279
 40
0.6249440263
 40
0.7498795075
 40
0.8124986642
 40
0.8751658558
 40
1.0
 40
1.0
 40
1.0
 40
1.0
 10
5.0035135312
 20
2.9865584187
 30
0.0
 10
5.0031060137
 20
2.9844559392
 30
0.0
 10
5.0021470601
 20
2.9813518652
 30
0.0
 10
5.0002454407
 20
2.9774986582
 30
0.0
 10
4.9979363202
 20
2.9738707969
 30
0.0
 10
4.9943381382
 20
2.9698355076
 30
0.0
 10
4.9890857019
 20
2.9660410797
 30
0.0
 10
4.9831462369
 20
2.9634512279
 30
0.0
 10
4.9778414883
 20
2.9624078184
 30
0.0
 10
4.973543502
 20
2.9622667203
 30
0.0
 10
4.9692588521
 20
2.9625910289
 30
0.0
 10
4.9660987996
 20
2.9633454324
 30
0.0
 10
4.9640815861
 20
2.9640647614
 30
0.0
  0
SPLINE
  5
2F5
100
AcDbEntity
  8
0
100
AcDbSpline
 62
7
  6
CONTINUOUS
 70
0
 71
3
 72
19
 73
15
 74
0
 42
0.0000001
 43
0.0000001
 44
0.0000000001
 40
0.0
 40
0.0
 40
0.0
 40
0.0
 40
0.1247818065
 40
0.1874481631
 40
0.2500675331
 40
0.3126347342
 40
0.3751742887
 40
0.437712315
 40
0.5002680137
 40
0.6251581006
 40
0.7500186763
 40
0.8126035975
 40
0.8752408882
 40
1.0
 40
1.0
 40
1.0
 40
1.0
 10
5.1775715932
 20
2.9208267846
 30
0.0
 10
5.1753534636
 20
2.9208267846
 30
0.0
 10
5.1720067293
 20
2.9212036551
 30
0.0
 10
5.1677242984
 20
2.9224180658
 30
0.0
 10
5.1646269235
 20
2.9236863368
 30
0.0
 10
5.1616937067
 20
2.9252916894
 30
0.0
 10
5.1589576062
 20
2.9272115787
 30
0.0
 10
5.1564541573
 20
2.9294267016
 30
0.0
 10
5.1534713833
 20
2.9327308333
 30
0.0
 10
5.1504575745
 20
2.9374520269
 30
0.0
 10
5.1485747388
 20
2.9427275121
 30
0.0
 10
5.1477951964
 20
2.9471127344
 30
0.0
 10
5.1475123341
 20
2.9515539493
 30
0.0
 10
5.1478509462
 20
2.9549036659
 30
0.0
 10
5.1483191194
 20
2.957071412
 30
0.0
  0
SPLINE
  5
2F6
100
AcDbEntity
  8
0
100
AcDbSpline
 62
7
  6
CONTINUOUS
 70
0
 71
3
 72
19
 73
15
 74
0
 42
0.0000001
 43
0.0000001
 44
0.0000000001
 40
0.0
 40
0.0
 40
0.0
 40
0.0
 40
0.1248245551
 40
0.1874532951
 40
0.25003001
 40
0.3125766347
 40
0.3751210945
 40
0.5000052312
 40
0.6248844106
 40
0.6874262674
 40
0.7499713647
 40
0.8125472331
 40
0.8751755395
 40
1.0
 40
1.0
 40
1.0
 40
1.0
 10
5.6721336994
 20
3.0774217
 30
0.0
 10
5.6739106568
 20
3.07581398
 30
0.0
 10
5.6763006315
 20
3.0730636331
 30
0.0
 10
5.6787592738
 20
3.0689319736
 30
0.0
 10
5.6802186443
 20
3.0656260084
 30
0.0
 10
5.68127138
 20
3.0621711663
 30
0.0
 10
5.6821066424
 20
3.0574355697
 30
0.0
 10
5.6820713243
 20
3.051377475
 30
0.0
 10
5.6805757236
 20
3.0455068354
 30
0.0
 10
5.6785717
 20
3.0411358241
 30
0.0
 10
5.6766807322
 20
3.0380588586
 30
0.0
 10
5.6744338948
 20
3.035228576
 30
0.0
 10
5.6710116596
 20
3.0318516562
 30
0.0
 10
5.668004641
 20
3.0297939497
 30
0.0
 10
5.6658793011
 20
3.0286870338
 30
0.0
  0
SPLINE
  5
2F7
100
AcDbEntity
  8
0
100
AcDbSpline
 62
7
  6
CONTINUOUS
 70
0
 71
3
 72
19
 73
15
 74
0
 42
0.0000001
 43
0.0000001
 44
0.0000000001
 40
0.0
 40
0.0
 40
0.0
 40
0.0
 40
0.1248041495
 40
0.1874258898
 40
0.2499868803
 40
0.3125171674
 40
0.3750535296
 40
0.4999192087
 40
0.6248062585
 40
0.6873611411
 40
0.7499231974
 40
0.8125203701
 40
0.8751739572
 40
1.0
 40
1.0
 40
1.0
 40
1.0
 10
5.9296744757
 20
3.2515134001
 30
0.0
 10
5.9318363475
 20
3.2502919845
 30
0.0
 10
5.9348709967
 20
3.2480400206
 30
0.0
 10
5.9382580041
 20
3.2443858622
 30
0.0
 10
5.9404404354
 20
3.2413424036
 30
0.0
 10
5.9422276215
 20
3.2380537367
 30
0.0
 10
5.9440394888
 20
3.2334113313
 30
0.0
 10
5.945196406
 20
3.2272357546
 30
0.0
 10
5.9447717078
 20
3.2209665882
 30
0.0
 10
5.9435151499
 20
3.2161426633
 30
0.0
 10
5.9421247111
 20
3.2126657718
 30
0.0
 10
5.9403128117
 20
3.209385857
 30
0.0
 10
5.9373749175
 20
3.2053595154
 30
0.0
 10
5.9346239256
 20
3.2027671292
 30
0.0
 10
5.9326193053
 20
3.2013011121
 30
0.0
  0
SPLINE
  5
2F8
100
AcDbEntity
  8
0
100
AcDbSpline
 62
7
  6
CONTINUOUS
 70
0
 71
3
 72
19
 73
15
 74
0
 42
0.0000001
 43
0.0000001
 44
0.0000000001
 40
0.0
 40
0.0
 40
0.0
 40
0.0
 40
0.124803769
 40
0.1874456617
 40
0.2500323746
 40
0.3125860046
 40
0.3751361303
 40
0.5000057365
 40
0.6248698199
 40
0.6874169659
 40
0.7499686996
 40
0.8125543567
 40
0.8751959421
 40
1.0
 40
1.0
 40
1.0
 40
1.0
 10
6.2678242372
 20
3.5371627329
 30
0.0
 10
6.2663373864
 20
3.5351169564
 30
0.0
 10
6.2636986911
 20
3.5323118798
 30
0.0
 10
6.2595905007
 20
3.5293305658
 30
0.0
 10
6.2562413401
 20
3.5275011603
 30
0.0
 10
6.2526903251
 20
3.5261098391
 30
0.0
 10
6.2477653888
 20
3.5248766234
 30
0.0
 10
6.2413729494
 20
3.5245259077
 30
0.0
 10
6.2351022826
 20
3.5258160014
 30
0.0
 10
6.2304134508
 20
3.5277624129
 30
0.0
 10
6.2271066917
 20
3.5296623818
 30
0.0
 10
6.224064154
 20
3.5319658717
 30
0.0
 10
6.2204408182
 20
3.5355206819
 30
0.0
 10
6.2182448735
 20
3.5386843814
 30
0.0
 10
6.2170761371
 20
3.5409271501
 30
0.0
  0
SPLINE
  5
2F9
100
AcDbEntity
  8
0
100
AcDbSpline
 62
7
  6
CONTINUOUS
 70
0
 71
3
 72
19
 73
15
 74
0
 42
0.0000001
 43
0.0000001
 44
0.0000000001
 40
0.0
 40
0.0
 40
0.0
 40
0.0
 40
0.1248139362
 40
0.1874264781
 40
0.2499864293
 40
0.3125199528
 40
0.3750589804
 40
0.4999429343
 40
0.6248366194
 40
0.6873850744
 40
0.7499387195
 40
0.8125246648
 40
0.8751640772
 40
1.0
 40
1.0
 40
1.0
 40
1.0
 10
6.4381160809
 20
3.8011117315
 30
0.0
 10
6.4370985405
 20
3.7989498377
 30
0.0
 10
6.4351705713
 20
3.7958709712
 30
0.0
 10
6.4319465828
 20
3.7923236703
 30
0.0
 10
6.4292203766
 20
3.7899684854
 30
0.0
 10
6.4262340923
 20
3.7879565194
 30
0.0
 10
6.4219635668
 20
3.7857765096
 30
0.0
 10
6.4161786858
 20
3.7840363008
 30
0.0
 10
6.4101447636
 20
3.7837388514
 30
0.0
 10
6.4053901558
 20
3.7843640173
 30
0.0
 10
6.4019016272
 20
3.7852604522
 30
0.0
 10
6.3985429301
 20
3.7865675742
 30
0.0
 10
6.3943167149
 20
3.7888325942
 30
0.0
 10
6.3914686045
 20
3.7910890234
 30
0.0
 10
6.3897860548
 20
3.792786142
 30
0.0
  0
SPLINE
  5
2FA
100
AcDbEntity
  8
0
100
AcDbSpline
 62
7
  6
CONTINUOUS
 70
0
 71
3
 72
19
 73
15
 74
0
 42
0.0000001
 43
0.0000001
 44
0.0000000001
 40
0.0
 40
0.0
 40
0.0
 40
0.0
 40
0.1247698834
 40
0.1874246463
 40
0.2500298641
 40
0.3125846357
 40
0.3751144164
 40
0.5000031947
 40
0.6248901362
 40
0.6874172735
 40
0.7499694425
 40
0.8125734439
 40
0.8752286548
 40
1.0
 40
1.0
 40
1.0
 40
1.0
 10
6.5092230546
 20
4.318700936
 30
0.0
 10
6.5113968992
 20
4.3191887319
 30
0.0
 10
6.5147600483
 20
4.3195539734
 30
0.0
 10
6.519223587
 20
4.3193002072
 30
0.0
 10
6.5225366952
 20
4.3187327411
 30
0.0
 10
6.5257623656
 20
4.3177975829
 30
0.0
 10
6.5298919357
 20
4.3160825101
 30
0.0
 10
6.5346493158
 20
4.3130782094
 30
0.0
 10
6.5386222585
 20
4.3090940438
 30
0.0
 10
6.5411998396
 20
4.305440311
 30
0.0
 10
6.5428184932
 20
4.3024977492
 30
0.0
 10
6.5440975179
 20
4.2993893102
 30
0.0
 10
6.5453224012
 20
4.2950896226
 30
0.0
 10
6.5457024366
 20
4.2917280778
 30
0.0
 10
6.5457024366
 20
4.2895001501
 30
0.0
  0
SPLINE
  5
2FB
100
AcDbEntity
  8
0
100
AcDbSpline
 62
7
  6
CONTINUOUS
 70
0
 71
3
 72
19
 73
15
 74
0
 42
0.0000001
 43
0.0000001
 44
0.0000000001
 40
0.0
 40
0.0
 40
0.0
 40
0.0
 40
0.1248272434
 40
0.1874542879
 40
0.2500293171
 40
0.3125739823
 40
0.3751156851
 40
0.4999974136
 40
0.6248817411
 40
0.6874246892
 40
0.7499699166
 40
0.8125452032
 40
0.8751724996
 40
1.0
 40
1.0
 40
1.0
 40
1.0
 10
6.5132563445
 20
4.511668233
 30
0.0
 10
6.5141430063
 20
4.5094596971
 30
0.0
 10
6.5150823
 20
4.5059657291
 30
0.0
 10
6.5154886104
 20
4.5012084061
 30
0.0
 10
6.5153628771
 20
4.4976219668
 30
0.0
 10
6.5148121708
 20
4.4940779338
 30
0.0
 10
6.5135178381
 20
4.4894813712
 30
0.0
 10
6.5108814606
 20
4.484074224
 30
0.0
 10
6.5070266185
 20
4.4794559824
 30
0.0
 10
6.503362176
 20
4.4763938994
 30
0.0
 10
6.5003537913
 20
4.474441116
 30
0.0
 10
6.4971328168
 20
4.4728587669
 30
0.0
 10
6.4926257661
 20
4.4712827472
 30
0.0
 10
6.4890533565
 20
4.4707100009
 30
0.0
 10
6.4866753641
 20
4.47061526
 30
0.0
  0
SPLINE
  5
2FC
100
AcDbEntity
  8
0
100
AcDbSpline
 62
7
  6
CONTINUOUS
 70
0
 71
3
 72
19
 73
15
 74
0
 42
0.0000001
 43
0.0000001
 44
0.0000000001
 40
0.0
 40
0.0
 40
0.0
 40
0.0
 40
0.124780815
 40
0.1874145873
 40
0.2499976346
 40
0.3748669612
 40
0.4997606281
 40
0.5623108131
 40
0.6248448127
 40
0.6873793911
 40
0.749939734
 40
0.8125497938
 40
0.8752043941
 40
1.0
 40
1.0
 40
1.0
 40
1.0
 10
4.9640815861
 20
6.3775888078
 30
0.0
 10
4.9660986714
 20
6.3783080912
 30
0.0
 10
4.9692583785
 20
6.3790625728
 30
0.0
 10
4.9735424586
 20
6.3793869047
 30
0.0
 10
4.9778397758
 20
6.3792458237
 30
0.0
 10
4.9831431962
 20
6.3782037239
 30
0.0
 10
4.9880968739
 20
6.3760428373
 30
0.0
 10
4.991710251
 20
6.3737174543
 30
0.0
 10
4.9942192337
 20
6.3716887622
 30
0.0
 10
4.9964935025
 20
6.3694003664
 30
0.0
 10
4.9985104217
 20
6.3668807091
 30
0.0
 10
5.0002450043
 20
6.3641555443
 30
0.0
 10
5.0021466647
 20
6.3603022264
 30
0.0
 10
5.0031059871
 20
6.3571977672
 30
0.0
 10
5.0035135312
 20
6.3550951505
 30
0.0
  0
SPLINE
  5
2FD
100
AcDbEntity
  8
0
100
AcDbSpline
 62
7
  6
CONTINUOUS
 70
0
 71
3
 72
19
 73
15
 74
0
 42
0.0000001
 43
0.0000001
 44
0.0000000001
 40
0.0
 40
0.0
 40
0.0
 40
0.0
 40
0.1247733991
 40
0.1874273608
 40
0.2500304859
 40
0.3125820752
 40
0.3751088656
 40
0.4999968489
 40
0.6248866363
 40
0.6874160246
 40
0.7499701736
 40
0.8125744993
 40
0.8752280275
 40
1.0
 40
1.0
 40
1.0
 40
1.0
 10
5.1483191194
 20
6.3845821572
 30
0.0
 10
5.1478508935
 20
6.3867501476
 30
0.0
 10
5.1475125862
 20
6.3901006043
 30
0.0
 10
5.1477954898
 20
6.3945422599
 30
0.0
 10
5.1483811133
 20
6.3978367211
 30
0.0
 10
5.1493306006
 20
6.4010422863
 30
0.0
 10
5.1510597098
 20
6.4051440382
 30
0.0
 10
5.1540716087
 20
6.4098661528
 30
0.0
 10
5.1580514728
 20
6.4138071181
 30
0.0
 10
5.1616958862
 20
6.4163631982
 30
0.0
 10
5.1646288573
 20
6.4179680651
 30
0.0
 10
5.1677254805
 20
6.4192360365
 30
0.0
 10
5.1720073032
 20
6.4204502277
 30
0.0
 10
5.1753536425
 20
6.4208267846
 30
0.0
 10
5.1775715932
 20
6.4208267846
 30
0.0
  0
SPLINE
  5
2FE
100
AcDbEntity
  8
0
100
AcDbSpline
 62
7
  6
CONTINUOUS
 70
0
 71
3
 72
19
 73
15
 74
0
 42
0.0000001
 43
0.0000001
 44
0.0000000001
 40
0.0
 40
0.0
 40
0.0
 40
0.0
 40
0.1248118516
 40
0.1874256485
 40
0.249988298
 40
0.3125241841
 40
0.3750635662
 40
0.4999452038
 40
0.6248406713
 40
0.6873903938
 40
0.7499440771
 40
0.8125292079
 40
0.875167233
 40
1.0
 40
1.0
 40
1.0
 40
1.0
 10
5.6658793052
 20
6.3129665324
 30
0.0
 10
5.6680044331
 20
6.3118597303
 30
0.0
 10
5.6710112141
 20
6.3098025822
 30
0.0
 10
5.674432785
 20
6.3064260899
 30
0.0
 10
5.6766794769
 20
6.3035966181
 30
0.0
 10
5.6785704802
 20
6.3005202192
 30
0.0
 10
5.6805745844
 20
6.2961494427
 30
0.0
 10
5.6820710374
 20
6.2902788294
 30
0.0
 10
5.6821069851
 20
6.2842203141
 30
0.0
 10
5.681271827
 20
6.2794842344
 30
0.0
 10
5.6802192207
 20
6.2760289386
 30
0.0
 10
5.6787598411
 20
6.2727224397
 30
0.0
 10
5.6763008016
 20
6.2685904353
 30
0.0
 10
5.6739107754
 20
6.2658396946
 30
0.0
 10
5.672133699
 20
6.2642318688
 30
0.0
  0
SPLINE
  5
2FF
100
AcDbEntity
  8
0
100
AcDbSpline
 62
7
  6
CONTINUOUS
 70
0
 71
3
 72
19
 73
15
 74
0
 42
0.0000001
 43
0.0000001
 44
0.0000000001
 40
0.0
 40
0.0
 40
0.0
 40
0.0
 40
0.1248112321
 40
0.1874481883
 40
0.2500303667
 40
0.3125797173
 40
0.3751249297
 40
0.4999941497
 40
0.6248689261
 40
0.6874171606
 40
0.7499683775
 40
0.8125515064
 40
0.8751887531
 40
1.0
 40
1.0
 40
1.0
 40
1.0
 10
5.9326193053
 20
6.1403524572
 30
0.0
 10
5.9346237046
 20
6.1388866228
 30
0.0
 10
5.9373746002
 20
6.1362950095
 30
0.0
 10
5.9403117433
 20
6.1322692365
 30
0.0
 10
5.9421235547
 20
6.1289902988
 30
0.0
 10
5.9435141971
 20
6.1255142669
 30
0.0
 10
5.9447709264
 20
6.1206912006
 30
0.0
 10
5.945196834
 20
6.1144225409
 30
0.0
 10
5.9440411271
 20
6.1082465827
 30
0.0
 10
5.9422293091
 20
6.1036032295
 30
0.0
 10
5.9404418572
 20
6.1003134581
 30
0.0
 10
5.9382591556
 20
6.0972687284
 30
0.0
 10
5.9348715035
 20
6.0936139014
 30
0.0
 10
5.9318364855
 20
6.0913616692
 30
0.0
 10
5.9296744853
 20
6.0901401769
 30
0.0
  0
SPLINE
  5
300
100
AcDbEntity
  8
0
100
AcDbSpline
 62
7
  6
CONTINUOUS
 70
0
 71
3
 72
19
 73
15
 74
0
 42
0.0000001
 43
0.0000001
 44
0.0000000001
 40
0.0
 40
0.0
 40
0.0
 40
0.0
 40
0.1247997907
 40
0.1874285551
 40
0.2499955441
 40
0.3125346179
 40
0.3750878193
 40
0.4999921034
 40
0.6248926086
 40
0.6874440943
 40
0.7499854995
 40
0.8125577113
 40
0.8751934272
 40
1.0
 40
1.0
 40
1.0
 40
1.0
 10
6.2170761371
 20
5.8007264191
 30
0.0
 10
6.2182448333
 20
5.8029691099
 30
0.0
 10
6.2204406088
 20
5.8061324925
 30
0.0
 10
6.2240632646
 20
5.8096869257
 30
0.0
 10
6.227104738
 20
5.8119903198
 30
0.0
 10
6.230410999
 20
5.8138901988
 30
0.0
 10
6.2351006121
 20
5.8158363885
 30
0.0
 10
6.2413725675
 20
5.8171282309
 30
0.0
 10
6.2477665118
 20
5.8167763555
 30
0.0
 10
6.2526918826
 20
5.8155433876
 30
0.0
 10
6.2562424383
 20
5.8141522423
 30
0.0
 10
6.2595908446
 20
5.8123228461
 30
0.0
 10
6.26369854
 20
5.8093415096
 30
0.0
 10
6.2663373537
 20
5.8065366577
 30
0.0
 10
6.2678242372
 20
5.8044908364
 30
0.0
  0
SPLINE
  5
301
100
AcDbEntity
  8
0
100
AcDbSpline
 62
7
  6
CONTINUOUS
 70
0
 71
3
 72
19
 73
15
 74
0
 42
0.0000001
 43
0.0000001
 44
0.0000000001
 40
0.0
 40
0.0
 40
0.0
 40
0.0
 40
0.1248254235
 40
0.1874530392
 40
0.2500284218
 40
0.3125732207
 40
0.3751148905
 40
0.4999949826
 40
0.6248798143
 40
0.6874239728
 40
0.7499702334
 40
0.8125464304
 40
0.8751744686
 40
1.0
 40
1.0
 40
1.0
 40
1.0
 10
6.3897860548
 20
5.5488674272
 30
0.0
 10
6.3914684632
 20
5.5505644034
 30
0.0
 10
6.3943160518
 20
5.5528208166
 30
0.0
 10
6.3985418054
 20
5.5550853742
 30
0.0
 10
6.4018998374
 20
5.5563925107
 30
0.0
 10
6.4053878054
 20
5.5572891332
 30
0.0
 10
6.4101418258
 20
5.5579144764
 30
0.0
 10
6.4161753518
 20
5.5576178067
 30
0.0
 10
6.4219604181
 20
5.5558785665
 30
0.0
 10
6.426231371
 20
5.5536985828
 30
0.0
 10
6.4292183622
 20
5.5516865161
 30
0.0
 10
6.4319455026
 20
5.5493310836
 30
0.0
 10
6.4351699702
 20
5.5457830891
 30
0.0
 10
6.4370984458
 20
5.5427039327
 30
0.0
 10
6.4381160809
 20
5.5405418377
 30
0.0
  0
SPLINE
  5
302
100
AcDbEntity
  8
0
100
AcDbSpline
 62
7
  6
CONTINUOUS
 70
0
 71
3
 72
19
 73
15
 74
0
 42
0.0000001
 43
0.0000001
 44
0.0000000001
 40
0.0
 40
0.0
 40
0.0
 40
0.0
 40
0.1247824412
 40
0.1874520417
 40
0.2500728744
 40
0.3126395134
 40
0.375177745
 40
0.4377147733
 40
0.5002703751
 40
0.6251597952
 40
0.7500206286
 40
0.8126062854
 40
0.8752440493
 40
1.0
 40
1.0
 40
1.0
 40
1.0
 10
6.5457024366
 20
5.0521534191
 30
0.0
 10
6.5457024366
 20
5.0499252892
 30
0.0
 10
6.5453220465
 20
5.0465632995
 30
0.0
 10
6.5440969087
 20
5.0422629278
 30
0.0
 10
6.5428175587
 20
5.0391536495
 30
0.0
 10
6.5411983379
 20
5.0362108019
 30
0.0
 10
6.5392622432
 20
5.0334676864
 30
0.0
 10
6.5370289362
 20
5.0309602182
 30
0.0
 10
6.5336986282
 20
5.0279765196
 30
0.0
 10
6.5289421775
 20
5.0249703299
 30
0.0
 10
6.5236320559
 20
5.0231083913
 30
0.0
 10
6.5192221399
 20
5.0223530863
 30
0.0
 10
6.5147590648
 20
5.0220993677
 30
0.0
 10
6.5113966604
 20
5.022464891
 30
0.0
 10
6.5092230546
 20
5.0229526333
 30
0.0
  0
SPLINE
  5
303
100
AcDbEntity
  8
0
100
AcDbSpline
 62
7
  6
CONTINUOUS
 70
0
 71
3
 72
19
 73
15
 74
0
 42
0.0000001
 43
0.0000001
 44
0.0000000001
 40
0.0
 40
0.0
 40
0.0
 40
0.0
 40
0.1248275006
 40
0.1874547967
 40
0.2500300832
 40
0.3125753108
 40
0.3751182591
 40
0.5000025865
 40
0.624884315
 40
0.6874260177
 40
0.749970683
 40
0.8125457122
 40
0.8751727566
 40
1.0
 40
1.0
 40
1.0
 40
1.0
 10
6.486675364
 20
4.8710383092
 30
0.0
 10
6.4890533564
 20
4.8709435683
 30
0.0
 10
6.4926257661
 20
4.8703708223
 30
0.0
 10
6.4971328169
 20
4.8687948027
 30
0.0
 10
6.5003537914
 20
4.8672124536
 30
0.0
 10
6.5033621761
 20
4.8652596702
 30
0.0
 10
6.5070266186
 20
4.8621975871
 30
0.0
 10
6.5108814607
 20
4.8575793454
 30
0.0
 10
6.5135178382
 20
4.8521721983
 30
0.0
 10
6.514812171
 20
4.8475756356
 30
0.0
 10
6.5153628771
 20
4.8440316025
 30
0.0
 10
6.5154886105
 20
4.8404451632
 30
0.0
 10
6.5150823
 20
4.8356878402
 30
0.0
 10
6.5141430063
 20
4.8321938721
 30
0.0
 10
6.5132563445
 20
4.8299853362
 30
0.0
  0
SPLINE
  5
304
100
AcDbEntity
  8
0
100
AcDbSpline
 62
7
  6
CONTINUOUS
 70
0
 71
3
 72
17
 73
13
 74
0
 42
0.0000001
 43
0.0000001
 44
0.0000000001
 40
0.0
 40
0.0
 40
0.0
 40
0.0
 40
0.1248328631
 40
0.1874997046
 40
0.2501200146
 40
0.3750603314
 40
0.5000030279
 40
0.6249440263
 40
0.7498795075
 40
0.8124986642
 40
0.8751658558
 40
1.0
 40
1.0
 40
1.0
 40
1.0
 10
4.589891342
 20
6.3550951505
 30
0.0
 10
4.5902988595
 20
6.35719763
 30
0.0
 10
4.591257813
 20
6.360301704
 30
0.0
 10
4.5931594325
 20
6.364154911
 30
0.0
 10
4.595468553
 20
6.3677827724
 30
0.0
 10
4.5990667349
 20
6.3718180617
 30
0.0
 10
4.6043191712
 20
6.3756124895
 30
0.0
 10
4.6102586363
 20
6.3782023413
 30
0.0
 10
4.6155633848
 20
6.3792457508
 30
0.0
 10
4.6198613711
 20
6.3793868489
 30
0.0
 10
4.6241460211
 20
6.3790625404
 30
0.0
 10
4.6273060736
 20
6.3783081369
 30
0.0
 10
4.629323287
 20
6.3775888078
 30
0.0
  0
SPLINE
  5
305
100
AcDbEntity
  8
0
100
AcDbSpline
 62
7
  6
CONTINUOUS
 70
0
 71
3
 72
19
 73
15
 74
0
 42
0.0000001
 43
0.0000001
 44
0.0000000001
 40
0.0
 40
0.0
 40
0.0
 40
0.0
 40
0.1247818065
 40
0.1874481631
 40
0.2500675331
 40
0.3126347342
 40
0.3751742887
 40
0.437712315
 40
0.5002680137
 40
0.6251581006
 40
0.7500186763
 40
0.8126035975
 40
0.8752408882
 40
1.0
 40
1.0
 40
1.0
 40
1.0
 10
4.41583328
 20
6.4208267846
 30
0.0
 10
4.4180514096
 20
6.4208267846
 30
0.0
 10
4.4213981439
 20
6.4204499141
 30
0.0
 10
4.4256805747
 20
6.4192355034
 30
0.0
 10
4.4287779496
 20
6.4179672325
 30
0.0
 10
4.4317111665
 20
6.4163618798
 30
0.0
 10
4.434447267
 20
6.4144419905
 30
0.0
 10
4.4369507158
 20
6.4122268676
 30
0.0
 10
4.4399334899
 20
6.4089227359
 30
0.0
 10
4.4429472986
 20
6.4042015423
 30
0.0
 10
4.4448301344
 20
6.3989260571
 30
0.0
 10
4.4456096768
 20
6.3945408348
 30
0.0
 10
4.445892539
 20
6.3900996199
 30
0.0
 10
4.4455539269
 20
6.3867499033
 30
0.0
 10
4.4450857538
 20
6.3845821572
 30
0.0
  0
SPLINE
  5
306
100
AcDbEntity
  8
0
100
AcDbSpline
 62
7
  6
CONTINUOUS
 70
0
 71
3
 72
19
 73
15
 74
0
 42
0.0000001
 43
0.0000001
 44
0.0000000001
 40
0.0
 40
0.0
 40
0.0
 40
0.0
 40
0.1248245551
 40
0.1874532951
 40
0.25003001
 40
0.3125766347
 40
0.3751210945
 40
0.5000052312
 40
0.6248844106
 40
0.6874262674
 40
0.7499713647
 40
0.8125472331
 40
0.8751755395
 40
1.0
 40
1.0
 40
1.0
 40
1.0
 10
3.9212711738
 20
6.2642318693
 30
0.0
 10
3.9194942164
 20
6.2658395892
 30
0.0
 10
3.9171042416
 20
6.2685899361
 30
0.0
 10
3.9146455994
 20
6.2727215956
 30
0.0
 10
3.9131862289
 20
6.2760275608
 30
0.0
 10
3.9121334931
 20
6.279482403
 30
0.0
 10
3.9112982308
 20
6.2842179996
 30
0.0
 10
3.9113335489
 20
6.2902760942
 30
0.0
 10
3.9128291496
 20
6.2961467338
 30
0.0
 10
3.9148331732
 20
6.3005177451
 30
0.0
 10
3.916724141
 20
6.3035947106
 30
0.0
 10
3.9189709784
 20
6.3064249932
 30
0.0
 10
3.9223932136
 20
6.309801913
 30
0.0
 10
3.9254002322
 20
6.3118596196
 30
0.0
 10
3.9275255721
 20
6.3129665355
 30
0.0
  0
SPLINE
  5
307
100
AcDbEntity
  8
0
100
AcDbSpline
 62
7
  6
CONTINUOUS
 70
0
 71
3
 72
19
 73
15
 74
0
 42
0.0000001
 43
0.0000001
 44
0.0000000001
 40
0.0
 40
0.0
 40
0.0
 40
0.0
 40
0.1248041495
 40
0.1874258898
 40
0.2499868803
 40
0.3125171674
 40
0.3750535296
 40
0.4999192087
 40
0.6248062585
 40
0.6873611411
 40
0.7499231974
 40
0.8125203701
 40
0.8751739572
 40
1.0
 40
1.0
 40
1.0
 40
1.0
 10
3.6637303974
 20
6.0901401691
 30
0.0
 10
3.6615685257
 20
6.0913615847
 30
0.0
 10
3.6585338765
 20
6.0936135487
 30
0.0
 10
3.6551468691
 20
6.097267707
 30
0.0
 10
3.6529644378
 20
6.1003111656
 30
0.0
 10
3.6511772517
 20
6.1035998326
 30
0.0
 10
3.6493653843
 20
6.108242238
 30
0.0
 10
3.6482084672
 20
6.1144178147
 30
0.0
 10
3.6486331654
 20
6.1206869811
 30
0.0
 10
3.6498897232
 20
6.125510906
 30
0.0
 10
3.6512801621
 20
6.1289877975
 30
0.0
 10
3.6530920615
 20
6.1322677123
 30
0.0
 10
3.6560299557
 20
6.1362940538
 30
0.0
 10
3.6587809476
 20
6.1388864401
 30
0.0
 10
3.6607855679
 20
6.1403524572
 30
0.0
  0
SPLINE
  5
308
100
AcDbEntity
  8
0
100
AcDbSpline
 62
7
  6
CONTINUOUS
 70
0
 71
3
 72
19
 73
15
 74
0
 42
0.0000001
 43
0.0000001
 44
0.0000000001
 40
0.0
 40
0.0
 40
0.0
 40
0.0
 40
0.124803769
 40
0.1874456617
 40
0.2500323746
 40
0.3125860046
 40
0.3751361303
 40
0.5000057365
 40
0.6248698199
 40
0.6874169659
 40
0.7499686996
 40
0.8125543567
 40
0.8751959421
 40
1.0
 40
1.0
 40
1.0
 40
1.0
 10
3.325580636
 20
5.8044908364
 30
0.0
 10
3.3270674868
 20
5.8065366129
 30
0.0
 10
3.3297061821
 20
5.8093416894
 30
0.0
 10
3.3338143724
 20
5.8123230034
 30
0.0
 10
3.337163533
 20
5.8141524089
 30
0.0
 10
3.3407145481
 20
5.8155437301
 30
0.0
 10
3.3456394844
 20
5.8167769458
 30
0.0
 10
3.3520319238
 20
5.8171276615
 30
0.0
 10
3.3583025906
 20
5.8158375679
 30
0.0
 10
3.3629914224
 20
5.8138911563
 30
0.0
 10
3.3662981815
 20
5.8119911875
 30
0.0
 10
3.3693407192
 20
5.8096876975
 30
0.0
 10
3.372964055
 20
5.8061328874
 30
0.0
 10
3.3751599996
 20
5.8029691879
 30
0.0
 10
3.376328736
 20
5.8007264191
 30
0.0
  0
SPLINE
  5
309
100
AcDbEntity
  8
0
100
AcDbSpline
 62
7
  6
CONTINUOUS
 70
0
 71
3
 72
19
 73
15
 74
0
 42
0.0000001
 43
0.0000001
 44
0.0000000001
 40
0.0
 40
0.0
 40
0.0
 40
0.0
 40
0.1248139362
 40
0.1874264781
 40
0.2499864293
 40
0.3125199528
 40
0.3750589804
 40
0.4999429343
 40
0.6248366194
 40
0.6873850744
 40
0.7499387195
 40
0.8125246648
 40
0.8751640772
 40
1.0
 40
1.0
 40
1.0
 40
1.0
 10
3.1552887922
 20
5.5405418377
 30
0.0
 10
3.1563063327
 20
5.5427037315
 30
0.0
 10
3.1582343019
 20
5.545782598
 30
0.0
 10
3.1614582903
 20
5.5493298989
 30
0.0
 10
3.1641844966
 20
5.5516850838
 30
0.0
 10
3.1671707808
 20
5.5536970498
 30
0.0
 10
3.1714413063
 20
5.5558770596
 30
0.0
 10
3.1772261874
 20
5.5576172685
 30
0.0
 10
3.1832601095
 20
5.5579147178
 30
0.0
 10
3.1880147174
 20
5.5572895519
 30
0.0
 10
3.191503246
 20
5.556393117
 30
0.0
 10
3.194861943
 20
5.5550859951
 30
0.0
 10
3.1990881583
 20
5.552820975
 30
0.0
 10
3.2019362687
 20
5.5505645459
 30
0.0
 10
3.2036188184
 20
5.5488674272
 30
0.0
  0
SPLINE
  5
30A
100
AcDbEntity
  8
0
100
AcDbSpline
 62
7
  6
CONTINUOUS
 70
0
 71
3
 72
19
 73
15
 74
0
 42
0.0000001
 43
0.0000001
 44
0.0000000001
 40
0.0
 40
0.0
 40
0.0
 40
0.0
 40
0.1247698834
 40
0.1874246463
 40
0.2500298641
 40
0.3125846357
 40
0.3751144164
 40
0.5000031947
 40
0.6248901362
 40
0.6874172735
 40
0.7499694425
 40
0.8125734439
 40
0.8752286548
 40
1.0
 40
1.0
 40
1.0
 40
1.0
 10
3.0841818186
 20
5.0229526333
 30
0.0
 10
3.082007974
 20
5.0224648374
 30
0.0
 10
3.0786448248
 20
5.0220995958
 30
0.0
 10
3.0741812862
 20
5.022353362
 30
0.0
 10
3.070868178
 20
5.0229208281
 30
0.0
 10
3.0676425076
 20
5.0238559863
 30
0.0
 10
3.0635129375
 20
5.0255710591
 30
0.0
 10
3.0587555573
 20
5.0285753598
 30
0.0
 10
3.0547826146
 20
5.0325595254
 30
0.0
 10
3.0522050336
 20
5.0362132582
 30
0.0
 10
3.05058638
 20
5.03915582
 30
0.0
 10
3.0493073552
 20
5.042264259
 30
0.0
 10
3.048082472
 20
5.0465639466
 30
0.0
 10
3.0477024365
 20
5.0499254915
 30
0.0
 10
3.0477024366
 20
5.0521534191
 30
0.0
  0
SPLINE
  5
30B
100
AcDbEntity
  8
0
100
AcDbSpline
 62
7
  6
CONTINUOUS
 70
0
 71
3
 72
19
 73
15
 74
0
 42
0.0000001
 43
0.0000001
 44
0.0000000001
 40
0.0
 40
0.0
 40
0.0
 40
0.0
 40
0.1248272434
 40
0.1874542879
 40
0.2500293171
 40
0.3125739823
 40
0.3751156851
 40
0.4999974136
 40
0.6248817411
 40
0.6874246892
 40
0.7499699166
 40
0.8125452032
 40
0.8751724996
 40
1.0
 40
1.0
 40
1.0
 40
1.0
 10
3.0801485287
 20
4.8299853362
 30
0.0
 10
3.0792618669
 20
4.8321938721
 30
0.0
 10
3.0783225731
 20
4.8356878401
 30
0.0
 10
3.0779162627
 20
4.8404451631
 30
0.0
 10
3.0780419961
 20
4.8440316024
 30
0.0
 10
3.0785927023
 20
4.8475756354
 30
0.0
 10
3.0798870351
 20
4.8521721981
 30
0.0
 10
3.0825234126
 20
4.8575793452
 30
0.0
 10
3.0863782546
 20
4.8621975868
 30
0.0
 10
3.0900426972
 20
4.8652596698
 30
0.0
 10
3.0930510819
 20
4.8672124532
 30
0.0
 10
3.0962720563
 20
4.8687948023
 30
0.0
 10
3.1007791071
 20
4.870370822
 30
0.0
 10
3.1043515167
 20
4.8709435683
 30
0.0
 10
3.106729509
 20
4.8710383092
 30
0.0
  0
SPLINE
  5
30C
100
AcDbEntity
  8
0
100
AcDbSpline
 62
7
  6
CONTINUOUS
 70
0
 71
3
 72
47
 73
43
 74
0
 42
0.0000001
 43
0.0000001
 44
0.0000000001
 40
0.0
 40
0.0
 40
0.0
 40
0.0
 40
0.0310785275
 40
0.0620309732
 40
0.0774643706
 40
0.0928745335
 40
0.1236810067
 40
0.1545845457
 40
0.1856690919
 40
0.2169756251
 40
0.2327167609
 40
0.2485114125
 40
0.2802136168
 40
0.3119850025
 40
0.343732625
 40
0.3753816946
 40
0.4381581042
 40
0.4693334133
 40
0.5004145821
 40
0.5159571027
 40
0.5315169183
 40
0.562693046
 40
0.5939550646
 40
0.6252789549
 40
0.6566248676
 40
0.6879461578
 40
0.7035874913
 40
0.7192058662
 40
0.7503516561
 40
0.7814155537
 40
0.8125091778
 40
0.8281375704
 40
0.8438476005
 40
0.8596066855
 40
0.8753723159
 40
0.9067704299
 40
0.9223849275
 40
0.9379329488
 40
0.953433812
 40
0.96892422
 40
0.9844382139
 40
1.0
 40
1.0
 40
1.0
 40
1.0
 10
4.2185390115
 20
4.8228296048
 30
0.0
 10
4.2156860358
 20
4.8193172125
 30
0.0
 10
4.2097229816
 20
4.8125195732
 30
0.0
 10
4.2016014348
 20
4.8046718066
 30
0.0
 10
4.1947236716
 20
4.7988661392
 30
0.0
 10
4.1875976219
 20
4.7934028919
 30
0.0
 10
4.1782149496
 20
4.7872036743
 30
0.0
 10
4.1663226041
 20
4.7807586589
 30
0.0
 10
4.1538828717
 20
4.775268281
 30
0.0
 10
4.1431510493
 20
4.7714624692
 30
0.0
 10
4.1343791407
 20
4.768854573
 30
0.0
 10
4.1254698883
 20
4.7665242378
 30
0.0
 10
4.1141644927
 20
4.7641557777
 30
0.0
 10
4.1004244238
 20
4.7622287202
 30
0.0
 10
4.0865886679
 20
4.7612607391
 30
0.0
 10
4.0682070188
 20
4.7613123375
 30
0.0
 10
4.049947868
 20
4.7634698237
 30
0.0
 10
4.0322837153
 20
4.767955835
 30
0.0
 10
4.021593154
 20
4.7717612477
 30
0.0
 10
4.0133107108
 20
4.7754268784
 30
0.0
 10
4.005212391
 20
4.7795139437
 30
0.0
 10
3.9954643088
 20
4.7853783191
 30
0.0
 10
3.9844738184
 20
4.7935095326
 30
0.0
 10
3.9742654125
 20
4.802640381
 30
0.0
 10
3.9649271816
 20
4.8126697623
 30
0.0
 10
3.9579383785
 20
4.8217004308
 30
0.0
 10
3.9528699045
 20
4.8292760205
 30
0.0
 10
3.9481746765
 20
4.8370584833
 30
0.0
 10
3.9430378445
 20
4.8471831145
 30
0.0
 10
3.9382059234
 20
4.8599084521
 30
0.0
 10
3.9354335457
 20
4.8709211247
 30
0.0
 10
3.9340497918
 20
4.8799107327
 30
0.0
 10
3.9334453786
 20
4.886746429
 30
0.0
 10
3.9332891084
 20
4.8936275741
 30
0.0
 10
3.9336975117
 20
4.9027848781
 30
0.0
 10
3.9350615838
 20
4.9118631447
 30
0.0
 10
3.9374526735
 20
4.9206608454
 30
0.0
 10
3.9397699827
 20
4.9270567073
 30
0.0
 10
3.9426303301
 20
4.9332097971
 30
0.0
 10
3.9460466273
 20
4.939067353
 30
0.0
 10
3.9499819759
 20
4.944598972
 30
0.0
 10
3.952924279
 20
4.9480453075
 30
0.0
 10
3.954468486
 20
4.9497034291
 30
0.0
  0
SPLINE
  5
30D
100
AcDbEntity
  8
0
100
AcDbSpline
 62
7
  6
CONTINUOUS
 70
0
 71
3
 72
21
 73
17
 74
0
 42
0.0000001
 43
0.0000001
 44
0.0000000001
 40
0.0
 40
0.0
 40
0.0
 40
0.0
 40
0.1242223593
 40
0.1869860328
 40
0.2501549619
 40
0.3136163269
 40
0.3772122687
 40
0.5039912142
 40
0.5669854605
 40
0.6295253381
 40
0.6915779305
 40
0.7224467644
 40
0.7532260931
 40
0.8146518639
 40
0.8761733299
 40
1.0
 40
1.0
 40
1.0
 40
1.0
 10
3.954468486
 20
4.9497034291
 30
0.0
 10
3.9579660478
 20
4.9534590025
 30
0.0
 10
3.9638039149
 20
4.9586130027
 30
0.0
 10
3.9724496012
 20
4.9642932354
 30
0.0
 10
3.9793723685
 20
4.9679652347
 30
0.0
 10
3.9866282727
 20
4.9710119897
 30
0.0
 10
3.9966269217
 20
4.9742064498
 30
0.0
 10
4.0069947587
 20
4.9760705228
 30
0.0
 10
4.0174216435
 20
4.9764982081
 30
0.0
 10
4.0251726186
 20
4.9760784876
 30
0.0
 10
4.0315309762
 20
4.9750887949
 30
0.0
 10
4.0365039777
 20
4.9739017218
 30
0.0
 10
4.041379023
 20
4.9724494969
 30
0.0
 10
4.0473093209
 20
4.9701386762
 30
0.0
 10
4.0563916046
 20
4.9654802913
 30
0.0
 10
4.0626789783
 20
4.9610148492
 30
0.0
 10
4.0665904284
 20
4.9577178339
 30
0.0
  0
SPLINE
  5
30E
100
AcDbEntity
  8
0
100
AcDbSpline
 62
7
  6
CONTINUOUS
 70
0
 71
3
 72
12
 73
8
 74
0
 42
0.0000001
 43
0.0000001
 44
0.0000000001
 40
0.0
 40
0.0
 40
0.0
 40
0.0
 40
0.1268151663
 40
0.252567542
 40
0.5019795703
 40
0.7505641984
 40
1.0
 40
1.0
 40
1.0
 40
1.0
 10
3.8263535912
 20
4.9831283648
 30
0.0
 10
3.8265764589
 20
4.9803943546
 30
0.0
 10
3.8271485284
 20
4.9749587397
 30
0.0
 10
3.8287853783
 20
4.9642216488
 30
0.0
 10
3.8317029379
 20
4.9510306881
 30
0.0
 10
3.8364268547
 20
4.9355550464
 30
0.0
 10
3.8402534103
 20
4.9254770037
 30
0.0
 10
3.8423037896
 20
4.9204863538
 30
0.0
  0
SPLINE
  5
30F
100
AcDbEntity
  8
0
100
AcDbSpline
 62
7
  6
CONTINUOUS
 70
0
 71
3
 72
62
 73
58
 74
0
 42
0.0000001
 43
0.0000001
 44
0.0000000001
 40
0.0
 40
0.0
 40
0.0
 40
0.0
 40
0.0157015496
 40
0.031475538
 40
0.0632572661
 40
0.0953618633
 40
0.1276760822
 40
0.1600259303
 40
0.1922206997
 40
0.2082151
 40
0.2241140668
 40
0.2399087246
 40
0.2556056451
 40
0.2712338898
 40
0.2868195894
 40
0.3179192957
 40
0.3490121126
 40
0.380110579
 40
0.3956561049
 40
0.411184466
 40
0.4266877412
 40
0.4344285107
 40
0.4421606859
 40
0.457611793
 40
0.473073163
 40
0.4885618916
 40
0.504081238
 40
0.5118503799
 40
0.5196231165
 40
0.5351631855
 40
0.5506713571
 40
0.5661329355
 40
0.5815554887
 40
0.5892630301
 40
0.5969752877
 40
0.6124275346
 40
0.6279237516
 40
0.6434463139
 40
0.6512066657
 40
0.6589618534
 40
0.6744560227
 40
0.6899304369
 40
0.7053899633
 40
0.7208432456
 40
0.7363031043
 40
0.7517839926
 40
0.7672847032
 40
0.7827970769
 40
0.8138208384
 40
0.8293240454
 40
0.8448119071
 40
0.8602811783
 40
0.8757403149
 40
0.9066701508
 40
0.9376754302
 40
0.9687864935
 40
1.0
 40
1.0
 40
1.0
 40
1.0
 10
4.6731431395
 20
5.4795507468
 30
0.0
 10
4.6753417313
 20
5.4764413145
 30
0.0
 10
4.6794993809
 20
5.4700271945
 30
0.0
 10
4.6868283702
 20
5.4565351988
 30
0.0
 10
4.694136904
 20
5.4385724015
 30
0.0
 10
4.6999256621
 20
5.4159025427
 30
0.0
 10
4.7027776511
 20
5.39254268
 30
0.0
 10
4.7026966049
 20
5.3689920613
 30
0.0
 10
4.7001760477
 20
5.3495627478
 30
0.0
 10
4.6966733934
 20
5.3344089658
 30
0.0
 10
4.693313287
 20
5.3233318982
 30
0.0
 10
4.6892122641
 20
5.3125839853
 30
0.0
 10
4.6843711287
 20
5.302220946
 30
0.0
 10
4.6788370671
 20
5.2922690615
 30
0.0
 10
4.6705981486
 20
5.2795872866
 30
0.0
 10
4.6587543499
 20
5.2648291824
 30
0.0
 10
4.6424356079
 20
5.2490769339
 30
0.0
 10
4.6273462843
 20
5.237690351
 30
0.0
 10
4.6145418196
 20
5.2297128091
 30
0.0
 10
4.6046101442
 20
5.2243154958
 30
0.0
 10
4.5960895346
 20
5.2203227206
 30
0.0
 10
4.5891491399
 20
5.2174436701
 30
0.0
 10
4.5821363859
 20
5.2147809816
 30
0.0
 10
4.5732314913
 20
5.2118399293
 30
0.0
 10
4.5623729443
 20
5.2088668704
 30
0.0
 10
4.5513762923
 20
5.2063825018
 30
0.0
 10
4.5421279403
 20
5.204662652
 30
0.0
 10
4.534690378
 20
5.2034629828
 30
0.0
 10
4.527231858
 20
5.2023665845
 30
0.0
 10
4.5178870772
 20
5.2011998282
 30
0.0
 10
4.5066440295
 20
5.2002395627
 30
0.0
 10
4.4953945947
 20
5.1998293846
 30
0.0
 10
4.4860297935
 20
5.2000379745
 30
0.0
 10
4.4785687786
 20
5.200594659
 30
0.0
 10
4.4711233526
 20
5.2013991477
 30
0.0
 10
4.4618500737
 20
5.2028204786
 30
0.0
 10
4.4507980685
 20
5.205045366
 30
0.0
 10
4.4416452631
 20
5.2072156715
 30
0.0
 10
4.4343493605
 20
5.2090702467
 30
0.0
 10
4.427078402
 20
5.2109938066
 30
0.0
 10
4.4180380732
 20
5.2135427718
 30
0.0
 10
4.4072768584
 20
5.2168629098
 30
0.0
 10
4.3966199669
 20
5.2204742931
 30
0.0
 10
4.3860810369
 20
5.2244074734
 30
0.0
 10
4.375674015
 20
5.2286922586
 30
0.0
 10
4.3654194734
 20
5.233358424
 30
0.0
 10
4.35533223
 20
5.23840504
 30
0.0
 10
4.3421315569
 20
5.2456303949
 30
0.0
 10
4.3293413909
 20
5.2535884783
 30
0.0
 10
4.3170425093
 20
5.262251573
 30
0.0
 10
4.3080848722
 20
5.2690929354
 30
0.0
 10
4.2994126001
 20
5.2762757278
 30
0.0
 10
4.2882330179
 20
5.2862855002
 30
0.0
 10
4.2749503979
 20
5.2995734298
 30
0.0
 10
4.2601010863
 20
5.3165868785
 30
0.0
 10
4.2462826539
 20
5.3345312514
 30
0.0
 10
4.237732491
 20
5.3470064702
 30
0.0
 10
4.2336090087
 20
5.3533553328
 30
0.0
  0
SPLINE
  5
310
100
AcDbEntity
  8
0
100
AcDbSpline
 62
7
  6
CONTINUOUS
 70
0
 71
3
 72
55
 73
51
 74
0
 42
0.0000001
 43
0.0000001
 44
0.0000000001
 40
0.0
 40
0.0
 40
0.0
 40
0.0
 40
0.0315126168
 40
0.0629914417
 40
0.0943445304
 40
0.125546052
 40
0.1566327097
 40
0.1721690954
 40
0.1877223634
 40
0.2033131192
 40
0.2189634425
 40
0.234695837
 40
0.2505013276
 40
0.2663348897
 40
0.2821541544
 40
0.3135985079
 40
0.3291927167
 40
0.336952351
 40
0.34468655
 40
0.3523969946
 40
0.360090964
 40
0.3754672067
 40
0.3908818904
 40
0.4063747069
 40
0.4376462914
 40
0.4534180234
 40
0.4692507577
 40
0.4851135688
 40
0.5009712578
 40
0.5167872924
 40
0.5325312914
 40
0.5482014506
 40
0.5638074007
 40
0.5948781042
 40
0.6103818176
 40
0.6258948381
 40
0.6414371879
 40
0.6570088653
 40
0.6726050804
 40
0.688219236
 40
0.7194636041
 40
0.7506784113
 40
0.7818652401
 40
0.8130393048
 40
0.8442005085
 40
0.8753446067
 40
0.9064934876
 40
0.937659127
 40
0.9688348998
 40
1.0
 40
1.0
 40
1.0
 40
1.0
 10
4.2336090087
 20
5.3533553328
 30
0.0
 10
4.2269893333
 20
5.3635475459
 30
0.0
 10
4.214565038
 20
5.3844523953
 30
0.0
 10
4.1980811475
 20
5.416918734
 30
0.0
 10
4.1840797046
 20
5.450413151
 30
0.0
 10
4.1729147624
 20
5.4848030591
 30
0.0
 10
4.1662654189
 20
5.5141232843
 30
0.0
 10
4.1627294706
 20
5.5378491544
 30
0.0
 10
4.1609827069
 20
5.5557752445
 30
0.0
 10
4.1601555084
 20
5.573811048
 30
0.0
 10
4.1602633658
 20
5.5919347958
 30
0.0
 10
4.1613192335
 20
5.6101112176
 30
0.0
 10
4.1633368286
 20
5.6282773071
 30
0.0
 10
4.166340578
 20
5.6463424124
 30
0.0
 10
4.1716772528
 20
5.6700932003
 30
0.0
 10
4.1790759516
 20
5.6932573882
 30
0.0
 10
4.1874790126
 20
5.7126649134
 30
0.0
 10
4.1928216325
 20
5.723401035
 30
0.0
 10
4.1970992293
 20
5.7312638956
 30
0.0
 10
4.2016602204
 20
5.7389365541
 30
0.0
 10
4.2081059211
 20
5.7489078772
 30
0.0
 10
4.2168189206
 20
5.7609384619
 30
0.0
 10
4.2281740966
 20
5.7747233105
 30
0.0
 10
4.2443925375
 20
5.7923996504
 30
0.0
 10
4.2618667394
 20
5.809059269
 30
0.0
 10
4.2800876887
 20
5.8250593558
 30
0.0
 10
4.2940751607
 20
5.8368710234
 30
0.0
 10
4.3082209512
 20
5.8485429981
 30
0.0
 10
4.3224032564
 20
5.860160366
 30
0.0
 10
4.3365020534
 20
5.8718074823
 30
0.0
 10
4.3504014876
 20
5.8835807898
 30
0.0
 10
4.3640494661
 20
5.8955228203
 30
0.0
 10
4.3818361618
 20
5.911703891
 30
0.0
 10
4.3990232563
 20
5.9284462319
 30
0.0
 10
4.4154225883
 20
5.9458984486
 30
0.0
 10
4.4272849673
 20
5.9593831482
 30
0.0
 10
4.4386816871
 20
5.9732974486
 30
0.0
 10
4.4496255608
 20
5.9876105607
 30
0.0
 10
4.4601176647
 20
6.0022920471
 30
0.0
 10
4.473508813
 20
6.0223167268
 30
0.0
 10
4.4891167097
 20
6.0480872183
 30
0.0
 10
4.5060826362
 20
6.0799891795
 30
0.0
 10
4.5213406133
 20
6.1127109971
 30
0.0
 10
4.5349658862
 20
6.1461208601
 30
0.0
 10
4.5470418881
 20
6.1801023746
 30
0.0
 10
4.5576516778
 20
6.214557083
 30
0.0
 10
4.5670138215
 20
6.2493699647
 30
0.0
 10
4.575361175
 20
6.2844501703
 30
0.0
 10
4.58292588
 20
6.3197119155
 30
0.0
 10
4.5876042576
 20
6.3432955379
 30
0.0
 10
4.589891342
 20
6.3550951505
 30
0.0
  0
SPLINE
  5
311
100
AcDbEntity
  8
0
100
AcDbSpline
 62
7
  6
CONTINUOUS
 70
0
 71
3
 72
9
 73
5
 74
0
 42
0.0000001
 43
0.0000001
 44
0.0000000001
 40
0.0
 40
0.0
 40
0.0
 40
0.0
 40
0.5007645115
 40
1.0
 40
1.0
 40
1.0
 40
1.0
 10
5.4867193034
 20
5.0271591504
 30
0.0
 10
5.4840295035
 20
5.0198714571
 30
0.0
 10
5.4797541727
 20
5.0048881215
 30
0.0
 10
5.4778951893
 20
4.9894082575
 30
0.0
 10
5.4776186523
 20
4.9816686792
 30
0.0
  0
SPLINE
  5
312
100
AcDbEntity
  8
0
100
AcDbSpline
 62
7
  6
CONTINUOUS
 70
0
 71
3
 72
55
 73
51
 74
0
 42
0.0000001
 43
0.0000001
 44
0.0000000001
 40
0.0
 40
0.0
 40
0.0
 40
0.0
 40
0.0157154268
 40
0.0313945988
 40
0.0470369237
 40
0.0626588129
 40
0.0783005096
 40
0.0939929452
 40
0.1255661638
 40
0.1573943263
 40
0.1733670883
 40
0.1893367657
 40
0.2052692284
 40
0.2211281432
 40
0.2368932479
 40
0.2525628381
 40
0.2681459858
 40
0.2836636775
 40
0.2991500651
 40
0.3068975335
 40
0.3146545482
 40
0.3302037926
 40
0.3458076827
 40
0.3614576092
 40
0.3771318622
 40
0.3927977461
 40
0.4084221027
 40
0.4240092612
 40
0.4395736042
 40
0.4706647495
 40
0.5017590915
 40
0.5328812536
 40
0.5640186826
 40
0.5951301014
 40
0.6106756849
 40
0.6262149391
 40
0.6417515288
 40
0.6572913484
 40
0.6728405915
 40
0.6884020749
 40
0.7195510608
 40
0.7351331798
 40
0.7507076
 40
0.7818229565
 40
0.8129196658
 40
0.8440238794
 40
0.8751613447
 40
0.9063402518
 40
0.9375539619
 40
1.0
 40
1.0
 40
1.0
 40
1.0
 10
5.6070694083
 20
4.7922880566
 30
0.0
 10
5.6040830404
 20
4.7899304061
 30
0.0
 10
5.5979310446
 20
4.7854506589
 30
0.0
 10
5.5882104329
 20
4.7794952591
 30
0.0
 10
5.5780521143
 20
4.7743676728
 30
0.0
 10
5.5675044145
 20
4.7701238883
 30
0.0
 10
5.5566390846
 20
4.7667389119
 30
0.0
 10
5.5417830568
 20
4.7633269562
 30
0.0
 10
5.5227010426
 20
4.7610752146
 30
0.0
 10
5.5034346711
 20
4.7613052174
 30
0.0
 10
5.4880663324
 20
4.7628563848
 30
0.0
 10
5.4766130978
 20
4.7646801315
 30
0.0
 10
5.4653075487
 20
4.7671356603
 30
0.0
 10
5.454200628
 20
4.7701919589
 30
0.0
 10
5.4433453463
 20
4.7738556652
 30
0.0
 10
5.4327953817
 20
4.7781514487
 30
0.0
 10
5.4226010333
 20
4.7831006374
 30
0.0
 10
5.4128137035
 20
4.7887256594
 30
0.0
 10
5.4050389003
 20
4.7939947945
 30
0.0
 10
5.3990844894
 20
4.7985630148
 30
0.0
 10
5.3933028119
 20
4.8033717332
 30
0.0
 10
5.3864065571
 20
4.8098030189
 30
0.0
 10
5.3786793202
 20
4.8181026862
 30
0.0
 10
5.3714962178
 20
4.826915631
 30
0.0
 10
5.3648618607
 20
4.836166006
 30
0.0
 10
5.3587795135
 20
4.8457801638
 30
0.0
 10
5.3532466915
 20
4.8556959829
 30
0.0
 10
5.3482659984
 20
4.865872988
 30
0.0
 10
5.3423584649
 20
4.8797424658
 30
0.0
 10
5.3363189866
 20
4.897607684
 30
0.0
 10
5.3311928757
 20
4.9196425852
 30
0.0
 10
5.3281047894
 20
4.9420631138
 30
0.0
 10
5.3269632125
 20
4.9646658267
 30
0.0
 10
5.3275564553
 20
4.9835145721
 30
0.0
 10
5.3289769578
 20
4.9985095194
 30
0.0
 10
5.3305204876
 20
5.0096946417
 30
0.0
 10
5.3325491611
 20
5.0208005835
 30
0.0
 10
5.335062454
 20
5.0318092764
 30
0.0
 10
5.3380326345
 20
5.0427096288
 30
0.0
 10
5.342570881
 20
5.0570871221
 30
0.0
 10
5.3479247134
 20
5.0712032738
 30
0.0
 10
5.3539950129
 20
5.0850149098
 30
0.0
 10
5.3605095559
 20
5.0986140237
 30
0.0
 10
5.3694596595
 20
5.1152001949
 30
0.0
 10
5.3814552245
 20
5.1343634375
 30
0.0
 10
5.3946660655
 20
5.1527175861
 30
0.0
 10
5.4090550048
 20
5.1701884546
 30
0.0
 10
5.4245482488
 20
5.186725366
 30
0.0
 10
5.4465580261
 20
5.2074592527
 30
0.0
 10
5.4644824845
 20
5.2214691688
 30
0.0
 10
5.4769341692
 20
5.2300443039
 30
0.0
  0
SPLINE
  5
313
100
AcDbEntity
  8
0
100
AcDbSpline
 62
7
  6
CONTINUOUS
 70
0
 71
3
 72
70
 73
66
 74
0
 42
0.0000001
 43
0.0000001
 44
0.0000000001
 40
0.0
 40
0.0
 40
0.0
 40
0.0
 40
0.0156540233
 40
0.0312957785
 40
0.062556451
 40
0.0938356459
 40
0.1094893915
 40
0.1251473818
 40
0.1408050342
 40
0.156456065
 40
0.1720951537
 40
0.1877214558
 40
0.2189458762
 40
0.2345740335
 40
0.2502329211
 40
0.2659464364
 40
0.2817148157
 40
0.2974881106
 40
0.3132187759
 40
0.3288704893
 40
0.3444207573
 40
0.3521568206
 40
0.3598671135
 40
0.3675587243
 40
0.3752435607
 40
0.3906294674
 40
0.4060852345
 40
0.4216402693
 40
0.4373005684
 40
0.4530536909
 40
0.4688735568
 40
0.4847249596
 40
0.5005678212
 40
0.5163613193
 40
0.5320783166
 40
0.5477225317
 40
0.5633051723
 40
0.5788412277
 40
0.5943500269
 40
0.6098557565
 40
0.6176167756
 40
0.6253866147
 40
0.6409510876
 40
0.6565450119
 40
0.6721605145
 40
0.6877871337
 40
0.7034120647
 40
0.7190203866
 40
0.7345959764
 40
0.7501386029
 40
0.7811862933
 40
0.8122740262
 40
0.8278585696
 40
0.8434801206
 40
0.8591447191
 40
0.8669947721
 40
0.8748571904
 40
0.8827294912
 40
0.8906072743
 40
0.9063625853
 40
0.9220936037
 40
0.9377780849
 40
0.9689628927
 40
0.9844863819
 40
1.0
 40
1.0
 40
1.0
 40
1.0
 10
5.4769341692
 20
5.2300443039
 30
0.0
 10
5.4819456232
 20
5.2334955553
 30
0.0
 10
5.4921341854
 20
5.2401532382
 30
0.0
 10
5.5131207184
 20
5.2524505831
 30
0.0
 10
5.5404132171
 20
5.2659242483
 30
0.0
 10
5.5688026076
 20
5.2768940394
 30
0.0
 10
5.5920146227
 20
5.2842029721
 30
0.0
 10
5.6096462887
 20
5.2889628547
 30
0.0
 10
5.6274544837
 20
5.2930051567
 30
0.0
 10
5.6454002856
 20
5.296343487
 30
0.0
 10
5.6634543885
 20
5.2989589739
 30
0.0
 10
5.6876251567
 20
5.3014183279
 30
0.0
 10
5.7119398354
 20
5.3022548591
 30
0.0
 10
5.736228082
 20
5.3012949044
 30
0.0
 10
5.7544308878
 20
5.2996338851
 30
0.0
 10
5.7725724441
 20
5.2969904969
 30
0.0
 10
5.7905833112
 20
5.2933326772
 30
0.0
 10
5.8083572609
 20
5.2886271186
 30
0.0
 10
5.8257637821
 20
5.2828423592
 30
0.0
 10
5.842669062
 20
5.2759477995
 30
0.0
 10
5.856253248
 20
5.2692377943
 30
0.0
 10
5.8667306187
 20
5.2632828386
 30
0.0
 10
5.8743657453
 20
5.2585243617
 30
0.0
 10
5.8817848794
 20
5.2534713923
 30
0.0
 10
5.8914083726
 20
5.246369959
 30
0.0
 10
5.9029774831
 20
5.2368416175
 30
0.0
 10
5.9161843908
 20
5.2245473008
 30
0.0
 10
5.9288303942
 20
5.2115311946
 30
0.0
 10
5.9410221828
 20
5.1979365051
 30
0.0
 10
5.952866355
 20
5.1839052024
 30
0.0
 10
5.9644685357
 20
5.1695789705
 30
0.0
 10
5.9759341451
 20
5.1550994731
 30
0.0
 10
5.9873674164
 20
5.1406076288
 30
0.0
 10
5.9988784531
 20
5.1262437253
 30
0.0
 10
6.0105732968
 20
5.1121285004
 30
0.0
 10
6.0224872422
 20
5.0983052861
 30
0.0
 10
6.0346712422
 20
5.0848134294
 30
0.0
 10
6.0471752854
 20
5.0716894179
 30
0.0
 10
6.0600499243
 20
5.0589705551
 30
0.0
 10
6.07112589
 20
5.0487427832
 30
0.0
 10
6.0802143248
 20
5.0408079193
 30
0.0
 10
6.089468825
 20
5.0330318821
 30
0.0
 10
6.1013198706
 20
5.0236174606
 30
0.0
 10
6.1159438334
 20
5.0128086696
 30
0.0
 10
6.130936508
 20
5.0024751671
 30
0.0
 10
6.1462557511
 20
4.9926106275
 30
0.0
 10
6.1618596024
 20
4.9832086717
 30
0.0
 10
6.1777060601
 20
4.974262427
 30
0.0
 10
6.1937603985
 20
4.9657633516
 30
0.0
 10
6.215399516
 20
4.9550033044
 30
0.0
 10
6.2428975962
 20
4.9425070398
 30
0.0
 10
6.2708588875
 20
4.9310540416
 30
0.0
 10
6.293458796
 20
4.9223593406
 30
0.0
 10
6.3105410003
 20
4.9160229638
 30
0.0
 10
6.3248551921
 20
4.910871804
 30
0.0
 10
6.3363546318
 20
4.906807294
 30
0.0
 10
6.3450074093
 20
4.9037781848
 30
0.0
 10
6.3536821592
 20
4.9007793538
 30
0.0
 10
6.3652796883
 20
4.8968455094
 30
0.0
 10
6.37982508
 20
4.8920934651
 30
0.0
 10
6.3973778466
 20
4.8867834246
 30
0.0
 10
6.4208654132
 20
4.8804187933
 30
0.0
 10
6.4446227971
 20
4.8753548927
 30
0.0
 10
6.4686078862
 20
4.8721602036
 30
0.0
 10
6.4806498377
 20
4.8712783706
 30
0.0
 10
6.486675364
 20
4.8710383093
 30
0.0
  0
SPLINE
  5
314
100
AcDbEntity
  8
0
100
AcDbSpline
 62
7
  6
CONTINUOUS
 70
0
 71
3
 72
40
 73
36
 74
0
 42
0.0000001
 43
0.0000001
 44
0.0000000001
 40
0.0
 40
0.0
 40
0.0
 40
0.0
 40
0.0616814972
 40
0.1233860207
 40
0.1853990993
 40
0.2167234532
 40
0.2482948698
 40
0.2800859259
 40
0.3120497638
 40
0.3762035959
 40
0.4083028724
 40
0.4403137238
 40
0.5038089693
 40
0.5352845631
 40
0.566562546
 40
0.5976691065
 40
0.6285887028
 40
0.6593210133
 40
0.674636322
 40
0.6899288381
 40
0.7205161561
 40
0.7512600393
 40
0.782271941
 40
0.7979023738
 40
0.8136157153
 40
0.8293773318
 40
0.8451264161
 40
0.8763891261
 40
0.8918702934
 40
0.9072489051
 40
0.9225591826
 40
0.9378652233
 40
0.9532431102
 40
0.9687266693
 40
1.0
 40
1.0
 40
1.0
 40
1.0
 10
4.9543838252
 20
5.2468200718
 30
0.0
 10
4.947385404
 20
5.2525417176
 30
0.0
 10
4.9341911782
 20
5.2650210124
 30
0.0
 10
4.9174441077
 20
5.2865480638
 30
0.0
 10
4.9065160974
 20
5.3066051287
 30
0.0
 10
4.8999053429
 20
5.3236960945
 30
0.0
 10
4.8959969813
 20
5.3370276895
 30
0.0
 10
4.8931491405
 20
5.3507201539
 30
0.0
 10
4.8907632955
 20
5.3693273478
 30
0.0
 10
4.8904998812
 20
5.3882006333
 30
0.0
 10
4.8923489409
 20
5.4069218078
 30
0.0
 10
4.8955985569
 20
5.4253522426
 30
0.0
 10
4.9009675698
 20
5.4432722001
 30
0.0
 10
4.9084848927
 20
5.460198959
 30
0.0
 10
4.9151708095
 20
5.4722431631
 30
0.0
 10
4.9229101623
 20
5.4835415852
 30
0.0
 10
4.9316666653
 20
5.4939688787
 30
0.0
 10
4.9397907564
 20
5.5018277821
 30
0.0
 10
4.9467477898
 20
5.5075276016
 30
0.0
 10
4.95400044
 20
5.5128104736
 30
0.0
 10
4.9636330113
 20
5.5186317991
 30
0.0
 10
4.9759202744
 20
5.5243587239
 30
0.0
 10
4.9866471766
 20
5.528100281
 30
0.0
 10
4.9954687436
 20
5.5304954674
 30
0.0
 10
5.0022080885
 20
5.5320026956
 30
0.0
 10
5.0090282105
 20
5.533197626
 30
0.0
 10
5.0181625786
 20
5.5343123421
 30
0.0
 10
5.0273454363
 20
5.5346397588
 30
0.0
 10
5.0364342571
 20
5.5339952511
 30
0.0
 10
5.0431330759
 20
5.5329872121
 30
0.0
 10
5.0496962346
 20
5.5314104828
 30
0.0
 10
5.0560821087
 20
5.5292188294
 30
0.0
 10
5.062240319
 20
5.5263886498
 30
0.0
 10
5.0701318398
 20
5.521826652
 30
0.0
 10
5.0755904803
 20
5.517612505
 30
0.0
 10
5.0789815524
 20
5.5145292416
 30
0.0
  0
SPLINE
  5
315
100
AcDbEntity
  8
0
100
AcDbSpline
 62
7
  6
CONTINUOUS
 70
0
 71
3
 72
18
 73
14
 74
0
 42
0.0000001
 43
0.0000001
 44
0.0000000001
 40
0.0
 40
0.0
 40
0.0
 40
0.0
 40
0.126681089
 40
0.1902581433
 40
0.2536974152
 40
0.3168264833
 40
0.3795844452
 40
0.5038936644
 40
0.6270945437
 40
0.6886533968
 40
0.7503627505
 40
0.8745094536
 40
1.0
 40
1.0
 40
1.0
 40
1.0
 10
5.0789815524
 20
5.5145292416
 30
0.0
 10
5.0828754206
 20
5.5109888212
 30
0.0
 10
5.0882469997
 20
5.5051144299
 30
0.0
 10
5.0942818772
 20
5.4964632921
 30
0.0
 10
5.0982196025
 20
5.4896023998
 30
0.0
 10
5.1015094382
 20
5.4824459648
 30
0.0
 10
5.1049759959
 20
5.4726343622
 30
0.0
 10
5.1075765536
 20
5.4599283437
 30
0.0
 10
5.107681239
 20
5.4469956712
 30
0.0
 10
5.1061701219
 20
5.4368522097
 30
0.0
 10
5.1036408791
 20
5.4268741421
 30
0.0
 10
5.0986597248
 20
5.4148522164
 30
0.0
 10
5.0930030462
 20
5.406086787
 30
0.0
 10
5.089808997
 20
5.4019665083
 30
0.0
  0
SPLINE
  5
316
100
AcDbEntity
  8
0
100
AcDbSpline
 62
7
  6
CONTINUOUS
 70
0
 71
3
 72
10
 73
6
 74
0
 42
0.0000001
 43
0.0000001
 44
0.0000000001
 40
0.0
 40
0.0
 40
0.0
 40
0.0
 40
0.4928797239
 40
0.7453391419
 40
1.0
 40
1.0
 40
1.0
 40
1.0
 10
5.1178210006
 20
5.6417612667
 30
0.0
 10
5.1057529905
 20
5.6407109496
 30
0.0
 10
5.0876722936
 20
5.636944495
 30
0.0
 10
5.0643352787
 20
5.629239532
 30
0.0
 10
5.0527425729
 20
5.6246367594
 30
0.0
 10
5.0469774231
 20
5.6222002798
 30
0.0
  0
SPLINE
  5
317
100
AcDbEntity
  8
0
100
AcDbSpline
 62
7
  6
CONTINUOUS
 70
0
 71
3
 72
47
 73
43
 74
0
 42
0.0000001
 43
0.0000001
 44
0.0000000001
 40
0.0
 40
0.0
 40
0.0
 40
0.0
 40
0.0310785275
 40
0.0620309732
 40
0.0774643706
 40
0.0928745335
 40
0.1236810067
 40
0.1545845457
 40
0.1856690919
 40
0.2169756251
 40
0.2327167609
 40
0.2485114125
 40
0.2802136168
 40
0.3119850025
 40
0.343732625
 40
0.3753816946
 40
0.4381581042
 40
0.4693334133
 40
0.5004145821
 40
0.5159571027
 40
0.5315169183
 40
0.562693046
 40
0.5939550646
 40
0.6252789549
 40
0.6566248676
 40
0.6879461578
 40
0.7035874913
 40
0.7192058662
 40
0.7503516561
 40
0.7814155537
 40
0.8125091778
 40
0.8281375704
 40
0.8438476005
 40
0.8596066855
 40
0.8753723159
 40
0.9067704299
 40
0.9223849275
 40
0.9379329488
 40
0.953433812
 40
0.96892422
 40
0.9844382139
 40
1.0
 40
1.0
 40
1.0
 40
1.0
 10
5.3748658617
 20
4.5188239644
 30
0.0
 10
5.3777188373
 20
4.5223363567
 30
0.0
 10
5.3836818916
 20
4.529133996
 30
0.0
 10
5.3918034384
 20
4.5369817626
 30
0.0
 10
5.3986812015
 20
4.54278743
 30
0.0
 10
5.4058072513
 20
4.5482506773
 30
0.0
 10
5.4151899236
 20
4.5544498949
 30
0.0
 10
5.4270822691
 20
4.5608949103
 30
0.0
 10
5.4395220015
 20
4.5663852882
 30
0.0
 10
5.4502538238
 20
4.5701911
 30
0.0
 10
5.4590257325
 20
4.5727989962
 30
0.0
 10
5.4679349848
 20
4.5751293314
 30
0.0
 10
5.4792403805
 20
4.5774977915
 30
0.0
 10
5.4929804493
 20
4.579424849
 30
0.0
 10
5.5068162053
 20
4.5803928301
 30
0.0
 10
5.5251978543
 20
4.5803412317
 30
0.0
 10
5.5434570051
 20
4.5781837456
 30
0.0
 10
5.5611211579
 20
4.5736977342
 30
0.0
 10
5.5718117192
 20
4.5698923215
 30
0.0
 10
5.5800941624
 20
4.5662266909
 30
0.0
 10
5.5881924822
 20
4.5621396255
 30
0.0
 10
5.5979405644
 20
4.5562752502
 30
0.0
 10
5.6089310547
 20
4.5481440366
 30
0.0
 10
5.6191394607
 20
4.5390131882
 30
0.0
 10
5.6284776915
 20
4.528983807
 30
0.0
 10
5.6354664947
 20
4.5199531384
 30
0.0
 10
5.6405349687
 20
4.5123775487
 30
0.0
 10
5.6452301966
 20
4.504595086
 30
0.0
 10
5.6503670286
 20
4.4944704547
 30
0.0
 10
5.6551989498
 20
4.4817451172
 30
0.0
 10
5.6579713274
 20
4.4707324446
 30
0.0
 10
5.6593550814
 20
4.4617428365
 30
0.0
 10
5.6599594946
 20
4.4549071403
 30
0.0
 10
5.6601157648
 20
4.4480259951
 30
0.0
 10
5.6597073615
 20
4.4388686911
 30
0.0
 10
5.6583432894
 20
4.4297904246
 30
0.0
 10
5.6559521996
 20
4.4209927238
 30
0.0
 10
5.6536348905
 20
4.4145968619
 30
0.0
 10
5.6507745431
 20
4.4084437721
 30
0.0
 10
5.6473582459
 20
4.4025862162
 30
0.0
 10
5.6434228973
 20
4.3970545973
 30
0.0
 10
5.6404805941
 20
4.3936082617
 30
0.0
 10
5.6389363872
 20
4.3919501402
 30
0.0
  0
SPLINE
  5
318
100
AcDbEntity
  8
0
100
AcDbSpline
 62
7
  6
CONTINUOUS
 70
0
 71
3
 72
21
 73
17
 74
0
 42
0.0000001
 43
0.0000001
 44
0.0000000001
 40
0.0
 40
0.0
 40
0.0
 40
0.0
 40
0.1242223593
 40
0.1869860328
 40
0.2501549619
 40
0.3136163269
 40
0.3772122687
 40
0.5039912142
 40
0.5669854605
 40
0.6295253381
 40
0.6915779305
 40
0.7224467644
 40
0.7532260931
 40
0.8146518639
 40
0.8761733299
 40
1.0
 40
1.0
 40
1.0
 40
1.0
 10
5.6389363872
 20
4.3919501402
 30
0.0
 10
5.6354388254
 20
4.3881945668
 30
0.0
 10
5.6296009583
 20
4.3830405665
 30
0.0
 10
5.620955272
 20
4.3773603338
 30
0.0
 10
5.6140325047
 20
4.3736883345
 30
0.0
 10
5.6067766004
 20
4.3706415795
 30
0.0
 10
5.5967779515
 20
4.3674471194
 30
0.0
 10
5.5864101144
 20
4.3655830464
 30
0.0
 10
5.5759832297
 20
4.3651553611
 30
0.0
 10
5.5682322546
 20
4.3655750816
 30
0.0
 10
5.561873897
 20
4.3665647743
 30
0.0
 10
5.5569008955
 20
4.3677518474
 30
0.0
 10
5.5520258502
 20
4.3692040724
 30
0.0
 10
5.5460955523
 20
4.371514893
 30
0.0
 10
5.5370132685
 20
4.3761732779
 30
0.0
 10
5.5307258949
 20
4.38063872
 30
0.0
 10
5.5268144448
 20
4.3839357354
 30
0.0
  0
SPLINE
  5
319
100
AcDbEntity
  8
0
100
AcDbSpline
 62
7
  6
CONTINUOUS
 70
0
 71
3
 72
12
 73
8
 74
0
 42
0.0000001
 43
0.0000001
 44
0.0000000001
 40
0.0
 40
0.0
 40
0.0
 40
0.0
 40
0.1268151663
 40
0.252567542
 40
0.5019795703
 40
0.7505641984
 40
1.0
 40
1.0
 40
1.0
 40
1.0
 10
5.7670512819
 20
4.3585252045
 30
0.0
 10
5.7668284143
 20
4.3612592146
 30
0.0
 10
5.7662563447
 20
4.3666948295
 30
0.0
 10
5.7646194948
 20
4.3774319204
 30
0.0
 10
5.7617019353
 20
4.3906228811
 30
0.0
 10
5.7569780185
 20
4.4060985229
 30
0.0
 10
5.7531514629
 20
4.4161765655
 30
0.0
 10
5.7511010836
 20
4.4211672154
 30
0.0
  0
SPLINE
  5
31A
100
AcDbEntity
  8
0
100
AcDbSpline
 62
7
  6
CONTINUOUS
 70
0
 71
3
 72
62
 73
58
 74
0
 42
0.0000001
 43
0.0000001
 44
0.0000000001
 40
0.0
 40
0.0
 40
0.0
 40
0.0
 40
0.0157015496
 40
0.031475538
 40
0.0632572661
 40
0.0953618633
 40
0.1276760822
 40
0.1600259303
 40
0.1922206997
 40
0.2082151
 40
0.2241140668
 40
0.2399087246
 40
0.2556056451
 40
0.2712338898
 40
0.2868195894
 40
0.3179192957
 40
0.3490121126
 40
0.380110579
 40
0.3956561049
 40
0.411184466
 40
0.4266877412
 40
0.4344285107
 40
0.4421606859
 40
0.457611793
 40
0.473073163
 40
0.4885618916
 40
0.504081238
 40
0.5118503799
 40
0.5196231165
 40
0.5351631855
 40
0.5506713571
 40
0.5661329355
 40
0.5815554887
 40
0.5892630301
 40
0.5969752877
 40
0.6124275346
 40
0.6279237516
 40
0.6434463139
 40
0.6512066657
 40
0.6589618534
 40
0.6744560227
 40
0.6899304369
 40
0.7053899633
 40
0.7208432456
 40
0.7363031043
 40
0.7517839926
 40
0.7672847032
 40
0.7827970769
 40
0.8138208384
 40
0.8293240454
 40
0.8448119071
 40
0.8602811783
 40
0.8757403149
 40
0.9066701508
 40
0.9376754302
 40
0.9687864935
 40
1.0
 40
1.0
 40
1.0
 40
1.0
 10
4.9202617337
 20
3.8621028225
 30
0.0
 10
4.9180631419
 20
3.8652122548
 30
0.0
 10
4.9139054922
 20
3.8716263748
 30
0.0
 10
4.9065765029
 20
3.8851183705
 30
0.0
 10
4.8992679692
 20
3.9030811677
 30
0.0
 10
4.893479211
 20
3.9257510266
 30
0.0
 10
4.8906272221
 20
3.9491108892
 30
0.0
 10
4.8907082682
 20
3.9726615079
 30
0.0
 10
4.8932288255
 20
3.9920908214
 30
0.0
 10
4.8967314798
 20
4.0072446034
 30
0.0
 10
4.9000915862
 20
4.018321671
 30
0.0
 10
4.9041926091
 20
4.0290695839
 30
0.0
 10
4.9090337444
 20
4.0394326233
 30
0.0
 10
4.9145678061
 20
4.0493845078
 30
0.0
 10
4.9228067245
 20
4.0620662826
 30
0.0
 10
4.9346505233
 20
4.0768243869
 30
0.0
 10
4.9509692653
 20
4.0925766353
 30
0.0
 10
4.9660585889
 20
4.1039632182
 30
0.0
 10
4.9788630536
 20
4.1119407601
 30
0.0
 10
4.988794729
 20
4.1173380734
 30
0.0
 10
4.9973153385
 20
4.1213308487
 30
0.0
 10
5.0042557333
 20
4.1242098991
 30
0.0
 10
5.0112684872
 20
4.1268725876
 30
0.0
 10
5.0201733818
 20
4.12981364
 30
0.0
 10
5.0310319289
 20
4.1327866989
 30
0.0
 10
5.0420285808
 20
4.1352710675
 30
0.0
 10
5.0512769329
 20
4.1369909172
 30
0.0
 10
5.0587144952
 20
4.1381905864
 30
0.0
 10
5.0661730152
 20
4.1392869848
 30
0.0
 10
5.075517796
 20
4.140453741
 30
0.0
 10
5.0867608437
 20
4.1414140065
 30
0.0
 10
5.0980102785
 20
4.1418241847
 30
0.0
 10
5.1073750797
 20
4.1416155947
 30
0.0
 10
5.1148360946
 20
4.1410589102
 30
0.0
 10
5.1222815206
 20
4.1402544215
 30
0.0
 10
5.1315547994
 20
4.1388330906
 30
0.0
 10
5.1426068047
 20
4.1366082032
 30
0.0
 10
5.1517596101
 20
4.1344378977
 30
0.0
 10
5.1590555126
 20
4.1325833225
 30
0.0
 10
5.1663264711
 20
4.1306597626
 30
0.0
 10
5.1753667999
 20
4.1281107974
 30
0.0
 10
5.1861280148
 20
4.1247906595
 30
0.0
 10
5.1967849063
 20
4.1211792761
 30
0.0
 10
5.2073238362
 20
4.1172460958
 30
0.0
 10
5.2177308581
 20
4.1129613106
 30
0.0
 10
5.2279853997
 20
4.1082951452
 30
0.0
 10
5.2380726432
 20
4.1032485292
 30
0.0
 10
5.2512733163
 20
4.0960231744
 30
0.0
 10
5.2640634823
 20
4.0880650909
 30
0.0
 10
5.2763623639
 20
4.0794019962
 30
0.0
 10
5.285320001
 20
4.0725606338
 30
0.0
 10
5.293992273
 20
4.0653778414
 30
0.0
 10
5.3051718553
 20
4.055368069
 30
0.0
 10
5.3184544752
 20
4.0420801394
 30
0.0
 10
5.3333037869
 20
4.0250666908
 30
0.0
 10
5.3471222192
 20
4.0071223178
 30
0.0
 10
5.3556723822
 20
3.994647099
 30
0.0
 10
5.3597958645
 20
3.9882982364
 30
0.0
  0
SPLINE
  5
31B
100
AcDbEntity
  8
0
100
AcDbSpline
 62
7
  6
CONTINUOUS
 70
0
 71
3
 72
55
 73
51
 74
0
 42
0.0000001
 43
0.0000001
 44
0.0000000001
 40
0.0
 40
0.0
 40
0.0
 40
0.0
 40
0.0315126168
 40
0.0629914417
 40
0.0943445304
 40
0.125546052
 40
0.1566327097
 40
0.1721690954
 40
0.1877223634
 40
0.2033131192
 40
0.2189634425
 40
0.234695837
 40
0.2505013276
 40
0.2663348897
 40
0.2821541544
 40
0.3135985079
 40
0.3291927167
 40
0.336952351
 40
0.34468655
 40
0.3523969946
 40
0.360090964
 40
0.3754672067
 40
0.3908818904
 40
0.4063747069
 40
0.4376462914
 40
0.4534180234
 40
0.4692507577
 40
0.4851135688
 40
0.5009712578
 40
0.5167872924
 40
0.5325312914
 40
0.5482014506
 40
0.5638074007
 40
0.5948781042
 40
0.6103818176
 40
0.6258948381
 40
0.6414371879
 40
0.6570088653
 40
0.6726050804
 40
0.688219236
 40
0.7194636041
 40
0.7506784113
 40
0.7818652401
 40
0.8130393048
 40
0.8442005085
 40
0.8753446067
 40
0.9064934876
 40
0.937659127
 40
0.9688348998
 40
1.0
 40
1.0
 40
1.0
 40
1.0
 10
5.3597958645
 20
3.9882982364
 30
0.0
 10
5.3664155398
 20
3.9781060234
 30
0.0
 10
5.3788398352
 20
3.9572011739
 30
0.0
 10
5.3953237257
 20
3.9247348352
 30
0.0
 10
5.4093251686
 20
3.8912404182
 30
0.0
 10
5.4204901108
 20
3.8568505102
 30
0.0
 10
5.4271394543
 20
3.827530285
 30
0.0
 10
5.4306754026
 20
3.8038044148
 30
0.0
 10
5.4324221662
 20
3.7858783247
 30
0.0
 10
5.4332493648
 20
3.7678425212
 30
0.0
 10
5.4331415073
 20
3.7497187734
 30
0.0
 10
5.4320856397
 20
3.7315423516
 30
0.0
 10
5.4300680446
 20
3.7133762621
 30
0.0
 10
5.4270642952
 20
3.6953111568
 30
0.0
 10
5.4217276204
 20
3.6715603689
 30
0.0
 10
5.4143289216
 20
3.648396181
 30
0.0
 10
5.4059258606
 20
3.6289886559
 30
0.0
 10
5.4005832407
 20
3.6182525342
 30
0.0
 10
5.3963056439
 20
3.6103896736
 30
0.0
 10
5.3917446528
 20
3.6027170151
 30
0.0
 10
5.3852989521
 20
3.5927456921
 30
0.0
 10
5.3765859526
 20
3.5807151073
 30
0.0
 10
5.3652307766
 20
3.5669302587
 30
0.0
 10
5.3490123357
 20
3.5492539188
 30
0.0
 10
5.3315381337
 20
3.5325943002
 30
0.0
 10
5.3133171845
 20
3.5165942134
 30
0.0
 10
5.2993297125
 20
3.5047825458
 30
0.0
 10
5.285183922
 20
3.4931105711
 30
0.0
 10
5.2710016168
 20
3.4814932033
 30
0.0
 10
5.2569028197
 20
3.4698460869
 30
0.0
 10
5.2430033856
 20
3.4580727794
 30
0.0
 10
5.2293554071
 20
3.4461307489
 30
0.0
 10
5.2115687114
 20
3.4299496783
 30
0.0
 10
5.1943816169
 20
3.4132073374
 30
0.0
 10
5.1779822849
 20
3.3957551206
 30
0.0
 10
5.1661199059
 20
3.382270421
 30
0.0
 10
5.1547231861
 20
3.3683561206
 30
0.0
 10
5.1437793124
 20
3.3540430085
 30
0.0
 10
5.1332872085
 20
3.3393615221
 30
0.0
 10
5.1198960601
 20
3.3193368425
 30
0.0
 10
5.1042881635
 20
3.2935663509
 30
0.0
 10
5.087322237
 20
3.2616643897
 30
0.0
 10
5.0720642598
 20
3.2289425721
 30
0.0
 10
5.058438987
 20
3.1955327091
 30
0.0
 10
5.0463629851
 20
3.1615511946
 30
0.0
 10
5.0357531954
 20
3.1270964863
 30
0.0
 10
5.0263910517
 20
3.0922836045
 30
0.0
 10
5.0180436982
 20
3.0572033989
 30
0.0
 10
5.0104789931
 20
3.0219416537
 30
0.0
 10
5.0058006156
 20
2.9983580313
 30
0.0
 10
5.0035135312
 20
2.9865584187
 30
0.0
  0
SPLINE
  5
31C
100
AcDbEntity
  8
0
100
AcDbSpline
 62
7
  6
CONTINUOUS
 70
0
 71
3
 72
9
 73
5
 74
0
 42
0.0000001
 43
0.0000001
 44
0.0000000001
 40
0.0
 40
0.0
 40
0.0
 40
0.0
 40
0.5007645115
 40
1.0
 40
1.0
 40
1.0
 40
1.0
 10
4.1066855697
 20
4.3144944188
 30
0.0
 10
4.1093753696
 20
4.3217821122
 30
0.0
 10
4.1136507005
 20
4.3367654477
 30
0.0
 10
4.1155096839
 20
4.3522453117
 30
0.0
 10
4.1157862209
 20
4.35998489
 30
0.0
  0
SPLINE
  5
31D
100
AcDbEntity
  8
0
100
AcDbSpline
 62
7
  6
CONTINUOUS
 70
0
 71
3
 72
55
 73
51
 74
0
 42
0.0000001
 43
0.0000001
 44
0.0000000001
 40
0.0
 40
0.0
 40
0.0
 40
0.0
 40
0.0157154268
 40
0.0313945988
 40
0.0470369237
 40
0.0626588129
 40
0.0783005096
 40
0.0939929452
 40
0.1255661638
 40
0.1573943263
 40
0.1733670883
 40
0.1893367657
 40
0.2052692284
 40
0.2211281432
 40
0.2368932479
 40
0.2525628381
 40
0.2681459858
 40
0.2836636775
 40
0.2991500651
 40
0.3068975335
 40
0.3146545482
 40
0.3302037926
 40
0.3458076827
 40
0.3614576092
 40
0.3771318622
 40
0.3927977461
 40
0.4084221027
 40
0.4240092612
 40
0.4395736042
 40
0.4706647495
 40
0.5017590915
 40
0.5328812536
 40
0.5640186826
 40
0.5951301014
 40
0.6106756849
 40
0.6262149391
 40
0.6417515288
 40
0.6572913484
 40
0.6728405915
 40
0.6884020749
 40
0.7195510608
 40
0.7351331798
 40
0.7507076
 40
0.7818229565
 40
0.8129196658
 40
0.8440238794
 40
0.8751613447
 40
0.9063402518
 40
0.9375539619
 40
1.0
 40
1.0
 40
1.0
 40
1.0
 10
3.9863354649
 20
4.5493655126
 30
0.0
 10
3.9893218328
 20
4.5517231631
 30
0.0
 10
3.9954738286
 20
4.5562029103
 30
0.0
 10
4.0051944403
 20
4.5621583101
 30
0.0
 10
4.0153527589
 20
4.5672858964
 30
0.0
 10
4.0259004587
 20
4.5715296809
 30
0.0
 10
4.0367657885
 20
4.5749146573
 30
0.0
 10
4.0516218163
 20
4.578326613
 30
0.0
 10
4.0707038306
 20
4.5805783546
 30
0.0
 10
4.0899702021
 20
4.5803483518
 30
0.0
 10
4.1053385408
 20
4.5787971844
 30
0.0
 10
4.1167917754
 20
4.5769734377
 30
0.0
 10
4.1280973245
 20
4.5745179089
 30
0.0
 10
4.1392042452
 20
4.5714616103
 30
0.0
 10
4.1500595269
 20
4.567797904
 30
0.0
 10
4.1606094915
 20
4.5635021205
 30
0.0
 10
4.1708038399
 20
4.5585529318
 30
0.0
 10
4.1805911697
 20
4.5529279098
 30
0.0
 10
4.1883659728
 20
4.5476587747
 30
0.0
 10
4.1943203837
 20
4.5430905544
 30
0.0
 10
4.2001020612
 20
4.538281836
 30
0.0
 10
4.2069983161
 20
4.5318505503
 30
0.0
 10
4.214725553
 20
4.523550883
 30
0.0
 10
4.2219086553
 20
4.5147379382
 30
0.0
 10
4.2285430125
 20
4.5054875633
 30
0.0
 10
4.2346253597
 20
4.4958734054
 30
0.0
 10
4.2401581816
 20
4.4859575863
 30
0.0
 10
4.2451388748
 20
4.4757805812
 30
0.0
 10
4.2510464082
 20
4.4619111034
 30
0.0
 10
4.2570858865
 20
4.4440458853
 30
0.0
 10
4.2622119975
 20
4.422010984
 30
0.0
 10
4.2653000838
 20
4.3995904554
 30
0.0
 10
4.2664416607
 20
4.3769877426
 30
0.0
 10
4.2658484179
 20
4.3581389971
 30
0.0
 10
4.2644279154
 20
4.3431440498
 30
0.0
 10
4.2628843855
 20
4.3319589275
 30
0.0
 10
4.2608557121
 20
4.3208529857
 30
0.0
 10
4.2583424192
 20
4.3098442928
 30
0.0
 10
4.2553722386
 20
4.2989439405
 30
0.0
 10
4.2508339921
 20
4.2845664471
 30
0.0
 10
4.2454801598
 20
4.2704502955
 30
0.0
 10
4.2394098603
 20
4.2566386594
 30
0.0
 10
4.2328953173
 20
4.2430395455
 30
0.0
 10
4.2239452137
 20
4.2264533744
 30
0.0
 10
4.2119496487
 20
4.2072901318
 30
0.0
 10
4.1987388077
 20
4.1889359831
 30
0.0
 10
4.1843498684
 20
4.1714651146
 30
0.0
 10
4.1688566243
 20
4.1549282032
 30
0.0
 10
4.1468468471
 20
4.1341943165
 30
0.0
 10
4.1289223887
 20
4.1201844004
 30
0.0
 10
4.1164707039
 20
4.1116092653
 30
0.0
  0
SPLINE
  5
31E
100
AcDbEntity
  8
0
100
AcDbSpline
 62
7
  6
CONTINUOUS
 70
0
 71
3
 72
70
 73
66
 74
0
 42
0.0000001
 43
0.0000001
 44
0.0000000001
 40
0.0
 40
0.0
 40
0.0
 40
0.0
 40
0.0156540233
 40
0.0312957785
 40
0.062556451
 40
0.0938356459
 40
0.1094893915
 40
0.1251473818
 40
0.1408050342
 40
0.156456065
 40
0.1720951537
 40
0.1877214558
 40
0.2189458762
 40
0.2345740335
 40
0.2502329211
 40
0.2659464364
 40
0.2817148157
 40
0.2974881106
 40
0.3132187759
 40
0.3288704893
 40
0.3444207573
 40
0.3521568206
 40
0.3598671135
 40
0.3675587243
 40
0.3752435607
 40
0.3906294674
 40
0.4060852345
 40
0.4216402693
 40
0.4373005684
 40
0.4530536909
 40
0.4688735568
 40
0.4847249596
 40
0.5005678212
 40
0.5163613193
 40
0.5320783166
 40
0.5477225317
 40
0.5633051723
 40
0.5788412277
 40
0.5943500269
 40
0.6098557565
 40
0.6176167756
 40
0.6253866147
 40
0.6409510876
 40
0.6565450119
 40
0.6721605145
 40
0.6877871337
 40
0.7034120647
 40
0.7190203866
 40
0.7345959764
 40
0.7501386029
 40
0.7811862933
 40
0.8122740262
 40
0.8278585696
 40
0.8434801206
 40
0.8591447191
 40
0.8669947721
 40
0.8748571904
 40
0.8827294912
 40
0.8906072743
 40
0.9063625853
 40
0.9220936037
 40
0.9377780849
 40
0.9689628927
 40
0.9844863819
 40
1.0
 40
1.0
 40
1.0
 40
1.0
 10
4.1164707039
 20
4.1116092653
 30
0.0
 10
4.1114592499
 20
4.1081580139
 30
0.0
 10
4.1012706878
 20
4.101500331
 30
0.0
 10
4.0802841548
 20
4.0892029861
 30
0.0
 10
4.052991656
 20
4.075729321
 30
0.0
 10
4.0246022656
 20
4.0647595298
 30
0.0
 10
4.0013902504
 20
4.0574505972
 30
0.0
 10
3.9837585844
 20
4.0526907145
 30
0.0
 10
3.9659503894
 20
4.0486484125
 30
0.0
 10
3.9480045876
 20
4.0453100823
 30
0.0
 10
3.9299504847
 20
4.0426945953
 30
0.0
 10
3.9057797165
 20
4.0402352413
 30
0.0
 10
3.8814650378
 20
4.0393987102
 30
0.0
 10
3.8571767912
 20
4.0403586649
 30
0.0
 10
3.8389739853
 20
4.0420196841
 30
0.0
 10
3.8208324291
 20
4.0446630724
 30
0.0
 10
3.8028215619
 20
4.0483208921
 30
0.0
 10
3.7850476123
 20
4.0530264506
 30
0.0
 10
3.7676410911
 20
4.05881121
 30
0.0
 10
3.7507358111
 20
4.0657057697
 30
0.0
 10
3.7371516252
 20
4.0724157749
 30
0.0
 10
3.7266742545
 20
4.0783707306
 30
0.0
 10
3.7190391279
 20
4.0831292076
 30
0.0
 10
3.7116199938
 20
4.0881821769
 30
0.0
 10
3.7019965006
 20
4.0952836102
 30
0.0
 10
3.6904273901
 20
4.1048119518
 30
0.0
 10
3.6772204823
 20
4.1171062684
 30
0.0
 10
3.664574479
 20
4.1301223747
 30
0.0
 10
3.6523826903
 20
4.1437170641
 30
0.0
 10
3.6405385182
 20
4.1577483668
 30
0.0
 10
3.6289363375
 20
4.1720745987
 30
0.0
 10
3.6174707281
 20
4.1865540961
 30
0.0
 10
3.6060374567
 20
4.2010459404
 30
0.0
 10
3.59452642
 20
4.2154098439
 30
0.0
 10
3.5828315764
 20
4.2295250689
 30
0.0
 10
3.570917631
 20
4.2433482832
 30
0.0
 10
3.558733631
 20
4.2568401399
 30
0.0
 10
3.5462295878
 20
4.2699641513
 30
0.0
 10
3.5333549488
 20
4.2826830141
 30
0.0
 10
3.5222789831
 20
4.292910786
 30
0.0
 10
3.5131905484
 20
4.3008456499
 30
0.0
 10
3.5039360481
 20
4.3086216871
 30
0.0
 10
3.4920850026
 20
4.3180361086
 30
0.0
 10
3.4774610398
 20
4.3288448997
 30
0.0
 10
3.4624683652
 20
4.3391784022
 30
0.0
 10
3.4471491221
 20
4.3490429417
 30
0.0
 10
3.4315452708
 20
4.3584448975
 30
0.0
 10
3.415698813
 20
4.3673911422
 30
0.0
 10
3.3996444747
 20
4.3758902177
 30
0.0
 10
3.3780053572
 20
4.3866502648
 30
0.0
 10
3.3505072769
 20
4.3991465294
 30
0.0
 10
3.3225459857
 20
4.4105995277
 30
0.0
 10
3.2999460771
 20
4.4192942286
 30
0.0
 10
3.2828638729
 20
4.4256306054
 30
0.0
 10
3.268549681
 20
4.4307817652
 30
0.0
 10
3.2570502414
 20
4.4348462752
 30
0.0
 10
3.2483974638
 20
4.4378753844
 30
0.0
 10
3.239722714
 20
4.4408742154
 30
0.0
 10
3.2281251848
 20
4.4448080598
 30
0.0
 10
3.2135797932
 20
4.4495601041
 30
0.0
 10
3.1960270266
 20
4.4548701446
 30
0.0
 10
3.17253946
 20
4.461234776
 30
0.0
 10
3.1487820761
 20
4.4662986766
 30
0.0
 10
3.124796987
 20
4.4694933657
 30
0.0
 10
3.1127550355
 20
4.4703751986
 30
0.0
 10
3.1067295091
 20
4.47061526
 30
0.0
  0
SPLINE
  5
31F
100
AcDbEntity
  8
0
100
AcDbSpline
 62
7
  6
CONTINUOUS
 70
0
 71
3
 72
40
 73
36
 74
0
 42
0.0000001
 43
0.0000001
 44
0.0000000001
 40
0.0
 40
0.0
 40
0.0
 40
0.0
 40
0.0616814972
 40
0.1233860207
 40
0.1853990993
 40
0.2167234532
 40
0.2482948698
 40
0.2800859259
 40
0.3120497638
 40
0.3762035959
 40
0.4083028724
 40
0.4403137238
 40
0.5038089693
 40
0.5352845631
 40
0.566562546
 40
0.5976691065
 40
0.6285887028
 40
0.6593210133
 40
0.674636322
 40
0.6899288381
 40
0.7205161561
 40
0.7512600393
 40
0.782271941
 40
0.7979023738
 40
0.8136157153
 40
0.8293773318
 40
0.8451264161
 40
0.8763891261
 40
0.8918702934
 40
0.9072489051
 40
0.9225591826
 40
0.9378652233
 40
0.9532431102
 40
0.9687266693
 40
1.0
 40
1.0
 40
1.0
 40
1.0
 10
4.6390210479
 20
4.0948334974
 30
0.0
 10
4.6460194692
 20
4.0891118516
 30
0.0
 10
4.659213695
 20
4.0766325568
 30
0.0
 10
4.6759607655
 20
4.0551055054
 30
0.0
 10
4.6868887758
 20
4.0350484406
 30
0.0
 10
4.6934995303
 20
4.0179574747
 30
0.0
 10
4.6974078919
 20
4.0046258797
 30
0.0
 10
4.7002557327
 20
3.9909334153
 30
0.0
 10
4.7026415776
 20
3.9723262215
 30
0.0
 10
4.702904992
 20
3.953452936
 30
0.0
 10
4.7010559323
 20
3.9347317614
 30
0.0
 10
4.6978063162
 20
3.9163013266
 30
0.0
 10
4.6924373033
 20
3.8983813692
 30
0.0
 10
4.6849199804
 20
3.8814546102
 30
0.0
 10
4.6782340636
 20
3.8694104062
 30
0.0
 10
4.6704947109
 20
3.8581119841
 30
0.0
 10
4.6617382079
 20
3.8476846906
 30
0.0
 10
4.6536141167
 20
3.8398257871
 30
0.0
 10
4.6466570833
 20
3.8341259676
 30
0.0
 10
4.6394044332
 20
3.8288430957
 30
0.0
 10
4.6297718619
 20
3.8230217701
 30
0.0
 10
4.6174845988
 20
3.8172948453
 30
0.0
 10
4.6067576965
 20
3.8135532882
 30
0.0
 10
4.5979361295
 20
3.8111581019
 30
0.0
 10
4.5911967846
 20
3.8096508737
 30
0.0
 10
4.5843766627
 20
3.8084559432
 30
0.0
 10
4.5752422946
 20
3.8073412271
 30
0.0
 10
4.5660594368
 20
3.8070138104
 30
0.0
 10
4.556970616
 20
3.8076583181
 30
0.0
 10
4.5502717973
 20
3.8086663571
 30
0.0
 10
4.5437086386
 20
3.8102430864
 30
0.0
 10
4.5373227644
 20
3.8124347398
 30
0.0
 10
4.5311645541
 20
3.8152649194
 30
0.0
 10
4.5232730334
 20
3.8198269172
 30
0.0
 10
4.5178143929
 20
3.8240410642
 30
0.0
 10
4.5144233208
 20
3.8271243276
 30
0.0
  0
SPLINE
  5
320
100
AcDbEntity
  8
0
100
AcDbSpline
 62
7
  6
CONTINUOUS
 70
0
 71
3
 72
18
 73
14
 74
0
 42
0.0000001
 43
0.0000001
 44
0.0000000001
 40
0.0
 40
0.0
 40
0.0
 40
0.0
 40
0.126681089
 40
0.1902581433
 40
0.2536974152
 40
0.3168264833
 40
0.3795844452
 40
0.5038936644
 40
0.6270945437
 40
0.6886533968
 40
0.7503627505
 40
0.8745094536
 40
1.0
 40
1.0
 40
1.0
 40
1.0
 10
4.5144233208
 20
3.8271243276
 30
0.0
 10
4.5105294526
 20
3.8306647481
 30
0.0
 10
4.5051578734
 20
3.8365391393
 30
0.0
 10
4.4991229959
 20
3.8451902771
 30
0.0
 10
4.4951852707
 20
3.8520511694
 30
0.0
 10
4.491895435
 20
3.8592076044
 30
0.0
 10
4.4884288773
 20
3.8690192071
 30
0.0
 10
4.4858283196
 20
3.8817252255
 30
0.0
 10
4.4857236342
 20
3.894657898
 30
0.0
 10
4.4872347513
 20
3.9048013595
 30
0.0
 10
4.489763994
 20
3.9147794271
 30
0.0
 10
4.4947451484
 20
3.9268013528
 30
0.0
 10
4.5004018269
 20
3.9355667822
 30
0.0
 10
4.5035958762
 20
3.9396870609
 30
0.0
  0
SPLINE
  5
321
100
AcDbEntity
  8
0
100
AcDbSpline
 62
7
  6
CONTINUOUS
 70
0
 71
3
 72
10
 73
6
 74
0
 42
0.0000001
 43
0.0000001
 44
0.0000000001
 40
0.0
 40
0.0
 40
0.0
 40
0.0
 40
0.4928797239
 40
0.7453391419
 40
1.0
 40
1.0
 40
1.0
 40
1.0
 10
4.4755838726
 20
3.6998923025
 30
0.0
 10
4.4876518826
 20
3.7009426197
 30
0.0
 10
4.5057325796
 20
3.7047090742
 30
0.0
 10
4.5290695944
 20
3.7124140373
 30
0.0
 10
4.5406623003
 20
3.7170168098
 30
0.0
 10
4.54642745
 20
3.7194532894
 30
0.0
  0
ELLIPSE
  5
322
100
AcDbEntity
  8
0
100
AcDbEllipse
 62
7
  6
CONTINUOUS
 10
3.0777756935
 20
4.0364161432
 30
0.0
 11
0.0293522782
 21
0.0065623562
 31
0.0
 40
0.997442757
 41
2.9221821124
 42
3.3610031948
  0
ELLIPSE
  5
323
100
AcDbEntity
  8
0
100
AcDbEllipse
 62
7
  6
CONTINUOUS
 10
6.5156291796
 20
4.0364161432
 30
0.0
 11
0.0293522782
 21
-0.0065623562
 31
0.0
 40
0.997442757
 41
-0.2194105412
 42
0.2194105412
  0
ELLIPSE
  5
324
100
AcDbEntity
  8
0
100
AcDbEllipse
 62
7
  6
CONTINUOUS
 10
6.5156291796
 20
5.305237426
 30
0.0
 11
0.0293522782
 21
0.0065623562
 31
0.0
 40
0.997442757
 41
-0.2194105412
 42
0.2194105412
  0
ELLIPSE
  5
325
100
AcDbEntity
  8
0
100
AcDbEllipse
 62
7
  6
CONTINUOUS
 10
3.0777756935
 20
5.305237426
 30
0.0
 11
0.0293522782
 21
-0.0065623562
 31
0.0
 40
0.997442757
 41
2.9221821124
 42
3.3610031948
  0
ENDSEC
  0
SECTION
  2
OBJECTS
  0
DICTIONARY
  5
C
100
AcDbDictionary
280
0
281
1
  3
ACAD_GROUP
350
D
  3
ACAD_MLINESTYLE
350
17
  3
ACAD_LAYOUT
350
1A
  3
ACAD_PLOTSETTINGS
350
19
  3
ACAD_PLOTSTYLENAME
350
E
  0
DICTIONARY
  5
D
102
{ACAD_REACTORS
330
C
102
}
100
AcDbDictionary
280
0
281
1
  0
ACDBDICTIONARYWDFLT
  5
E
102
{ACAD_REACTORS
330
C
102
}
100
AcDbDictionary
281
1
  3
Normal
350
F
100
AcDbDictionaryWithDefault
340
F
  0
DICTIONARY
  5
17
102
{ACAD_REACTORS
330
C
102
}
100
AcDbDictionary
280
0
281
1
  3
Standard
350
18
  0
DICTIONARY
  5
19
102
{ACAD_REACTORS
330
C
102
}
100
AcDbDictionary
281
1
  0
DICTIONARY
  5
1A
102
{ACAD_REACTORS
330
C
102
}
100
AcDbDictionary
281
1
  3
Model
350
326
  3
Layout1
350
327
  0
ACDBPLACEHOLDER
  5
F
102
{ACAD_REACTORS
330
E
102
}
  0
MLINESTYLE
  5
18
102
{ACAD_REACTORS
330
17
102
}
100
AcDbMlineStyle
  2
STANDARD
 70
0
  3

 62
256
 51
90.0
 52
90.0
 71
2
 49
0.5
 62
256
  6
BYLAYER
 49
-0.5
 62
256
  6
BYLAYER
  0
LAYOUT
  5
326
102
{ACAD_REACTORS
330
1A
102
}
100
AcDbPlotSettings
  1

  2
none_device
  4
ANSI_A_(11.00_x_8.50_Inches)
  6

 40
0.0
 41
0.0
 42
0.0
 43
0.0
 44
279.4
 45
215.9
 46
0.0
 47
0.0
 48
0.0
 49
0.0
140
0.0
141
0.0
142
1.0
143
1.0
 70
1024
 72
0
 73
0
 74
0
  7

 75
0
147
1.0
148
0.0
149
0.0
100
AcDbLayout
  1
Model
 70
0
 71
0
 10
0.0
 20
0.0
 11
11.0
 21
8.5
 12
0.0
 22
0.0
 32
0.0
 14
0.0
 24
0.0
 34
0.0
 15
0.0
 25
0.0
 35
0.0
146
0.0
 13
0.0
 23
0.0
 33
0.0
 16
1.0
 26
0.0
 36
0.0
 17
0.0
 27
1.0
 37
0.0
 76
0
330
20A
345
0
346
0
  0
LAYOUT
  5
327
102
{ACAD_REACTORS
330
1A
102
}
100
AcDbPlotSettings
  1

  2
none_device
  4
ANSI_A_(11.00_x_8.50_Inches)
  6

 40
0.0
 41
0.0
 42
0.0
 43
0.0
 44
279.4
 45
215.9
 46
0.0
 47
0.0
 48
0.0
 49
0.0
140
0.0
141
0.0
142
1.0
143
1.0
 70
0
 72
0
 73
0
 74
0
  7

 75
0
147
1.0
148
0.0
149
0.0
100
AcDbLayout
  1
Layout1
 70
0
 71
1
 10
0.0
 20
0.0
 11
11.0
 21
8.5
 12
0.0
 22
0.0
 32
0.0
 14
0.0
 24
0.0
 34
0.0
 15
0.0
 25
0.0
 35
0.0
146
0.0
 13
0.0
 23
0.0
 33
0.0
 16
1.0
 26
0.0
 36
0.0
 17
0.0
 27
1.0
 37
0.0
 76
0
330
20B
345
0
346
0
  0
ENDSEC
  0
EOF
