999
DXF file: 243-406_front.dxf
999
Pro/ENGINEER 2018400 by Parametric Technology Corporation
  0
SECTION
  2
HEADER
  9
$ACADVER
  1
AC1027
  9
$DWGCODEPAGE
  3
ANSI_1252
  9
$EXTMAX
 10
11.0
 20
8.5
 30
0.0
  9
$EXTMIN
 10
0.0
 20
0.0
 30
0.0
  9
$LIMMIN
 10
0.0
 20
0.0
  9
$LIMMAX
 10
11.0
 20
8.5
  9
$VIEWCTR
 10
5.5
 20
4.25
  9
$VIEWSIZE
 40
8.5
  9
$CLAYER
  8
0
  9
$LTSCALE
 40
0.605
  9
$CELTYPE
  6
BYLAYER
  9
$DIMSCALE
 40
1.0
  9
$DIMASZ
 40
0.1
  9
$DIMEXO
 40
0.0625
  9
$DIMDLI
 40
0.418
  9
$DIMEXE
 40
0.125
  9
$DIMCEN
 40
0.099
  9
$DIMLFAC
 40
1.0
  9
$DIMBLK
  1
_FILLED
  9
$DIMALT
 70
0
  9
$DIMALTF
 40
25.4
  9
$DIMTXT
 40
0.08
  9
$DIMTOL
 70
1
  9
$DIMLIM
 70
0
  9
$DIMTFAC
 40
1.0
  9
$DIMTP
 40
0.001
  9
$DIMTM
 40
0.001
  9
$DIMGAP
 40
0.09
  9
$DIMDSEP
 70
46
  9
$AUNITS
 70
0
  9
$PDMODE
 70
3
  9
$PDSIZE
 40
0.06
  9
$HANDSEED
  5
317
  9
$TILEMODE
 70
1
  9
$MEASUREMENT
 70
0
  9
$INSUNITS
 70
1
  0
ENDSEC
  0
SECTION
  2
CLASSES
  0
CLASS
  1
ACDBDICTIONARYWDFLT
  2
AcDbDictionaryWithDefault
  3
AutoCAD 2000
 90
0
 91
1
280
0
281
0
  0
CLASS
  1
ACDBPLACEHOLDER
  2
AcDbPlaceHolder
  3
AutoCAD 2000
 90
0
 91
1
280
0
281
0
  0
CLASS
  1
LAYOUT
  2
AcDbLayout
  3
AutoCAD 2000
 90
0
 91
0
280
0
281
0
  0
ENDSEC
  0
SECTION
  2
TABLES
  0
TABLE
  2
VPORT
  5
8
100
AcDbSymbolTable
 70
2
  0
VPORT
  5
1F4
100
AcDbSymbolTableRecord
100
AcDbViewportTableRecord
  2
*ACTIVE
 70
0
 10
0.0
 20
0.0
 11
1.0
 21
1.0
 12
5.5
 22
4.25
 13
0.0
 23
0.0
 14
1.0
 24
1.0
 15
0.0
 25
0.0
 16
0.0
 26
0.0
 36
1.0
 17
0.0
 27
0.0
 37
0.0
 40
8.5
 41
1.2941176471
 42
50.0
 43
0.0
 44
0.0
 50
0.0
 51
0.0
 71
0
 72
100
 73
1
 74
1
 75
0
 76
0
 77
0
 78
0
  0
ENDTAB
  0
TABLE
  2
LTYPE
  5
5
100
AcDbSymbolTable
 70
6
  0
LTYPE
  5
14
100
AcDbSymbolTableRecord
100
AcDbLinetypeTableRecord
  2
BYBLOCK
 70
0
  3

 72
65
 73
0
 40
0.0
  0
LTYPE
  5
15
100
AcDbSymbolTableRecord
100
AcDbLinetypeTableRecord
  2
BYLAYER
 70
0
  3

 72
65
 73
0
 40
0.0
  0
LTYPE
  5
16
100
AcDbSymbolTableRecord
100
AcDbLinetypeTableRecord
  2
CONTINUOUS
 70
64
  3
Solid line
 72
65
 73
0
 40
0.0
  0
LTYPE
  5
1F5
100
AcDbSymbolTableRecord
100
AcDbLinetypeTableRecord
  2
CENTER
 70
64
  3
____ _ ____ _ ____ _ ____ _ ____ _ ____ _ ____
 72
65
 73
4
 40
0.6
 49
0.375
 74
0
 49
-0.075
 74
0
 49
0.075
 74
0
 49
-0.075
 74
0
  0
LTYPE
  5
1F6
100
AcDbSymbolTableRecord
100
AcDbLinetypeTableRecord
  2
HIDDEN
 70
64
  3
- - - - - - - - - - - - - - - - - - - -
 72
65
 73
2
 40
0.2
 49
0.1
 74
0
 49
-0.1
 74
0
  0
LTYPE
  5
1F7
100
AcDbSymbolTableRecord
100
AcDbLinetypeTableRecord
  2
PHANTOM
 70
64
  3
_____ _ _ _____ _ _ _____ _ _ _____
 72
65
 73
6
 40
0.8
 49
0.45
 74
0
 49
-0.05
 74
0
 49
0.1
 74
0
 49
-0.05
 74
0
 49
0.1
 74
0
 49
-0.05
 74
0
  0
LTYPE
  5
1F8
100
AcDbSymbolTableRecord
100
AcDbLinetypeTableRecord
  2
DOT
 70
64
  3
. . . . . . . . . . . . . . . . . . . .
 72
65
 73
2
 40
0.2
 49
0.1
 74
0
 49
-0.1
 74
0
  0
LTYPE
  5
1F9
100
AcDbSymbolTableRecord
100
AcDbLinetypeTableRecord
  2
DASHED
 70
64
  3
- - - - - - - - - - - - - - - - - - - -
 72
65
 73
2
 40
0.2
 49
0.1
 74
0
 49
-0.1
 74
0
  0
ENDTAB
  0
TABLE
  2
LAYER
  5
2
100
AcDbSymbolTable
 70
36
  0
LAYER
  5
10
100
AcDbSymbolTableRecord
100
AcDbLayerTableRecord
  2
0
 70
0
 62
7
  6
CONTINUOUS
370
-3
390
F
  0
LAYER
  5
1FA
100
AcDbSymbolTableRecord
100
AcDbLayerTableRecord
  2
DEFAULT_1
 70
0
 62
7
  6
CENTER
370
-3
390
F
  0
LAYER
  5
1FB
100
AcDbSymbolTableRecord
100
AcDbLayerTableRecord
  2
DEFAULT_2
 70
0
 62
8
  6
HIDDEN
370
-3
390
F
  0
LAYER
  5
1FC
100
AcDbSymbolTableRecord
100
AcDbLayerTableRecord
  2
DEFAULT_3
 70
0
 62
7
  6
PHANTOM
370
-3
390
F
  0
LAYER
  5
1FD
100
AcDbSymbolTableRecord
100
AcDbLayerTableRecord
  2
ALL_FEATURES
 70
0
 62
7
  6
CONTINUOUS
370
-3
390
F
  0
LAYER
  5
1FE
100
AcDbSymbolTableRecord
100
AcDbLayerTableRecord
  2
AXES_FEATURES
 70
0
 62
7
  6
CONTINUOUS
370
-3
390
F
  0
LAYER
  5
1FF
100
AcDbSymbolTableRecord
100
AcDbLayerTableRecord
  2
DEFAULT_COORDINATE_SYSTEM
 70
0
 62
7
  6
CONTINUOUS
370
-3
390
F
  0
LAYER
  5
200
100
AcDbSymbolTableRecord
100
AcDbLayerTableRecord
  2
DEFAULT_DATUM_AXES
 70
0
 62
7
  6
CONTINUOUS
370
-3
390
F
  0
LAYER
  5
201
100
AcDbSymbolTableRecord
100
AcDbLayerTableRecord
  2
DEFAULT_DATUM_CURVES
 70
0
 62
7
  6
CONTINUOUS
370
-3
390
F
  0
LAYER
  5
202
100
AcDbSymbolTableRecord
100
AcDbLayerTableRecord
  2
DEFAULT_DATUM_PLANES
 70
0
 62
7
  6
CONTINUOUS
370
-3
390
F
  0
LAYER
  5
203
100
AcDbSymbolTableRecord
100
AcDbLayerTableRecord
  2
DEFAULT_SURFACES
 70
0
 62
7
  6
CONTINUOUS
370
-3
390
F
  0
LAYER
  5
204
100
AcDbSymbolTableRecord
100
AcDbLayerTableRecord
  2
DIMENSIONS
 70
0
 62
7
  6
CONTINUOUS
370
-3
390
F
  0
LAYER
  5
205
100
AcDbSymbolTableRecord
100
AcDbLayerTableRecord
  2
INTF_1
 70
0
 62
7
  6
CONTINUOUS
370
-3
390
F
  0
LAYER
  5
206
100
AcDbSymbolTableRecord
100
AcDbLayerTableRecord
  2
PLATTED_SURFACE_AREA
 70
0
 62
7
  6
CONTINUOUS
370
-3
390
F
  0
LAYER
  5
207
100
AcDbSymbolTableRecord
100
AcDbLayerTableRecord
  2
RGB____0____0____0__
 70
0
 62
7
  6
CONTINUOUS
370
-3
390
F
  0
ENDTAB
  0
TABLE
  2
STYLE
  5
3
100
AcDbSymbolTable
 70
1
  0
STYLE
  5
11
100
AcDbSymbolTableRecord
100
AcDbTextStyleTableRecord
  2
STANDARD
 70
0
 40
0.0
 41
0.8
 50
0.0
 71
0
 42
0.2
  3
txt
  4

  0
STYLE
  5
208
100
AcDbSymbolTableRecord
100
AcDbTextStyleTableRecord
  2
TEXTSTYLE_1
 70
0
 40
0.0
 41
0.8
 50
0.0
 71
0
 42
0.2
  3
gdt
  4

  0
ENDTAB
  0
TABLE
  2
VIEW
  5
6
100
AcDbSymbolTable
 70
0
  0
ENDTAB
  0
TABLE
  2
UCS
  5
7
100
AcDbSymbolTable
 70
0
  0
ENDTAB
  0
TABLE
  2
APPID
  5
9
100
AcDbSymbolTable
 70
1
  0
APPID
  5
209
100
AcDbSymbolTableRecord
100
AcDbRegAppTableRecord
  2
ACAD
 70
0
  0
ENDTAB
  0
TABLE
  2
BLOCK_RECORD
  5
1
100
AcDbSymbolTable
 70
0
  0
BLOCK_RECORD
  5
20A
100
AcDbSymbolTableRecord
100
AcDbBlockTableRecord
  2
*Model_Space
  0
BLOCK_RECORD
  5
20B
100
AcDbSymbolTableRecord
100
AcDbBlockTableRecord
  2
*Paper_Space
  0
BLOCK_RECORD
  5
20C
100
AcDbSymbolTableRecord
100
AcDbBlockTableRecord
  2
_FILLED
  0
ENDTAB
  0
TABLE
  2
DIMSTYLE
  5
A
100
AcDbSymbolTable
 70
1
100
AcDbDimStyleTable
 71
0
  0
DIMSTYLE
105
20D
100
AcDbSymbolTableRecord
100
AcDbDimStyleTableRecord
  2
STANDARD
 70
0
  3

  4

 40
1.0
 41
0.1
 42
0.0625
 43
0.38
 44
0.125
 45
0.0
 46
0.0
 47
0.001
 48
0.001
140
0.08
141
0.09
142
0.0
143
25.4
144
1.0
145
0.0
146
1.0
147
0.09
 71
1.0
 72
0.0
 73
1
 74
1
 75
0
 76
0
 77
0
 78
4
 79
1
170
0
171
2
172
0
173
0
174
0
175
0
176
0
177
0
178
0
270
2
179
3
271
3
272
3
273
2
274
2
275
0
280
0
281
0
282
0
283
1
284
4
285
0
286
0
287
3
288
0
340
11
278
46
341
20C
342
20C
343
20C
344
20C
  0
ENDTAB
  0
ENDSEC
  0
SECTION
  2
BLOCKS
  0
BLOCK
  5
20
100
AcDbEntity
  8
0
100
AcDbBlockBegin
  2
*Model_Space
 70
0
 10
0.0
 20
0.0
 30
0.0
  3
*Model_Space
  1

  0
ENDBLK
  5
21
100
AcDbEntity
  8
0
100
AcDbBlockEnd
  0
BLOCK
  5
1C
100
AcDbEntity
  8
0
100
AcDbBlockBegin
  2
*Paper_Space
 70
0
 10
0.0
 20
0.0
 30
0.0
  3
*Paper_Space
  1

  0
ENDBLK
  5
1D
100
AcDbEntity
  8
0
100
AcDbBlockEnd
  0
BLOCK
  5
20E
100
AcDbEntity
  8
0
100
AcDbBlockBegin
  2
_FILLED
 70
64
 10
0.0
 20
0.0
  3
_FILLED
  1

  0
SOLID
  5
20F
100
AcDbEntity
  8
0
  6
BYBLOCK
 62
0
100
AcDbTrace
 10
0.0
 20
0.0
 11
-1.0
 21
0.2
 12
-1.0
 22
-0.2
 13
-1.0
 23
-0.2
  0
ENDBLK
  5
210
100
AcDbEntity
  8
0
  6
BYBLOCK
 62
0
100
AcDbBlockEnd
  0
ENDSEC
  0
SECTION
  2
ENTITIES
  0
LINE
  5
211
100
AcDbEntity
  8
0
100
AcDbLine
 62
7
  6
CONTINUOUS
 10
0.0
 20
0.0
 11
0.0
 21
8.5
  0
LINE
  5
212
100
AcDbEntity
  8
0
100
AcDbLine
 62
7
  6
CONTINUOUS
 10
0.0
 20
0.0
 11
11.0
 21
0.0
  0
LINE
  5
213
100
AcDbEntity
  8
0
100
AcDbLine
 62
7
  6
CONTINUOUS
 10
0.0
 20
8.5
 11
11.0
 21
8.5
  0
LINE
  5
214
100
AcDbEntity
  8
0
100
AcDbLine
 62
7
  6
CONTINUOUS
 10
11.0
 20
0.0
 11
11.0
 21
8.5
  0
LINE
  5
215
100
AcDbEntity
  8
0
100
AcDbLine
 62
7
  6
CONTINUOUS
 10
4.1632759037
 20
2.9237678571
 11
4.1910256308
 21
2.9237678571
  0
LINE
  5
216
100
AcDbEntity
  8
0
100
AcDbLine
 62
7
  6
CONTINUOUS
 10
4.4272171195
 20
2.9237678571
 11
5.3741145575
 21
2.9237678571
  0
LINE
  5
217
100
AcDbEntity
  8
0
100
AcDbLine
 62
7
  6
CONTINUOUS
 10
5.6106422774
 20
2.9237678571
 11
5.6376557733
 21
2.9237678571
  0
LINE
  5
218
100
AcDbEntity
  8
0
100
AcDbLine
 62
7
  6
CONTINUOUS
 10
3.2204658385
 20
5.4755741452
 11
3.2204658385
 21
5.3467191381
  0
LINE
  5
219
100
AcDbEntity
  8
0
100
AcDbLine
 62
7
  6
CONTINUOUS
 10
3.2204658385
 20
5.1568165761
 11
3.2204658385
 21
4.9567191381
  0
LINE
  5
21A
100
AcDbEntity
  8
0
100
AcDbLine
 62
7
  6
CONTINUOUS
 10
3.2204658385
 20
4.7458165761
 11
3.2204658385
 21
4.5457191381
  0
LINE
  5
21B
100
AcDbEntity
  8
0
100
AcDbLine
 62
7
  6
CONTINUOUS
 10
3.2204658385
 20
4.3558165761
 11
3.2204658385
 21
4.1557191381
  0
LINE
  5
21C
100
AcDbEntity
  8
0
100
AcDbLine
 62
7
  6
CONTINUOUS
 10
3.2204658385
 20
3.9448165761
 11
3.2204658385
 21
3.8199615691
  0
LINE
  5
21D
100
AcDbEntity
  8
0
100
AcDbLine
 62
7
  6
CONTINUOUS
 10
5.9863551259
 20
3.1637678571
 11
5.6140171195
 21
3.1637678571
  0
LINE
  5
21E
100
AcDbEntity
  8
0
100
AcDbLine
 62
7
  6
CONTINUOUS
 10
5.3741145575
 20
3.1637678571
 11
4.4272171195
 21
3.1637678571
  0
LINE
  5
21F
100
AcDbEntity
  8
0
100
AcDbLine
 62
7
  6
CONTINUOUS
 10
4.1873145575
 20
3.1637678571
 11
3.8145765512
 21
3.1637678571
  0
LINE
  5
220
100
AcDbEntity
  8
0
100
AcDbLine
 62
7
  6
CONTINUOUS
 10
3.8204171195
 20
3.3347678571
 11
4.7805145575
 21
3.3347678571
  0
LINE
  5
221
100
AcDbEntity
  8
0
100
AcDbLine
 62
7
  6
CONTINUOUS
 10
5.0204171195
 20
3.3347678571
 11
5.9805145575
 21
3.3347678571
  0
LINE
  5
222
100
AcDbEntity
  8
0
100
AcDbLine
 62
7
  6
CONTINUOUS
 10
3.6004658385
 20
3.3689717892
 11
3.6004658385
 21
3.5548165761
  0
LINE
  5
223
100
AcDbEntity
  8
0
100
AcDbLine
 62
7
  6
CONTINUOUS
 10
3.6004658385
 20
4.1557191381
 11
3.6004658385
 21
4.3558165761
  0
LINE
  5
224
100
AcDbEntity
  8
0
100
AcDbLine
 62
7
  6
CONTINUOUS
 10
3.6004658385
 20
4.9567191381
 11
3.6004658385
 21
5.1568165761
  0
LINE
  5
225
100
AcDbEntity
  8
0
100
AcDbLine
 62
7
  6
CONTINUOUS
 10
3.6004658385
 20
5.7577191381
 11
3.6004658385
 21
5.951130284
  0
LINE
  5
226
100
AcDbEntity
  8
0
100
AcDbLine
 62
7
  6
CONTINUOUS
 10
3.8004658385
 20
5.9578165761
 11
3.8004658385
 21
5.7577191381
  0
LINE
  5
227
100
AcDbEntity
  8
0
100
AcDbLine
 62
7
  6
CONTINUOUS
 10
3.8004658385
 20
5.1568165761
 11
3.8004658385
 21
4.9567191381
  0
LINE
  5
228
100
AcDbEntity
  8
0
100
AcDbLine
 62
7
  6
CONTINUOUS
 10
3.8004658385
 20
4.3558165761
 11
3.8004658385
 21
4.1557191381
  0
LINE
  5
229
100
AcDbEntity
  8
0
100
AcDbLine
 62
7
  6
CONTINUOUS
 10
3.8004658385
 20
3.5548165761
 11
3.8004658385
 21
3.3547191381
  0
LINE
  5
22A
100
AcDbEntity
  8
0
100
AcDbLine
 62
7
  6
CONTINUOUS
 10
6.399292879
 20
3.5747678571
 11
6.2204171195
 21
3.5747678571
  0
LINE
  5
22B
100
AcDbEntity
  8
0
100
AcDbLine
 62
7
  6
CONTINUOUS
 10
5.9805145575
 20
3.5747678571
 11
5.0204171195
 21
3.5747678571
  0
LINE
  5
22C
100
AcDbEntity
  8
0
100
AcDbLine
 62
7
  6
CONTINUOUS
 10
4.7805145575
 20
3.5747678571
 11
3.8204171195
 21
3.5747678571
  0
LINE
  5
22D
100
AcDbEntity
  8
0
100
AcDbLine
 62
7
  6
CONTINUOUS
 10
3.5805145575
 20
3.5747678571
 11
3.401638798
 21
3.5747678571
  0
LINE
  5
22E
100
AcDbEntity
  8
0
100
AcDbLine
 62
7
  6
CONTINUOUS
 10
3.2801177243
 20
3.7247678571
 11
4.1873145575
 21
3.7247678571
  0
LINE
  5
22F
100
AcDbEntity
  8
0
100
AcDbLine
 62
7
  6
CONTINUOUS
 10
4.4272171195
 20
3.7247678571
 11
5.3741145575
 21
3.7247678571
  0
LINE
  5
230
100
AcDbEntity
  8
0
100
AcDbLine
 62
7
  6
CONTINUOUS
 10
5.6140171195
 20
3.7247678571
 11
6.5208139527
 21
3.7247678571
  0
LINE
  5
231
100
AcDbEntity
  8
0
100
AcDbLine
 62
7
  6
CONTINUOUS
 10
4.2072658385
 20
2.9503838536
 11
4.2072658385
 21
3.1438165761
  0
LINE
  5
232
100
AcDbEntity
  8
0
100
AcDbLine
 62
7
  6
CONTINUOUS
 10
4.2072658385
 20
3.7447191381
 11
4.2072658385
 21
3.9448165761
  0
LINE
  5
233
100
AcDbEntity
  8
0
100
AcDbLine
 62
7
  6
CONTINUOUS
 10
4.2072658385
 20
4.5457191381
 11
4.2072658385
 21
4.7458165761
  0
LINE
  5
234
100
AcDbEntity
  8
0
100
AcDbLine
 62
7
  6
CONTINUOUS
 10
4.2072658385
 20
5.3467191381
 11
4.2072658385
 21
5.5468165761
  0
LINE
  5
235
100
AcDbEntity
  8
0
100
AcDbLine
 62
7
  6
CONTINUOUS
 10
4.2072658385
 20
6.1477191381
 11
4.2072658385
 21
6.3478165761
  0
LINE
  5
236
100
AcDbEntity
  8
0
100
AcDbLine
 62
7
  6
CONTINUOUS
 10
6.5609145575
 20
3.9647678571
 11
5.6140171195
 21
3.9647678571
  0
LINE
  5
237
100
AcDbEntity
  8
0
100
AcDbLine
 62
7
  6
CONTINUOUS
 10
5.3741145575
 20
3.9647678571
 11
4.4272171195
 21
3.9647678571
  0
LINE
  5
238
100
AcDbEntity
  8
0
100
AcDbLine
 62
7
  6
CONTINUOUS
 10
4.1873145575
 20
3.9647678571
 11
3.2404171195
 21
3.9647678571
  0
LINE
  5
239
100
AcDbEntity
  8
0
100
AcDbLine
 62
7
  6
CONTINUOUS
 10
4.4072658385
 20
6.3478165761
 11
4.4072658385
 21
6.1477191381
  0
LINE
  5
23A
100
AcDbEntity
  8
0
100
AcDbLine
 62
7
  6
CONTINUOUS
 10
4.4072658385
 20
5.5468165761
 11
4.4072658385
 21
5.3467191381
  0
LINE
  5
23B
100
AcDbEntity
  8
0
100
AcDbLine
 62
7
  6
CONTINUOUS
 10
4.4072658385
 20
4.7458165761
 11
4.4072658385
 21
4.5457191381
  0
LINE
  5
23C
100
AcDbEntity
  8
0
100
AcDbLine
 62
7
  6
CONTINUOUS
 10
4.4072658385
 20
3.9448165761
 11
4.4072658385
 21
3.7447191381
  0
LINE
  5
23D
100
AcDbEntity
  8
0
100
AcDbLine
 62
7
  6
CONTINUOUS
 10
4.4072658385
 20
3.1438165761
 11
4.4072658385
 21
2.9437191381
  0
LINE
  5
23E
100
AcDbEntity
  8
0
100
AcDbLine
 62
7
  6
CONTINUOUS
 10
3.2404171195
 20
4.1357678571
 11
3.5805145575
 21
4.1357678571
  0
LINE
  5
23F
100
AcDbEntity
  8
0
100
AcDbLine
 62
7
  6
CONTINUOUS
 10
3.8204171195
 20
4.1357678571
 11
4.7805145575
 21
4.1357678571
  0
LINE
  5
240
100
AcDbEntity
  8
0
100
AcDbLine
 62
7
  6
CONTINUOUS
 10
5.0204171195
 20
4.1357678571
 11
5.9805145575
 21
4.1357678571
  0
LINE
  5
241
100
AcDbEntity
  8
0
100
AcDbLine
 62
7
  6
CONTINUOUS
 10
6.2204171195
 20
4.1357678571
 11
6.5605145575
 21
4.1357678571
  0
LINE
  5
242
100
AcDbEntity
  8
0
100
AcDbLine
 62
7
  6
CONTINUOUS
 10
6.5605145575
 20
4.3757678571
 11
6.2204171195
 21
4.3757678571
  0
LINE
  5
243
100
AcDbEntity
  8
0
100
AcDbLine
 62
7
  6
CONTINUOUS
 10
5.9805145575
 20
4.3757678571
 11
5.0204171195
 21
4.3757678571
  0
LINE
  5
244
100
AcDbEntity
  8
0
100
AcDbLine
 62
7
  6
CONTINUOUS
 10
4.7805145575
 20
4.3757678571
 11
3.8204171195
 21
4.3757678571
  0
LINE
  5
245
100
AcDbEntity
  8
0
100
AcDbLine
 62
7
  6
CONTINUOUS
 10
3.5805145575
 20
4.3757678571
 11
3.2404171195
 21
4.3757678571
  0
LINE
  5
246
100
AcDbEntity
  8
0
100
AcDbLine
 62
7
  6
CONTINUOUS
 10
4.8004658385
 20
3.3547191381
 11
4.8004658385
 21
3.5548165761
  0
LINE
  5
247
100
AcDbEntity
  8
0
100
AcDbLine
 62
7
  6
CONTINUOUS
 10
4.8004658385
 20
4.1557191381
 11
4.8004658385
 21
4.3558165761
  0
LINE
  5
248
100
AcDbEntity
  8
0
100
AcDbLine
 62
7
  6
CONTINUOUS
 10
4.8004658385
 20
4.9567191381
 11
4.8004658385
 21
5.1568165761
  0
LINE
  5
249
100
AcDbEntity
  8
0
100
AcDbLine
 62
7
  6
CONTINUOUS
 10
4.8004658385
 20
5.7577191381
 11
4.8004658385
 21
5.9578165761
  0
LINE
  5
24A
100
AcDbEntity
  8
0
100
AcDbLine
 62
7
  6
CONTINUOUS
 10
3.2404171195
 20
4.5257678571
 11
4.1873145575
 21
4.5257678571
  0
LINE
  5
24B
100
AcDbEntity
  8
0
100
AcDbLine
 62
7
  6
CONTINUOUS
 10
4.4272171195
 20
4.5257678571
 11
5.3741145575
 21
4.5257678571
  0
LINE
  5
24C
100
AcDbEntity
  8
0
100
AcDbLine
 62
7
  6
CONTINUOUS
 10
5.6140171195
 20
4.5257678571
 11
6.5609145575
 21
4.5257678571
  0
LINE
  5
24D
100
AcDbEntity
  8
0
100
AcDbLine
 62
7
  6
CONTINUOUS
 10
5.0004658385
 20
5.9578165761
 11
5.0004658385
 21
5.7577191381
  0
LINE
  5
24E
100
AcDbEntity
  8
0
100
AcDbLine
 62
7
  6
CONTINUOUS
 10
5.0004658385
 20
5.1568165761
 11
5.0004658385
 21
4.9567191381
  0
LINE
  5
24F
100
AcDbEntity
  8
0
100
AcDbLine
 62
7
  6
CONTINUOUS
 10
5.0004658385
 20
4.3558165761
 11
5.0004658385
 21
4.1557191381
  0
LINE
  5
250
100
AcDbEntity
  8
0
100
AcDbLine
 62
7
  6
CONTINUOUS
 10
5.0004658385
 20
3.5548165761
 11
5.0004658385
 21
3.3547191381
  0
LINE
  5
251
100
AcDbEntity
  8
0
100
AcDbLine
 62
7
  6
CONTINUOUS
 10
6.5609145575
 20
4.7657678571
 11
5.6140171195
 21
4.7657678571
  0
LINE
  5
252
100
AcDbEntity
  8
0
100
AcDbLine
 62
7
  6
CONTINUOUS
 10
5.3741145575
 20
4.7657678571
 11
4.4272171195
 21
4.7657678571
  0
LINE
  5
253
100
AcDbEntity
  8
0
100
AcDbLine
 62
7
  6
CONTINUOUS
 10
4.1873145575
 20
4.7657678571
 11
3.2404171195
 21
4.7657678571
  0
LINE
  5
254
100
AcDbEntity
  8
0
100
AcDbLine
 62
7
  6
CONTINUOUS
 10
3.2404171195
 20
4.9367678571
 11
3.5805145575
 21
4.9367678571
  0
LINE
  5
255
100
AcDbEntity
  8
0
100
AcDbLine
 62
7
  6
CONTINUOUS
 10
3.8204171195
 20
4.9367678571
 11
4.7805145575
 21
4.9367678571
  0
LINE
  5
256
100
AcDbEntity
  8
0
100
AcDbLine
 62
7
  6
CONTINUOUS
 10
5.0204171195
 20
4.9367678571
 11
5.9805145575
 21
4.9367678571
  0
LINE
  5
257
100
AcDbEntity
  8
0
100
AcDbLine
 62
7
  6
CONTINUOUS
 10
6.2204171195
 20
4.9367678571
 11
6.5605145575
 21
4.9367678571
  0
LINE
  5
258
100
AcDbEntity
  8
0
100
AcDbLine
 62
7
  6
CONTINUOUS
 10
5.3940658385
 20
2.9437191381
 11
5.3940658385
 21
3.1438165761
  0
LINE
  5
259
100
AcDbEntity
  8
0
100
AcDbLine
 62
7
  6
CONTINUOUS
 10
5.3940658385
 20
3.7447191381
 11
5.3940658385
 21
3.9448165761
  0
LINE
  5
25A
100
AcDbEntity
  8
0
100
AcDbLine
 62
7
  6
CONTINUOUS
 10
5.3940658385
 20
4.5457191381
 11
5.3940658385
 21
4.7458165761
  0
LINE
  5
25B
100
AcDbEntity
  8
0
100
AcDbLine
 62
7
  6
CONTINUOUS
 10
5.3940658385
 20
5.3467191381
 11
5.3940658385
 21
5.5468165761
  0
LINE
  5
25C
100
AcDbEntity
  8
0
100
AcDbLine
 62
7
  6
CONTINUOUS
 10
5.3940658385
 20
6.1477191381
 11
5.3940658385
 21
6.3478165761
  0
LINE
  5
25D
100
AcDbEntity
  8
0
100
AcDbLine
 62
7
  6
CONTINUOUS
 10
6.5605145575
 20
5.1767678571
 11
6.2204171195
 21
5.1767678571
  0
LINE
  5
25E
100
AcDbEntity
  8
0
100
AcDbLine
 62
7
  6
CONTINUOUS
 10
5.9805145575
 20
5.1767678571
 11
5.0204171195
 21
5.1767678571
  0
LINE
  5
25F
100
AcDbEntity
  8
0
100
AcDbLine
 62
7
  6
CONTINUOUS
 10
4.7805145575
 20
5.1767678571
 11
3.8204171195
 21
5.1767678571
  0
LINE
  5
260
100
AcDbEntity
  8
0
100
AcDbLine
 62
7
  6
CONTINUOUS
 10
3.5805145575
 20
5.1767678571
 11
3.2404171195
 21
5.1767678571
  0
LINE
  5
261
100
AcDbEntity
  8
0
100
AcDbLine
 62
7
  6
CONTINUOUS
 10
5.5940658385
 20
6.3478165761
 11
5.5940658385
 21
6.1477191381
  0
LINE
  5
262
100
AcDbEntity
  8
0
100
AcDbLine
 62
7
  6
CONTINUOUS
 10
5.5940658385
 20
5.5468165761
 11
5.5940658385
 21
5.3467191381
  0
LINE
  5
263
100
AcDbEntity
  8
0
100
AcDbLine
 62
7
  6
CONTINUOUS
 10
5.5940658385
 20
4.7458165761
 11
5.5940658385
 21
4.5457191381
  0
LINE
  5
264
100
AcDbEntity
  8
0
100
AcDbLine
 62
7
  6
CONTINUOUS
 10
5.5940658385
 20
3.9448165761
 11
5.5940658385
 21
3.7447191381
  0
LINE
  5
265
100
AcDbEntity
  8
0
100
AcDbLine
 62
7
  6
CONTINUOUS
 10
5.5940658385
 20
3.1438165761
 11
5.5940658385
 21
2.9505543191
  0
LINE
  5
266
100
AcDbEntity
  8
0
100
AcDbLine
 62
7
  6
CONTINUOUS
 10
3.2404171195
 20
5.3267678571
 11
4.1873145575
 21
5.3267678571
  0
LINE
  5
267
100
AcDbEntity
  8
0
100
AcDbLine
 62
7
  6
CONTINUOUS
 10
4.4272171195
 20
5.3267678571
 11
5.3741145575
 21
5.3267678571
  0
LINE
  5
268
100
AcDbEntity
  8
0
100
AcDbLine
 62
7
  6
CONTINUOUS
 10
5.6140171195
 20
5.3267678571
 11
6.5609145575
 21
5.3267678571
  0
LINE
  5
269
100
AcDbEntity
  8
0
100
AcDbLine
 62
7
  6
CONTINUOUS
 10
6.5230367617
 20
5.5667678571
 11
5.6140171195
 21
5.5667678571
  0
LINE
  5
26A
100
AcDbEntity
  8
0
100
AcDbLine
 62
7
  6
CONTINUOUS
 10
5.3741145575
 20
5.5667678571
 11
4.4272171195
 21
5.5667678571
  0
LINE
  5
26B
100
AcDbEntity
  8
0
100
AcDbLine
 62
7
  6
CONTINUOUS
 10
4.1873145575
 20
5.5667678571
 11
3.2778949153
 21
5.5667678571
  0
LINE
  5
26C
100
AcDbEntity
  8
0
100
AcDbLine
 62
7
  6
CONTINUOUS
 10
6.0004658385
 20
3.3547191381
 11
6.0004658385
 21
3.5548165761
  0
LINE
  5
26D
100
AcDbEntity
  8
0
100
AcDbLine
 62
7
  6
CONTINUOUS
 10
6.0004658385
 20
4.1557191381
 11
6.0004658385
 21
4.3558165761
  0
LINE
  5
26E
100
AcDbEntity
  8
0
100
AcDbLine
 62
7
  6
CONTINUOUS
 10
6.0004658385
 20
4.9567191381
 11
6.0004658385
 21
5.1568165761
  0
LINE
  5
26F
100
AcDbEntity
  8
0
100
AcDbLine
 62
7
  6
CONTINUOUS
 10
6.0004658385
 20
5.7577191381
 11
6.0004658385
 21
5.9578165761
  0
LINE
  5
270
100
AcDbEntity
  8
0
100
AcDbLine
 62
7
  6
CONTINUOUS
 10
3.4141841849
 20
5.7377678571
 11
3.5805145575
 21
5.7377678571
  0
LINE
  5
271
100
AcDbEntity
  8
0
100
AcDbLine
 62
7
  6
CONTINUOUS
 10
3.8204171195
 20
5.7377678571
 11
4.7805145575
 21
5.7377678571
  0
LINE
  5
272
100
AcDbEntity
  8
0
100
AcDbLine
 62
7
  6
CONTINUOUS
 10
5.0204171195
 20
5.7377678571
 11
5.9805145575
 21
5.7377678571
  0
LINE
  5
273
100
AcDbEntity
  8
0
100
AcDbLine
 62
7
  6
CONTINUOUS
 10
6.2204171195
 20
5.7377678571
 11
6.3867474921
 21
5.7377678571
  0
LINE
  5
274
100
AcDbEntity
  8
0
100
AcDbLine
 62
7
  6
CONTINUOUS
 10
6.2004658385
 20
5.951130284
 11
6.2004658385
 21
5.7577191381
  0
LINE
  5
275
100
AcDbEntity
  8
0
100
AcDbLine
 62
7
  6
CONTINUOUS
 10
6.2004658385
 20
5.1568165761
 11
6.2004658385
 21
4.9567191381
  0
LINE
  5
276
100
AcDbEntity
  8
0
100
AcDbLine
 62
7
  6
CONTINUOUS
 10
6.2004658385
 20
4.3558165761
 11
6.2004658385
 21
4.1557191381
  0
LINE
  5
277
100
AcDbEntity
  8
0
100
AcDbLine
 62
7
  6
CONTINUOUS
 10
6.2004658385
 20
3.5548165761
 11
6.2004658385
 21
3.3689717892
  0
LINE
  5
278
100
AcDbEntity
  8
0
100
AcDbLine
 62
7
  6
CONTINUOUS
 10
5.9805145575
 20
5.9777678571
 11
5.0204171195
 21
5.9777678571
  0
LINE
  5
279
100
AcDbEntity
  8
0
100
AcDbLine
 62
7
  6
CONTINUOUS
 10
4.7805145575
 20
5.9777678571
 11
3.8204171195
 21
5.9777678571
  0
LINE
  5
27A
100
AcDbEntity
  8
0
100
AcDbLine
 62
7
  6
CONTINUOUS
 10
3.8090579612
 20
6.1277678571
 11
4.1873145575
 21
6.1277678571
  0
LINE
  5
27B
100
AcDbEntity
  8
0
100
AcDbLine
 62
7
  6
CONTINUOUS
 10
4.4272171195
 20
6.1277678571
 11
5.3741145575
 21
6.1277678571
  0
LINE
  5
27C
100
AcDbEntity
  8
0
100
AcDbLine
 62
7
  6
CONTINUOUS
 10
5.6140171195
 20
6.1277678571
 11
5.9918737158
 21
6.1277678571
  0
LINE
  5
27D
100
AcDbEntity
  8
0
100
AcDbLine
 62
7
  6
CONTINUOUS
 10
6.5804658385
 20
4.1557191381
 11
6.5804658385
 21
4.3558165761
  0
LINE
  5
27E
100
AcDbEntity
  8
0
100
AcDbLine
 62
7
  6
CONTINUOUS
 10
6.5804658385
 20
4.9567191381
 11
6.5804658385
 21
5.1568165761
  0
LINE
  5
27F
100
AcDbEntity
  8
0
100
AcDbLine
 62
7
  6
CONTINUOUS
 10
6.5808658385
 20
3.8207641984
 11
6.5808658385
 21
3.9448165761
  0
LINE
  5
280
100
AcDbEntity
  8
0
100
AcDbLine
 62
7
  6
CONTINUOUS
 10
6.5808658385
 20
4.5457191381
 11
6.5808658385
 21
4.7458165761
  0
LINE
  5
281
100
AcDbEntity
  8
0
100
AcDbLine
 62
7
  6
CONTINUOUS
 10
6.5808658385
 20
5.3467191381
 11
6.5808658385
 21
5.4747715159
  0
LINE
  5
282
100
AcDbEntity
  8
0
100
AcDbLine
 62
7
  6
CONTINUOUS
 10
5.6426648368
 20
6.3677678571
 11
5.6140171195
 21
6.3677678571
  0
LINE
  5
283
100
AcDbEntity
  8
0
100
AcDbLine
 62
7
  6
CONTINUOUS
 10
5.3741145575
 20
6.3677678571
 11
4.4272171195
 21
6.3677678571
  0
LINE
  5
284
100
AcDbEntity
  8
0
100
AcDbLine
 62
7
  6
CONTINUOUS
 10
4.1873145575
 20
6.3677678571
 11
4.1582668402
 21
6.3677678571
  0
CIRCLE
  5
285
100
AcDbEntity
  8
0
100
AcDbCircle
 62
7
  6
CONTINUOUS
 10
4.9004658385
 20
4.6477678571
 40
2.02
  0
ARC
  5
286
100
AcDbEntity
  8
0
100
AcDbCircle
 62
7
  6
CONTINUOUS
 10
4.9004658385
 20
4.6477678571
 40
1.875
100
AcDbArc
 50
206.5105254281
 51
209.1282490545
  0
ARC
  5
287
100
AcDbEntity
  8
0
100
AcDbCircle
 62
7
  6
CONTINUOUS
 10
4.9004658385
 20
4.6477678571
 40
1.875
100
AcDbArc
 50
330.8717509455
 51
333.5171670441
  0
ARC
  5
288
100
AcDbEntity
  8
0
100
AcDbCircle
 62
7
  6
CONTINUOUS
 10
4.9004658385
 20
4.6477678571
 40
1.875
100
AcDbArc
 50
151.0130898672
 51
153.4894745697
  0
ARC
  5
289
100
AcDbEntity
  8
0
100
AcDbCircle
 62
7
  6
CONTINUOUS
 10
4.9004658385
 20
4.6477678571
 40
1.875
100
AcDbArc
 50
53.9644038263
 51
66.4075849474
  0
ARC
  5
28A
100
AcDbEntity
  8
0
100
AcDbCircle
 62
7
  6
CONTINUOUS
 10
4.9004658385
 20
4.6477678571
 40
1.875
100
AcDbArc
 50
113.5924150362
 51
126.0355961741
  0
ARC
  5
28B
100
AcDbEntity
  8
0
100
AcDbCircle
 62
7
  6
CONTINUOUS
 10
4.9004658385
 20
4.6477678571
 40
1.875
100
AcDbArc
 50
26.4828329535
 51
28.9869101328
  0
ARC
  5
28C
100
AcDbEntity
  8
0
100
AcDbCircle
 62
7
  6
CONTINUOUS
 10
4.9004658385
 20
4.6477678571
 40
1.875
100
AcDbArc
 50
36.7560409539
 51
44.6333989982
  0
ARC
  5
28D
100
AcDbEntity
  8
0
100
AcDbCircle
 62
7
  6
CONTINUOUS
 10
4.9004658385
 20
4.6477678571
 40
1.875
100
AcDbArc
 50
135.3666010018
 51
143.2439590461
  0
ARC
  5
28E
100
AcDbEntity
  8
0
100
AcDbCircle
 62
7
  6
CONTINUOUS
 10
4.9004658385
 20
4.6477678571
 40
1.875
100
AcDbArc
 50
316.1294078099
 51
323.8965749542
  0
ARC
  5
28F
100
AcDbEntity
  8
0
100
AcDbCircle
 62
7
  6
CONTINUOUS
 10
4.9004658385
 20
4.6477678571
 40
1.875
100
AcDbArc
 50
216.1034250458
 51
223.8705921901
  0
ARC
  5
290
100
AcDbEntity
  8
0
100
AcDbCircle
 62
7
  6
CONTINUOUS
 10
4.9004658385
 20
4.6477678571
 40
1.875
100
AcDbArc
 50
234.1749503747
 51
246.848236369
  0
ARC
  5
291
100
AcDbEntity
  8
0
100
AcDbCircle
 62
7
  6
CONTINUOUS
 10
4.9004658385
 20
4.6477678571
 40
1.875
100
AcDbArc
 50
293.151763631
 51
305.8250496257
  0
ARC
  5
292
100
AcDbEntity
  8
0
100
AcDbCircle
 62
7
  6
CONTINUOUS
 10
5.6239965464
 20
2.9505538352
 40
0.0299295957
100
AcDbArc
 50
179.9990737045
 51
243.5012455293
  0
ARC
  5
293
100
AcDbEntity
  8
0
100
AcDbCircle
 62
7
  6
CONTINUOUS
 10
4.1773358049
 20
2.9503831404
 40
0.0299289579
100
AcDbArc
 50
297.2194584659
 51
0.001365372
  0
ARC
  5
294
100
AcDbEntity
  8
0
100
AcDbCircle
 62
7
  6
CONTINUOUS
 10
3.2801349003
 20
3.7448402663
 40
0.0200729044
100
AcDbArc
 50
209.0876213224
 51
269.950972034
  0
ARC
  5
295
100
AcDbEntity
  8
0
100
AcDbCircle
 62
7
  6
CONTINUOUS
 10
6.5207967757
 20
3.7448402634
 40
0.0200729024
100
AcDbArc
 50
270.0490308719
 51
330.9123871501
  0
ARC
  5
296
100
AcDbEntity
  8
0
100
AcDbCircle
 62
7
  6
CONTINUOUS
 10
6.5230195432
 20
5.5466958665
 40
0.0200724893
100
AcDbArc
 50
28.946134547
 51
89.9508495082
  0
ARC
  5
297
100
AcDbEntity
  8
0
100
AcDbCircle
 62
7
  6
CONTINUOUS
 10
3.2779121307
 20
5.5466958646
 40
0.0200724893
100
AcDbArc
 50
90.0491417217
 51
151.0538566641
  0
SPLINE
  5
298
100
AcDbEntity
  8
0
100
AcDbSpline
 62
7
  6
CONTINUOUS
 70
0
 71
3
 72
12
 73
8
 74
0
 42
0.0000001
 43
0.0000001
 44
0.0000000001
 40
0.0
 40
0.0
 40
0.0
 40
0.0
 40
0.2501738503
 40
0.5001946348
 40
0.6250587895
 40
0.7499695918
 40
1.0
 40
1.0
 40
1.0
 40
1.0
 10
3.2204658385
 20
3.815166512
 30
0.0
 10
3.2205029254
 20
3.8154998755
 30
0.0
 10
3.220570705
 20
3.8161671686
 30
0.0
 10
3.2206132003
 20
3.8170048742
 30
0.0
 10
3.2206046598
 20
3.8176751743
 30
0.0
 10
3.2205645841
 20
3.8183442344
 30
0.0
 10
3.2205184038
 20
3.8188448673
 30
0.0
 10
3.2204958712
 20
3.819179337
 30
0.0
  0
LINE
  5
299
100
AcDbEntity
  8
0
100
AcDbLine
 62
7
  6
CONTINUOUS
 10
3.2204958712
 20
3.819179337
 11
3.2204658385
 21
3.8199615691
  0
SPLINE
  5
29A
100
AcDbEntity
  8
0
100
AcDbSpline
 62
7
  6
CONTINUOUS
 70
0
 71
3
 72
9
 73
5
 74
0
 42
0.0000001
 43
0.0000001
 44
0.0000000001
 40
0.0
 40
0.0
 40
0.0
 40
0.0
 40
0.4999855596
 40
1.0
 40
1.0
 40
1.0
 40
1.0
 10
3.2226176289
 20
3.8108387171
 30
0.0
 10
3.222257498
 20
3.8115606958
 30
0.0
 10
3.2217496238
 20
3.8131032313
 30
0.0
 10
3.2209021697
 20
3.8144878089
 30
0.0
 10
3.2204658385
 20
3.815166512
 30
0.0
  0
SPLINE
  5
29B
100
AcDbEntity
  8
0
100
AcDbSpline
 62
7
  6
CONTINUOUS
 70
0
 71
3
 72
9
 73
5
 74
0
 42
0.0000001
 43
0.0000001
 44
0.0000000001
 40
0.0
 40
0.0
 40
0.0
 40
0.0
 40
0.5000143737
 40
1.0
 40
1.0
 40
1.0
 40
1.0
 10
6.5808658385
 20
3.8159741087
 30
0.0
 10
6.5804303596
 20
3.8152958546
 30
0.0
 10
6.5795845977
 20
3.8139122424
 30
0.0
 10
6.5790777689
 20
3.8123711629
 30
0.0
 10
6.5787183608
 20
3.8116497605
 30
0.0
  0
SPLINE
  5
29C
100
AcDbEntity
  8
0
100
AcDbSpline
 62
7
  6
CONTINUOUS
 70
0
 71
3
 72
9
 73
5
 74
0
 42
0.0000001
 43
0.0000001
 44
0.0000000001
 40
0.0
 40
0.0
 40
0.0
 40
0.0
 40
0.4999810197
 40
1.0
 40
1.0
 40
1.0
 40
1.0
 10
6.5808658385
 20
3.8207641984
 30
0.0
 10
6.5808658385
 20
3.8199645543
 30
0.0
 10
6.5806337947
 20
3.8183716312
 30
0.0
 10
6.5807775021
 20
3.8167689196
 30
0.0
 10
6.5808658385
 20
3.8159741087
 30
0.0
  0
SPLINE
  5
29D
100
AcDbEntity
  8
0
100
AcDbSpline
 62
7
  6
CONTINUOUS
 70
0
 71
3
 72
9
 73
5
 74
0
 42
0.0000001
 43
0.0000001
 44
0.0000000001
 40
0.0
 40
0.0
 40
0.0
 40
0.0
 40
0.5000144392
 40
1.0
 40
1.0
 40
1.0
 40
1.0
 10
3.2204658385
 20
5.4803692023
 30
0.0
 10
3.2209021699
 20
5.4810479053
 30
0.0
 10
3.2217496238
 20
5.4824324831
 30
0.0
 10
3.222257498
 20
5.4839750185
 30
0.0
 10
3.2226176289
 20
5.4846969973
 30
0.0
  0
SPLINE
  5
29E
100
AcDbEntity
  8
0
100
AcDbSpline
 62
7
  6
CONTINUOUS
 70
0
 71
3
 72
9
 73
5
 74
0
 42
0.0000001
 43
0.0000001
 44
0.0000000001
 40
0.0
 40
0.0
 40
0.0
 40
0.0
 40
0.4999809438
 40
1.0
 40
1.0
 40
1.0
 40
1.0
 10
3.2204658385
 20
5.4755741452
 30
0.0
 10
3.2204658385
 20
5.4763746212
 30
0.0
 10
3.2206983695
 20
5.4779691886
 30
0.0
 10
3.2205543523
 20
5.4795735738
 30
0.0
 10
3.2204658385
 20
5.4803692023
 30
0.0
  0
SPLINE
  5
29F
100
AcDbEntity
  8
0
100
AcDbSpline
 62
7
  6
CONTINUOUS
 70
0
 71
3
 72
9
 73
5
 74
0
 42
0.0000001
 43
0.0000001
 44
0.0000000001
 40
0.0
 40
0.0
 40
0.0
 40
0.0
 40
0.5000115718
 40
1.0
 40
1.0
 40
1.0
 40
1.0
 10
5.6469408883
 20
6.3677678571
 30
0.0
 10
5.6475693473
 20
6.367417967
 30
0.0
 10
5.6488456315
 20
6.3667397008
 30
0.0
 10
5.6502336696
 20
6.3663352014
 30
0.0
 10
5.6508928113
 20
6.3660473334
 30
0.0
  0
SPLINE
  5
2A0
100
AcDbEntity
  8
0
100
AcDbSpline
 62
7
  6
CONTINUOUS
 70
0
 71
3
 72
9
 73
5
 74
0
 42
0.0000001
 43
0.0000001
 44
0.0000000001
 40
0.0
 40
0.0
 40
0.0
 40
0.0
 40
0.4999907711
 40
1.0
 40
1.0
 40
1.0
 40
1.0
 10
5.6426648368
 20
6.3677678571
 30
0.0
 10
5.6433784473
 20
6.3677678572
 30
0.0
 10
5.6448010467
 20
6.3675830031
 30
0.0
 10
5.6462308566
 20
6.3676962158
 30
0.0
 10
5.6469408883
 20
6.3677678571
 30
0.0
  0
LINE
  5
2A1
100
AcDbEntity
  8
0
100
AcDbLine
 62
7
  6
CONTINUOUS
 10
4.1539907887
 20
6.3677678571
 11
4.1575628658
 21
6.3677436591
  0
LINE
  5
2A2
100
AcDbEntity
  8
0
100
AcDbLine
 62
7
  6
CONTINUOUS
 10
4.1575628658
 20
6.3677436591
 11
4.1582668402
 21
6.3677678571
  0
SPLINE
  5
2A3
100
AcDbEntity
  8
0
100
AcDbSpline
 62
7
  6
CONTINUOUS
 70
0
 71
3
 72
9
 73
5
 74
0
 42
0.0000001
 43
0.0000001
 44
0.0000000001
 40
0.0
 40
0.0
 40
0.0
 40
0.0
 40
0.4999884486
 40
1.0
 40
1.0
 40
1.0
 40
1.0
 10
4.1500388662
 20
6.3660473336
 30
0.0
 10
4.1506980079
 20
6.3663352016
 30
0.0
 10
4.1520860475
 20
6.3667396961
 30
0.0
 10
4.1533623329
 20
6.3674179615
 30
0.0
 10
4.1539907887
 20
6.3677678571
 30
0.0
  0
SPLINE
  5
2A4
100
AcDbEntity
  8
0
100
AcDbSpline
 62
7
  6
CONTINUOUS
 70
0
 71
3
 72
12
 73
8
 74
0
 42
0.0000001
 43
0.0000001
 44
0.0000000001
 40
0.0
 40
0.0
 40
0.0
 40
0.0
 40
0.2501734695
 40
0.5001942122
 40
0.625058667
 40
0.7499696673
 40
1.0
 40
1.0
 40
1.0
 40
1.0
 10
6.5808658385
 20
5.4795616056
 30
0.0
 10
6.5808288263
 20
5.4792285881
 30
0.0
 10
6.5807611858
 20
5.4785619885
 30
0.0
 10
6.5807187812
 20
5.4777251605
 30
0.0
 10
6.580727306
 20
5.4770555631
 30
0.0
 10
6.5807672985
 20
5.4763872018
 30
0.0
 10
6.5808133815
 20
5.4758870893
 30
0.0
 10
6.580835867
 20
5.4755529688
 30
0.0
  0
LINE
  5
2A5
100
AcDbEntity
  8
0
100
AcDbLine
 62
7
  6
CONTINUOUS
 10
6.580835867
 20
5.4755529688
 11
6.5808658385
 21
5.4747715159
  0
SPLINE
  5
2A6
100
AcDbEntity
  8
0
100
AcDbSpline
 62
7
  6
CONTINUOUS
 70
0
 71
3
 72
9
 73
5
 74
0
 42
0.0000001
 43
0.0000001
 44
0.0000000001
 40
0.0
 40
0.0
 40
0.0
 40
0.0
 40
0.4999856252
 40
1.0
 40
1.0
 40
1.0
 40
1.0
 10
6.5787183608
 20
5.4838859538
 30
0.0
 10
6.5790777689
 20
5.4831645513
 30
0.0
 10
6.5795845977
 20
5.4816234718
 30
0.0
 10
6.5804303598
 20
5.4802398597
 30
0.0
 10
6.5808658385
 20
5.4795616056
 30
0.0
  0
SPLINE
  5
2A7
100
AcDbEntity
  8
0
100
AcDbSpline
 62
7
  6
CONTINUOUS
 70
0
 71
3
 72
23
 73
19
 74
0
 42
0.0000001
 43
0.0000001
 44
0.0000000001
 40
0.0
 40
0.0
 40
0.0
 40
0.0
 40
0.0623901367
 40
0.1249806811
 40
0.1875352235
 40
0.2500260653
 40
0.3125036304
 40
0.3750027513
 40
0.4375011105
 40
0.4999984951
 40
0.5624969833
 40
0.6249962667
 40
0.6874967495
 40
0.749976029
 40
0.8124685564
 40
0.87502435
 40
0.9376122961
 40
1.0
 40
1.0
 40
1.0
 40
1.0
 10
3.6004658385
 20
3.3689717892
 30
0.0
 10
3.6004658385
 20
3.3674894627
 30
0.0
 10
3.6002417641
 20
3.3645156904
 30
0.0
 10
3.5992583151
 20
3.3601540705
 30
0.0
 10
3.5976342858
 20
3.3559841587
 30
0.0
 10
3.5954093743
 20
3.3521051034
 30
0.0
 10
3.5926327339
 20
3.3486011507
 30
0.0
 10
3.5893650756
 20
3.3455500853
 30
0.0
 10
3.585681651
 20
3.3430152271
 30
0.0
 10
3.5816599205
 20
3.3410613941
 30
0.0
 10
3.5773942063
 20
3.339721512
 30
0.0
 10
3.5729760202
 20
3.339034471
 30
0.0
 10
3.5685056287
 20
3.3390038697
 30
0.0
 10
3.5640798015
 20
3.3396345761
 30
0.0
 10
3.5597941202
 20
3.34091058
 30
0.0
 10
3.5557404051
 20
3.3428052796
 30
0.0
 10
3.5520136637
 20
3.3452748296
 30
0.0
 10
3.5497926337
 20
3.3472644581
 30
0.0
 10
3.5487653741
 20
3.3483330359
 30
0.0
  0
SPLINE
  5
2A8
100
AcDbEntity
  8
0
100
AcDbSpline
 62
7
  6
CONTINUOUS
 70
0
 71
3
 72
23
 73
19
 74
0
 42
0.0000001
 43
0.0000001
 44
0.0000000001
 40
0.0
 40
0.0
 40
0.0
 40
0.0
 40
0.0623846412
 40
0.1249627693
 40
0.1875040774
 40
0.2499853188
 40
0.312462175
 40
0.3749675666
 40
0.4374775883
 40
0.499994524
 40
0.5625114377
 40
0.625024685
 40
0.6875338933
 40
0.7500123198
 40
0.8124931179
 40
0.8750331627
 40
0.937613269
 40
1.0
 40
1.0
 40
1.0
 40
1.0
 10
6.2521663029
 20
3.3483330359
 30
0.0
 10
6.2511390937
 20
3.3472645106
 30
0.0
 10
6.2489183704
 20
3.3452750111
 30
0.0
 10
6.245192241
 20
3.342805692
 30
0.0
 10
6.2411393194
 20
3.3409113566
 30
0.0
 10
6.2368544467
 20
3.3396349518
 30
0.0
 10
6.232428821
 20
3.3390043771
 30
0.0
 10
6.2279581266
 20
3.3390340876
 30
0.0
 10
6.2235390678
 20
3.3397211048
 30
0.0
 10
6.2192722942
 20
3.3410614417
 30
0.0
 10
6.2152493011
 20
3.3430155531
 30
0.0
 10
6.2115650803
 20
3.3455512078
 30
0.0
 10
6.208297495
 20
3.3486032171
 30
0.0
 10
6.2055206947
 20
3.3521070707
 30
0.0
 10
6.203296625
 20
3.3559859739
 30
0.0
 10
6.2016729275
 20
3.3601550909
 30
0.0
 10
6.2006897661
 20
3.3645160989
 30
0.0
 10
6.2004658385
 20
3.3674895435
 30
0.0
 10
6.2004658385
 20
3.3689717892
 30
0.0
  0
SPLINE
  5
2A9
100
AcDbEntity
  8
0
100
AcDbSpline
 62
7
  6
CONTINUOUS
 70
0
 71
3
 72
19
 73
15
 74
0
 42
0.0000001
 43
0.0000001
 44
0.0000000001
 40
0.0
 40
0.0
 40
0.0
 40
0.0
 40
0.1247522187
 40
0.1874443474
 40
0.2500468571
 40
0.3126045972
 40
0.3751667542
 40
0.500004534
 40
0.6248424291
 40
0.6874054711
 40
0.7499643713
 40
0.8125649847
 40
0.8752524395
 40
1.0
 40
1.0
 40
1.0
 40
1.0
 10
3.5661846681
 20
5.9650828378
 30
0.0
 10
3.5675632382
 20
5.966479163
 30
0.0
 10
3.5699649579
 20
5.9682824352
 30
0.0
 10
3.5735538427
 20
5.969914585
 30
0.0
 10
3.5764057891
 20
5.9707297854
 30
0.0
 10
3.5793434358
 20
5.9711205389
 30
0.0
 10
3.5832863503
 20
5.971058034
 30
0.0
 10
3.5881367724
 20
5.9698946795
 30
0.0
 10
3.592429026
 20
5.9673526288
 30
0.0
 10
3.5952997301
 20
5.9646486362
 30
0.0
 10
3.5971305816
 20
5.9623180572
 30
0.0
 10
3.5986003141
 20
5.9597414665
 30
0.0
 10
3.6000203116
 20
5.9560633916
 30
0.0
 10
3.6004658385
 20
5.9530923983
 30
0.0
 10
3.6004658385
 20
5.951130284
 30
0.0
  0
SPLINE
  5
2AA
100
AcDbEntity
  8
0
100
AcDbSpline
 62
7
  6
CONTINUOUS
 70
0
 71
3
 72
19
 73
15
 74
0
 42
0.0000001
 43
0.0000001
 44
0.0000000001
 40
0.0
 40
0.0
 40
0.0
 40
0.0
 40
0.1247545474
 40
0.1874474175
 40
0.2500499197
 40
0.3126079424
 40
0.3751674405
 40
0.4999980566
 40
0.6248372799
 40
0.687401014
 40
0.7499592915
 40
0.8125611078
 40
0.8752509017
 40
1.0
 40
1.0
 40
1.0
 40
1.0
 10
6.2004658385
 20
5.951130284
 30
0.0
 10
6.2004658385
 20
5.9530925081
 30
0.0
 10
6.2009116019
 20
5.9560636572
 30
0.0
 10
6.2023315524
 20
5.9597419856
 30
0.0
 10
6.2038014457
 20
5.9623186161
 30
0.0
 10
6.2056323922
 20
5.9646490581
 30
0.0
 10
6.2085029286
 20
5.9673529582
 30
0.0
 10
6.2127951779
 20
5.9698947511
 30
0.0
 10
6.2176455283
 20
5.9710580089
 30
0.0
 10
6.2215885013
 20
5.9711205456
 30
0.0
 10
6.2245261642
 20
5.9707297183
 30
0.0
 10
6.2273780538
 20
5.9699144825
 30
0.0
 10
6.2309668757
 20
5.9682824231
 30
0.0
 10
6.2333684734
 20
5.966479128
 30
0.0
 10
6.234747009
 20
5.9650828378
 30
0.0
  0
SPLINE
  5
2AB
100
AcDbEntity
  8
0
100
AcDbSpline
 62
7
  6
CONTINUOUS
 70
0
 71
3
 72
23
 73
19
 74
0
 42
0.0000001
 43
0.0000001
 44
0.0000000001
 40
0.0
 40
0.0
 40
0.0
 40
0.0
 40
0.0622998536
 40
0.1249053974
 40
0.1875180274
 40
0.2500337016
 40
0.312502505
 40
0.374978154
 40
0.4374886472
 40
0.4999933032
 40
0.5624956396
 40
0.625003749
 40
0.6874789283
 40
0.7499499673
 40
0.8124723623
 40
0.8750947789
 40
0.9377019322
 40
1.0
 40
1.0
 40
1.0
 40
1.0
 10
3.8090579612
 20
6.1277678571
 30
0.0
 10
3.8080139177
 20
6.1277678571
 30
0.0
 10
3.8059173103
 20
6.1279357045
 30
0.0
 10
3.8028489991
 20
6.1286674219
 30
0.0
 10
3.7999272886
 20
6.129870251
 30
0.0
 10
3.7972370739
 20
6.1315222171
 30
0.0
 10
3.7948393161
 20
6.1335721586
 30
0.0
 10
3.7927979638
 20
6.1359774874
 30
0.0
 10
3.7911598168
 20
6.1386736967
 30
0.0
 10
3.7899625271
 20
6.1415935655
 30
0.0
 10
3.7892476837
 20
6.1446672162
 30
0.0
 10
3.7890192714
 20
6.147813569
 30
0.0
 10
3.7892851689
 20
6.1509568928
 30
0.0
 10
3.7900418569
 20
6.1540192202
 30
0.0
 10
3.7912630436
 20
6.1569304267
 30
0.0
 10
3.7929290502
 20
6.159615072
 30
0.0
 10
3.7949846352
 20
6.1620075185
 30
0.0
 10
3.7965820505
 20
6.163375548
 30
0.0
 10
3.7974262938
 20
6.1639897284
 30
0.0
  0
SPLINE
  5
2AC
100
AcDbEntity
  8
0
100
AcDbSpline
 62
7
  6
CONTINUOUS
 70
0
 71
3
 72
23
 73
19
 74
0
 42
0.0000001
 43
0.0000001
 44
0.0000000001
 40
0.0
 40
0.0
 40
0.0
 40
0.0
 40
0.0622977189
 40
0.1249038399
 40
0.1875247872
 40
0.2500459533
 40
0.3125160225
 40
0.3749906279
 40
0.4374979433
 40
0.4999989825
 40
0.5625020112
 40
0.6250107848
 40
0.6874865354
 40
0.7499586452
 40
0.8124783186
 40
0.8750935942
 40
0.9377000327
 40
1.0
 40
1.0
 40
1.0
 40
1.0
 10
6.0035053832
 20
6.1639897284
 30
0.0
 10
6.0043496219
 20
6.1633755514
 30
0.0
 10
6.0059470257
 20
6.162007546
 30
0.0
 10
6.0080025995
 20
6.1596151505
 30
0.0
 10
6.0096685582
 20
6.1569305494
 30
0.0
 10
6.0108897544
 20
6.1540194171
 30
0.0
 10
6.0116464772
 20
6.1509571433
 30
0.0
 10
6.011912371
 20
6.1478138606
 30
0.0
 10
6.0116840552
 20
6.1446675471
 30
0.0
 10
6.010969261
 20
6.1415939465
 30
0.0
 10
6.0097720849
 20
6.1386741236
 30
0.0
 10
6.0081341127
 20
6.1359778646
 30
0.0
 10
6.006092693
 20
6.1335725482
 30
0.0
 10
6.003694876
 20
6.1315224971
 30
0.0
 10
6.0010045772
 20
6.1298703433
 30
0.0
 10
5.9980827556
 20
6.1286674409
 30
0.0
 10
5.9950143865
 20
6.1279356996
 30
0.0
 10
5.9929177613
 20
6.1277678571
 30
0.0
 10
5.9918737158
 20
6.1277678571
 30
0.0
  0
SPLINE
  5
2AD
100
AcDbEntity
  8
0
100
AcDbSpline
 62
7
  6
CONTINUOUS
 70
0
 71
3
 72
21
 73
17
 74
0
 42
0.0000001
 43
0.0000001
 44
0.0000000001
 40
0.0
 40
0.0
 40
0.0
 40
0.0
 40
0.1245656532
 40
0.1872537867
 40
0.2498731079
 40
0.3124360494
 40
0.3749645844
 40
0.4374843101
 40
0.5000281283
 40
0.5625695309
 40
0.625075328
 40
0.6875762642
 40
0.7501141582
 40
0.8127257926
 40
0.8754201916
 40
1.0
 40
1.0
 40
1.0
 40
1.0
 10
3.4141841849
 20
5.7377678571
 30
0.0
 10
3.4123484365
 20
5.7377678571
 30
0.0
 10
3.4095706469
 20
5.7381615479
 30
0.0
 10
3.4060969335
 20
5.7394071465
 30
0.0
 10
3.403638984
 20
5.7407031242
 30
0.0
 10
3.401388173
 20
5.7423260516
 30
0.0
 10
3.3993820813
 20
5.7442416818
 30
0.0
 10
3.3976635547
 20
5.7464188157
 30
0.0
 10
3.3962635982
 20
5.748813039
 30
0.0
 10
3.3952024865
 20
5.7513752345
 30
0.0
 10
3.3945053913
 20
5.7540591067
 30
0.0
 10
3.394188184
 20
5.7568136295
 30
0.0
 10
3.3942498019
 20
5.7595868592
 30
0.0
 10
3.3946946628
 20
5.762329126
 30
0.0
 10
3.3957857677
 20
5.7658543823
 30
0.0
 10
3.3971345774
 20
5.7683139249
 30
0.0
 10
3.3982332307
 20
5.7697848766
 30
0.0
  0
SPLINE
  5
2AE
100
AcDbEntity
  8
0
100
AcDbSpline
 62
7
  6
CONTINUOUS
 70
0
 71
3
 72
21
 73
17
 74
0
 42
0.0000001
 43
0.0000001
 44
0.0000000001
 40
0.0
 40
0.0
 40
0.0
 40
0.0
 40
0.1245848669
 40
0.1872850206
 40
0.2499024455
 40
0.3124446838
 40
0.3749491812
 40
0.4374579936
 40
0.5000024577
 40
0.5625461053
 40
0.6250554515
 40
0.687562114
 40
0.7501037357
 40
0.8127167299
 40
0.8754153516
 40
1.0
 40
1.0
 40
1.0
 40
1.0
 10
6.4026984463
 20
5.7697848766
 30
0.0
 10
6.4037971428
 20
5.7683138671
 30
0.0
 10
6.4051458983
 20
5.7658541081
 30
0.0
 10
6.4062370523
 20
5.762328628
 30
0.0
 10
6.4066820372
 20
5.7595861429
 30
0.0
 10
6.4067435368
 20
5.7568127033
 30
0.0
 10
6.4064261425
 20
5.7540580451
 30
0.0
 10
6.4057288232
 20
5.751374078
 30
0.0
 10
6.4046672357
 20
5.7488119811
 30
0.0
 10
6.4032671215
 20
5.7464180144
 30
0.0
 10
6.4015492232
 20
5.7442410221
 30
0.0
 10
6.3995439477
 20
5.7423256737
 30
0.0
 10
6.3972937032
 20
5.740703168
 30
0.0
 10
6.3948356751
 20
5.7394078759
 30
0.0
 10
6.3913616533
 20
5.7381623197
 30
0.0
 10
6.3885835181
 20
5.7377678571
 30
0.0
 10
6.3867474921
 20
5.7377678571
 30
0.0
  0
SPLINE
  5
2AF
100
AcDbEntity
  8
0
100
AcDbSpline
 62
7
  6
CONTINUOUS
 70
0
 71
3
 72
21
 73
17
 74
0
 42
0.0000001
 43
0.0000001
 44
0.0000000001
 40
0.0
 40
0.0
 40
0.0
 40
0.0
 40
0.1245700584
 40
0.1872565727
 40
0.2498748166
 40
0.3124368461
 40
0.3749648442
 40
0.4374844001
 40
0.5000277666
 40
0.5625687195
 40
0.6250745149
 40
0.6875753523
 40
0.7501127521
 40
0.8127233978
 40
0.8754159948
 40
1.0
 40
1.0
 40
1.0
 40
1.0
 10
6.399292879
 20
3.5747678571
 30
0.0
 10
6.4011192526
 20
3.5747678571
 30
0.0
 10
6.4038826339
 20
3.5743782673
 30
0.0
 10
6.4073405716
 20
3.5731450752
 30
0.0
 10
6.4097889356
 20
3.5718619113
 30
0.0
 10
6.4120332465
 20
3.5702546023
 30
0.0
 10
6.4140363845
 20
3.5683567312
 30
0.0
 10
6.4157560916
 20
3.5661988833
 30
0.0
 10
6.4171616438
 20
3.5638246205
 30
0.0
 10
6.418232777
 20
3.5612821751
 30
0.0
 10
6.4189444546
 20
3.5586169946
 30
0.0
 10
6.4192807148
 20
3.5558791969
 30
0.0
 10
6.4192421703
 20
3.553119924
 30
0.0
 10
6.4188240918
 20
3.5503880495
 30
0.0
 10
6.4177726468
 20
3.5468706199
 30
0.0
 10
6.4164571298
 20
3.5444099183
 30
0.0
 10
6.4153808284
 20
3.542934126
 30
0.0
  0
SPLINE
  5
2B0
100
AcDbEntity
  8
0
100
AcDbSpline
 62
7
  6
CONTINUOUS
 70
0
 71
3
 72
23
 73
19
 74
0
 42
0.0000001
 43
0.0000001
 44
0.0000000001
 40
0.0
 40
0.0
 40
0.0
 40
0.0
 40
0.0622992727
 40
0.1249050007
 40
0.1875176697
 40
0.25003312
 40
0.3125016128
 40
0.3749771931
 40
0.4374878835
 40
0.4999926285
 40
0.5624950228
 40
0.6250032541
 40
0.6874784067
 40
0.7499494522
 40
0.8124720505
 40
0.8750949325
 40
0.9377024802
 40
1.0
 40
1.0
 40
1.0
 40
1.0
 10
5.9863551259
 20
3.1637678571
 30
0.0
 10
5.9874007073
 20
3.1637678571
 30
0.0
 10
5.9895004244
 20
3.163599524
 30
0.0
 10
5.9925730767
 20
3.1628657417
 30
0.0
 10
5.9954985076
 20
3.1616595437
 30
0.0
 10
5.9981914527
 20
3.1600030245
 30
0.0
 10
6.0005907189
 20
3.1579476071
 30
0.0
 10
6.0026320844
 20
3.1555361085
 30
0.0
 10
6.004268634
 20
3.1528334113
 30
0.0
 10
6.0054626228
 20
3.1499070852
 30
0.0
 10
6.0061723728
 20
3.1468274066
 30
0.0
 10
6.0063940857
 20
3.1436758462
 30
0.0
 10
6.0061200057
 20
3.1405284894
 30
0.0
 10
6.0053538848
 20
3.1374636472
 30
0.0
 10
6.0041223414
 20
3.1345516725
 30
0.0
 10
6.0024453578
 20
3.1318682808
 30
0.0
 10
6.0003786568
 20
3.1294791976
 30
0.0
 10
5.9987739834
 20
3.1281148336
 30
0.0
 10
5.9979262415
 20
3.1275028592
 30
0.0
  0
SPLINE
  5
2B1
100
AcDbEntity
  8
0
100
AcDbSpline
 62
7
  6
CONTINUOUS
 70
0
 71
3
 72
23
 73
19
 74
0
 42
0.0000001
 43
0.0000001
 44
0.0000000001
 40
0.0
 40
0.0
 40
0.0
 40
0.0
 40
0.0622971397
 40
0.1249035607
 40
0.1875248354
 40
0.2500460845
 40
0.3125160631
 40
0.3749905845
 40
0.4374979465
 40
0.4999989309
 40
0.5625019239
 40
0.6250107559
 40
0.6874864271
 40
0.7499584707
 40
0.8124782417
 40
0.8750938221
 40
0.9377005783
 40
1.0
 40
1.0
 40
1.0
 40
1.0
 10
3.8030054356
 20
3.1275028592
 30
0.0
 10
3.8021576988
 20
3.1281148299
 30
0.0
 10
3.8005530379
 20
3.1294791677
 30
0.0
 10
3.7984863494
 20
3.1318681951
 30
0.0
 10
3.7968094183
 20
3.1345515384
 30
0.0
 10
3.7955778649
 20
3.1374634317
 30
0.0
 10
3.7948117061
 20
3.1405282148
 30
0.0
 10
3.7945376299
 20
3.1436755263
 30
0.0
 10
3.7947592365
 20
3.1468270435
 30
0.0
 10
3.7954689331
 20
3.1499066677
 30
0.0
 10
3.7966627991
 20
3.1528329437
 30
0.0
 10
3.7982991574
 20
3.1555356954
 30
0.0
 10
3.8003405949
 20
3.1579471807
 30
0.0
 10
3.8027399231
 20
3.1600027178
 30
0.0
 10
3.805432959
 20
3.1616594414
 30
0.0
 10
3.8083585126
 20
3.1628657179
 30
0.0
 10
3.8114312294
 20
3.1635995282
 30
0.0
 10
3.8135309672
 20
3.1637678571
 30
0.0
 10
3.8145765512
 20
3.1637678571
 30
0.0
  0
SPLINE
  5
2B2
100
AcDbEntity
  8
0
100
AcDbSpline
 62
7
  6
CONTINUOUS
 70
0
 71
3
 72
21
 73
17
 74
0
 42
0.0000001
 43
0.0000001
 44
0.0000000001
 40
0.0
 40
0.0
 40
0.0
 40
0.0
 40
0.1245888848
 40
0.1872870753
 40
0.2499034175
 40
0.3124451597
 40
0.3749495915
 40
0.4374584416
 40
0.500002473
 40
0.5625457043
 40
0.6250550596
 40
0.687561545
 40
0.7501025996
 40
0.8127145787
 40
0.8754113267
 40
1.0
 40
1.0
 40
1.0
 40
1.0
 10
3.3855508486
 20
3.542934126
 30
0.0
 10
3.3844745065
 20
3.5444099742
 30
0.0
 10
3.3831590425
 20
3.546870883
 30
0.0
 10
3.3821075522
 20
3.5503885301
 30
0.0
 10
3.3816893569
 20
3.5531206199
 30
0.0
 10
3.3816509283
 20
3.5558800993
 30
0.0
 10
3.3819873704
 20
3.5586180322
 30
0.0
 10
3.3826992673
 20
3.561283308
 30
0.0
 10
3.3837708656
 20
3.5638256571
 30
0.0
 10
3.3851765721
 20
3.5661996694
 30
0.0
 10
3.3868956662
 20
3.5683573808
 30
0.0
 10
3.3888980071
 20
3.5702549765
 30
0.0
 10
3.3911417626
 20
3.5718618725
 30
0.0
 10
3.393590198
 20
3.5731443685
 30
0.0
 10
3.3970484353
 20
3.5743775187
 30
0.0
 10
3.3998121538
 20
3.5747678571
 30
0.0
 10
3.401638798
 20
3.5747678571
 30
0.0
  0
ELLIPSE
  5
2B3
100
AcDbEntity
  8
0
100
AcDbEllipse
 62
7
  6
CONTINUOUS
 10
5.9804170005
 20
4.9568166951
 30
0.0
 11
0.014211119
 21
-0.014211119
 31
0.0
 40
0.9951458158
 41
-0.782965171
 42
0.782965171
  0
ELLIPSE
  5
2B4
100
AcDbEntity
  8
0
100
AcDbEllipse
 62
7
  6
CONTINUOUS
 10
6.2205146765
 20
4.9568166951
 30
0.0
 11
0.014211119
 21
0.014211119
 31
0.0
 40
0.9951458158
 41
-3.9245578246
 42
-2.3586274826
  0
ELLIPSE
  5
2B5
100
AcDbEntity
  8
0
100
AcDbEllipse
 62
7
  6
CONTINUOUS
 10
6.2205146765
 20
5.1567190192
 30
0.0
 11
0.014211119
 21
-0.014211119
 31
0.0
 40
0.9951458158
 41
2.3586274826
 42
3.9245578246
  0
ELLIPSE
  5
2B6
100
AcDbEntity
  8
0
100
AcDbEllipse
 62
7
  6
CONTINUOUS
 10
6.5604170005
 20
4.9568166951
 30
0.0
 11
0.014211119
 21
-0.014211119
 31
0.0
 40
0.9951458158
 41
-0.782965171
 42
0.782965171
  0
ELLIPSE
  5
2B7
100
AcDbEntity
  8
0
100
AcDbEllipse
 62
7
  6
CONTINUOUS
 10
6.5604170005
 20
5.1567190192
 30
0.0
 11
0.014211119
 21
0.014211119
 31
0.0
 40
0.9951458158
 41
-0.782965171
 42
0.782965171
  0
ELLIPSE
  5
2B8
100
AcDbEntity
  8
0
100
AcDbEllipse
 62
7
  6
CONTINUOUS
 10
6.5608170005
 20
5.3468166951
 30
0.0
 11
0.014211119
 21
-0.014211119
 31
0.0
 40
0.9951458158
 41
-0.782965171
 42
0.782965171
  0
ELLIPSE
  5
2B9
100
AcDbEntity
  8
0
100
AcDbEllipse
 62
7
  6
CONTINUOUS
 10
5.6141146765
 20
5.5467190192
 30
0.0
 11
0.014211119
 21
-0.014211119
 31
0.0
 40
0.9951458158
 41
2.3586274826
 42
3.9245578246
  0
ELLIPSE
  5
2BA
100
AcDbEntity
  8
0
100
AcDbEllipse
 62
7
  6
CONTINUOUS
 10
5.3740170005
 20
5.5467190192
 30
0.0
 11
0.014211119
 21
0.014211119
 31
0.0
 40
0.9951458158
 41
-0.782965171
 42
0.782965171
  0
ELLIPSE
  5
2BB
100
AcDbEntity
  8
0
100
AcDbEllipse
 62
7
  6
CONTINUOUS
 10
5.6141146765
 20
5.3468166951
 30
0.0
 11
0.014211119
 21
0.014211119
 31
0.0
 40
0.9951458158
 41
-3.9245578246
 42
-2.3586274826
  0
ELLIPSE
  5
2BC
100
AcDbEntity
  8
0
100
AcDbEllipse
 62
7
  6
CONTINUOUS
 10
5.3740170005
 20
5.3468166951
 30
0.0
 11
0.014211119
 21
-0.014211119
 31
0.0
 40
0.9951458158
 41
-0.782965171
 42
0.782965171
  0
ELLIPSE
  5
2BD
100
AcDbEntity
  8
0
100
AcDbEllipse
 62
7
  6
CONTINUOUS
 10
4.4273146765
 20
5.5467190192
 30
0.0
 11
-0.014211119
 21
0.014211119
 31
0.0
 40
0.9951458158
 41
-0.782965171
 42
0.782965171
  0
ELLIPSE
  5
2BE
100
AcDbEntity
  8
0
100
AcDbEllipse
 62
7
  6
CONTINUOUS
 10
4.4273146765
 20
5.3468166951
 30
0.0
 11
0.014211119
 21
0.014211119
 31
0.0
 40
0.9951458158
 41
-3.9245578246
 42
-2.3586274826
  0
ELLIPSE
  5
2BF
100
AcDbEntity
  8
0
100
AcDbEllipse
 62
7
  6
CONTINUOUS
 10
5.9804170005
 20
5.1567190192
 30
0.0
 11
0.014211119
 21
0.014211119
 31
0.0
 40
0.9951458158
 41
-0.782965171
 42
0.782965171
  0
ELLIPSE
  5
2C0
100
AcDbEntity
  8
0
100
AcDbEllipse
 62
7
  6
CONTINUOUS
 10
4.1872170005
 20
4.5458166951
 30
0.0
 11
0.014211119
 21
-0.014211119
 31
0.0
 40
0.9951458158
 41
-0.782965171
 42
0.782965171
  0
ELLIPSE
  5
2C1
100
AcDbEntity
  8
0
100
AcDbEllipse
 62
7
  6
CONTINUOUS
 10
4.1872170005
 20
4.7457190192
 30
0.0
 11
0.014211119
 21
0.014211119
 31
0.0
 40
0.9951458158
 41
-0.782965171
 42
0.782965171
  0
ELLIPSE
  5
2C2
100
AcDbEntity
  8
0
100
AcDbEllipse
 62
7
  6
CONTINUOUS
 10
3.2405146765
 20
4.5458166951
 30
0.0
 11
0.014211119
 21
0.014211119
 31
0.0
 40
0.9951458158
 41
-3.9245578246
 42
-2.3586274826
  0
ELLIPSE
  5
2C3
100
AcDbEntity
  8
0
100
AcDbEllipse
 62
7
  6
CONTINUOUS
 10
3.2405146765
 20
4.7457190192
 30
0.0
 11
-0.014211119
 21
0.014211119
 31
0.0
 40
0.9951458158
 41
-0.782965171
 42
0.782965171
  0
ELLIPSE
  5
2C4
100
AcDbEntity
  8
0
100
AcDbEllipse
 62
7
  6
CONTINUOUS
 10
3.2405146765
 20
4.9568166951
 30
0.0
 11
0.014211119
 21
0.014211119
 31
0.0
 40
0.9951458158
 41
-3.9245578246
 42
-2.3586274826
  0
ELLIPSE
  5
2C5
100
AcDbEntity
  8
0
100
AcDbEllipse
 62
7
  6
CONTINUOUS
 10
3.2405146765
 20
5.1567190192
 30
0.0
 11
-0.014211119
 21
0.014211119
 31
0.0
 40
0.9951458158
 41
-0.782965171
 42
0.782965171
  0
ELLIPSE
  5
2C6
100
AcDbEntity
  8
0
100
AcDbEllipse
 62
7
  6
CONTINUOUS
 10
3.5804170005
 20
5.1567190192
 30
0.0
 11
0.014211119
 21
0.014211119
 31
0.0
 40
0.9951458158
 41
-0.782965171
 42
0.782965171
  0
ELLIPSE
  5
2C7
100
AcDbEntity
  8
0
100
AcDbEllipse
 62
7
  6
CONTINUOUS
 10
3.5804170005
 20
4.9568166951
 30
0.0
 11
0.014211119
 21
-0.014211119
 31
0.0
 40
0.9951458158
 41
-0.782965171
 42
0.782965171
  0
ELLIPSE
  5
2C8
100
AcDbEntity
  8
0
100
AcDbEllipse
 62
7
  6
CONTINUOUS
 10
3.8205146765
 20
4.9568166951
 30
0.0
 11
0.014211119
 21
0.014211119
 31
0.0
 40
0.9951458158
 41
2.3586274826
 42
3.9245578246
  0
ELLIPSE
  5
2C9
100
AcDbEntity
  8
0
100
AcDbEllipse
 62
7
  6
CONTINUOUS
 10
3.8205146765
 20
5.1567190192
 30
0.0
 11
-0.014211119
 21
0.014211119
 31
0.0
 40
0.9951458158
 41
-0.782965171
 42
0.782965171
  0
ELLIPSE
  5
2CA
100
AcDbEntity
  8
0
100
AcDbEllipse
 62
7
  6
CONTINUOUS
 10
4.7804170005
 20
4.9568166951
 30
0.0
 11
0.014211119
 21
-0.014211119
 31
0.0
 40
0.9951458158
 41
-0.782965171
 42
0.782965171
  0
ELLIPSE
  5
2CB
100
AcDbEntity
  8
0
100
AcDbEllipse
 62
7
  6
CONTINUOUS
 10
4.7804170005
 20
5.1567190192
 30
0.0
 11
0.014211119
 21
0.014211119
 31
0.0
 40
0.9951458158
 41
-0.782965171
 42
0.782965171
  0
ELLIPSE
  5
2CC
100
AcDbEntity
  8
0
100
AcDbEllipse
 62
7
  6
CONTINUOUS
 10
5.0205146765
 20
5.1567190192
 30
0.0
 11
-0.014211119
 21
0.014211119
 31
0.0
 40
0.9951458158
 41
-0.782965171
 42
0.782965171
  0
ELLIPSE
  5
2CD
100
AcDbEntity
  8
0
100
AcDbEllipse
 62
7
  6
CONTINUOUS
 10
5.0205146765
 20
4.9568166951
 30
0.0
 11
0.014211119
 21
0.014211119
 31
0.0
 40
0.9951458158
 41
2.3586274826
 42
3.9245578246
  0
ELLIPSE
  5
2CE
100
AcDbEntity
  8
0
100
AcDbEllipse
 62
7
  6
CONTINUOUS
 10
3.8205146765
 20
5.7578166951
 30
0.0
 11
0.014211119
 21
0.014211119
 31
0.0
 40
0.9951458158
 41
-3.9245578246
 42
-2.3586274826
  0
ELLIPSE
  5
2CF
100
AcDbEntity
  8
0
100
AcDbEllipse
 62
7
  6
CONTINUOUS
 10
3.8205146765
 20
5.9577190192
 30
0.0
 11
-0.014211119
 21
0.014211119
 31
0.0
 40
0.9951458158
 41
-0.782965171
 42
0.782965171
  0
ELLIPSE
  5
2D0
100
AcDbEntity
  8
0
100
AcDbEllipse
 62
7
  6
CONTINUOUS
 10
4.1872170005
 20
6.3477190192
 30
0.0
 11
0.014211119
 21
0.014211119
 31
0.0
 40
0.9951458158
 41
-0.782965171
 42
0.782965171
  0
ELLIPSE
  5
2D1
100
AcDbEntity
  8
0
100
AcDbEllipse
 62
7
  6
CONTINUOUS
 10
4.1872170005
 20
6.1478166951
 30
0.0
 11
-0.014211119
 21
0.014211119
 31
0.0
 40
0.9951458158
 41
-3.9245578246
 42
-2.3586274826
  0
ELLIPSE
  5
2D2
100
AcDbEntity
  8
0
100
AcDbEllipse
 62
7
  6
CONTINUOUS
 10
4.4273146765
 20
6.1478166951
 30
0.0
 11
0.014211119
 21
0.014211119
 31
0.0
 40
0.9951458158
 41
-3.9245578246
 42
-2.3586274826
  0
ELLIPSE
  5
2D3
100
AcDbEntity
  8
0
100
AcDbEllipse
 62
7
  6
CONTINUOUS
 10
4.4273146765
 20
6.3477190192
 30
0.0
 11
-0.014211119
 21
0.014211119
 31
0.0
 40
0.9951458158
 41
-0.782965171
 42
0.782965171
  0
ELLIPSE
  5
2D4
100
AcDbEntity
  8
0
100
AcDbEllipse
 62
7
  6
CONTINUOUS
 10
5.3740170005
 20
6.3477190192
 30
0.0
 11
0.014211119
 21
0.014211119
 31
0.0
 40
0.9951458158
 41
-0.782965171
 42
0.782965171
  0
ELLIPSE
  5
2D5
100
AcDbEntity
  8
0
100
AcDbEllipse
 62
7
  6
CONTINUOUS
 10
5.3740170005
 20
6.1478166951
 30
0.0
 11
0.014211119
 21
-0.014211119
 31
0.0
 40
0.9951458158
 41
-0.782965171
 42
0.782965171
  0
ELLIPSE
  5
2D6
100
AcDbEntity
  8
0
100
AcDbEllipse
 62
7
  6
CONTINUOUS
 10
5.6141146765
 20
6.1478166951
 30
0.0
 11
0.014211119
 21
0.014211119
 31
0.0
 40
0.9951458158
 41
-3.9245578246
 42
-2.3586274826
  0
ELLIPSE
  5
2D7
100
AcDbEntity
  8
0
100
AcDbEllipse
 62
7
  6
CONTINUOUS
 10
5.6141146765
 20
6.3477190192
 30
0.0
 11
0.014211119
 21
-0.014211119
 31
0.0
 40
0.9951458158
 41
2.3586274826
 42
3.9245578246
  0
ELLIPSE
  5
2D8
100
AcDbEntity
  8
0
100
AcDbEllipse
 62
7
  6
CONTINUOUS
 10
4.7804170005
 20
5.7578166951
 30
0.0
 11
-0.014211119
 21
0.014211119
 31
0.0
 40
0.9951458158
 41
-3.9245578246
 42
-2.3586274826
  0
ELLIPSE
  5
2D9
100
AcDbEntity
  8
0
100
AcDbEllipse
 62
7
  6
CONTINUOUS
 10
4.1872170005
 20
5.5467190192
 30
0.0
 11
0.014211119
 21
0.014211119
 31
0.0
 40
0.9951458158
 41
-0.782965171
 42
0.782965171
  0
ELLIPSE
  5
2DA
100
AcDbEntity
  8
0
100
AcDbEllipse
 62
7
  6
CONTINUOUS
 10
4.1872170005
 20
5.3468166951
 30
0.0
 11
-0.014211119
 21
0.014211119
 31
0.0
 40
0.9951458158
 41
-3.9245578246
 42
-2.3586274826
  0
ELLIPSE
  5
2DB
100
AcDbEntity
  8
0
100
AcDbEllipse
 62
7
  6
CONTINUOUS
 10
3.2405146765
 20
5.3468166951
 30
0.0
 11
0.014211119
 21
0.014211119
 31
0.0
 40
0.9951458158
 41
-3.9245578246
 42
-2.3586274826
  0
ELLIPSE
  5
2DC
100
AcDbEntity
  8
0
100
AcDbEllipse
 62
7
  6
CONTINUOUS
 10
3.5804170005
 20
5.7578166951
 30
0.0
 11
-0.014211119
 21
0.014211119
 31
0.0
 40
0.9951458158
 41
-3.9245578246
 42
-2.3586274826
  0
ELLIPSE
  5
2DD
100
AcDbEntity
  8
0
100
AcDbEllipse
 62
7
  6
CONTINUOUS
 10
6.2205146765
 20
5.7578166951
 30
0.0
 11
0.014211119
 21
0.014211119
 31
0.0
 40
0.9951458158
 41
-3.9245578246
 42
-2.3586274826
  0
ELLIPSE
  5
2DE
100
AcDbEntity
  8
0
100
AcDbEllipse
 62
7
  6
CONTINUOUS
 10
5.9804170005
 20
5.9577190192
 30
0.0
 11
0.014211119
 21
0.014211119
 31
0.0
 40
0.9951458158
 41
-0.782965171
 42
0.782965171
  0
ELLIPSE
  5
2DF
100
AcDbEntity
  8
0
100
AcDbEllipse
 62
7
  6
CONTINUOUS
 10
5.9804170005
 20
5.7578166951
 30
0.0
 11
0.014211119
 21
-0.014211119
 31
0.0
 40
0.9951458158
 41
-0.782965171
 42
0.782965171
  0
ELLIPSE
  5
2E0
100
AcDbEntity
  8
0
100
AcDbEllipse
 62
7
  6
CONTINUOUS
 10
5.0205146765
 20
5.9577190192
 30
0.0
 11
-0.014211119
 21
0.014211119
 31
0.0
 40
0.9951458158
 41
-0.782965171
 42
0.782965171
  0
ELLIPSE
  5
2E1
100
AcDbEntity
  8
0
100
AcDbEllipse
 62
7
  6
CONTINUOUS
 10
5.0205146765
 20
5.7578166951
 30
0.0
 11
0.014211119
 21
0.014211119
 31
0.0
 40
0.9951458158
 41
-3.9245578246
 42
-2.3586274826
  0
ELLIPSE
  5
2E2
100
AcDbEntity
  8
0
100
AcDbEllipse
 62
7
  6
CONTINUOUS
 10
4.7804170005
 20
5.9577190192
 30
0.0
 11
0.014211119
 21
0.014211119
 31
0.0
 40
0.9951458158
 41
-0.782965171
 42
0.782965171
  0
ELLIPSE
  5
2E3
100
AcDbEntity
  8
0
100
AcDbEllipse
 62
7
  6
CONTINUOUS
 10
5.0205146765
 20
3.5547190192
 30
0.0
 11
0.014211119
 21
-0.014211119
 31
0.0
 40
0.9951458158
 41
2.3586274826
 42
3.9245578246
  0
ELLIPSE
  5
2E4
100
AcDbEntity
  8
0
100
AcDbEllipse
 62
7
  6
CONTINUOUS
 10
5.9804170005
 20
3.3548166951
 30
0.0
 11
0.014211119
 21
-0.014211119
 31
0.0
 40
0.9951458158
 41
-0.782965171
 42
0.782965171
  0
ELLIPSE
  5
2E5
100
AcDbEntity
  8
0
100
AcDbEllipse
 62
7
  6
CONTINUOUS
 10
5.9804170005
 20
3.5547190192
 30
0.0
 11
0.014211119
 21
0.014211119
 31
0.0
 40
0.9951458158
 41
-0.782965171
 42
0.782965171
  0
ELLIPSE
  5
2E6
100
AcDbEntity
  8
0
100
AcDbEllipse
 62
7
  6
CONTINUOUS
 10
6.2205146765
 20
3.5547190192
 30
0.0
 11
0.014211119
 21
-0.014211119
 31
0.0
 40
0.9951458158
 41
2.3586274826
 42
3.9245578246
  0
ELLIPSE
  5
2E7
100
AcDbEntity
  8
0
100
AcDbEllipse
 62
7
  6
CONTINUOUS
 10
6.5608170005
 20
3.9447190192
 30
0.0
 11
0.014211119
 21
0.014211119
 31
0.0
 40
0.9951458158
 41
-0.782965171
 42
0.782965171
  0
ELLIPSE
  5
2E8
100
AcDbEntity
  8
0
100
AcDbEllipse
 62
7
  6
CONTINUOUS
 10
5.6141146765
 20
3.7448166951
 30
0.0
 11
0.014211119
 21
0.014211119
 31
0.0
 40
0.9951458158
 41
2.3586274826
 42
3.9245578246
  0
ELLIPSE
  5
2E9
100
AcDbEntity
  8
0
100
AcDbEllipse
 62
7
  6
CONTINUOUS
 10
5.6141146765
 20
3.9447190192
 30
0.0
 11
0.014211119
 21
-0.014211119
 31
0.0
 40
0.9951458158
 41
2.3586274826
 42
3.9245578246
  0
ELLIPSE
  5
2EA
100
AcDbEntity
  8
0
100
AcDbEllipse
 62
7
  6
CONTINUOUS
 10
5.3740170005
 20
3.9447190192
 30
0.0
 11
0.014211119
 21
0.014211119
 31
0.0
 40
0.9951458158
 41
-0.782965171
 42
0.782965171
  0
ELLIPSE
  5
2EB
100
AcDbEntity
  8
0
100
AcDbEllipse
 62
7
  6
CONTINUOUS
 10
5.3740170005
 20
3.7448166951
 30
0.0
 11
-0.014211119
 21
0.014211119
 31
0.0
 40
0.9951458158
 41
-3.9245578246
 42
-2.3586274826
  0
ELLIPSE
  5
2EC
100
AcDbEntity
  8
0
100
AcDbEllipse
 62
7
  6
CONTINUOUS
 10
4.4273146765
 20
3.9447190192
 30
0.0
 11
0.014211119
 21
-0.014211119
 31
0.0
 40
0.9951458158
 41
2.3586274826
 42
3.9245578246
  0
ELLIPSE
  5
2ED
100
AcDbEntity
  8
0
100
AcDbEllipse
 62
7
  6
CONTINUOUS
 10
4.4273146765
 20
3.7448166951
 30
0.0
 11
0.014211119
 21
0.014211119
 31
0.0
 40
0.9951458158
 41
-3.9245578246
 42
-2.3586274826
  0
ELLIPSE
  5
2EE
100
AcDbEntity
  8
0
100
AcDbEllipse
 62
7
  6
CONTINUOUS
 10
5.0205146765
 20
3.3548166951
 30
0.0
 11
0.014211119
 21
0.014211119
 31
0.0
 40
0.9951458158
 41
2.3586274826
 42
3.9245578246
  0
ELLIPSE
  5
2EF
100
AcDbEntity
  8
0
100
AcDbEllipse
 62
7
  6
CONTINUOUS
 10
5.6141146765
 20
3.1437190192
 30
0.0
 11
0.014211119
 21
-0.014211119
 31
0.0
 40
0.9951458158
 41
2.3586274826
 42
3.9245578246
  0
ELLIPSE
  5
2F0
100
AcDbEntity
  8
0
100
AcDbEllipse
 62
7
  6
CONTINUOUS
 10
5.3740170005
 20
3.1437190192
 30
0.0
 11
0.014211119
 21
0.014211119
 31
0.0
 40
0.9951458158
 41
-0.782965171
 42
0.782965171
  0
ELLIPSE
  5
2F1
100
AcDbEntity
  8
0
100
AcDbEllipse
 62
7
  6
CONTINUOUS
 10
5.3740170005
 20
2.9438166951
 30
0.0
 11
-0.014211119
 21
0.014211119
 31
0.0
 40
0.9951458158
 41
-3.9245578246
 42
-2.3586274826
  0
ELLIPSE
  5
2F2
100
AcDbEntity
  8
0
100
AcDbEllipse
 62
7
  6
CONTINUOUS
 10
4.4273146765
 20
2.9438166951
 30
0.0
 11
0.014211119
 21
0.014211119
 31
0.0
 40
0.9951458158
 41
-3.9245578246
 42
-2.3586274826
  0
ELLIPSE
  5
2F3
100
AcDbEntity
  8
0
100
AcDbEllipse
 62
7
  6
CONTINUOUS
 10
4.4273146765
 20
3.1437190192
 30
0.0
 11
0.014211119
 21
-0.014211119
 31
0.0
 40
0.9951458158
 41
2.3586274826
 42
3.9245578246
  0
ELLIPSE
  5
2F4
100
AcDbEntity
  8
0
100
AcDbEllipse
 62
7
  6
CONTINUOUS
 10
4.1872170005
 20
3.1437190192
 30
0.0
 11
0.014211119
 21
0.014211119
 31
0.0
 40
0.9951458158
 41
-0.782965171
 42
0.782965171
  0
ELLIPSE
  5
2F5
100
AcDbEntity
  8
0
100
AcDbEllipse
 62
7
  6
CONTINUOUS
 10
3.5804170005
 20
3.5547190192
 30
0.0
 11
0.014211119
 21
0.014211119
 31
0.0
 40
0.9951458158
 41
-0.782965171
 42
0.782965171
  0
ELLIPSE
  5
2F6
100
AcDbEntity
  8
0
100
AcDbEllipse
 62
7
  6
CONTINUOUS
 10
3.8205146765
 20
3.5547190192
 30
0.0
 11
0.014211119
 21
-0.014211119
 31
0.0
 40
0.9951458158
 41
2.3586274826
 42
3.9245578246
  0
ELLIPSE
  5
2F7
100
AcDbEntity
  8
0
100
AcDbEllipse
 62
7
  6
CONTINUOUS
 10
3.8205146765
 20
3.3548166951
 30
0.0
 11
0.014211119
 21
0.014211119
 31
0.0
 40
0.9951458158
 41
-3.9245578246
 42
-2.3586274826
  0
ELLIPSE
  5
2F8
100
AcDbEntity
  8
0
100
AcDbEllipse
 62
7
  6
CONTINUOUS
 10
4.7804170005
 20
3.5547190192
 30
0.0
 11
0.014211119
 21
0.014211119
 31
0.0
 40
0.9951458158
 41
-0.782965171
 42
0.782965171
  0
ELLIPSE
  5
2F9
100
AcDbEntity
  8
0
100
AcDbEllipse
 62
7
  6
CONTINUOUS
 10
4.7804170005
 20
3.3548166951
 30
0.0
 11
0.014211119
 21
-0.014211119
 31
0.0
 40
0.9951458158
 41
-0.782965171
 42
0.782965171
  0
ELLIPSE
  5
2FA
100
AcDbEntity
  8
0
100
AcDbEllipse
 62
7
  6
CONTINUOUS
 10
5.9804170005
 20
4.3557190192
 30
0.0
 11
0.014211119
 21
0.014211119
 31
0.0
 40
0.9951458158
 41
-0.782965171
 42
0.782965171
  0
ELLIPSE
  5
2FB
100
AcDbEntity
  8
0
100
AcDbEllipse
 62
7
  6
CONTINUOUS
 10
5.9804170005
 20
4.1558166951
 30
0.0
 11
0.014211119
 21
-0.014211119
 31
0.0
 40
0.9951458158
 41
-0.782965171
 42
0.782965171
  0
ELLIPSE
  5
2FC
100
AcDbEntity
  8
0
100
AcDbEllipse
 62
7
  6
CONTINUOUS
 10
6.2205146765
 20
4.1558166951
 30
0.0
 11
0.014211119
 21
0.014211119
 31
0.0
 40
0.9951458158
 41
2.3586274826
 42
3.9245578246
  0
ELLIPSE
  5
2FD
100
AcDbEntity
  8
0
100
AcDbEllipse
 62
7
  6
CONTINUOUS
 10
6.2205146765
 20
4.3557190192
 30
0.0
 11
0.014211119
 21
-0.014211119
 31
0.0
 40
0.9951458158
 41
2.3586274826
 42
3.9245578246
  0
ELLIPSE
  5
2FE
100
AcDbEntity
  8
0
100
AcDbEllipse
 62
7
  6
CONTINUOUS
 10
6.5604170005
 20
4.1558166951
 30
0.0
 11
0.014211119
 21
-0.014211119
 31
0.0
 40
0.9951458158
 41
-0.782965171
 42
0.782965171
  0
ELLIPSE
  5
2FF
100
AcDbEntity
  8
0
100
AcDbEllipse
 62
7
  6
CONTINUOUS
 10
6.5604170005
 20
4.3557190192
 30
0.0
 11
0.014211119
 21
0.014211119
 31
0.0
 40
0.9951458158
 41
-0.782965171
 42
0.782965171
  0
ELLIPSE
  5
300
100
AcDbEntity
  8
0
100
AcDbEllipse
 62
7
  6
CONTINUOUS
 10
6.5608170005
 20
4.7457190192
 30
0.0
 11
0.014211119
 21
0.014211119
 31
0.0
 40
0.9951458158
 41
-0.782965171
 42
0.782965171
  0
ELLIPSE
  5
301
100
AcDbEntity
  8
0
100
AcDbEllipse
 62
7
  6
CONTINUOUS
 10
6.5608170005
 20
4.5458166951
 30
0.0
 11
0.014211119
 21
-0.014211119
 31
0.0
 40
0.9951458158
 41
-0.782965171
 42
0.782965171
  0
ELLIPSE
  5
302
100
AcDbEntity
  8
0
100
AcDbEllipse
 62
7
  6
CONTINUOUS
 10
5.6141146765
 20
4.7457190192
 30
0.0
 11
0.014211119
 21
-0.014211119
 31
0.0
 40
0.9951458158
 41
2.3586274826
 42
3.9245578246
  0
ELLIPSE
  5
303
100
AcDbEntity
  8
0
100
AcDbEllipse
 62
7
  6
CONTINUOUS
 10
5.6141146765
 20
4.5458166951
 30
0.0
 11
0.014211119
 21
0.014211119
 31
0.0
 40
0.9951458158
 41
2.3586274826
 42
3.9245578246
  0
ELLIPSE
  5
304
100
AcDbEntity
  8
0
100
AcDbEllipse
 62
7
  6
CONTINUOUS
 10
5.3740170005
 20
4.7457190192
 30
0.0
 11
0.014211119
 21
0.014211119
 31
0.0
 40
0.9951458158
 41
-0.782965171
 42
0.782965171
  0
ELLIPSE
  5
305
100
AcDbEntity
  8
0
100
AcDbEllipse
 62
7
  6
CONTINUOUS
 10
5.3740170005
 20
4.5458166951
 30
0.0
 11
-0.014211119
 21
0.014211119
 31
0.0
 40
0.9951458158
 41
-3.9245578246
 42
-2.3586274826
  0
ELLIPSE
  5
306
100
AcDbEntity
  8
0
100
AcDbEllipse
 62
7
  6
CONTINUOUS
 10
4.4273146765
 20
4.7457190192
 30
0.0
 11
-0.014211119
 21
0.014211119
 31
0.0
 40
0.9951458158
 41
-0.782965171
 42
0.782965171
  0
ELLIPSE
  5
307
100
AcDbEntity
  8
0
100
AcDbEllipse
 62
7
  6
CONTINUOUS
 10
4.4273146765
 20
4.5458166951
 30
0.0
 11
0.014211119
 21
0.014211119
 31
0.0
 40
0.9951458158
 41
-3.9245578246
 42
-2.3586274826
  0
ELLIPSE
  5
308
100
AcDbEntity
  8
0
100
AcDbEllipse
 62
7
  6
CONTINUOUS
 10
5.0205146765
 20
4.1558166951
 30
0.0
 11
0.014211119
 21
0.014211119
 31
0.0
 40
0.9951458158
 41
2.3586274826
 42
3.9245578246
  0
ELLIPSE
  5
309
100
AcDbEntity
  8
0
100
AcDbEllipse
 62
7
  6
CONTINUOUS
 10
4.1872170005
 20
3.7448166951
 30
0.0
 11
0.014211119
 21
-0.014211119
 31
0.0
 40
0.9951458158
 41
-0.782965171
 42
0.782965171
  0
ELLIPSE
  5
30A
100
AcDbEntity
  8
0
100
AcDbEllipse
 62
7
  6
CONTINUOUS
 10
4.1872170005
 20
3.9447190192
 30
0.0
 11
0.014211119
 21
0.014211119
 31
0.0
 40
0.9951458158
 41
-0.782965171
 42
0.782965171
  0
ELLIPSE
  5
30B
100
AcDbEntity
  8
0
100
AcDbEllipse
 62
7
  6
CONTINUOUS
 10
3.2405146765
 20
3.9447190192
 30
0.0
 11
0.014211119
 21
-0.014211119
 31
0.0
 40
0.9951458158
 41
2.3586274826
 42
3.9245578246
  0
ELLIPSE
  5
30C
100
AcDbEntity
  8
0
100
AcDbEllipse
 62
7
  6
CONTINUOUS
 10
3.2405146765
 20
4.3557190192
 30
0.0
 11
0.014211119
 21
-0.014211119
 31
0.0
 40
0.9951458158
 41
2.3586274826
 42
3.9245578246
  0
ELLIPSE
  5
30D
100
AcDbEntity
  8
0
100
AcDbEllipse
 62
7
  6
CONTINUOUS
 10
3.2405146765
 20
4.1558166951
 30
0.0
 11
0.014211119
 21
0.014211119
 31
0.0
 40
0.9951458158
 41
-3.9245578246
 42
-2.3586274826
  0
ELLIPSE
  5
30E
100
AcDbEntity
  8
0
100
AcDbEllipse
 62
7
  6
CONTINUOUS
 10
3.5804170005
 20
4.1558166951
 30
0.0
 11
0.014211119
 21
-0.014211119
 31
0.0
 40
0.9951458158
 41
-0.782965171
 42
0.782965171
  0
ELLIPSE
  5
30F
100
AcDbEntity
  8
0
100
AcDbEllipse
 62
7
  6
CONTINUOUS
 10
3.5804170005
 20
4.3557190192
 30
0.0
 11
0.014211119
 21
0.014211119
 31
0.0
 40
0.9951458158
 41
-0.782965171
 42
0.782965171
  0
ELLIPSE
  5
310
100
AcDbEntity
  8
0
100
AcDbEllipse
 62
7
  6
CONTINUOUS
 10
3.8205146765
 20
4.3557190192
 30
0.0
 11
0.014211119
 21
-0.014211119
 31
0.0
 40
0.9951458158
 41
2.3586274826
 42
3.9245578246
  0
ELLIPSE
  5
311
100
AcDbEntity
  8
0
100
AcDbEllipse
 62
7
  6
CONTINUOUS
 10
3.8205146765
 20
4.1558166951
 30
0.0
 11
0.014211119
 21
0.014211119
 31
0.0
 40
0.9951458158
 41
2.3586274826
 42
3.9245578246
  0
ELLIPSE
  5
312
100
AcDbEntity
  8
0
100
AcDbEllipse
 62
7
  6
CONTINUOUS
 10
4.7804170005
 20
4.1558166951
 30
0.0
 11
0.014211119
 21
-0.014211119
 31
0.0
 40
0.9951458158
 41
-0.782965171
 42
0.782965171
  0
ELLIPSE
  5
313
100
AcDbEntity
  8
0
100
AcDbEllipse
 62
7
  6
CONTINUOUS
 10
4.7804170005
 20
4.3557190192
 30
0.0
 11
0.014211119
 21
0.014211119
 31
0.0
 40
0.9951458158
 41
-0.782965171
 42
0.782965171
  0
ELLIPSE
  5
314
100
AcDbEntity
  8
0
100
AcDbEllipse
 62
7
  6
CONTINUOUS
 10
5.0205146765
 20
4.3557190192
 30
0.0
 11
0.014211119
 21
-0.014211119
 31
0.0
 40
0.9951458158
 41
2.3586274826
 42
3.9245578246
  0
ENDSEC
  0
SECTION
  2
OBJECTS
  0
DICTIONARY
  5
C
100
AcDbDictionary
280
0
281
1
  3
ACAD_GROUP
350
D
  3
ACAD_MLINESTYLE
350
17
  3
ACAD_LAYOUT
350
1A
  3
ACAD_PLOTSETTINGS
350
19
  3
ACAD_PLOTSTYLENAME
350
E
  0
DICTIONARY
  5
D
102
{ACAD_REACTORS
330
C
102
}
100
AcDbDictionary
280
0
281
1
  0
ACDBDICTIONARYWDFLT
  5
E
102
{ACAD_REACTORS
330
C
102
}
100
AcDbDictionary
281
1
  3
Normal
350
F
100
AcDbDictionaryWithDefault
340
F
  0
DICTIONARY
  5
17
102
{ACAD_REACTORS
330
C
102
}
100
AcDbDictionary
280
0
281
1
  3
Standard
350
18
  0
DICTIONARY
  5
19
102
{ACAD_REACTORS
330
C
102
}
100
AcDbDictionary
281
1
  0
DICTIONARY
  5
1A
102
{ACAD_REACTORS
330
C
102
}
100
AcDbDictionary
281
1
  3
Model
350
315
  3
Layout1
350
316
  0
ACDBPLACEHOLDER
  5
F
102
{ACAD_REACTORS
330
E
102
}
  0
MLINESTYLE
  5
18
102
{ACAD_REACTORS
330
17
102
}
100
AcDbMlineStyle
  2
STANDARD
 70
0
  3

 62
256
 51
90.0
 52
90.0
 71
2
 49
0.5
 62
256
  6
BYLAYER
 49
-0.5
 62
256
  6
BYLAYER
  0
LAYOUT
  5
315
102
{ACAD_REACTORS
330
1A
102
}
100
AcDbPlotSettings
  1

  2
none_device
  4
ANSI_A_(11.00_x_8.50_Inches)
  6

 40
0.0
 41
0.0
 42
0.0
 43
0.0
 44
279.4
 45
215.9
 46
0.0
 47
0.0
 48
0.0
 49
0.0
140
0.0
141
0.0
142
1.0
143
1.0
 70
1024
 72
0
 73
0
 74
0
  7

 75
0
147
1.0
148
0.0
149
0.0
100
AcDbLayout
  1
Model
 70
0
 71
0
 10
0.0
 20
0.0
 11
11.0
 21
8.5
 12
0.0
 22
0.0
 32
0.0
 14
0.0
 24
0.0
 34
0.0
 15
0.0
 25
0.0
 35
0.0
146
0.0
 13
0.0
 23
0.0
 33
0.0
 16
1.0
 26
0.0
 36
0.0
 17
0.0
 27
1.0
 37
0.0
 76
0
330
20A
345
0
346
0
  0
LAYOUT
  5
316
102
{ACAD_REACTORS
330
1A
102
}
100
AcDbPlotSettings
  1

  2
none_device
  4
ANSI_A_(11.00_x_8.50_Inches)
  6

 40
0.0
 41
0.0
 42
0.0
 43
0.0
 44
279.4
 45
215.9
 46
0.0
 47
0.0
 48
0.0
 49
0.0
140
0.0
141
0.0
142
1.0
143
1.0
 70
0
 72
0
 73
0
 74
0
  7

 75
0
147
1.0
148
0.0
149
0.0
100
AcDbLayout
  1
Layout1
 70
0
 71
1
 10
0.0
 20
0.0
 11
11.0
 21
8.5
 12
0.0
 22
0.0
 32
0.0
 14
0.0
 24
0.0
 34
0.0
 15
0.0
 25
0.0
 35
0.0
146
0.0
 13
0.0
 23
0.0
 33
0.0
 16
1.0
 26
0.0
 36
0.0
 17
0.0
 27
1.0
 37
0.0
 76
0
330
20B
345
0
346
0
  0
ENDSEC
  0
EOF
