999
DXF file: 2433_RIGHT.dxf
999
Pro/ENGINEER 2018400 by Parametric Technology Corporation
  0
SECTION
  2
HEADER
  9
$ACADVER
  1
AC1027
  9
$DWGCODEPAGE
  3
ANSI_1252
  9
$EXTMAX
 10
11.0
 20
8.5
 30
0.0
  9
$EXTMIN
 10
0.0
 20
0.0
 30
0.0
  9
$LIMMIN
 10
0.0
 20
0.0
  9
$LIMMAX
 10
11.0
 20
8.5
  9
$VIEWCTR
 10
5.5
 20
4.25
  9
$VIEWSIZE
 40
8.5
  9
$CLAYER
  8
0
  9
$LTSCALE
 40
0.605
  9
$CELTYPE
  6
BYLAYER
  9
$DIMSCALE
 40
1.0
  9
$DIMASZ
 40
0.1
  9
$DIMEXO
 40
0.0625
  9
$DIMDLI
 40
0.418
  9
$DIMEXE
 40
0.125
  9
$DIMCEN
 40
0.099
  9
$DIMLFAC
 40
1.0
  9
$DIMBLK
  1
_FILLED
  9
$DIMALT
 70
1
  9
$DIMALTD
 70
2
  9
$DIMALTTD
 70
2
  9
$DIMALTF
 40
25.4
  9
$DIMTXT
 40
0.08
  9
$DIMTOL
 70
1
  9
$DIMLIM
 70
0
  9
$DIMTFAC
 40
1.0
  9
$DIMTP
 40
0.001
  9
$DIMTM
 40
0.001
  9
$DIMGAP
 40
0.09
  9
$DIMDSEP
 70
46
  9
$AUNITS
 70
0
  9
$PDMODE
 70
3
  9
$PDSIZE
 40
0.3125
  9
$HANDSEED
  5
328
  9
$TILEMODE
 70
1
  9
$MEASUREMENT
 70
0
  9
$INSUNITS
 70
1
  0
ENDSEC
  0
SECTION
  2
CLASSES
  0
CLASS
  1
ACDBDICTIONARYWDFLT
  2
AcDbDictionaryWithDefault
  3
AutoCAD 2000
 90
0
 91
1
280
0
281
0
  0
CLASS
  1
ACDBPLACEHOLDER
  2
AcDbPlaceHolder
  3
AutoCAD 2000
 90
0
 91
1
280
0
281
0
  0
CLASS
  1
LAYOUT
  2
AcDbLayout
  3
AutoCAD 2000
 90
0
 91
0
280
0
281
0
  0
ENDSEC
  0
SECTION
  2
TABLES
  0
TABLE
  2
VPORT
  5
8
100
AcDbSymbolTable
 70
2
  0
VPORT
  5
1F4
100
AcDbSymbolTableRecord
100
AcDbViewportTableRecord
  2
*ACTIVE
 70
0
 10
0.0
 20
0.0
 11
1.0
 21
1.0
 12
5.5
 22
4.25
 13
0.0
 23
0.0
 14
1.0
 24
1.0
 15
0.0
 25
0.0
 16
0.0
 26
0.0
 36
1.0
 17
0.0
 27
0.0
 37
0.0
 40
8.5
 41
1.2941176471
 42
50.0
 43
0.0
 44
0.0
 50
0.0
 51
0.0
 71
0
 72
100
 73
1
 74
1
 75
0
 76
0
 77
0
 78
0
  0
ENDTAB
  0
TABLE
  2
LTYPE
  5
5
100
AcDbSymbolTable
 70
6
  0
LTYPE
  5
14
100
AcDbSymbolTableRecord
100
AcDbLinetypeTableRecord
  2
BYBLOCK
 70
0
  3

 72
65
 73
0
 40
0.0
  0
LTYPE
  5
15
100
AcDbSymbolTableRecord
100
AcDbLinetypeTableRecord
  2
BYLAYER
 70
0
  3

 72
65
 73
0
 40
0.0
  0
LTYPE
  5
16
100
AcDbSymbolTableRecord
100
AcDbLinetypeTableRecord
  2
CONTINUOUS
 70
64
  3
Solid line
 72
65
 73
0
 40
0.0
  0
LTYPE
  5
1F5
100
AcDbSymbolTableRecord
100
AcDbLinetypeTableRecord
  2
CENTER
 70
64
  3
____ _ ____ _ ____ _ ____ _ ____ _ ____ _ ____
 72
65
 73
4
 40
0.6
 49
0.375
 74
0
 49
-0.075
 74
0
 49
0.075
 74
0
 49
-0.075
 74
0
  0
LTYPE
  5
1F6
100
AcDbSymbolTableRecord
100
AcDbLinetypeTableRecord
  2
HIDDEN
 70
64
  3
- - - - - - - - - - - - - - - - - - - -
 72
65
 73
2
 40
0.2
 49
0.1
 74
0
 49
-0.1
 74
0
  0
LTYPE
  5
1F7
100
AcDbSymbolTableRecord
100
AcDbLinetypeTableRecord
  2
PHANTOM
 70
64
  3
_____ _ _ _____ _ _ _____ _ _ _____
 72
65
 73
6
 40
0.8
 49
0.45
 74
0
 49
-0.05
 74
0
 49
0.1
 74
0
 49
-0.05
 74
0
 49
0.1
 74
0
 49
-0.05
 74
0
  0
LTYPE
  5
1F8
100
AcDbSymbolTableRecord
100
AcDbLinetypeTableRecord
  2
DOT
 70
64
  3
. . . . . . . . . . . . . . . . . . . .
 72
65
 73
2
 40
0.2
 49
0.1
 74
0
 49
-0.1
 74
0
  0
LTYPE
  5
1F9
100
AcDbSymbolTableRecord
100
AcDbLinetypeTableRecord
  2
DASHED
 70
64
  3
- - - - - - - - - - - - - - - - - - - -
 72
65
 73
2
 40
0.2
 49
0.1
 74
0
 49
-0.1
 74
0
  0
ENDTAB
  0
TABLE
  2
LAYER
  5
2
100
AcDbSymbolTable
 70
36
  0
LAYER
  5
10
100
AcDbSymbolTableRecord
100
AcDbLayerTableRecord
  2
0
 70
0
 62
7
  6
CONTINUOUS
370
-3
390
F
  0
LAYER
  5
1FA
100
AcDbSymbolTableRecord
100
AcDbLayerTableRecord
  2
DEFAULT_1
 70
0
 62
7
  6
CENTER
370
-3
390
F
  0
LAYER
  5
1FB
100
AcDbSymbolTableRecord
100
AcDbLayerTableRecord
  2
DEFAULT_2
 70
0
 62
8
  6
HIDDEN
370
-3
390
F
  0
LAYER
  5
1FC
100
AcDbSymbolTableRecord
100
AcDbLayerTableRecord
  2
DEFAULT_3
 70
0
 62
7
  6
PHANTOM
370
-3
390
F
  0
LAYER
  5
1FD
100
AcDbSymbolTableRecord
100
AcDbLayerTableRecord
  2
DEFAULT_COORDINATE_SYSTEM
 70
0
 62
7
  6
CONTINUOUS
370
-3
390
F
  0
LAYER
  5
1FE
100
AcDbSymbolTableRecord
100
AcDbLayerTableRecord
  2
DEFAULT_DATUM_AXES
 70
0
 62
7
  6
CONTINUOUS
370
-3
390
F
  0
LAYER
  5
1FF
100
AcDbSymbolTableRecord
100
AcDbLayerTableRecord
  2
DEFAULT_DATUM_PLANES
 70
0
 62
7
  6
CONTINUOUS
370
-3
390
F
  0
ENDTAB
  0
TABLE
  2
STYLE
  5
3
100
AcDbSymbolTable
 70
1
  0
STYLE
  5
11
100
AcDbSymbolTableRecord
100
AcDbTextStyleTableRecord
  2
STANDARD
 70
0
 40
0.0
 41
0.8
 50
0.0
 71
0
 42
0.2
  3
txt
  4

  0
STYLE
  5
200
100
AcDbSymbolTableRecord
100
AcDbTextStyleTableRecord
  2
TEXTSTYLE_1
 70
0
 40
0.0
 41
0.8
 50
0.0
 71
0
 42
0.2
  3
gdt
  4

  0
ENDTAB
  0
TABLE
  2
VIEW
  5
6
100
AcDbSymbolTable
 70
0
  0
ENDTAB
  0
TABLE
  2
UCS
  5
7
100
AcDbSymbolTable
 70
0
  0
ENDTAB
  0
TABLE
  2
APPID
  5
9
100
AcDbSymbolTable
 70
1
  0
APPID
  5
201
100
AcDbSymbolTableRecord
100
AcDbRegAppTableRecord
  2
ACAD
 70
0
  0
ENDTAB
  0
TABLE
  2
BLOCK_RECORD
  5
1
100
AcDbSymbolTable
 70
0
  0
BLOCK_RECORD
  5
202
100
AcDbSymbolTableRecord
100
AcDbBlockTableRecord
  2
*Model_Space
  0
BLOCK_RECORD
  5
203
100
AcDbSymbolTableRecord
100
AcDbBlockTableRecord
  2
*Paper_Space
  0
BLOCK_RECORD
  5
204
100
AcDbSymbolTableRecord
100
AcDbBlockTableRecord
  2
_FILLED
  0
ENDTAB
  0
TABLE
  2
DIMSTYLE
  5
A
100
AcDbSymbolTable
 70
1
100
AcDbDimStyleTable
 71
0
  0
DIMSTYLE
105
205
100
AcDbSymbolTableRecord
100
AcDbDimStyleTableRecord
  2
STANDARD
 70
0
  3

  4

 40
1.0
 41
0.1
 42
0.0625
 43
0.38
 44
0.125
 45
0.0
 46
0.0
 47
0.001
 48
0.001
140
0.08
141
0.09
142
0.0
143
25.4
144
1.0
145
0.0
146
1.0
147
0.09
 71
1.0
 72
0.0
 73
1
 74
1
 75
0
 76
0
 77
0
 78
4
 79
1
170
1
171
2
172
0
173
0
174
0
175
0
176
0
177
0
178
0
270
2
179
3
271
3
272
3
273
2
274
2
275
0
280
0
281
0
282
0
283
1
284
4
285
0
286
0
287
3
288
0
340
11
278
46
341
204
342
204
343
204
344
204
  0
ENDTAB
  0
ENDSEC
  0
SECTION
  2
BLOCKS
  0
BLOCK
  5
20
100
AcDbEntity
  8
0
100
AcDbBlockBegin
  2
*Model_Space
 70
0
 10
0.0
 20
0.0
 30
0.0
  3
*Model_Space
  1

  0
ENDBLK
  5
21
100
AcDbEntity
  8
0
100
AcDbBlockEnd
  0
BLOCK
  5
1C
100
AcDbEntity
  8
0
100
AcDbBlockBegin
  2
*Paper_Space
 70
0
 10
0.0
 20
0.0
 30
0.0
  3
*Paper_Space
  1

  0
ENDBLK
  5
1D
100
AcDbEntity
  8
0
100
AcDbBlockEnd
  0
BLOCK
  5
206
100
AcDbEntity
  8
0
100
AcDbBlockBegin
  2
_FILLED
 70
64
 10
0.0
 20
0.0
  3
_FILLED
  1

  0
SOLID
  5
207
100
AcDbEntity
  8
0
  6
BYBLOCK
 62
0
100
AcDbTrace
 10
0.0
 20
0.0
 11
-1.0
 21
0.2
 12
-1.0
 22
-0.2
 13
-1.0
 23
-0.2
  0
ENDBLK
  5
208
100
AcDbEntity
  8
0
  6
BYBLOCK
 62
0
100
AcDbBlockEnd
  0
ENDSEC
  0
SECTION
  2
ENTITIES
  0
MTEXT
  5
209
100
AcDbEntity
  8
0
100
AcDbMText
 62
2
  6
CONTINUOUS
  7
STANDARD
 71
3
 72
1
 10
4.8010110249
 20
1.3244423832
 30
0.0
 11
1.0
 21
0.0
 31
0.0
 73
2
 44
0.9
  1
SCALE  .500
 40
0.08
 41
0.704
  0
LINE
  5
20A
100
AcDbEntity
  8
0
100
AcDbLine
 62
7
  6
CONTINUOUS
 10
0.0
 20
0.0
 11
0.0
 21
8.5
  0
LINE
  5
20B
100
AcDbEntity
  8
0
100
AcDbLine
 62
7
  6
CONTINUOUS
 10
0.0
 20
0.0
 11
11.0
 21
0.0
  0
LINE
  5
20C
100
AcDbEntity
  8
0
100
AcDbLine
 62
7
  6
CONTINUOUS
 10
0.0
 20
8.5
 11
11.0
 21
8.5
  0
LINE
  5
20D
100
AcDbEntity
  8
0
100
AcDbLine
 62
7
  6
CONTINUOUS
 10
11.0
 20
0.0
 11
11.0
 21
8.5
  0
LINE
  5
20E
100
AcDbEntity
  8
0
100
AcDbLine
 62
7
  6
CONTINUOUS
 10
5.3345788864
 20
2.5262746814
 11
6.4603507112
 21
2.5262746814
  0
LINE
  5
20F
100
AcDbEntity
  8
0
100
AcDbLine
 62
7
  6
CONTINUOUS
 10
5.3183136959
 20
2.5615410095
 11
6.4766159017
 21
2.5615410095
  0
LINE
  5
210
100
AcDbEntity
  8
0
100
AcDbLine
 62
7
  6
CONTINUOUS
 10
6.4010447719
 20
2.632330815
 11
5.3938848257
 21
2.632330815
  0
LINE
  5
211
100
AcDbEntity
  8
0
100
AcDbLine
 62
7
  6
CONTINUOUS
 10
6.4009264162
 20
2.6482663607
 11
5.3940031814
 21
2.6482663607
  0
LINE
  5
212
100
AcDbEntity
  8
0
100
AcDbLine
 62
7
  6
CONTINUOUS
 10
3.3242977722
 20
5.5938879761
 11
3.1578134798
 21
5.3274574145
  0
LINE
  5
213
100
AcDbEntity
  8
0
100
AcDbLine
 62
7
  6
CONTINUOUS
 10
5.3874979573
 20
2.6738673463
 11
6.4074316403
 21
2.6738673463
  0
LINE
  5
214
100
AcDbEntity
  8
0
100
AcDbLine
 62
7
  6
CONTINUOUS
 10
5.4104014571
 20
2.7482249827
 11
6.3845281405
 21
2.7482249827
  0
LINE
  5
215
100
AcDbEntity
  8
0
100
AcDbLine
 62
7
  6
CONTINUOUS
 10
5.4384647988
 20
2.7743552766
 11
6.3564647988
 21
2.7743552766
  0
LINE
  5
216
100
AcDbEntity
  8
0
100
AcDbLine
 62
7
  6
CONTINUOUS
 10
6.2521372627
 20
2.9863481007
 11
5.5427923349
 21
2.9863481007
  0
LINE
  5
217
100
AcDbEntity
  8
0
100
AcDbLine
 62
7
  6
CONTINUOUS
 10
6.251057157
 20
3.004819101
 11
5.5438724406
 21
3.004819101
  0
LINE
  5
218
100
AcDbEntity
  8
0
100
AcDbLine
 62
7
  6
CONTINUOUS
 10
3.6354969774
 20
5.3910212242
 11
3.5144596734
 21
5.2115760416
  0
LINE
  5
219
100
AcDbEntity
  8
0
100
AcDbLine
 62
7
  6
CONTINUOUS
 10
6.2338788179
 20
3.0603020379
 11
5.5610507797
 21
3.0603020379
  0
LINE
  5
21A
100
AcDbEntity
  8
0
100
AcDbLine
 62
7
  6
CONTINUOUS
 10
6.2211897988
 20
3.0798384849
 11
5.5737397988
 21
3.0798384849
  0
LINE
  5
21B
100
AcDbEntity
  8
0
100
AcDbLine
 62
7
  6
CONTINUOUS
 10
6.2211897988
 20
3.2326512744
 11
5.5737397988
 21
3.2326512744
  0
LINE
  5
21C
100
AcDbEntity
  8
0
100
AcDbLine
 62
7
  6
CONTINUOUS
 10
6.2352035768
 20
3.2687340566
 11
5.5597260208
 21
3.2687340566
  0
LINE
  5
21D
100
AcDbEntity
  8
0
100
AcDbLine
 62
7
  6
CONTINUOUS
 10
6.2239941754
 20
3.3408119016
 11
5.5709354222
 21
3.3408119016
  0
LINE
  5
21E
100
AcDbEntity
  8
0
100
AcDbLine
 62
7
  6
CONTINUOUS
 10
6.2118628477
 20
3.3589493237
 11
5.5830667498
 21
3.3589493237
  0
LINE
  5
21F
100
AcDbEntity
  8
0
100
AcDbLine
 62
7
  6
CONTINUOUS
 10
5.7792184814
 20
3.6435932343
 11
5.7818081176
 21
3.6435920681
  0
LINE
  5
220
100
AcDbEntity
  8
0
100
AcDbLine
 62
7
  6
CONTINUOUS
 10
6.0128974523
 20
3.6434880006
 11
6.0154870887
 21
3.6434868344
  0
LINE
  5
221
100
AcDbEntity
  8
0
100
AcDbLine
 62
7
  6
CONTINUOUS
 10
5.758038996
 20
3.6635697861
 11
5.7601508756
 21
3.663568835
  0
LINE
  5
222
100
AcDbEntity
  8
0
100
AcDbLine
 62
7
  6
CONTINUOUS
 10
6.034572678
 20
3.6634452534
 11
6.0366845574
 21
3.6634443023
  0
LINE
  5
223
100
AcDbEntity
  8
0
100
AcDbLine
 62
7
  6
CONTINUOUS
 10
5.7976843492
 20
4.0862057508
 11
5.9976843289
 21
4.0861156839
  0
LINE
  5
224
100
AcDbEntity
  8
0
100
AcDbLine
 62
7
  6
CONTINUOUS
 10
5.7976963145
 20
4.1127756139
 11
5.9976962942
 21
4.1126855469
  0
LINE
  5
225
100
AcDbEntity
  8
0
100
AcDbLine
 62
7
  6
CONTINUOUS
 10
5.7846047696
 20
4.131553565
 11
6.0108047466
 21
4.1314516994
  0
LINE
  5
226
100
AcDbEntity
  8
0
100
AcDbLine
 62
7
  6
CONTINUOUS
 10
6.0298606019
 20
4.1656178823
 11
5.7655796945
 21
4.1657368972
  0
LINE
  5
227
100
AcDbEntity
  8
0
100
AcDbLine
 62
7
  6
CONTINUOUS
 10
6.0261275566
 20
3.6985181326
 11
6.0411248916
 21
3.6925969267
  0
LINE
  5
228
100
AcDbEntity
  8
0
100
AcDbLine
 62
7
  6
CONTINUOUS
 10
5.7088677859
 20
5.2429597964
 11
5.7611110635
 21
5.2667823954
  0
LINE
  5
229
100
AcDbEntity
  8
0
100
AcDbLine
 62
7
  6
CONTINUOUS
 10
6.0355049968
 20
4.2894592683
 11
5.7600468419
 21
4.2895833167
  0
LINE
  5
22A
100
AcDbEntity
  8
0
100
AcDbLine
 62
7
  6
CONTINUOUS
 10
5.7769832657
 20
4.3257931339
 11
6.0186011929
 21
4.3256843249
  0
LINE
  5
22B
100
AcDbEntity
  8
0
100
AcDbLine
 62
7
  6
CONTINUOUS
 10
5.7890112518
 20
4.3462542714
 11
6.0065916405
 21
4.3461562874
  0
LINE
  5
22C
100
AcDbEntity
  8
0
100
AcDbLine
 62
7
  6
CONTINUOUS
 10
5.0454848658
 20
6.1775246814
 11
5.0454848658
 21
5.6850246814
  0
LINE
  5
22D
100
AcDbEntity
  8
0
100
AcDbLine
 62
7
  6
CONTINUOUS
 10
5.0804848658
 20
5.6500246814
 11
5.0804848658
 21
6.2125246814
  0
LINE
  5
22E
100
AcDbEntity
  8
0
100
AcDbLine
 62
7
  6
CONTINUOUS
 10
5.0829848658
 20
5.6500246814
 11
5.0829848658
 21
6.2125246814
  0
LINE
  5
22F
100
AcDbEntity
  8
0
100
AcDbLine
 62
7
  6
CONTINUOUS
 10
5.1175210504
 20
6.1832037619
 11
5.1175210504
 21
5.6793456008
  0
LINE
  5
230
100
AcDbEntity
  8
0
100
AcDbLine
 62
7
  6
CONTINUOUS
 10
5.1382682781
 20
6.1625697229
 11
5.1382682781
 21
5.6999796398
  0
LINE
  5
231
100
AcDbEntity
  8
0
100
AcDbLine
 62
7
  6
CONTINUOUS
 10
3.5144596734
 20
5.2115760416
 11
3.1578134798
 21
5.3274574145
  0
LINE
  5
232
100
AcDbEntity
  8
0
100
AcDbLine
 62
7
  6
CONTINUOUS
 10
6.0210867182
 20
3.6766638452
 11
6.0345715668
 21
3.6634452352
  0
LINE
  5
233
100
AcDbEntity
  8
0
100
AcDbLine
 62
7
  6
CONTINUOUS
 10
6.0027964972
 20
3.6545772164
 11
6.012897453
 21
3.6434880013
  0
LINE
  5
234
100
AcDbEntity
  8
0
100
AcDbLine
 62
7
  6
CONTINUOUS
 10
6.0130864078
 20
3.6648613918
 11
6.0241715609
 21
3.6519387383
  0
LINE
  5
235
100
AcDbEntity
  8
0
100
AcDbLine
 62
7
  6
CONTINUOUS
 10
5.4752014535
 20
6.1625697229
 11
5.4752014535
 21
5.6999796398
  0
LINE
  5
236
100
AcDbEntity
  8
0
100
AcDbLine
 62
7
  6
CONTINUOUS
 10
5.4959486813
 20
6.1832037619
 11
5.4959486813
 21
5.6793456008
  0
LINE
  5
237
100
AcDbEntity
  8
0
100
AcDbLine
 62
7
  6
CONTINUOUS
 10
5.5304848658
 20
5.6500246814
 11
5.5304848658
 21
6.2125246814
  0
LINE
  5
238
100
AcDbEntity
  8
0
100
AcDbLine
 62
7
  6
CONTINUOUS
 10
5.5329848658
 20
5.6500246814
 11
5.5329848658
 21
6.2125246814
  0
LINE
  5
239
100
AcDbEntity
  8
0
100
AcDbLine
 62
7
  6
CONTINUOUS
 10
6.068149479
 20
5.1189985534
 11
5.7281495134
 21
5.1191516672
  0
LINE
  5
23A
100
AcDbEntity
  8
0
100
AcDbLine
 62
7
  6
CONTINUOUS
 10
6.0999275008
 20
5.1807636668
 11
5.6964271344
 21
5.180945377
  0
LINE
  5
23B
100
AcDbEntity
  8
0
100
AcDbLine
 62
7
  6
CONTINUOUS
 10
5.6957570339
 20
5.198751765
 11
6.1006136388
 21
5.1985694441
  0
LINE
  5
23C
100
AcDbEntity
  8
0
100
AcDbLine
 62
7
  6
CONTINUOUS
 10
5.6857854745
 20
5.2094461445
 11
6.1105948262
 21
5.2092548381
  0
LINE
  5
23D
100
AcDbEntity
  8
0
100
AcDbLine
 62
7
  6
CONTINUOUS
 10
5.7088677859
 20
5.2429597964
 11
6.0875427088
 21
5.2427892659
  0
LINE
  5
23E
100
AcDbEntity
  8
0
100
AcDbLine
 62
7
  6
CONTINUOUS
 10
5.7611110635
 20
5.2667823954
 11
6.0353209087
 21
5.2666589092
  0
LINE
  5
23F
100
AcDbEntity
  8
0
100
AcDbLine
 62
7
  6
CONTINUOUS
 10
5.7067102491
 20
3.7722141683
 11
5.7067002529
 21
3.7887924165
  0
LINE
  5
240
100
AcDbEntity
  8
0
100
AcDbLine
 62
7
  6
CONTINUOUS
 10
5.5679848658
 20
5.6850246814
 11
5.5679848658
 21
6.1775246814
  0
LINE
  5
241
100
AcDbEntity
  8
0
100
AcDbLine
 62
7
  6
CONTINUOUS
 10
5.5737397988
 20
3.0798384849
 11
5.5737397988
 21
3.2326512744
  0
LINE
  5
242
100
AcDbEntity
  8
0
100
AcDbLine
 62
7
  6
CONTINUOUS
 10
5.6454647988
 20
6.4947746814
 11
5.6454647988
 21
6.5347746814
  0
LINE
  5
243
100
AcDbEntity
  8
0
100
AcDbLine
 62
7
  6
CONTINUOUS
 10
5.8635350584
 20
5.2886762179
 11
5.9329166745
 21
5.2886449729
  0
LINE
  5
244
100
AcDbEntity
  8
0
100
AcDbLine
 62
7
  6
CONTINUOUS
 10
5.7849647988
 20
6.3472746814
 11
5.7849647988
 21
6.3697746814
  0
LINE
  5
245
100
AcDbEntity
  8
0
100
AcDbLine
 62
7
  6
CONTINUOUS
 10
5.7398976611
 20
3.7432260345
 11
5.739876026
 21
3.695183844
  0
LINE
  5
246
100
AcDbEntity
  8
0
100
AcDbLine
 62
7
  6
CONTINUOUS
 10
5.7536417032
 20
3.7299930513
 11
5.7536249207
 21
3.6927263979
  0
LINE
  5
247
100
AcDbEntity
  8
0
100
AcDbLine
 62
7
  6
CONTINUOUS
 10
5.7686362521
 20
3.7178851484
 11
5.7686275827
 21
3.6986340937
  0
LINE
  5
248
100
AcDbEntity
  8
0
100
AcDbLine
 62
7
  6
CONTINUOUS
 10
5.7976963145
 20
4.1127756139
 11
5.7976843492
 21
4.0862057508
  0
LINE
  5
249
100
AcDbEntity
  8
0
100
AcDbLine
 62
7
  6
CONTINUOUS
 10
6.1840296057
 20
5.5359725537
 11
5.6108999918
 21
5.5359725537
  0
LINE
  5
24A
100
AcDbEntity
  8
0
100
AcDbLine
 62
7
  6
CONTINUOUS
 10
6.2015413338
 20
5.5837465424
 11
5.5933882638
 21
5.5837465424
  0
LINE
  5
24B
100
AcDbEntity
  8
0
100
AcDbLine
 62
7
  6
CONTINUOUS
 10
5.5836857564
 20
5.6061733745
 11
6.2112438412
 21
5.6061733745
  0
LINE
  5
24C
100
AcDbEntity
  8
0
100
AcDbLine
 62
7
  6
CONTINUOUS
 10
5.5828970974
 20
5.611567789
 11
6.2120325001
 21
5.611567789
  0
LINE
  5
24D
100
AcDbEntity
  8
0
100
AcDbLine
 62
7
  6
CONTINUOUS
 10
6.0513199475
 20
3.7157524702
 11
6.0495930908
 21
3.7214731461
  0
LINE
  5
24E
100
AcDbEntity
  8
0
100
AcDbLine
 62
7
  6
CONTINUOUS
 10
5.8974647988
 20
3.4251691523
 11
5.8974647988
 21
3.4895247222
  0
LINE
  5
24F
100
AcDbEntity
  8
0
100
AcDbLine
 62
7
  6
CONTINUOUS
 10
6.0099647988
 20
6.3472746814
 11
6.0099647988
 21
6.3697746814
  0
LINE
  5
250
100
AcDbEntity
  8
0
100
AcDbLine
 62
7
  6
CONTINUOUS
 10
5.9976962942
 20
4.1126855469
 11
5.9976843289
 21
4.0861156839
  0
LINE
  5
251
100
AcDbEntity
  8
0
100
AcDbLine
 62
7
  6
CONTINUOUS
 10
6.0261275566
 20
3.6985181326
 11
6.0261361371
 21
3.7175717107
  0
LINE
  5
252
100
AcDbEntity
  8
0
100
AcDbLine
 62
7
  6
CONTINUOUS
 10
6.0411248916
 20
3.6925969267
 11
6.0411415696
 21
3.7296316608
  0
LINE
  5
253
100
AcDbEntity
  8
0
100
AcDbLine
 62
7
  6
CONTINUOUS
 10
6.0548759941
 20
3.6950419886
 11
6.0548975069
 21
3.7428127103
  0
LINE
  5
254
100
AcDbEntity
  8
0
100
AcDbLine
 62
7
  6
CONTINUOUS
 10
5.7434507244
 20
3.7158911144
 11
5.7451827328
 21
3.7216102326
  0
LINE
  5
255
100
AcDbEntity
  8
0
100
AcDbLine
 62
7
  6
CONTINUOUS
 10
5.7686275827
 20
3.6986340937
 11
5.7536249207
 21
3.6927263979
  0
LINE
  5
256
100
AcDbEntity
  8
0
100
AcDbLine
 62
7
  6
CONTINUOUS
 10
5.5329848658
 20
5.6500246814
 11
5.5304848658
 21
5.6500246814
  0
LINE
  5
257
100
AcDbEntity
  8
0
100
AcDbLine
 62
7
  6
CONTINUOUS
 10
5.0829848658
 20
5.6500246814
 11
5.0804848658
 21
5.6500246814
  0
LINE
  5
258
100
AcDbEntity
  8
0
100
AcDbLine
 62
7
  6
CONTINUOUS
 10
6.2012526884
 20
5.6581549631
 11
5.5936769092
 21
5.6581549631
  0
LINE
  5
259
100
AcDbEntity
  8
0
100
AcDbLine
 62
7
  6
CONTINUOUS
 10
5.5899264414
 20
5.6598483044
 11
6.2050031562
 21
5.6598483044
  0
LINE
  5
25A
100
AcDbEntity
  8
0
100
AcDbLine
 62
7
  6
CONTINUOUS
 10
5.0454848658
 20
5.7062746814
 11
4.5094848658
 21
5.7062746814
  0
LINE
  5
25B
100
AcDbEntity
  8
0
100
AcDbLine
 62
7
  6
CONTINUOUS
 10
6.0875427088
 20
5.2427892659
 11
6.0353209087
 21
5.2666589092
  0
LINE
  5
25C
100
AcDbEntity
  8
0
100
AcDbLine
 62
7
  6
CONTINUOUS
 10
6.1494647988
 20
6.4947746814
 11
6.1494647988
 21
6.5347746814
  0
LINE
  5
25D
100
AcDbEntity
  8
0
100
AcDbLine
 62
7
  6
CONTINUOUS
 10
6.2211897988
 20
3.0798384849
 11
6.2211897988
 21
3.2326512744
  0
LINE
  5
25E
100
AcDbEntity
  8
0
100
AcDbLine
 62
7
  6
CONTINUOUS
 10
6.0881352406
 20
3.7881489025
 11
6.0881111363
 21
3.7720424103
  0
LINE
  5
25F
100
AcDbEntity
  8
0
100
AcDbLine
 62
7
  6
CONTINUOUS
 10
5.7816407139
 20
3.664966999
 11
5.770543304
 21
3.6520545004
  0
LINE
  5
260
100
AcDbEntity
  8
0
100
AcDbLine
 62
7
  6
CONTINUOUS
 10
5.7919190563
 20
3.6546721818
 11
5.7818081169
 21
3.6435920688
  0
LINE
  5
261
100
AcDbEntity
  8
0
100
AcDbLine
 62
7
  6
CONTINUOUS
 10
5.7736442188
 20
3.6767757231
 11
5.7601477602
 21
3.6635685221
  0
LINE
  5
262
100
AcDbEntity
  8
0
100
AcDbLine
 62
7
  6
CONTINUOUS
 10
5.0454848658
 20
5.9312746814
 11
4.5096848658
 21
5.9306202457
  0
LINE
  5
263
100
AcDbEntity
  8
0
100
AcDbLine
 62
7
  6
CONTINUOUS
 10
5.0454848658
 20
6.1562746814
 11
4.5814848658
 21
6.1562746814
  0
LINE
  5
264
100
AcDbEntity
  8
0
100
AcDbLine
 62
7
  6
CONTINUOUS
 10
5.5329848658
 20
6.2125246814
 11
5.5304848658
 21
6.2125246814
  0
LINE
  5
265
100
AcDbEntity
  8
0
100
AcDbLine
 62
7
  6
CONTINUOUS
 10
5.0829848658
 20
6.2125246814
 11
5.0804848658
 21
6.2125246814
  0
LINE
  5
266
100
AcDbEntity
  8
0
100
AcDbLine
 62
7
  6
CONTINUOUS
 10
6.0903320856
 20
6.2927984184
 11
5.704597512
 21
6.2927984184
  0
LINE
  5
267
100
AcDbEntity
  8
0
100
AcDbLine
 62
7
  6
CONTINUOUS
 10
6.0797569726
 20
6.3096296041
 11
5.715172625
 21
6.3096296041
  0
LINE
  5
268
100
AcDbEntity
  8
0
100
AcDbLine
 62
7
  6
CONTINUOUS
 10
6.0405397988
 20
6.3472746814
 11
5.7543897988
 21
6.3472746814
  0
LINE
  5
269
100
AcDbEntity
  8
0
100
AcDbLine
 62
7
  6
CONTINUOUS
 10
6.0099647988
 20
6.3697746814
 11
5.7849647988
 21
6.3697746814
  0
LINE
  5
26A
100
AcDbEntity
  8
0
100
AcDbLine
 62
7
  6
CONTINUOUS
 10
5.6554647988
 20
6.4847746814
 11
6.1394647988
 21
6.4847746814
  0
LINE
  5
26B
100
AcDbEntity
  8
0
100
AcDbLine
 62
7
  6
CONTINUOUS
 10
5.6454647988
 20
6.4947746814
 11
6.1494647988
 21
6.4947746814
  0
LINE
  5
26C
100
AcDbEntity
  8
0
100
AcDbLine
 62
7
  6
CONTINUOUS
 10
5.6454647988
 20
6.5347746814
 11
6.1494647988
 21
6.5347746814
  0
LINE
  5
26D
100
AcDbEntity
  8
0
100
AcDbLine
 62
7
  6
CONTINUOUS
 10
5.6554647988
 20
6.5447746814
 11
6.1394647988
 21
6.5447746814
  0
ARC
  5
26E
100
AcDbEntity
  8
0
100
AcDbCircle
 62
7
  6
CONTINUOUS
 10
4.5121297336
 20
3.672887438
 40
2.2577341314
100
AcDbArc
 50
90.0620447868
 51
92.0494933169
  0
ARC
  5
26F
100
AcDbEntity
  8
0
100
AcDbCircle
 62
7
  6
CONTINUOUS
 10
4.5097793076
 20
3.707353581
 40
1.9989224598
100
AcDbArc
 50
90.008439687
 51
103.8594922324
  0
ARC
  5
270
100
AcDbEntity
  8
0
100
AcDbCircle
 62
7
  6
CONTINUOUS
 10
4.5094933365
 20
3.7097426256
 40
1.9965331517
100
AcDbArc
 50
103.8679474288
 51
105.7358374218
  0
ARC
  5
271
100
AcDbEntity
  8
0
100
AcDbCircle
 62
7
  6
CONTINUOUS
 10
4.5814919798
 20
4.1860722329
 40
1.9702024484
100
AcDbArc
 50
90.0002068839
 51
94.0248733184
  0
ARC
  5
272
100
AcDbEntity
  8
0
100
AcDbCircle
 62
7
  6
CONTINUOUS
 10
4.5814904929
 20
4.1862140183
 40
1.9700609084
100
AcDbArc
 50
94.0251196125
 51
96.5740413992
  0
ARC
  5
273
100
AcDbEntity
  8
0
100
AcDbCircle
 62
7
  6
CONTINUOUS
 10
3.9299375279
 20
3.8321607209
 40
1.82
100
AcDbArc
 50
356.8890191719
 51
356.9627950461
  0
ARC
  5
274
100
AcDbEntity
  8
0
100
AcDbCircle
 62
7
  6
CONTINUOUS
 10
4.4738266768
 20
4.693716735
 40
1.2751037563
100
AcDbArc
 50
142.2518743507
 51
153.1554254725
  0
ARC
  5
275
100
AcDbEntity
  8
0
100
AcDbCircle
 62
7
  6
CONTINUOUS
 10
4.4615172128
 20
4.7031046719
 40
1.259623285
100
AcDbArc
 50
140.8265908134
 51
142.2467518355
  0
ARC
  5
276
100
AcDbEntity
  8
0
100
AcDbCircle
 62
7
  6
CONTINUOUS
 10
5.6713991306
 20
2.2603352502
 40
0.4641055183
100
AcDbArc
 50
126.7234940814
 51
139.533578312
  0
ARC
  5
277
100
AcDbEntity
  8
0
100
AcDbCircle
 62
7
  6
CONTINUOUS
 10
5.087096476
 20
2.8071066926
 40
0.3286229872
100
AcDbArc
 50
336.0809144482
 51
349.6781735879
  0
ARC
  5
278
100
AcDbEntity
  8
0
100
AcDbCircle
 62
7
  6
CONTINUOUS
 10
5.5202797988
 20
3.2326512744
 40
0.05346
100
AcDbArc
 50
0.0
 51
42.4502024163
  0
ARC
  5
279
100
AcDbEntity
  8
0
100
AcDbCircle
 62
7
  6
CONTINUOUS
 10
5.4419569522
 20
2.7424699407
 40
0.032076
100
AcDbArc
 50
96.2502506476
 51
169.6640834498
  0
ARC
  5
27A
100
AcDbEntity
  8
0
100
AcDbCircle
 62
7
  6
CONTINUOUS
 10
5.5523557988
 20
3.0798384849
 40
0.021384
100
AcDbArc
 50
293.9921531391
 51
360.0
  0
ARC
  5
27B
100
AcDbEntity
  8
0
100
AcDbCircle
 62
7
  6
CONTINUOUS
 10
5.3345788864
 20
2.5476586814
 40
0.021384
100
AcDbArc
 50
139.519267679
 51
270.0
  0
ARC
  5
27C
100
AcDbEntity
  8
0
100
AcDbCircle
 62
7
  6
CONTINUOUS
 10
5.5617140261
 20
3.3601054578
 40
0.021384
100
AcDbArc
 50
295.5455664382
 51
356.9007705819
  0
ARC
  5
27D
100
AcDbEntity
  8
0
100
AcDbCircle
 62
7
  6
CONTINUOUS
 10
5.4070505269
 20
2.6652086814
 40
0.021384
100
AcDbArc
 50
156.1143090559
 51
232.3999954626
  0
ARC
  5
27E
100
AcDbEntity
  8
0
100
AcDbCircle
 62
7
  6
CONTINUOUS
 10
5.5281279215
 20
2.9964726935
 40
0.01782
100
AcDbArc
 50
325.3780555017
 51
27.9287385579
  0
ARC
  5
27F
100
AcDbEntity
  8
0
100
AcDbCircle
 62
7
  6
CONTINUOUS
 10
5.3879017291
 20
2.6403434647
 40
0.01
100
AcDbArc
 50
306.7489316068
 51
52.3999954627
  0
ARC
  5
280
100
AcDbEntity
  8
0
100
AcDbCircle
 62
7
  6
CONTINUOUS
 10
5.3067348658
 20
4.6392746814
 40
1.074
100
AcDbArc
 50
80.9753707255
 51
99.0246292745
  0
ARC
  5
281
100
AcDbEntity
  8
0
100
AcDbCircle
 62
7
  6
CONTINUOUS
 10
5.5172531681
 20
4.2166896821
 40
0.2535
100
AcDbArc
 50
348.4047225792
 51
16.7112662688
  0
ARC
  5
282
100
AcDbEntity
  8
0
100
AcDbCircle
 62
7
  6
CONTINUOUS
 10
5.6143725959
 20
3.4948492295
 40
0.2216002273
100
AcDbArc
 50
49.585439035
 51
50.6729437668
  0
ARC
  5
283
100
AcDbEntity
  8
0
100
AcDbCircle
 62
7
  6
CONTINUOUS
 10
5.8974114891
 20
3.7952481914
 40
0.2011949966
100
AcDbArc
 50
210.1961314411
 51
251.3968367516
  0
ARC
  5
284
100
AcDbEntity
  8
0
100
AcDbCircle
 62
7
  6
CONTINUOUS
 10
5.8974307236
 20
3.7952481757
 40
0.2011949889
100
AcDbArc
 50
288.5515582846
 51
329.7522534863
  0
ARC
  5
285
100
AcDbEntity
  8
0
100
AcDbCircle
 62
7
  6
CONTINUOUS
 10
5.897407495
 20
3.7723294224
 40
0.190697101
100
AcDbArc
 50
180.0346285724
 51
204.2341922677
  0
ARC
  5
286
100
AcDbEntity
  8
0
100
AcDbCircle
 62
7
  6
CONTINUOUS
 10
5.8974144545
 20
3.772329342
 40
0.1906967144
100
AcDbArc
 50
335.7141683147
 51
359.9137899899
  0
ARC
  5
287
100
AcDbEntity
  8
0
100
AcDbCircle
 62
7
  6
CONTINUOUS
 10
5.894933895
 20
3.7788319619
 40
0.1812494857
100
AcDbArc
 50
303.8991761735
 51
311.6917589592
  0
ARC
  5
288
100
AcDbEntity
  8
0
100
AcDbCircle
 62
7
  6
CONTINUOUS
 10
5.897409858
 20
3.7702746937
 40
0.1765
100
AcDbArc
 50
323.8421922396
 51
326.9597329711
  0
ARC
  5
289
100
AcDbEntity
  8
0
100
AcDbCircle
 62
7
  6
CONTINUOUS
 10
5.897409858
 20
3.7702746937
 40
0.1765
100
AcDbArc
 50
212.9886624815
 51
216.1062032924
  0
ARC
  5
28A
100
AcDbEntity
  8
0
100
AcDbCircle
 62
7
  6
CONTINUOUS
 10
5.8974118845
 20
3.7747746933
 40
0.1765
100
AcDbArc
 50
331.2224927516
 51
356.9231098376
  0
ARC
  5
28B
100
AcDbEntity
  8
0
100
AcDbCircle
 62
7
  6
CONTINUOUS
 10
5.8974118845
 20
3.7747746933
 40
0.1765
100
AcDbArc
 50
235.981773281
 51
303.9666218185
  0
ARC
  5
28C
100
AcDbEntity
  8
0
100
AcDbCircle
 62
7
  6
CONTINUOUS
 10
5.8974118845
 20
3.7747746933
 40
0.1765
100
AcDbArc
 50
182.8959409566
 51
208.7259026969
  0
ARC
  5
28D
100
AcDbEntity
  8
0
100
AcDbCircle
 62
7
  6
CONTINUOUS
 10
5.897409858
 20
3.7702746937
 40
0.1715
100
AcDbArc
 50
227.618600036
 51
312.3297954166
  0
ARC
  5
28E
100
AcDbEntity
  8
0
100
AcDbCircle
 62
7
  6
CONTINUOUS
 10
5.8973923293
 20
3.7551859215
 40
0.1637254076
100
AcDbArc
 50
269.9779539653
 51
293.029354557
  0
ARC
  5
28F
100
AcDbEntity
  8
0
100
AcDbCircle
 62
7
  6
CONTINUOUS
 10
5.8974137673
 20
3.7551857543
 40
0.1637252498
100
AcDbArc
 50
246.9190287114
 51
269.9704517013
  0
ARC
  5
290
100
AcDbEntity
  8
0
100
AcDbCircle
 62
7
  6
CONTINUOUS
 10
5.8702853079
 20
3.7730996061
 40
0.1568452323
100
AcDbArc
 50
230.5112465299
 51
235.6598223655
  0
ARC
  5
291
100
AcDbEntity
  8
0
100
AcDbCircle
 62
7
  6
CONTINUOUS
 10
5.897409858
 20
3.7702746937
 40
0.1565
100
AcDbArc
 50
222.2907514201
 51
317.6576440324
  0
ARC
  5
292
100
AcDbEntity
  8
0
100
AcDbCircle
 62
7
  6
CONTINUOUS
 10
5.8186275776
 20
3.698611577
 40
0.05
100
AcDbArc
 50
179.9741977263
 51
222.2907514201
  0
ARC
  5
293
100
AcDbEntity
  8
0
100
AcDbCircle
 62
7
  6
CONTINUOUS
 10
5.7913044001
 20
3.7013988503
 40
0.05
100
AcDbArc
 50
163.1513064909
 51
212.9886624815
  0
ARC
  5
294
100
AcDbEntity
  8
0
100
AcDbCircle
 62
7
  6
CONTINUOUS
 10
5.6973290571
 20
3.7361024967
 40
0.05
100
AcDbArc
 50
343.1513064909
 51
356.8890191719
  0
ARC
  5
295
100
AcDbEntity
  8
0
100
AcDbCircle
 62
7
  6
CONTINUOUS
 10
5.7949674491
 20
4.1597069818
 40
0.03
100
AcDbArc
 50
168.4047225792
 51
249.7924019594
  0
ARC
  5
296
100
AcDbEntity
  8
0
100
AcDbCircle
 62
7
  6
CONTINUOUS
 10
5.788779821
 20
4.2982097823
 40
0.03
100
AcDbArc
 50
113.1549133333
 51
196.7112662688
  0
ARC
  5
297
100
AcDbEntity
  8
0
100
AcDbCircle
 62
7
  6
CONTINUOUS
 10
5.7776963166
 20
4.1127846206
 40
0.02
100
AcDbArc
 50
359.9741977263
 51
69.7924019594
  0
ARC
  5
298
100
AcDbEntity
  8
0
100
AcDbCircle
 62
7
  6
CONTINUOUS
 10
5.7691188955
 20
4.3441820349
 40
0.02
100
AcDbArc
 50
293.1549133329
 51
5.947193649
  0
ARC
  5
299
100
AcDbEntity
  8
0
100
AcDbCircle
 62
7
  6
CONTINUOUS
 10
-20.7617473763
 20
4.7853891632
 40
26.3834031535
100
AcDbArc
 50
356.9007465915
 51
357.4794815795
  0
ARC
  5
29A
100
AcDbEntity
  8
0
100
AcDbCircle
 62
7
  6
CONTINUOUS
 10
-20.7433033426
 20
4.7840656417
 40
26.3649274112
100
AcDbArc
 50
358.684917499
 51
1.6342519771
  0
ARC
  5
29B
100
AcDbEntity
  8
0
100
AcDbCircle
 62
7
  6
CONTINUOUS
 10
-9.2842162076
 20
5.9529606792
 40
15.375
100
AcDbArc
 50
354.0012018038
 51
356.8906685154
  0
ARC
  5
29C
100
AcDbEntity
  8
0
100
AcDbCircle
 62
7
  6
CONTINUOUS
 10
5.3067348658
 20
7.2232746814
 40
1.074
100
AcDbArc
 50
260.9753707255
 51
279.0246292745
  0
ARC
  5
29D
100
AcDbEntity
  8
0
100
AcDbCircle
 62
7
  6
CONTINUOUS
 10
4.1808922125
 20
5.0585405023
 40
1.0101447316
100
AcDbArc
 50
114.6679006076
 51
119.4207218027
  0
ARC
  5
29E
100
AcDbEntity
  8
0
100
AcDbCircle
 62
7
  6
CONTINUOUS
 10
4.180829764
 20
5.0586659473
 40
1.01
100
AcDbArc
 50
119.421131724
 51
147.9999308104
  0
ARC
  5
29F
100
AcDbEntity
  8
0
100
AcDbCircle
 62
7
  6
CONTINUOUS
 10
4.3012824798
 20
4.9018515709
 40
1.002662498
100
AcDbArc
 50
114.2746618962
 51
118.5028384224
  0
ARC
  5
2A0
100
AcDbEntity
  8
0
100
AcDbCircle
 62
7
  6
CONTINUOUS
 10
4.5938138758
 20
5.464209787
 40
1.0
100
AcDbArc
 50
8.1614865627
 51
8.473849805
  0
ARC
  5
2A1
100
AcDbEntity
  8
0
100
AcDbCircle
 62
7
  6
CONTINUOUS
 10
4.1297117522
 20
5.0576685927
 40
0.5961310431
100
AcDbArc
 50
143.3484622213
 51
145.999955638
  0
ARC
  5
2A2
100
AcDbEntity
  8
0
100
AcDbCircle
 62
7
  6
CONTINUOUS
 10
5.8935723662
 20
6.5966618816
 40
0.255
100
AcDbArc
 50
297.157683443
 51
333.9743587973
  0
ARC
  5
2A3
100
AcDbEntity
  8
0
100
AcDbCircle
 62
7
  6
CONTINUOUS
 10
5.863422272
 20
5.0386762433
 40
0.25
100
AcDbArc
 50
89.9741977263
 51
114.1574052763
  0
ARC
  5
2A4
100
AcDbEntity
  8
0
100
AcDbCircle
 62
7
  6
CONTINUOUS
 10
5.6432705281
 20
5.1146175909
 40
0.085
100
AcDbArc
 50
3.0577269372
 51
51.2905153608
  0
ARC
  5
2A5
100
AcDbEntity
  8
0
100
AcDbCircle
 62
7
  6
CONTINUOUS
 10
5.5307425682
 20
5.5336870485
 40
0.08019
100
AcDbArc
 50
1.6332152977
 51
38.6279712675
  0
ARC
  5
2A6
100
AcDbEntity
  8
0
100
AcDbCircle
 62
7
  6
CONTINUOUS
 10
5.6447147988
 20
5.6207776641
 40
0.0625
100
AcDbArc
 50
143.2690079112
 51
188.473849805
  0
ARC
  5
2A7
100
AcDbEntity
  8
0
100
AcDbCircle
 62
7
  6
CONTINUOUS
 10
5.6297147988
 20
5.6127746814
 40
0.0465
100
AcDbArc
 50
188.1614865627
 51
218.6279712664
  0
ARC
  5
2A8
100
AcDbEntity
  8
0
100
AcDbCircle
 62
7
  6
CONTINUOUS
 10
5.7256889251
 20
5.2066686228
 40
0.04
100
AcDbArc
 50
114.8679570846
 51
176.0182891172
  0
ARC
  5
2A9
100
AcDbEntity
  8
0
100
AcDbCircle
 62
7
  6
CONTINUOUS
 10
5.7543897988
 20
6.3080246814
 40
0.03925
100
AcDbArc
 50
90.0
 51
177.6565365187
  0
ARC
  5
2AA
100
AcDbEntity
  8
0
100
AcDbCircle
 62
7
  6
CONTINUOUS
 10
5.0804848658
 20
6.1775246814
 40
0.035
100
AcDbArc
 50
90.0
 51
180.0
  0
ARC
  5
2AB
100
AcDbEntity
  8
0
100
AcDbCircle
 62
7
  6
CONTINUOUS
 10
5.0804848658
 20
5.6850246814
 40
0.035
100
AcDbArc
 50
180.0
 51
270.0
  0
ARC
  5
2AC
100
AcDbEntity
  8
0
100
AcDbCircle
 62
7
  6
CONTINUOUS
 10
5.0829848658
 20
5.6850246814
 40
0.035
100
AcDbArc
 50
270.0
 51
350.6619331332
  0
ARC
  5
2AD
100
AcDbEntity
  8
0
100
AcDbCircle
 62
7
  6
CONTINUOUS
 10
5.0829848658
 20
6.1775246814
 40
0.035
100
AcDbArc
 50
9.3380668668
 51
90.0
  0
ARC
  5
2AE
100
AcDbEntity
  8
0
100
AcDbCircle
 62
7
  6
CONTINUOUS
 10
5.5304848658
 20
5.6850246814
 40
0.035
100
AcDbArc
 50
189.3380668668
 51
270.0
  0
ARC
  5
2AF
100
AcDbEntity
  8
0
100
AcDbCircle
 62
7
  6
CONTINUOUS
 10
5.5304848658
 20
6.1775246814
 40
0.035
100
AcDbArc
 50
90.0
 51
170.6619331332
  0
ARC
  5
2B0
100
AcDbEntity
  8
0
100
AcDbCircle
 62
7
  6
CONTINUOUS
 10
5.5329848658
 20
5.6850246814
 40
0.035
100
AcDbArc
 50
270.0
 51
360.0
  0
ARC
  5
2B1
100
AcDbEntity
  8
0
100
AcDbCircle
 62
7
  6
CONTINUOUS
 10
5.5329848658
 20
6.1775246814
 40
0.035
100
AcDbArc
 50
0.0
 51
90.0
  0
ARC
  5
2B2
100
AcDbEntity
  8
0
100
AcDbCircle
 62
7
  6
CONTINUOUS
 10
5.1421897536
 20
6.187260248
 40
0.025
100
AcDbArc
 50
189.3380668668
 51
260.9753707255
  0
ARC
  5
2B3
100
AcDbEntity
  8
0
100
AcDbCircle
 62
7
  6
CONTINUOUS
 10
5.1421897536
 20
5.6752891147
 40
0.025
100
AcDbArc
 50
99.0246292745
 51
170.6619331332
  0
ARC
  5
2B4
100
AcDbEntity
  8
0
100
AcDbCircle
 62
7
  6
CONTINUOUS
 10
5.471279978
 20
6.187260248
 40
0.025
100
AcDbArc
 50
279.0246292746
 51
350.6619331333
  0
ARC
  5
2B5
100
AcDbEntity
  8
0
100
AcDbCircle
 62
7
  6
CONTINUOUS
 10
5.471279978
 20
5.6752891147
 40
0.025
100
AcDbArc
 50
9.3380668667
 51
80.9753707254
  0
ARC
  5
2B6
100
AcDbEntity
  8
0
100
AcDbCircle
 62
7
  6
CONTINUOUS
 10
5.6951893517
 20
6.3104473991
 40
0.02
100
AcDbArc
 50
298.0607850298
 51
357.6565365187
  0
ARC
  5
2B7
100
AcDbEntity
  8
0
100
AcDbCircle
 62
7
  6
CONTINUOUS
 10
5.6957613371
 20
5.2087517641
 40
0.01
100
AcDbArc
 50
176.0182891172
 51
269.9741977263
  0
ARC
  5
2B8
100
AcDbEntity
  8
0
100
AcDbCircle
 62
7
  6
CONTINUOUS
 10
5.6554647988
 20
6.4947746814
 40
0.01
100
AcDbArc
 50
180.0
 51
270.0
  0
ARC
  5
2B9
100
AcDbEntity
  8
0
100
AcDbCircle
 62
7
  6
CONTINUOUS
 10
5.6554647988
 20
6.5347746814
 40
0.01
100
AcDbArc
 50
90.0
 51
180.0
  0
ARC
  5
2BA
100
AcDbEntity
  8
0
100
AcDbCircle
 62
7
  6
CONTINUOUS
 10
5.7026808528
 20
5.188748646
 40
0.01
100
AcDbArc
 50
89.9741977263
 51
231.2905153608
  0
ARC
  5
2BB
100
AcDbEntity
  8
0
100
AcDbCircle
 62
7
  6
CONTINUOUS
 10
5.5936769092
 20
5.6631549631
 40
0.005
100
AcDbArc
 50
221.4015174662
 51
270.0
  0
ARC
  5
2BC
100
AcDbEntity
  8
0
100
AcDbCircle
 62
7
  6
CONTINUOUS
 10
6.1235304675
 20
2.2603352498
 40
0.4641055183
100
AcDbArc
 50
40.46642176
 51
53.2765059906
  0
ARC
  5
2BD
100
AcDbEntity
  8
0
100
AcDbCircle
 62
7
  6
CONTINUOUS
 10
6.7078331218
 20
2.8071066926
 40
0.3286229872
100
AcDbArc
 50
190.3218264164
 51
203.9190855479
  0
ARC
  5
2BE
100
AcDbEntity
  8
0
100
AcDbCircle
 62
7
  6
CONTINUOUS
 10
6.2746497988
 20
3.2326512744
 40
0.05346
100
AcDbArc
 50
137.5497975837
 51
180.0
  0
ARC
  5
2BF
100
AcDbEntity
  8
0
100
AcDbCircle
 62
7
  6
CONTINUOUS
 10
6.3529726454
 20
2.7424699407
 40
0.032076
100
AcDbArc
 50
10.3359165502
 51
83.7497493524
  0
ARC
  5
2C0
100
AcDbEntity
  8
0
100
AcDbCircle
 62
7
  6
CONTINUOUS
 10
6.2425737988
 20
3.0798384849
 40
0.021384
100
AcDbArc
 50
180.0
 51
246.0078468609
  0
ARC
  5
2C1
100
AcDbEntity
  8
0
100
AcDbCircle
 62
7
  6
CONTINUOUS
 10
6.4603507112
 20
2.5476586814
 40
0.021384
100
AcDbArc
 50
270.0
 51
40.480732321
  0
ARC
  5
2C2
100
AcDbEntity
  8
0
100
AcDbCircle
 62
7
  6
CONTINUOUS
 10
6.3878790707
 20
2.6652086814
 40
0.021384
100
AcDbArc
 50
307.6000045374
 51
23.8856909441
  0
ARC
  5
2C3
100
AcDbEntity
  8
0
100
AcDbCircle
 62
7
  6
CONTINUOUS
 10
6.2668016761
 20
2.9964726935
 40
0.01782
100
AcDbArc
 50
152.0712614421
 51
214.6219444983
  0
ARC
  5
2C4
100
AcDbEntity
  8
0
100
AcDbCircle
 62
7
  6
CONTINUOUS
 10
6.4070278685
 20
2.6403434647
 40
0.01
100
AcDbArc
 50
127.6000045373
 51
233.2510683932
  0
ARC
  5
2C5
100
AcDbEntity
  8
0
100
AcDbCircle
 62
7
  6
CONTINUOUS
 10
5.8974647988
 20
3.8922746814
 40
0.40275
100
AcDbArc
 50
109.2715011264
 51
70.6401191388
  0
ARC
  5
2C6
100
AcDbEntity
  8
0
100
AcDbCircle
 62
7
  6
CONTINUOUS
 10
5.8974647988
 20
3.8922746814
 40
0.3966817905
100
AcDbArc
 50
109.3830780485
 51
70.5273506501
  0
ARC
  5
2C7
100
AcDbEntity
  8
0
100
AcDbCircle
 62
7
  6
CONTINUOUS
 10
5.8974647988
 20
3.8922746814
 40
0.3786252125
100
AcDbArc
 50
109.8721910145
 51
70.0354551508
  0
ARC
  5
2C8
100
AcDbEntity
  8
0
100
AcDbCircle
 62
7
  6
CONTINUOUS
 10
5.8974647988
 20
3.8922746814
 40
0.35325
100
AcDbArc
 50
111.0341003648
 51
68.8688207634
  0
ARC
  5
2C9
100
AcDbEntity
  8
0
100
AcDbCircle
 62
7
  6
CONTINUOUS
 10
5.8974647988
 20
3.8922746814
 40
0.3409443413
100
AcDbArc
 50
111.8426615722
 51
68.0571164154
  0
ARC
  5
2CA
100
AcDbEntity
  8
0
100
AcDbCircle
 62
7
  6
CONTINUOUS
 10
5.8974647988
 20
3.8922746814
 40
0.2947924269
100
AcDbArc
 50
282.5343888096
 51
63.2419006685
  0
ARC
  5
2CB
100
AcDbEntity
  8
0
100
AcDbCircle
 62
7
  6
CONTINUOUS
 10
5.8974647988
 20
3.8922746814
 40
0.2947924269
100
AcDbArc
 50
116.6523488642
 51
257.414006643
  0
ARC
  5
2CC
100
AcDbEntity
  8
0
100
AcDbCircle
 62
7
  6
CONTINUOUS
 10
5.8974647988
 20
3.8922746814
 40
0.263722269
100
AcDbArc
 50
311.217064371
 51
64.8376965016
  0
ARC
  5
2CD
100
AcDbEntity
  8
0
100
AcDbCircle
 62
7
  6
CONTINUOUS
 10
5.8974647988
 20
3.8922746814
 40
0.263722269
100
AcDbArc
 50
115.0796708223
 51
228.73132257
  0
ARC
  5
2CE
100
AcDbEntity
  8
0
100
AcDbCircle
 62
7
  6
CONTINUOUS
 10
6.2782329191
 20
4.2163469866
 40
0.2535
100
AcDbArc
 50
163.2371291837
 51
191.5436728734
  0
ARC
  5
2CF
100
AcDbEntity
  8
0
100
AcDbCircle
 62
7
  6
CONTINUOUS
 10
6.1839419274
 20
3.4901049982
 40
0.2274450426
100
AcDbArc
 50
129.2894243609
 51
130.3489820084
  0
ARC
  5
2D0
100
AcDbEntity
  8
0
100
AcDbCircle
 62
7
  6
CONTINUOUS
 10
5.8975973577
 20
3.8930124778
 40
0.2175
100
AcDbArc
 50
117.3464721622
 51
62.6019232903
  0
ARC
  5
2D1
100
AcDbEntity
  8
0
100
AcDbCircle
 62
7
  6
CONTINUOUS
 10
5.899893643
 20
3.7788298676
 40
0.1812496665
100
AcDbArc
 50
228.2566385595
 51
236.0492078218
  0
ARC
  5
2D2
100
AcDbEntity
  8
0
100
AcDbCircle
 62
7
  6
CONTINUOUS
 10
5.9232918269
 20
3.77473573
 40
0.1589186765
100
AcDbArc
 50
304.3221873269
 51
309.4035449537
  0
CIRCLE
  5
2D3
100
AcDbEntity
  8
0
100
AcDbCircle
 62
7
  6
CONTINUOUS
 10
5.8975973577
 20
3.8930124778
 40
0.12925
  0
CIRCLE
  5
2D4
100
AcDbEntity
  8
0
100
AcDbCircle
 62
7
  6
CONTINUOUS
 10
5.8975973577
 20
3.8930124778
 40
0.111355286
  0
ARC
  5
2D5
100
AcDbEntity
  8
0
100
AcDbCircle
 62
7
  6
CONTINUOUS
 10
5.9761275616
 20
3.6985406493
 40
0.05
100
AcDbArc
 50
317.6576440325
 51
359.9741977263
  0
ARC
  5
2D6
100
AcDbEntity
  8
0
100
AcDbCircle
 62
7
  6
CONTINUOUS
 10
6.0974597998
 20
3.735922304
 40
0.05
100
AcDbArc
 50
183.0593762806
 51
196.7970889617
  0
ARC
  5
2D7
100
AcDbEntity
  8
0
100
AcDbCircle
 62
7
  6
CONTINUOUS
 10
6.0034532385
 20
3.7013033123
 40
0.05
100
AcDbArc
 50
326.9597329711
 51
16.7970889617
  0
ARC
  5
2D8
100
AcDbEntity
  8
0
100
AcDbCircle
 62
7
  6
CONTINUOUS
 10
6.0004674282
 20
4.159614438
 40
0.03
100
AcDbArc
 50
290.1559934932
 51
11.5436728734
  0
ARC
  5
2D9
100
AcDbEntity
  8
0
100
AcDbCircle
 62
7
  6
CONTINUOUS
 10
6.0067797989
 20
4.2981116094
 40
0.03
100
AcDbArc
 50
343.2371291837
 51
66.7934821193
  0
ARC
  5
2DA
100
AcDbEntity
  8
0
100
AcDbCircle
 62
7
  6
CONTINUOUS
 10
6.2332155715
 20
3.3601054578
 40
0.021384
100
AcDbArc
 50
183.0992294181
 51
244.4544335618
  0
ARC
  5
2DB
100
AcDbEntity
  8
0
100
AcDbCircle
 62
7
  6
CONTINUOUS
 10
6.0176962922
 20
4.1126765403
 40
0.02
100
AcDbArc
 50
110.1559934932
 51
179.9741977263
  0
ARC
  5
2DC
100
AcDbEntity
  8
0
100
AcDbCircle
 62
7
  6
CONTINUOUS
 10
6.0264821223
 20
4.3440661353
 40
0.02
100
AcDbArc
 50
174.0012018036
 51
246.7934821196
  0
ARC
  5
2DD
100
AcDbEntity
  8
0
100
AcDbCircle
 62
7
  6
CONTINUOUS
 10
7.8649371289
 20
3.8303886542
 40
1.82
100
AcDbArc
 50
182.9933267274
 51
183.0593762806
  0
ARC
  5
2DE
100
AcDbEntity
  8
0
100
AcDbCircle
 62
7
  6
CONTINUOUS
 10
32.5566768092
 20
4.7853891547
 40
26.3834029885
100
AcDbArc
 50
182.520509085
 51
183.0992534092
  0
ARC
  5
2DF
100
AcDbEntity
  8
0
100
AcDbCircle
 62
7
  6
CONTINUOUS
 10
32.5382330293
 20
4.7840656408
 40
26.3649275003
100
AcDbArc
 50
178.3657480264
 51
181.3150747226
  0
ARC
  5
2E0
100
AcDbEntity
  8
0
100
AcDbCircle
 62
7
  6
CONTINUOUS
 10
21.081260097
 20
5.9392860527
 40
15.375
100
AcDbArc
 50
183.0577269372
 51
185.9471936488
  0
ARC
  5
2E1
100
AcDbEntity
  8
0
100
AcDbCircle
 62
7
  6
CONTINUOUS
 10
7.2011157217
 20
5.464209787
 40
1.0
100
AcDbArc
 50
171.526150195
 51
171.8385134373
  0
ARC
  5
2E2
100
AcDbEntity
  8
0
100
AcDbCircle
 62
7
  6
CONTINUOUS
 10
5.8974647988
 20
5.9307889832
 40
0.654
100
AcDbArc
 50
69.8536690168
 51
110.1463309832
  0
ARC
  5
2E3
100
AcDbEntity
  8
0
100
AcDbCircle
 62
7
  6
CONTINUOUS
 10
5.8974647988
 20
5.9309943144
 40
0.41
100
AcDbArc
 50
118.0607850299
 51
143.4761888153
  0
ARC
  5
2E4
100
AcDbEntity
  8
0
100
AcDbCircle
 62
7
  6
CONTINUOUS
 10
5.8974647988
 20
5.9309943144
 40
0.41
100
AcDbArc
 50
318.5984825339
 51
61.9392149701
  0
ARC
  5
2E5
100
AcDbEntity
  8
0
100
AcDbCircle
 62
7
  6
CONTINUOUS
 10
5.8974647988
 20
5.9309943144
 40
0.41
100
AcDbArc
 50
216.5238111847
 51
221.4015174661
  0
ARC
  5
2E6
100
AcDbEntity
  8
0
100
AcDbCircle
 62
7
  6
CONTINUOUS
 10
5.9013572314
 20
6.5966618816
 40
0.255
100
AcDbArc
 50
206.0256412027
 51
242.842316557
  0
ARC
  5
2E7
100
AcDbEntity
  8
0
100
AcDbCircle
 62
7
  6
CONTINUOUS
 10
5.9328042936
 20
5.0386449982
 40
0.25
100
AcDbArc
 50
65.7909901763
 51
89.9741977263
  0
ARC
  5
2E8
100
AcDbEntity
  8
0
100
AcDbCircle
 62
7
  6
CONTINUOUS
 10
6.1530243462
 20
5.1143880311
 40
0.085
100
AcDbArc
 50
128.6578800917
 51
176.8906685154
  0
ARC
  5
2E9
100
AcDbEntity
  8
0
100
AcDbCircle
 62
7
  6
CONTINUOUS
 10
6.2641870294
 20
5.5336870485
 40
0.08019
100
AcDbArc
 50
141.3720287325
 51
178.3667847023
  0
ARC
  5
2EA
100
AcDbEntity
  8
0
100
AcDbCircle
 62
7
  6
CONTINUOUS
 10
6.1502147988
 20
5.6207776641
 40
0.0625
100
AcDbArc
 50
351.526150195
 51
36.7309920888
  0
ARC
  5
2EB
100
AcDbEntity
  8
0
100
AcDbCircle
 62
7
  6
CONTINUOUS
 10
6.1652147988
 20
5.6127746814
 40
0.0465
100
AcDbArc
 50
321.3720287336
 51
351.8385134374
  0
ARC
  5
2EC
100
AcDbEntity
  8
0
100
AcDbCircle
 62
7
  6
CONTINUOUS
 10
6.0706888901
 20
5.2065132574
 40
0.04
100
AcDbArc
 50
3.9301063354
 51
65.0804383679
  0
ARC
  5
2ED
100
AcDbEntity
  8
0
100
AcDbCircle
 62
7
  6
CONTINUOUS
 10
6.0405397988
 20
6.3080246814
 40
0.03925
100
AcDbArc
 50
2.3434634813
 51
90.0
  0
ARC
  5
2EE
100
AcDbEntity
  8
0
100
AcDbCircle
 62
7
  6
CONTINUOUS
 10
6.0997402459
 20
6.3104473991
 40
0.02
100
AcDbArc
 50
182.3434634813
 51
241.9392149702
  0
ARC
  5
2EF
100
AcDbEntity
  8
0
100
AcDbCircle
 62
7
  6
CONTINUOUS
 10
6.1006183422
 20
5.208569443
 40
0.01
100
AcDbArc
 50
269.9741977263
 51
3.9301063354
  0
ARC
  5
2F0
100
AcDbEntity
  8
0
100
AcDbCircle
 62
7
  6
CONTINUOUS
 10
6.1394647988
 20
6.4947746814
 40
0.01
100
AcDbArc
 50
270.0
 51
360.0
  0
ARC
  5
2F1
100
AcDbEntity
  8
0
100
AcDbCircle
 62
7
  6
CONTINUOUS
 10
6.1394647988
 20
6.5347746814
 40
0.01
100
AcDbArc
 50
0.0
 51
90.0
  0
ARC
  5
2F2
100
AcDbEntity
  8
0
100
AcDbCircle
 62
7
  6
CONTINUOUS
 10
6.0936808131
 20
5.1885725651
 40
0.01
100
AcDbArc
 50
308.6578800917
 51
89.9741977263
  0
ARC
  5
2F3
100
AcDbEntity
  8
0
100
AcDbCircle
 62
7
  6
CONTINUOUS
 10
6.2012526884
 20
5.6631549631
 40
0.005
100
AcDbArc
 50
270.0
 51
318.5984825338
  0
SPLINE
  5
2F4
100
AcDbEntity
  8
0
100
AcDbSpline
 62
7
  6
CONTINUOUS
 70
0
 71
3
 72
15
 73
11
 74
0
 42
0.0000001
 43
0.0000001
 44
0.0000000001
 40
0.0
 40
0.0
 40
0.0
 40
0.0
 40
0.1257170887
 40
0.2508917507
 40
0.3756915485
 40
0.5002855569
 40
0.6248436888
 40
0.7495360039
 40
0.8745320139
 40
1.0
 40
1.0
 40
1.0
 40
1.0
 10
5.4384647988
 20
2.7743552766
 30
0.0
 10
5.4415029166
 20
2.7838160276
 30
0.0
 10
5.4479065741
 20
2.8025893799
 30
0.0
 10
5.4585136451
 20
2.8303314752
 30
0.0
 10
5.4700978834
 20
2.8575840204
 30
0.0
 10
5.4826591045
 20
2.8843463825
 30
0.0
 10
5.496197271
 20
2.9106185053
 30
0.0
 10
5.5107123689
 20
2.9364003223
 30
0.0
 10
5.5262040118
 20
2.9616912927
 30
0.0
 10
5.5371579544
 20
2.9781872899
 30
0.0
 10
5.5427923349
 20
2.9863481007
 30
0.0
  0
SPLINE
  5
2F5
100
AcDbEntity
  8
0
100
AcDbSpline
 62
7
  6
CONTINUOUS
 70
0
 71
3
 72
15
 73
11
 74
0
 42
0.0000001
 43
0.0000001
 44
0.0000000001
 40
0.0
 40
0.0
 40
0.0
 40
0.0
 40
0.1257170887
 40
0.2508917507
 40
0.3756915485
 40
0.5002855569
 40
0.6248436888
 40
0.7495360039
 40
0.8745320139
 40
1.0
 40
1.0
 40
1.0
 40
1.0
 10
6.3564647988
 20
2.7743552766
 30
0.0
 10
6.353426681
 20
2.7838160276
 30
0.0
 10
6.3470230235
 20
2.8025893799
 30
0.0
 10
6.3364159525
 20
2.8303314752
 30
0.0
 10
6.3248317142
 20
2.8575840204
 30
0.0
 10
6.3122704931
 20
2.8843463825
 30
0.0
 10
6.2987323266
 20
2.9106185053
 30
0.0
 10
6.2842172287
 20
2.9364003223
 30
0.0
 10
6.2687255858
 20
2.9616912927
 30
0.0
 10
6.2577716432
 20
2.9781872899
 30
0.0
 10
6.2521372627
 20
2.9863481007
 30
0.0
  0
SPLINE
  5
2F6
100
AcDbEntity
  8
0
100
AcDbSpline
 62
7
  6
CONTINUOUS
 70
0
 71
3
 72
24
 73
20
 74
0
 42
0.0000001
 43
0.0000001
 44
0.0000000001
 40
0.0
 40
0.0
 40
0.0
 40
0.0
 40
0.0630485543
 40
0.1274018248
 40
0.192161197
 40
0.2244605315
 40
0.2565950002
 40
0.320279787
 40
0.3834130472
 40
0.4461706493
 40
0.5086525855
 40
0.5709002888
 40
0.6329150843
 40
0.6946771889
 40
0.756165072
 40
0.8173752125
 40
0.8783423084
 40
0.9391597857
 40
1.0
 40
1.0
 40
1.0
 40
1.0
 10
6.251057157
 20
3.004819101
 30
0.0
 10
6.2516985455
 20
3.0060290053
 30
0.0
 10
6.2528897665
 20
3.0085310124
 30
0.0
 10
6.2543566989
 20
3.0124436468
 30
0.0
 10
6.255285758
 20
3.0158303046
 30
0.0
 10
6.2558220613
 20
3.0185857887
 30
0.0
 10
6.2562060678
 20
3.0213431146
 30
0.0
 10
6.2563920201
 20
3.0247983169
 30
0.0
 10
6.2561633427
 20
3.0289172121
 30
0.0
 10
6.255504855
 20
3.0329628589
 30
0.0
 10
6.2544393819
 20
3.0369004237
 30
0.0
 10
6.252989345
 20
3.0406956383
 30
0.0
 10
6.2511769176
 20
3.044314129
 30
0.0
 10
6.2490240182
 20
3.0477215014
 30
0.0
 10
6.2465523215
 20
3.0508832522
 30
0.0
 10
6.2437833545
 20
3.0537646869
 30
0.0
 10
6.2407382395
 20
3.0563309668
 30
0.0
 10
6.2374388287
 20
3.0585465574
 30
0.0
 10
6.23508608
 20
3.0597647283
 30
0.0
 10
6.2338788179
 20
3.0603020379
 30
0.0
  0
SPLINE
  5
2F7
100
AcDbEntity
  8
0
100
AcDbSpline
 62
7
  6
CONTINUOUS
 70
0
 71
3
 72
24
 73
20
 74
0
 42
0.0000001
 43
0.0000001
 44
0.0000000001
 40
0.0
 40
0.0
 40
0.0
 40
0.0
 40
0.0630485543
 40
0.1274018248
 40
0.192161197
 40
0.2244605315
 40
0.2565950002
 40
0.320279787
 40
0.3834130472
 40
0.4461706493
 40
0.5086525855
 40
0.5709002888
 40
0.6329150843
 40
0.6946771889
 40
0.756165072
 40
0.8173752125
 40
0.8783423084
 40
0.9391597857
 40
1.0
 40
1.0
 40
1.0
 40
1.0
 10
5.5438724406
 20
3.004819101
 30
0.0
 10
5.543231052
 20
3.0060290053
 30
0.0
 10
5.5420398311
 20
3.0085310124
 30
0.0
 10
5.5405728987
 20
3.0124436468
 30
0.0
 10
5.5396438396
 20
3.0158303046
 30
0.0
 10
5.5391075363
 20
3.0185857887
 30
0.0
 10
5.5387235298
 20
3.0213431146
 30
0.0
 10
5.5385375775
 20
3.0247983169
 30
0.0
 10
5.5387662549
 20
3.0289172121
 30
0.0
 10
5.5394247426
 20
3.0329628589
 30
0.0
 10
5.5404902157
 20
3.0369004237
 30
0.0
 10
5.5419402526
 20
3.0406956383
 30
0.0
 10
5.54375268
 20
3.044314129
 30
0.0
 10
5.5459055794
 20
3.0477215014
 30
0.0
 10
5.5483772761
 20
3.0508832522
 30
0.0
 10
5.551146243
 20
3.0537646869
 30
0.0
 10
5.5541913581
 20
3.0563309668
 30
0.0
 10
5.5574907689
 20
3.0585465574
 30
0.0
 10
5.5598435176
 20
3.0597647283
 30
0.0
 10
5.5610507797
 20
3.0603020379
 30
0.0
  0
SPLINE
  5
2F8
100
AcDbEntity
  8
0
100
AcDbSpline
 62
7
  6
CONTINUOUS
 70
0
 71
3
 72
25
 73
21
 74
0
 42
0.0000001
 43
0.0000001
 44
0.0000000001
 40
0.0
 40
0.0
 40
0.0
 40
0.0
 40
0.0319337077
 40
0.0637166764
 40
0.1271011293
 40
0.1906510676
 40
0.2546019714
 40
0.3835923499
 40
0.4485083684
 40
0.5133132965
 40
0.5777033835
 40
0.6413717656
 40
0.7040416711
 40
0.7655029233
 40
0.8256539663
 40
0.8845506907
 40
0.9136208464
 40
0.942499002
 40
0.9712605395
 40
1.0
 40
1.0
 40
1.0
 40
1.0
 10
6.2352035768
 20
3.2687340566
 30
0.0
 10
6.235796841
 20
3.2693826216
 30
0.0
 10
6.2369343037
 20
3.2707199522
 30
0.0
 10
6.2390089748
 20
3.2735396821
 30
0.0
 10
6.2412315279
 20
3.2773169818
 30
0.0
 10
6.2433043333
 20
3.2821592954
 30
0.0
 10
6.2453055902
 20
3.288942801
 30
0.0
 10
6.2461849647
 20
3.2960461548
 30
0.0
 10
6.2460262695
 20
3.3031725427
 30
0.0
 10
6.2454023063
 20
3.3084875818
 30
0.0
 10
6.2442894414
 20
3.3136860686
 30
0.0
 10
6.2427034102
 20
3.3186992811
 30
0.0
 10
6.2406593757
 20
3.3234569104
 30
0.0
 10
6.2381716322
 20
3.3278891281
 30
0.0
 10
6.2352542831
 20
3.331925077
 30
0.0
 10
6.2324614311
 20
3.3349132285
 30
0.0
 10
6.2300305903
 20
3.3370226839
 30
0.0
 10
6.2281173013
 20
3.3384532832
 30
0.0
 10
6.2261085806
 20
3.3397294644
 30
0.0
 10
6.2247078984
 20
3.3404707762
 30
0.0
 10
6.2239941754
 20
3.3408119016
 30
0.0
  0
SPLINE
  5
2F9
100
AcDbEntity
  8
0
100
AcDbSpline
 62
7
  6
CONTINUOUS
 70
0
 71
3
 72
25
 73
21
 74
0
 42
0.0000001
 43
0.0000001
 44
0.0000000001
 40
0.0
 40
0.0
 40
0.0
 40
0.0
 40
0.0319337077
 40
0.0637166764
 40
0.1271011293
 40
0.1906510676
 40
0.2546019714
 40
0.3835923499
 40
0.4485083684
 40
0.5133132965
 40
0.5777033835
 40
0.6413717656
 40
0.7040416711
 40
0.7655029233
 40
0.8256539663
 40
0.8845506907
 40
0.9136208464
 40
0.942499002
 40
0.9712605395
 40
1.0
 40
1.0
 40
1.0
 40
1.0
 10
5.5597260208
 20
3.2687340566
 30
0.0
 10
5.5591327566
 20
3.2693826216
 30
0.0
 10
5.5579952939
 20
3.2707199522
 30
0.0
 10
5.5559206228
 20
3.2735396821
 30
0.0
 10
5.5536980697
 20
3.2773169818
 30
0.0
 10
5.5516252643
 20
3.2821592954
 30
0.0
 10
5.5496240074
 20
3.288942801
 30
0.0
 10
5.5487446329
 20
3.2960461548
 30
0.0
 10
5.5489033281
 20
3.3031725427
 30
0.0
 10
5.5495272913
 20
3.3084875818
 30
0.0
 10
5.5506401562
 20
3.3136860686
 30
0.0
 10
5.5522261874
 20
3.3186992811
 30
0.0
 10
5.5542702219
 20
3.3234569104
 30
0.0
 10
5.5567579654
 20
3.3278891281
 30
0.0
 10
5.5596753145
 20
3.331925077
 30
0.0
 10
5.5624681665
 20
3.3349132285
 30
0.0
 10
5.5648990073
 20
3.3370226839
 30
0.0
 10
5.5668122963
 20
3.3384532832
 30
0.0
 10
5.568821017
 20
3.3397294644
 30
0.0
 10
5.5702216992
 20
3.3404707762
 30
0.0
 10
5.5709354222
 20
3.3408119016
 30
0.0
  0
SPLINE
  5
2FA
100
AcDbEntity
  8
0
100
AcDbSpline
 62
7
  6
CONTINUOUS
 70
0
 71
3
 72
15
 73
11
 74
0
 42
0.0000001
 43
0.0000001
 44
0.0000000001
 40
0.0
 40
0.0
 40
0.0
 40
0.0
 40
0.1250014552
 40
0.2500059307
 40
0.375007471
 40
0.5
 40
0.624992529
 40
0.7499940693
 40
0.8749985448
 40
1.0
 40
1.0
 40
1.0
 40
1.0
 10
3.9680284777
 20
5.6314503121
 30
0.0
 10
3.9523388311
 20
5.6270295559
 30
0.0
 10
3.9213102465
 20
5.6168841191
 30
0.0
 10
3.8761818593
 20
5.5979130468
 30
0.0
 10
3.8327486077
 20
5.5753246272
 30
0.0
 10
3.7913105331
 20
5.5492584299
 30
0.0
 10
3.752168766
 20
5.5198563426
 30
0.0
 10
3.7155633466
 20
5.4873490001
 30
0.0
 10
3.6817317608
 20
5.4519668477
 30
0.0
 10
3.6611778097
 20
5.4266047096
 30
0.0
 10
3.6514472359
 20
5.413527094
 30
0.0
  0
SPLINE
  5
2FB
100
AcDbEntity
  8
0
100
AcDbSpline
 62
7
  6
CONTINUOUS
 70
0
 71
3
 72
13
 73
9
 74
0
 42
0.0000001
 43
0.0000001
 44
0.0000000001
 40
0.0
 40
0.0
 40
0.0
 40
0.0
 40
0.1250120262
 40
0.2500232056
 40
0.5
 40
0.7499767944
 40
0.8749879738
 40
1.0
 40
1.0
 40
1.0
 40
1.0
 10
4.3559439756
 20
6.1433212589
 30
0.0
 10
4.3301952963
 20
6.1403538385
 30
0.0
 10
4.278809706
 20
6.1333933598
 30
0.0
 10
4.1766915302
 20
6.1154204899
 30
0.0
 10
4.0504881461
 20
6.0854265346
 30
0.0
 10
3.9270295034
 20
6.0456157941
 30
0.0
 10
3.8303981321
 20
6.0080189331
 30
0.0
 10
3.7828540502
 20
5.9873189952
 30
0.0
 10
3.7593002018
 20
5.9765015883
 30
0.0
  0
SPLINE
  5
2FC
100
AcDbEntity
  8
0
100
AcDbSpline
 62
7
  6
CONTINUOUS
 70
0
 71
3
 72
29
 73
25
 74
0
 42
0.0000001
 43
0.0000001
 44
0.0000000001
 40
0.0
 40
0.0
 40
0.0
 40
0.0
 40
0.0049167064
 40
0.019467135
 40
0.0433519254
 40
0.0762719596
 40
0.0960222939
 40
0.1178923622
 40
0.1677341634
 40
0.2252846089
 40
0.2900405514
 40
0.3614738611
 40
0.438946298
 40
0.521807623
 40
0.6094659377
 40
0.7013581709
 40
0.7487343084
 40
0.7970112429
 40
0.8461752023
 40
0.8962574937
 40
0.9216679836
 40
0.9473832793
 40
0.9734700144
 40
1.0
 40
1.0
 40
1.0
 40
1.0
 10
4.5814848658
 20
6.1562746814
 30
0.0
 10
4.5815592118
 20
6.1559026474
 30
0.0
 10
4.5818523411
 20
6.1544293764
 30
0.0
 10
4.5824959191
 20
6.1511466834
 30
0.0
 10
4.5835415828
 20
6.145740873
 30
0.0
 10
4.5846463716
 20
6.1399378405
 30
0.0
 10
4.5857103408
 20
6.1342853143
 30
0.0
 10
4.5870103471
 20
6.1273485497
 30
0.0
 10
4.5888435312
 20
6.1175441466
 30
0.0
 10
4.5912959485
 20
6.1044889591
 30
0.0
 10
4.594086626
 20
6.0898021241
 30
0.0
 10
4.5972137529
 20
6.0736145129
 30
0.0
 10
4.6006947765
 20
6.0560725499
 30
0.0
 10
4.6045464418
 20
6.0373280609
 30
0.0
 10
4.6088183437
 20
6.0175348578
 30
0.0
 10
4.612730519
 20
6.0004662691
 30
0.0
 10
4.6161539423
 20
5.9864051577
 30
0.0
 10
4.6189218443
 20
5.9755785135
 30
0.0
 10
4.6218932215
 20
5.9645893259
 30
0.0
 10
4.6245682752
 20
5.9553491434
 30
0.0
 10
4.6268595883
 20
5.9478831068
 30
0.0
 10
4.6286903165
 20
5.9422130787
 30
0.0
 10
4.6306515708
 20
5.9364953727
 30
0.0
 10
4.6320510339
 20
5.932683647
 30
0.0
 10
4.63277975
 20
5.930770596
 30
0.0
  0
SPLINE
  5
2FD
100
AcDbEntity
  8
0
100
AcDbSpline
 62
7
  6
CONTINUOUS
 70
0
 71
3
 72
30
 73
26
 74
0
 42
0.0000001
 43
0.0000001
 44
0.0000000001
 40
0.0
 40
0.0
 40
0.0
 40
0.0
 40
0.0048502166
 40
0.0108560218
 40
0.0191983516
 40
0.0427408995
 40
0.0751747671
 40
0.0946277254
 40
0.116168254
 40
0.1652735148
 40
0.2220168624
 40
0.2859384533
 40
0.3565600786
 40
0.4333153801
 40
0.515638529
 40
0.6030482799
 40
0.6951148323
 40
0.7427977598
 40
0.7915765866
 40
0.8414856541
 40
0.8926246479
 40
0.9187084629
 40
0.9452290391
 40
0.9722894886
 40
1.0
 40
1.0
 40
1.0
 40
1.0
 10
4.4432043941
 20
6.1514155188
 30
0.0
 10
4.443300641
 20
6.1510548044
 30
0.0
 10
4.4435150103
 20
6.1502471533
 30
0.0
 10
4.4438909854
 20
6.1488180343
 30
0.0
 10
4.4446282717
 20
6.1459962188
 30
0.0
 10
4.445865422
 20
6.1412024931
 30
0.0
 10
4.4472955943
 20
6.1355753857
 30
0.0
 10
4.4486729448
 20
6.130093888
 30
0.0
 10
4.4503560426
 20
6.1233660904
 30
0.0
 10
4.4527300558
 20
6.1138523474
 30
0.0
 10
4.4559062123
 20
6.1011765557
 30
0.0
 10
4.459521091
 20
6.0869033593
 30
0.0
 10
4.4635731433
 20
6.0711519464
 30
0.0
 10
4.4680848538
 20
6.0540565273
 30
0.0
 10
4.4730789574
 20
6.035752424
 30
0.0
 10
4.4786197905
 20
6.0163771799
 30
0.0
 10
4.483689363
 20
5.9996420149
 30
0.0
 10
4.4881238192
 20
5.9858242859
 30
0.0
 10
4.4917152998
 20
5.9751450565
 30
0.0
 10
4.4955722699
 20
5.9642759028
 30
0.0
 10
4.4990394712
 20
5.9551240274
 30
0.0
 10
4.5020086561
 20
5.9477109047
 30
0.0
 10
4.5043856334
 20
5.9420579141
 30
0.0
 10
4.5069323673
 20
5.9363418594
 30
0.0
 10
4.5087428073
 20
5.9325338809
 30
0.0
 10
4.5096848658
 20
5.9306202457
 30
0.0
  0
SPLINE
  5
2FE
100
AcDbEntity
  8
0
100
AcDbSpline
 62
7
  6
CONTINUOUS
 70
0
 71
3
 72
15
 73
11
 74
0
 42
0.0000001
 43
0.0000001
 44
0.0000000001
 40
0.0
 40
0.0
 40
0.0
 40
0.0
 40
0.1225807667
 40
0.2498071379
 40
0.3796824862
 40
0.5102577174
 40
0.6395131194
 40
0.7654730729
 40
0.886232156
 40
1.0
 40
1.0
 40
1.0
 40
1.0
 10
5.7067102504
 20
3.7722141691
 30
0.0
 10
5.7071120283
 20
3.7721597544
 30
0.0
 10
5.7079334415
 20
3.7720676607
 30
0.0
 10
5.7091864287
 20
3.7719787612
 30
0.0
 10
5.7104683529
 20
3.7719374995
 30
0.0
 10
5.7117576212
 20
3.7719445081
 30
0.0
 10
5.7130327717
 20
3.7719997227
 30
0.0
 10
5.7142724585
 20
3.7721021677
 30
0.0
 10
5.715455943
 20
3.7722500661
 30
0.0
 10
5.7162207866
 20
3.7723817793
 30
0.0
 10
5.7165897228
 20
3.7724558407
 30
0.0
  0
SPLINE
  5
2FF
100
AcDbEntity
  8
0
100
AcDbSpline
 62
7
  6
CONTINUOUS
 70
0
 71
3
 72
27
 73
23
 74
0
 42
0.0000001
 43
0.0000001
 44
0.0000000001
 40
0.0
 40
0.0
 40
0.0
 40
0.0
 40
0.0736940187
 40
0.1514190535
 40
0.2319191891
 40
0.3139250128
 40
0.3961072023
 40
0.4771418273
 40
0.5557275142
 40
0.6306178522
 40
0.7006515956
 40
0.7647857112
 40
0.8221358654
 40
0.8720332798
 40
0.8940705524
 40
0.9141443656
 40
0.932289795
 40
0.9485888052
 40
0.9632003408
 40
0.9763753608
 40
0.9884804621
 40
1.0
 40
1.0
 40
1.0
 40
1.0
 10
5.7235150003
 20
3.6940553933
 30
0.0
 10
5.7238972617
 20
3.6941547454
 30
0.0
 10
5.7246776386
 20
3.694378667
 30
0.0
 10
5.725856914
 20
3.6947724552
 30
0.0
 10
5.7270614369
 20
3.6952281302
 30
0.0
 10
5.7282701115
 20
3.6957376888
 30
0.0
 10
5.7294619284
 20
3.6962923446
 30
0.0
 10
5.7306160903
 20
3.696882391
 30
0.0
 10
5.7317125143
 20
3.6974975167
 30
0.0
 10
5.7327321738
 20
3.6981269452
 30
0.0
 10
5.7336574356
 20
3.6987596423
 30
0.0
 10
5.734472522
 20
3.6993845522
 30
0.0
 10
5.7351635281
 20
3.6999907753
 30
0.0
 10
5.7356452485
 20
3.7004906683
 30
0.0
 10
5.7359544291
 20
3.7008752297
 30
0.0
 10
5.7361388753
 20
3.7011407017
 30
0.0
 10
5.7362850216
 20
3.7013942015
 30
0.0
 10
5.7363921536
 20
3.7016349399
 30
0.0
 10
5.7364597596
 20
3.7018621838
 30
0.0
 10
5.736487017
 20
3.7020754139
 30
0.0
 10
5.7364729721
 20
3.7022735789
 30
0.0
 10
5.7364350986
 20
3.7023958653
 30
0.0
 10
5.7364098005
 20
3.7024521829
 30
0.0
  0
SPLINE
  5
300
100
AcDbEntity
  8
0
100
AcDbSpline
 62
7
  6
CONTINUOUS
 70
0
 71
3
 72
33
 73
29
 74
0
 42
0.0000001
 43
0.0000001
 44
0.0000000001
 40
0.0
 40
0.0
 40
0.0
 40
0.0
 40
0.004760503
 40
0.0106570476
 40
0.0188497512
 40
0.0419797038
 40
0.0738628627
 40
0.0929941399
 40
0.1141876801
 40
0.1625441573
 40
0.2185016146
 40
0.2816464945
 40
0.3157841594
 40
0.3515513089
 40
0.3888829369
 40
0.4277143337
 40
0.5096430173
 40
0.5969500038
 40
0.6425149799
 40
0.6893173112
 40
0.7373497094
 40
0.7866494035
 40
0.8372880905
 40
0.8894179562
 40
0.91611653
 40
0.9433580999
 40
0.9712730765
 40
1.0
 40
1.0
 40
1.0
 40
1.0
 10
4.3559439756
 20
6.1433212589
 30
0.0
 10
4.3560518862
 20
6.1429768548
 30
0.0
 10
4.3562922898
 20
6.1422054939
 30
0.0
 10
4.3567140436
 20
6.1408400669
 30
0.0
 10
4.3575415402
 20
6.1381423857
 30
0.0
 10
4.358930872
 20
6.1335563017
 30
0.0
 10
4.3605377479
 20
6.1281696541
 30
0.0
 10
4.3620862117
 20
6.1229188277
 30
0.0
 10
4.3639801535
 20
6.1164678044
 30
0.0
 10
4.3666540576
 20
6.1073359895
 30
0.0
 10
4.3702347407
 20
6.0951556434
 30
0.0
 10
4.3735432605
 20
6.0840189182
 30
0.0
 10
4.3764453085
 20
6.0743583367
 30
0.0
 10
4.3788062998
 20
6.0665786544
 30
0.0
 10
4.3812989455
 20
6.058467093
 30
0.0
 10
4.3848662354
 20
6.0470246593
 30
0.0
 10
4.3896686676
 20
6.031998693
 30
0.0
 10
4.3948378158
 20
6.0165551696
 30
0.0
 10
4.399326328
 20
6.003693867
 30
0.0
 10
4.4029386478
 20
5.9936810413
 30
0.0
 10
4.4067719349
 20
5.9834476689
 30
0.0
 10
4.4108672553
 20
5.9730030717
 30
0.0
 10
4.415269771
 20
5.9623470179
 30
0.0
 10
4.4192255909
 20
5.9533627744
 30
0.0
 10
4.4226145359
 20
5.9460698302
 30
0.0
 10
4.4253325505
 20
5.9404904335
 30
0.0
 10
4.4282458601
 20
5.934836767
 30
0.0
 10
4.4303120355
 20
5.9310715075
 30
0.0
 10
4.4313868875
 20
5.9291773132
 30
0.0
  0
SPLINE
  5
301
100
AcDbEntity
  8
0
100
AcDbSpline
 62
7
  6
CONTINUOUS
 70
0
 71
3
 72
10
 73
6
 74
0
 42
0.0000001
 43
0.0000001
 44
0.0000000001
 40
0.0
 40
0.0
 40
0.0
 40
0.0
 40
0.2468624383
 40
0.4958590498
 40
1.0
 40
1.0
 40
1.0
 40
1.0
 10
5.758038996
 20
3.6635697861
 30
0.0
 10
5.7588145897
 20
3.6629098226
 30
0.0
 10
5.7603478294
 20
3.6615551259
 30
0.0
 10
5.7633690698
 20
3.6587458959
 30
0.0
 10
5.765598275
 20
3.656581356
 30
0.0
 10
5.7670842429
 20
3.6551263054
 30
0.0
  0
SPLINE
  5
302
100
AcDbEntity
  8
0
100
AcDbSpline
 62
7
  6
CONTINUOUS
 70
0
 71
3
 72
13
 73
9
 74
0
 42
0.0000001
 43
0.0000001
 44
0.0000000001
 40
0.0
 40
0.0
 40
0.0
 40
0.0
 40
0.2481425495
 40
0.3728634497
 40
0.4979137414
 40
0.623223403
 40
0.7487237054
 40
1.0
 40
1.0
 40
1.0
 40
1.0
 10
5.7670842429
 20
3.6551263054
 30
0.0
 10
5.768073709
 20
3.6541574263
 30
0.0
 10
5.7695552528
 20
3.6526962221
 30
0.0
 10
5.7715448456
 20
3.6507563491
 30
0.0
 10
5.7730529796
 20
3.6493046925
 30
0.0
 10
5.7745740091
 20
3.647860222
 30
0.0
 10
5.7766201201
 20
3.6459458117
 30
0.0
 10
5.7781732882
 20
3.6445281596
 30
0.0
 10
5.7792184814
 20
3.6435932343
 30
0.0
  0
SPLINE
  5
303
100
AcDbEntity
  8
0
100
AcDbSpline
 62
7
  6
CONTINUOUS
 70
0
 71
3
 72
24
 73
20
 74
0
 42
0.0000001
 43
0.0000001
 44
0.0000000001
 40
0.0
 40
0.0
 40
0.0
 40
0.0
 40
0.2126477498
 40
0.4058911435
 40
0.5761267726
 40
0.6516473105
 40
0.7202934523
 40
0.781771861
 40
0.8358129849
 40
0.8822093909
 40
0.9207971937
 40
0.9371369907
 40
0.951508256
 40
0.9639241012
 40
0.974415269
 40
0.9830497884
 40
0.989963884
 40
0.9954308819
 40
1.0
 40
1.0
 40
1.0
 40
1.0
 10
5.8332281498
 20
3.6045660747
 30
0.0
 10
5.833377728
 20
3.6049257902
 30
0.0
 10
5.8336672747
 20
3.6056107317
 30
0.0
 10
5.834092163
 20
3.6065769505
 30
0.0
 10
5.8344288761
 20
3.6073074027
 30
0.0
 10
5.8346796306
 20
3.6078259648
 30
0.0
 10
5.8348485174
 20
3.6081627541
 30
0.0
 10
5.8350050226
 20
3.6084616778
 30
0.0
 10
5.8351484143
 20
3.6087213906
 30
0.0
 10
5.8352779805
 20
3.6089407128
 30
0.0
 10
5.8353787188
 20
3.609096738
 30
0.0
 10
5.8354526273
 20
3.6091999948
 30
0.0
 10
5.8355011276
 20
3.6092623988
 30
0.0
 10
5.8355457721
 20
3.6093141339
 30
0.0
 10
5.8355865342
 20
3.6093551784
 30
0.0
 10
5.8356234288
 20
3.6093856054
 30
0.0
 10
5.8356566279
 20
3.6094054912
 30
0.0
 10
5.8356866948
 20
3.6094149609
 30
0.0
 10
5.8357057383
 20
3.6094131279
 30
0.0
 10
5.835713582
 20
3.6094102047
 30
0.0
  0
SPLINE
  5
304
100
AcDbEntity
  8
0
100
AcDbSpline
 62
7
  6
CONTINUOUS
 70
0
 71
3
 72
15
 73
11
 74
0
 42
0.0000001
 43
0.0000001
 44
0.0000000001
 40
0.0
 40
0.0
 40
0.0
 40
0.0
 40
0.1254393318
 40
0.2512323634
 40
0.377059872
 40
0.5026582321
 40
0.6278289183
 40
0.7524492781
 40
0.8764844391
 40
1.0
 40
1.0
 40
1.0
 40
1.0
 10
4.4313868875
 20
5.9291773132
 30
0.0
 10
4.4080948161
 20
5.9283337336
 30
0.0
 10
4.3614682995
 20
5.9258797293
 30
0.0
 10
4.2916666566
 20
5.9196875133
 30
0.0
 10
4.2221299594
 20
5.9107438157
 30
0.0
 10
4.153155843
 20
5.8988165562
 30
0.0
 10
4.0850408682
 20
5.8836728748
 30
0.0
 10
4.0180807142
 20
5.8650781848
 30
0.0
 10
3.9525761661
 20
5.8427987709
 30
0.0
 10
3.9099974326
 20
5.8252987597
 30
0.0
 10
3.8890766314
 20
5.8158638375
 30
0.0
  0
SPLINE
  5
305
100
AcDbEntity
  8
0
100
AcDbSpline
 62
7
  6
CONTINUOUS
 70
0
 71
3
 72
24
 73
20
 74
0
 42
0.0000001
 43
0.0000001
 44
0.0000000001
 40
0.0
 40
0.0
 40
0.0
 40
0.0
 40
0.2126672852
 40
0.4059249006
 40
0.5761688383
 40
0.651691201
 40
0.7203375689
 40
0.7818145972
 40
0.8358527379
 40
0.882244584
 40
0.9208263123
 40
0.9371625384
 40
0.9515299099
 40
0.9639415825
 40
0.9744283748
 40
0.983058461
 40
0.9899683673
 40
0.9954320723
 40
1.0
 40
1.0
 40
1.0
 40
1.0
 10
5.9614421902
 20
3.6045087915
 30
0.0
 10
5.9612929287
 20
3.6048686462
 30
0.0
 10
5.9610039878
 20
3.605553851
 30
0.0
 10
5.9605799583
 20
3.606520446
 30
0.0
 10
5.9602438997
 20
3.6072511833
 30
0.0
 10
5.9599936144
 20
3.6077699458
 30
0.0
 10
5.9598250366
 20
3.6081068602
 30
0.0
 10
5.9596688089
 20
3.6084058924
 30
0.0
 10
5.9595256621
 20
3.6086656966
 30
0.0
 10
5.9593963069
 20
3.6088850926
 30
0.0
 10
5.9592957217
 20
3.6090411693
 30
0.0
 10
5.9592219171
 20
3.6091444584
 30
0.0
 10
5.9591734824
 20
3.6092068791
 30
0.0
 10
5.9591288944
 20
3.6092586262
 30
0.0
 10
5.9590881798
 20
3.6092996785
 30
0.0
 10
5.9590513233
 20
3.609330109
 30
0.0
 10
5.9590181524
 20
3.6093499946
 30
0.0
 10
5.9589881012
 20
3.609359459
 30
0.0
 10
5.9589690676
 20
3.6093576155
 30
0.0
 10
5.9589612282
 20
3.6093546886
 30
0.0
  0
SPLINE
  5
306
100
AcDbEntity
  8
0
100
AcDbSpline
 62
7
  6
CONTINUOUS
 70
0
 71
3
 72
36
 73
32
 74
0
 42
0.0000001
 43
0.0000001
 44
0.0000000001
 40
0.0
 40
0.0
 40
0.0
 40
0.0
 40
0.0044158273
 40
0.0098721778
 40
0.0174378014
 40
0.0387279706
 40
0.0679488674
 40
0.0854299817
 40
0.1047791349
 40
0.1489598426
 40
0.2002603837
 40
0.2585012751
 40
0.2901747546
 40
0.3235315211
 40
0.3952545499
 40
0.4336124784
 40
0.4736711582
 40
0.5154780281
 40
0.5590830171
 40
0.6045530858
 40
0.6520166744
 40
0.7016508979
 40
0.7537556362
 40
0.7808469415
 40
0.8087212957
 40
0.8374606093
 40
0.867148323
 40
0.8979137162
 40
0.9300674578
 40
0.9639724859
 40
1.0
 40
1.0
 40
1.0
 40
1.0
 10
3.7593002018
 20
5.9765015883
 30
0.0
 10
3.7594722066
 20
5.9762495103
 30
0.0
 10
3.7598559168
 20
5.9756853918
 30
0.0
 10
3.7605312292
 20
5.9746872884
 30
0.0
 10
3.7618562839
 20
5.9727208029
 30
0.0
 10
3.7640877351
 20
5.9693847089
 30
0.0
 10
3.7666836771
 20
5.9654680624
 30
0.0
 10
3.7691936612
 20
5.9616554163
 30
0.0
 10
3.7722695317
 20
5.9569775459
 30
0.0
 10
3.7766364402
 20
5.9503513881
 30
0.0
 10
3.7825233374
 20
5.9415081015
 30
0.0
 10
3.787993071
 20
5.9334257204
 30
0.0
 10
3.7928177738
 20
5.9264045301
 30
0.0
 10
3.7982168892
 20
5.9186477603
 30
0.0
 10
3.8039678713
 20
5.9105732387
 30
0.0
 10
3.8100943753
 20
5.9021990219
 30
0.0
 10
3.8150686202
 20
5.8955439691
 30
0.0
 10
3.8203403033
 20
5.8886591966
 30
0.0
 10
3.8259306118
 20
5.8815482574
 30
0.0
 10
3.831864252
 20
5.8742109973
 30
0.0
 10
3.8381814306
 20
5.8666494947
 30
0.0
 10
3.8449321758
 20
5.8588546635
 30
0.0
 10
3.8509022756
 20
5.8522485987
 30
0.0
 10
3.8559587318
 20
5.8468461594
 30
0.0
 10
3.8599661602
 20
5.8426741853
 30
0.0
 10
3.8641574629
 20
5.8384307992
 30
0.0
 10
3.8685531439
 20
5.8341093755
 30
0.0
 10
3.873185584
 20
5.8296931385
 30
0.0
 10
3.8781192648
 20
5.8251720877
 30
0.0
 10
3.8834285365
 20
5.8205251928
 30
0.0
 10
3.8871434304
 20
5.8174328571
 30
0.0
 10
3.8890766314
 20
5.8158638375
 30
0.0
  0
SPLINE
  5
307
100
AcDbEntity
  8
0
100
AcDbSpline
 62
7
  6
CONTINUOUS
 70
0
 71
3
 72
27
 73
23
 74
0
 42
0.0000001
 43
0.0000001
 44
0.0000000001
 40
0.0
 40
0.0
 40
0.0
 40
0.0
 40
0.0736939697
 40
0.1514189686
 40
0.2319190825
 40
0.3139248907
 40
0.3961070589
 40
0.4771416447
 40
0.5557272682
 40
0.6306175226
 40
0.7006511789
 40
0.7647852321
 40
0.822135384
 40
0.8720328889
 40
0.894070246
 40
0.9141441685
 40
0.9322897248
 40
0.9485888664
 40
0.9632005141
 40
0.976375592
 40
0.9884806511
 40
1.0
 40
1.0
 40
1.0
 40
1.0
 10
6.0712359645
 20
3.6938988392
 30
0.0
 10
6.0708537978
 20
3.6939985401
 30
0.0
 10
6.070073633
 20
3.6942231721
 30
0.0
 10
6.0688947276
 20
3.6946180306
 30
0.0
 10
6.0676906303
 20
3.695074796
 30
0.0
 10
6.0664824292
 20
3.695585446
 30
0.0
 10
6.0652911258
 20
3.6961411756
 30
0.0
 10
6.0641375084
 20
3.6967322595
 30
0.0
 10
6.0630416504
 20
3.6973483684
 30
0.0
 10
6.0620225682
 20
3.6979787089
 30
0.0
 10
6.0610978846
 20
3.6986122313
 30
0.0
 10
6.0602833668
 20
3.6992378659
 30
0.0
 10
6.0595929089
 20
3.6998447012
 30
0.0
 10
6.0591116372
 20
3.7003450189
 30
0.0
 10
6.0588027989
 20
3.7007298516
 30
0.0
 10
6.0586185872
 20
3.700995485
 30
0.0
 10
6.0584726632
 20
3.7012491121
 30
0.0
 10
6.0583657406
 20
3.7014899432
 30
0.0
 10
6.0582983301
 20
3.7017172445
 30
0.0
 10
6.0582712537
 20
3.7019304963
 30
0.0
 10
6.0582854642
 20
3.7021286467
 30
0.0
 10
6.0583234382
 20
3.7022508994
 30
0.0
 10
6.0583487823
 20
3.7023071946
 30
0.0
  0
SPLINE
  5
308
100
AcDbEntity
  8
0
100
AcDbSpline
 62
7
  6
CONTINUOUS
 70
0
 71
3
 72
13
 73
9
 74
0
 42
0.0000001
 43
0.0000001
 44
0.0000000001
 40
0.0
 40
0.0
 40
0.0
 40
0.0
 40
0.2512762729
 40
0.3767765659
 40
0.5020862329
 40
0.6271365375
 40
0.7518574474
 40
1.0
 40
1.0
 40
1.0
 40
1.0
 10
6.0154870887
 20
3.6434868344
 30
0.0
 10
6.0165331235
 20
3.6444208179
 30
0.0
 10
6.0180875679
 20
3.6458370704
 30
0.0
 10
6.0201354025
 20
3.6477496369
 30
0.0
 10
6.0216577322
 20
3.649192737
 30
0.0
 10
6.0231671728
 20
3.6506430353
 30
0.0
 10
6.0251585118
 20
3.6525811161
 30
0.0
 10
6.0266413718
 20
3.6540409848
 30
0.0
 10
6.0276317102
 20
3.6550089724
 30
0.0
  0
SPLINE
  5
309
100
AcDbEntity
  8
0
100
AcDbSpline
 62
7
  6
CONTINUOUS
 70
0
 71
3
 72
10
 73
6
 74
0
 42
0.0000001
 43
0.0000001
 44
0.0000000001
 40
0.0
 40
0.0
 40
0.0
 40
0.0
 40
0.5041409563
 40
0.7531375663
 40
1.0
 40
1.0
 40
1.0
 40
1.0
 10
6.0276317102
 20
3.6550089724
 30
0.0
 10
6.0291189879
 20
3.656462684
 30
0.0
 10
6.0313501412
 20
3.6586252154
 30
0.0
 10
6.0343739107
 20
3.6614317226
 30
0.0
 10
6.0359083697
 20
3.6627850377
 30
0.0
 10
6.0366845574
 20
3.6634443023
 30
0.0
  0
SPLINE
  5
30A
100
AcDbEntity
  8
0
100
AcDbSpline
 62
7
  6
CONTINUOUS
 70
0
 71
3
 72
13
 73
9
 74
0
 42
0.0000001
 43
0.0000001
 44
0.0000000001
 40
0.0
 40
0.0
 40
0.0
 40
0.0
 40
0.1221256942
 40
0.2488118026
 40
0.5083166111
 40
0.7635821708
 40
0.8850212003
 40
1.0
 40
1.0
 40
1.0
 40
1.0
 10
6.0881111213
 20
3.7720424198
 30
0.0
 10
6.0877204656
 20
3.7719898688
 30
0.0
 10
6.0869220902
 20
3.771900563
 30
0.0
 10
6.0852853055
 20
3.7717832889
 30
0.0
 10
6.0832132194
 20
3.7717520816
 30
0.0
 10
6.0811609732
 20
3.7718688781
 30
0.0
 10
6.0795845759
 20
3.7720550144
 30
0.0
 10
6.0788311173
 20
3.7721778831
 30
0.0
 10
6.0784665153
 20
3.7722470626
 30
0.0
  0
SPLINE
  5
30B
100
AcDbEntity
  8
0
100
AcDbSpline
 62
7
  6
CONTINUOUS
 70
0
 71
3
 72
35
 73
31
 74
0
 42
0.0000001
 43
0.0000001
 44
0.0000000001
 40
0.0
 40
0.0
 40
0.0
 40
0.0
 40
0.0045364744
 40
0.0178701967
 40
0.0395878386
 40
0.069276388
 40
0.0869834987
 40
0.106544836
 40
0.1510888438
 40
0.2026399135
 40
0.2609856076
 40
0.2926476277
 40
0.325948287
 40
0.3974238586
 40
0.4355907997
 40
0.4754176499
 40
0.5169565438
 40
0.5602621849
 40
0.6054078785
 40
0.6525344658
 40
0.7018354507
 40
0.7536369044
 40
0.7805971789
 40
0.8083616188
 40
0.8370185948
 40
0.8666579092
 40
0.8974186358
 40
0.9296350898
 40
0.9636966484
 40
1.0
 40
1.0
 40
1.0
 40
1.0
 10
3.6846901216
 20
5.938413143
 30
0.0
 10
3.6848783776
 20
5.9381597026
 30
0.0
 10
3.6856189821
 20
5.9371606193
 30
0.0
 10
3.6872524106
 20
5.934941999
 30
0.0
 10
3.689912732
 20
5.9313057857
 30
0.0
 10
3.6927389606
 20
5.927413864
 30
0.0
 10
3.6954674475
 20
5.9236364562
 30
0.0
 10
3.6988003143
 20
5.9190202669
 30
0.0
 10
3.7035220817
 20
5.9125017978
 30
0.0
 10
3.70987285
 20
5.903830559
 30
0.0
 10
3.715759457
 20
5.8959309174
 30
0.0
 10
3.720939371
 20
5.8890890836
 30
0.0
 10
3.7267188972
 20
5.8815553594
 30
0.0
 10
3.7328635585
 20
5.8737313802
 30
0.0
 10
3.7393966022
 20
5.8656365859
 30
0.0
 10
3.7446897076
 20
5.8592188953
 30
0.0
 10
3.7502902941
 20
5.8525919948
 30
0.0
 10
3.7562201827
 20
5.845759717
 30
0.0
 10
3.7625052706
 20
5.8387219577
 30
0.0
 10
3.7691872167
 20
5.831480806
 30
0.0
 10
3.7763190544
 20
5.8240266058
 30
0.0
 10
3.7826165424
 20
5.8177189871
 30
0.0
 10
3.7879453834
 20
5.812564753
 30
0.0
 10
3.7921681382
 20
5.8085844088
 30
0.0
 10
3.796582851
 20
5.8045366931
 30
0.0
 10
3.8012114071
 20
5.8004145984
 30
0.0
 10
3.8060890688
 20
5.7962007172
 30
0.0
 10
3.8112832397
 20
5.7918840313
 30
0.0
 10
3.8168727236
 20
5.7874420419
 30
0.0
 10
3.8207775758
 20
5.7844861033
 30
0.0
 10
3.8228096335
 20
5.78298483
 30
0.0
  0
SPLINE
  5
30C
100
AcDbEntity
  8
0
100
AcDbSpline
 62
7
  6
CONTINUOUS
 70
0
 71
3
 72
14
 73
10
 74
0
 42
0.0000001
 43
0.0000001
 44
0.0000000001
 40
0.0
 40
0.0
 40
0.0
 40
0.0
 40
0.1250364303
 40
0.2500464532
 40
0.3750750811
 40
0.5001360918
 40
0.6252151912
 40
0.7502731741
 40
1.0
 40
1.0
 40
1.0
 40
1.0
 10
3.8228096335
 20
5.78298483
 30
0.0
 10
3.8065407096
 20
5.7741505981
 30
0.0
 10
3.7744836092
 20
5.755589416
 30
0.0
 10
3.7279475255
 20
5.7252419526
 30
0.0
 10
3.6830269866
 20
5.6925439451
 30
0.0
 10
3.6397824584
 20
5.6576470183
 30
0.0
 10
3.5982697682
 20
5.6206988498
 30
0.0
 10
3.5453455362
 20
5.5689385002
 30
0.0
 10
3.5083654404
 20
5.5274340452
 30
0.0
 10
3.4850097188
 20
5.4987703896
 30
0.0
  0
SPLINE
  5
30D
100
AcDbEntity
  8
0
100
AcDbSpline
 62
7
  6
CONTINUOUS
 70
0
 71
3
 72
31
 73
27
 74
0
 42
0.0000001
 43
0.0000001
 44
0.0000000001
 40
0.0
 40
0.0
 40
0.0
 40
0.0
 40
0.0161379821
 40
0.0356428355
 40
0.0621781535
 40
0.0779513985
 40
0.0953648706
 40
0.1350884207
 40
0.1813260257
 40
0.2341534608
 40
0.293724753
 40
0.360399992
 40
0.3965494446
 40
0.4347332403
 40
0.5178229471
 40
0.5630719307
 40
0.611153656
 40
0.662453278
 40
0.7175693122
 40
0.7772444167
 40
0.8091293036
 40
0.8425771855
 40
0.8778153216
 40
0.9153845189
 40
0.9559053877
 40
1.0
 40
1.0
 40
1.0
 40
1.0
 10
3.3242977722
 20
5.5938879761
 30
0.0
 10
3.3251122271
 20
5.5932959769
 30
0.0
 10
3.3269109882
 20
5.5919883751
 30
0.0
 10
3.3300486702
 20
5.5897069927
 30
0.0
 10
3.333167739
 20
5.5874387077
 30
0.0
 10
3.3361812341
 20
5.5852471062
 30
0.0
 10
3.3398638083
 20
5.5825765211
 30
0.0
 10
3.3450991251
 20
5.5788094455
 30
0.0
 10
3.3521656943
 20
5.5738046201
 30
0.0
 10
3.3602993878
 20
5.5681646627
 30
0.0
 10
3.3695546062
 20
5.561905449
 30
0.0
 10
3.3780304077
 20
5.5563529047
 30
0.0
 10
3.3854472485
 20
5.5516208002
 30
0.0
 10
3.3937758026
 20
5.5464143628
 30
0.0
 10
3.4026701616
 20
5.5410428505
 30
0.0
 10
3.4121810911
 20
5.535501738
 30
0.0
 10
3.4200310209
 20
5.5310508413
 30
0.0
 10
3.4284745789
 20
5.5264001759
 30
0.0
 10
3.4376190687
 20
5.5215246897
 30
0.0
 10
3.4457552559
 20
5.5173346217
 30
0.0
 10
3.4527293995
 20
5.5138426524
 30
0.0
 10
3.4583618885
 20
5.5110769947
 30
0.0
 10
3.464335451
 20
5.5082017333
 30
0.0
 10
3.4707351653
 20
5.5051949604
 30
0.0
 10
3.4776675709
 20
5.5020234332
 30
0.0
 10
3.4824908925
 20
5.4998768593
 30
0.0
 10
3.4850097188
 20
5.4987703896
 30
0.0
  0
SPLINE
  5
30E
100
AcDbEntity
  8
0
100
AcDbSpline
 62
7
  6
CONTINUOUS
 70
0
 71
3
 72
30
 73
26
 74
0
 42
0.0000001
 43
0.0000001
 44
0.0000000001
 40
0.0
 40
0.0
 40
0.0
 40
0.0
 40
0.0155963648
 40
0.0344807831
 40
0.0602128807
 40
0.0755282809
 40
0.0924554851
 40
0.1311525764
 40
0.1763450584
 40
0.2281765228
 40
0.2868724561
 40
0.3528756871
 40
0.3887925049
 40
0.4268303922
 40
0.5099467404
 40
0.5553978609
 40
0.6038329444
 40
0.6556603419
 40
0.7115099877
 40
0.7721609801
 40
0.8046399993
 40
0.8387616009
 40
0.8747626494
 40
0.9132058324
 40
1.0
 40
1.0
 40
1.0
 40
1.0
 10
3.305477467
 20
5.5637691918
 30
0.0
 10
3.3062665818
 20
5.5632307772
 30
0.0
 10
3.3080112033
 20
5.5620404811
 30
0.0
 10
3.3110578619
 20
5.5599620044
 30
0.0
 10
3.3140903335
 20
5.5578932696
 30
0.0
 10
3.3170239012
 20
5.5558922812
 30
0.0
 10
3.3206168452
 20
5.5534487058
 30
0.0
 10
3.325735722
 20
5.5499947082
 30
0.0
 10
3.332660598
 20
5.5453952345
 30
0.0
 10
3.340656112
 20
5.5401943519
 30
0.0
 10
3.3497852378
 20
5.5343995333
 30
0.0
 10
3.3581637859
 20
5.5292427391
 30
0.0
 10
3.3655145713
 20
5.5248317452
 30
0.0
 10
3.3738063045
 20
5.519952305
 30
0.0
 10
3.382674815
 20
5.5149023184
 30
0.0
 10
3.3921725591
 20
5.5096738469
 30
0.0
 10
3.4000369715
 20
5.5054533586
 30
0.0
 10
3.4085126689
 20
5.5010261915
 30
0.0
 10
3.4177095704
 20
5.4963652001
 30
0.0
 10
3.4259014369
 20
5.4923442843
 30
0.0
 10
3.4329328007
 20
5.4889809215
 30
0.0
 10
3.4386207398
 20
5.4863083421
 30
0.0
 10
3.4446588651
 20
5.4835223559
 30
0.0
 10
3.4536605331
 20
5.479459314
 30
0.0
 10
3.4606967126
 20
5.4764024772
 30
0.0
 10
3.4655899342
 20
5.4743242748
 30
0.0
  0
SPLINE
  5
30F
100
AcDbEntity
  8
0
100
AcDbSpline
 62
7
  6
CONTINUOUS
 70
0
 71
3
 72
30
 73
26
 74
0
 42
0.0000001
 43
0.0000001
 44
0.0000000001
 40
0.0
 40
0.0
 40
0.0
 40
0.0
 40
0.0266184655
 40
0.052788199
 40
0.0785811227
 40
0.1040640611
 40
0.1542765159
 40
0.203551546
 40
0.2519213004
 40
0.2993728802
 40
0.3913678047
 40
0.4790708856
 40
0.5619270751
 40
0.6393530387
 40
0.7107070371
 40
0.775359564
 40
0.8327914493
 40
0.8825086325
 40
0.904316951
 40
0.9240074243
 40
0.9568179049
 40
0.9806139388
 40
0.98904075
 40
0.995104953
 40
1.0
 40
1.0
 40
1.0
 40
1.0
 10
4.63277975
 20
5.930770596
 30
0.0
 10
4.6335084141
 20
5.9288576816
 30
0.0
 10
4.6349082431
 20
5.9250467389
 30
0.0
 10
4.636871619
 20
5.919331216
 30
0.0
 10
4.6387058328
 20
5.913664747
 30
0.0
 10
4.6410033277
 20
5.9062058124
 30
0.0
 10
4.6436892609
 20
5.8969777145
 30
0.0
 10
4.646678748
 20
5.8860069007
 30
0.0
 10
4.6494690916
 20
5.8752030401
 30
0.0
 10
4.6529268521
 20
5.8611794968
 30
0.0
 10
4.6568907029
 20
5.8441663617
 30
0.0
 10
4.6612375168
 20
5.8244487179
 30
0.0
 10
4.6651726874
 20
5.8057885524
 30
0.0
 10
4.6687428715
 20
5.7883367882
 30
0.0
 10
4.6719619656
 20
5.7722422811
 30
0.0
 10
4.6748446258
 20
5.7576485768
 30
0.0
 10
4.6773860954
 20
5.7446835477
 30
0.0
 10
4.6792916001
 20
5.734951338
 30
0.0
 10
4.680645679
 20
5.728068639
 30
0.0
 10
4.6817549873
 20
5.7224628583
 30
0.0
 10
4.6829087442
 20
5.7167100591
 30
0.0
 10
4.6839092399
 20
5.7118099944
 30
0.0
 10
4.6845064742
 20
5.7089268759
 30
0.0
 10
4.6848112096
 20
5.7074675381
 30
0.0
 10
4.6849851969
 20
5.7066429116
 30
0.0
 10
4.6850633676
 20
5.7062746814
 30
0.0
  0
SPLINE
  5
310
100
AcDbEntity
  8
0
100
AcDbSpline
 62
7
  6
CONTINUOUS
 70
0
 71
3
 72
30
 73
26
 74
0
 42
0.0000001
 43
0.0000001
 44
0.0000000001
 40
0.0
 40
0.0
 40
0.0
 40
0.0
 40
0.0272746541
 40
0.0539328086
 40
0.0800821533
 40
0.1058233861
 40
0.1563555818
 40
0.2057549615
 40
0.2541134986
 40
0.3014589022
 40
0.3930748207
 40
0.4802973538
 40
0.562656028
 40
0.639630126
 40
0.7106158653
 40
0.7750090953
 40
0.8322923575
 40
0.8819663025
 40
0.9037896853
 40
0.9235179728
 40
0.956459763
 40
0.9804179313
 40
0.9889201323
 40
0.9950467381
 40
1.0
 40
1.0
 40
1.0
 40
1.0
 10
4.5096848658
 20
5.9306202457
 30
0.0
 10
4.5106273305
 20
5.9287057855
 30
0.0
 10
4.512439181
 20
5.9248944402
 30
0.0
 10
4.5149888308
 20
5.9191707994
 30
0.0
 10
4.5173706523
 20
5.9135053561
 30
0.0
 10
4.5203499852
 20
5.9060663651
 30
0.0
 10
4.5238339949
 20
5.896871125
 30
0.0
 10
4.5277161413
 20
5.8859375783
 30
0.0
 10
4.5313389898
 20
5.8751783717
 30
0.0
 10
4.5358254542
 20
5.8612264146
 30
0.0
 10
4.5409712129
 20
5.8442941529
 30
0.0
 10
4.5466163959
 20
5.8246537012
 30
0.0
 10
4.5517272734
 20
5.806053184
 30
0.0
 10
4.5563640154
 20
5.7886405571
 30
0.0
 10
4.5605452373
 20
5.7725615252
 30
0.0
 10
4.5642893397
 20
5.7579607315
 30
0.0
 10
4.5675906407
 20
5.744967739
 30
0.0
 10
4.5700650664
 20
5.7352009929
 30
0.0
 10
4.5718232971
 20
5.7282837921
 30
0.0
 10
4.5732654412
 20
5.7226369397
 30
0.0
 10
4.5747652249
 20
5.7168324389
 30
0.0
 10
4.5760640538
 20
5.7118831874
 30
0.0
 10
4.5768393426
 20
5.7089655316
 30
0.0
 10
4.5772353411
 20
5.7074855644
 30
0.0
 10
4.5774612759
 20
5.7066486774
 30
0.0
 10
4.5775627798
 20
5.7062746814
 30
0.0
  0
SPLINE
  5
311
100
AcDbEntity
  8
0
100
AcDbSpline
 62
7
  6
CONTINUOUS
 70
0
 71
3
 72
31
 73
27
 74
0
 42
0.0000001
 43
0.0000001
 44
0.0000000001
 40
0.0
 40
0.0
 40
0.0
 40
0.0
 40
0.0276437255
 40
0.054561029
 40
0.0808837301
 40
0.1067356454
 40
0.1573681052
 40
0.206751629
 40
0.255018544
 40
0.3022236236
 40
0.3483884052
 40
0.3934916247
 40
0.4803497299
 40
0.5623782814
 40
0.6390909205
 40
0.7099007783
 40
0.7742120707
 40
0.8315004266
 40
0.8812549857
 40
0.9031425562
 40
0.9229484451
 40
0.9560733524
 40
0.9802168255
 40
0.9887987485
 40
0.9949891173
 40
1.0
 40
1.0
 40
1.0
 40
1.0
 10
4.4313868875
 20
5.9291773132
 30
0.0
 10
4.4324628073
 20
5.9272812372
 30
0.0
 10
4.4345322488
 20
5.9235079414
 30
0.0
 10
4.4374510721
 20
5.9178355107
 30
0.0
 10
4.440178253
 20
5.9122253509
 30
0.0
 10
4.4435874539
 20
5.9048689466
 30
0.0
 10
4.4475762637
 20
5.8957780285
 30
0.0
 10
4.452026357
 20
5.8849629594
 30
0.0
 10
4.4561810458
 20
5.8743209314
 30
0.0
 10
4.4600844832
 20
5.8638548986
 30
0.0
 10
4.4637767584
 20
5.8535773697
 30
0.0
 10
4.4683894725
 20
5.8403085122
 30
0.0
 10
4.4737299372
 20
5.8242991289
 30
0.0
 10
4.4796149475
 20
5.8058457241
 30
0.0
 10
4.4849600976
 20
5.7885495242
 30
0.0
 10
4.4897857728
 20
5.7725557243
 30
0.0
 10
4.49411132
 20
5.7580112727
 30
0.0
 10
4.4979292585
 20
5.7450482876
 30
0.0
 10
4.5007926192
 20
5.7352919282
 30
0.0
 10
4.5028283938
 20
5.7283733451
 30
0.0
 10
4.5045004252
 20
5.7227147964
 30
0.0
 10
4.506239951
 20
5.7168906904
 30
0.0
 10
4.5077457379
 20
5.711920612
 30
0.0
 10
4.5086449598
 20
5.7089862833
 30
0.0
 10
4.5091047456
 20
5.7074954079
 30
0.0
 10
4.5093670192
 20
5.7066518749
 30
0.0
 10
4.5094848658
 20
5.7062746814
 30
0.0
  0
SPLINE
  5
312
100
AcDbEntity
  8
0
100
AcDbSpline
 62
7
  6
CONTINUOUS
 70
0
 71
3
 72
36
 73
32
 74
0
 42
0.0000001
 43
0.0000001
 44
0.0000000001
 40
0.0
 40
0.0
 40
0.0
 40
0.0
 40
0.0339531928
 40
0.0659975946
 40
0.096478914
 40
0.1257352021
 40
0.1540555163
 40
0.1815581657
 40
0.2083183302
 40
0.2344098379
 40
0.2848296728
 40
0.3331599595
 40
0.3796590277
 40
0.4244701634
 40
0.5093624193
 40
0.5495098187
 40
0.5881558388
 40
0.6609630108
 40
0.6950740472
 40
0.7276166728
 40
0.7878623719
 40
0.8413934747
 40
0.8878779121
 40
0.9083596825
 40
0.9269359494
 40
0.9581598687
 40
0.9810743888
 40
0.9892614581
 40
0.9951860101
 40
0.998786171
 40
1.0
 40
1.0
 40
1.0
 40
1.0
 10
3.8890766314
 20
5.8158638375
 30
0.0
 10
3.8910124348
 20
5.8142927057
 30
0.0
 10
3.8947380092
 20
5.8111925632
 30
0.0
 10
3.9000727965
 20
5.8065303109
 30
0.0
 10
3.9050486582
 20
5.8019841349
 30
0.0
 10
3.9097394278
 20
5.7975333407
 30
0.0
 10
3.9142089468
 20
5.7931682101
 30
0.0
 10
3.9184890492
 20
5.7888722884
 30
0.0
 10
3.9225997056
 20
5.7846392887
 30
0.0
 10
3.9278183258
 20
5.7791373093
 30
0.0
 10
3.9340224349
 20
5.772387859
 30
0.0
 10
3.9410943992
 20
5.7644034864
 30
0.0
 10
3.9477771756
 20
5.7566262692
 30
0.0
 10
3.9560800942
 20
5.7467030755
 30
0.0
 10
3.9639282098
 20
5.7370086852
 30
0.0
 10
3.9713648872
 20
5.7275661927
 30
0.0
 10
3.9781875411
 20
5.7187700589
 30
0.0
 10
3.984664512
 20
5.71026709
 30
0.0
 10
3.9908146297
 20
5.7020790792
 30
0.0
 10
3.9963849406
 20
5.694609223
 30
0.0
 10
4.0027768794
 20
5.685973297
 30
0.0
 10
4.0097488632
 20
5.6764931528
 30
0.0
 10
4.014987127
 20
5.6693623993
 30
0.0
 10
4.0187145219
 20
5.6643065846
 30
0.0
 10
4.0217857904
 20
5.6601592325
 30
0.0
 10
4.0249845065
 20
5.6558840093
 30
0.0
 10
4.0277501322
 20
5.6522376447
 30
0.0
 10
4.0294042032
 20
5.6500798902
 30
0.0
 10
4.0301986363
 20
5.6490501662
 30
0.0
 10
4.0306819569
 20
5.6484271348
 30
0.0
 10
4.030899456
 20
5.648148483
 30
0.0
 10
4.0309543601
 20
5.6480782709
 30
0.0
  0
SPLINE
  5
313
100
AcDbEntity
  8
0
100
AcDbSpline
 62
7
  6
CONTINUOUS
 70
0
 71
3
 72
36
 73
32
 74
0
 42
0.0000001
 43
0.0000001
 44
0.0000000001
 40
0.0
 40
0.0
 40
0.0
 40
0.0
 40
0.0360436922
 40
0.0698829639
 40
0.1019088273
 40
0.132505567
 40
0.1620033963
 40
0.1905387148
 40
0.2181990962
 40
0.2450709168
 40
0.296735848
 40
0.3459446493
 40
0.3930148026
 40
0.4381330569
 40
0.5229883285
 40
0.5628459238
 40
0.6010562559
 40
0.6726493764
 40
0.7060203984
 40
0.7377591533
 40
0.7962744052
 40
0.8480091372
 40
0.8927445736
 40
0.9124027932
 40
0.9302068206
 40
0.9600844926
 40
0.9819673219
 40
0.9897742685
 40
0.9954186011
 40
0.9988454857
 40
1.0
 40
1.0
 40
1.0
 40
1.0
 10
3.8228096335
 20
5.78298483
 30
0.0
 10
3.8248423347
 20
5.7814830813
 30
0.0
 10
3.8287515124
 20
5.778527918
 30
0.0
 10
3.8343558546
 20
5.7740942551
 30
0.0
 10
3.8395747453
 20
5.7697913142
 30
0.0
 10
3.8444866895
 20
5.7655964023
 30
0.0
 10
3.8491585777
 20
5.7614982287
 30
0.0
 10
3.8536254048
 20
5.7574792436
 30
0.0
 10
3.8579087633
 20
5.7535322784
 30
0.0
 10
3.8633292351
 20
5.748426748
 30
0.0
 10
3.8697597733
 20
5.7421906682
 30
0.0
 10
3.8770807017
 20
5.7348408778
 30
0.0
 10
3.8839776838
 20
5.72771825
 30
0.0
 10
3.8925021437
 20
5.7186937863
 30
0.0
 10
3.9005465945
 20
5.7099126629
 30
0.0
 10
3.9081549995
 20
5.7013912555
 30
0.0
 10
3.9150889473
 20
5.6935146213
 30
0.0
 10
3.9216603976
 20
5.6859251209
 30
0.0
 10
3.9278891088
 20
5.6786395611
 30
0.0
 10
3.9335012227
 20
5.6720333245
 30
0.0
 10
3.9399236429
 20
5.6644260002
 30
0.0
 10
3.9469141823
 20
5.6561057536
 30
0.0
 10
3.9521534982
 20
5.649872682
 30
0.0
 10
3.9558726388
 20
5.645469789
 30
0.0
 10
3.9589290189
 20
5.6418707881
 30
0.0
 10
3.9621077474
 20
5.638171091
 30
0.0
 10
3.9648538818
 20
5.6350240513
 30
0.0
 10
3.9664940533
 20
5.6331671774
 30
0.0
 10
3.967280754
 20
5.6322830667
 30
0.0
 10
3.9677590627
 20
5.631748923
 30
0.0
 10
3.9679741997
 20
5.6315103704
 30
0.0
 10
3.9680284777
 20
5.6314503121
 30
0.0
  0
SPLINE
  5
314
100
AcDbEntity
  8
0
100
AcDbSpline
 62
7
  6
CONTINUOUS
 70
0
 71
3
 72
32
 73
28
 74
0
 42
0.0000001
 43
0.0000001
 44
0.0000000001
 40
0.0
 40
0.0
 40
0.0
 40
0.0
 40
0.0441280433
 40
0.084688078
 40
0.1223008311
 40
0.1575858909
 40
0.1910833893
 40
0.2230196612
 40
0.2827995045
 40
0.3380178323
 40
0.3894125512
 40
0.437579009
 40
0.4828997905
 40
0.5660889759
 40
0.6404544306
 40
0.707100652
 40
0.7665903701
 40
0.8192992005
 40
0.8653964324
 40
0.9049755386
 40
0.9380323983
 40
0.9644691868
 40
0.9839085539
 40
0.9908641194
 40
0.9959020565
 40
0.9989661207
 40
1.0
 40
1.0
 40
1.0
 40
1.0
 10
3.4850097188
 20
5.4987703896
 30
0.0
 10
3.4875288149
 20
5.4976638013
 30
0.0
 10
3.4923550647
 20
5.495521224
 30
0.0
 10
3.4992994072
 20
5.4923705176
 30
0.0
 10
3.505719031
 20
5.4893983178
 30
0.0
 10
3.5117202519
 20
5.4865709486
 30
0.0
 10
3.5173876644
 20
5.4838657151
 30
0.0
 10
3.5244169408
 20
5.4804683336
 30
0.0
 10
3.5326380079
 20
5.4764248331
 30
0.0
 10
3.5419115633
 20
5.4717730428
 30
0.0
 10
3.5505076378
 20
5.4673862155
 30
0.0
 10
3.558530995
 20
5.463235127
 30
0.0
 10
3.5682903939
 20
5.4581256787
 30
0.0
 10
3.5794632849
 20
5.4521944412
 30
0.0
 10
3.5917699787
 20
5.4455639113
 30
0.0
 10
3.6027561546
 20
5.4395980629
 30
0.0
 10
3.6125466632
 20
5.4342600309
 30
0.0
 10
3.621214921
 20
5.4295402197
 30
0.0
 10
3.6287996099
 20
5.4254264442
 30
0.0
 10
3.63531833
 20
5.421917443
 30
0.0
 10
3.6407712227
 20
5.419014774
 30
0.0
 10
3.6451329417
 20
5.4167349395
 30
0.0
 10
3.6480632615
 20
5.4152300705
 30
0.0
 10
3.6498116543
 20
5.4143444939
 30
0.0
 10
3.6506506292
 20
5.4139230984
 30
0.0
 10
3.6511603995
 20
5.4136688998
 30
0.0
 10
3.6513894265
 20
5.4135556183
 30
0.0
 10
3.6514472359
 20
5.413527094
 30
0.0
  0
SPLINE
  5
315
100
AcDbEntity
  8
0
100
AcDbSpline
 62
7
  6
CONTINUOUS
 70
0
 71
3
 72
30
 73
26
 74
0
 42
0.0000001
 43
0.0000001
 44
0.0000000001
 40
0.0
 40
0.0
 40
0.0
 40
0.0
 40
0.0439686716
 40
0.0843608757
 40
0.1218015233
 40
0.1569146251
 40
0.2220181659
 40
0.2814935077
 40
0.3364389974
 40
0.3875959617
 40
0.4355621871
 40
0.480720904
 40
0.5636990963
 40
0.6379950161
 40
0.7047000728
 40
0.7643587161
 40
0.8173258313
 40
0.8637454407
 40
0.9036843046
 40
0.9371105046
 40
0.9638966311
 40
0.983630193
 40
0.9907008419
 40
0.9958265178
 40
1.0
 40
1.0
 40
1.0
 40
1.0
 10
3.4655899342
 20
5.4743242748
 30
0.0
 10
3.4681432849
 20
5.47323984
 30
0.0
 10
3.47303507
 20
5.4711421097
 30
0.0
 10
3.480075668
 20
5.4680620883
 30
0.0
 10
3.4865845759
 20
5.4651611591
 30
0.0
 10
3.4944961119
 20
5.4615778787
 30
0.0
 10
3.5036460956
 20
5.4573596148
 30
0.0
 10
3.5138915881
 20
5.4525299865
 30
0.0
 10
3.5233091094
 20
5.4480082731
 30
0.0
 10
3.5320452089
 20
5.443745495
 30
0.0
 10
3.5402058515
 20
5.4397117458
 30
0.0
 10
3.5501442339
 20
5.4347439701
 30
0.0
 10
3.5615381876
 20
5.4289729792
 30
0.0
 10
3.5741080289
 20
5.4225156558
 30
0.0
 10
3.5853508397
 20
5.4166951645
 30
0.0
 10
3.5953896772
 20
5.4114761461
 30
0.0
 10
3.6042943507
 20
5.4068501936
 30
0.0
 10
3.6121000402
 20
5.4028076088
 30
0.0
 10
3.6188200299
 20
5.399349583
 30
0.0
 10
3.6244499109
 20
5.3964804429
 30
0.0
 10
3.6289587412
 20
5.3942193334
 30
0.0
 10
3.6319904305
 20
5.3927222733
 30
0.0
 10
3.6338010312
 20
5.3918390447
 30
0.0
 10
3.634730506
 20
5.3913887315
 30
0.0
 10
3.6352593835
 20
5.3911347344
 30
0.0
 10
3.6354969774
 20
5.3910212242
 30
0.0
  0
SPLINE
  5
316
100
AcDbEntity
  8
0
100
AcDbSpline
 62
7
  6
CONTINUOUS
 70
0
 71
3
 72
27
 73
23
 74
0
 42
0.0000001
 43
0.0000001
 44
0.0000000001
 40
0.0
 40
0.0
 40
0.0
 40
0.0
 40
0.0295628802
 40
0.0589913303
 40
0.0883044633
 40
0.1175268514
 40
0.1466979149
 40
0.1758576352
 40
0.2342801485
 40
0.2930714431
 40
0.322686191
 40
0.352480993
 40
0.4126864997
 40
0.4738183371
 40
0.5359587466
 40
0.5991559261
 40
0.6634328717
 40
0.7287820659
 40
0.7951666732
 40
0.8625356459
 40
0.9308337237
 40
1.0
 40
1.0
 40
1.0
 40
1.0
 10
5.6981109478
 20
4.3698001626
 30
0.0
 10
5.6965163323
 20
4.3685449599
 30
0.0
 10
5.6933858844
 20
4.3659740248
 30
0.0
 10
5.688859339
 20
4.3619400202
 30
0.0
 10
5.6845103391
 20
4.357748818
 30
0.0
 10
5.6803362039
 20
4.3534080308
 30
0.0
 10
5.6763368735
 20
4.3489196756
 30
0.0
 10
5.6712332911
 20
4.3427379913
 30
0.0
 10
5.6652721588
 20
4.3346375039
 30
0.0
 10
5.6598833868
 20
4.3261100431
 30
0.0
 10
5.6558946332
 20
4.3190427832
 30
0.0
 10
5.6520896339
 20
4.3117651338
 30
0.0
 10
5.6477097668
 20
4.3023532326
 30
0.0
 10
5.6430329082
 20
4.2906528227
 30
0.0
 10
5.6388733876
 20
4.2785422155
 30
0.0
 10
5.635187705
 20
4.2660548818
 30
0.0
 10
5.6319341201
 20
4.2532214836
 30
0.0
 10
5.6290709386
 20
4.2400720484
 30
0.0
 10
5.6265563193
 20
4.2266360814
 30
0.0
 10
5.62435087
 20
4.2129412478
 30
0.0
 10
5.6224193938
 20
4.1990126573
 30
0.0
 10
5.6212981578
 20
4.1896426072
 30
0.0
 10
5.6207717958
 20
4.1849238994
 30
0.0
  0
SPLINE
  5
317
100
AcDbEntity
  8
0
100
AcDbSpline
 62
7
  6
CONTINUOUS
 70
0
 71
3
 72
29
 73
25
 74
0
 42
0.0000001
 43
0.0000001
 44
0.0000000001
 40
0.0
 40
0.0
 40
0.0
 40
0.0
 40
0.0682543416
 40
0.1353775209
 40
0.2013326803
 40
0.2661064669
 40
0.3297185948
 40
0.3922249852
 40
0.4537142802
 40
0.5143154549
 40
0.5742158491
 40
0.6039923844
 40
0.6337008294
 40
0.6633809002
 40
0.6930744162
 40
0.7526681677
 40
0.7826716609
 40
0.8128633364
 40
0.8432804926
 40
0.8739613226
 40
0.9049445966
 40
0.9362652277
 40
0.9679457367
 40
1.0
 40
1.0
 40
1.0
 40
1.0
 10
5.6104046128
 20
3.6097776883
 30
0.0
 10
5.6110377898
 20
3.6053586715
 30
0.0
 10
5.6124164676
 20
3.5966107678
 30
0.0
 10
5.6148867726
 20
3.5836738908
 30
0.0
 10
5.617783389
 20
3.571058336
 30
0.0
 10
5.6211488174
 20
3.5587967529
 30
0.0
 10
5.625025025
 20
3.5469228895
 30
0.0
 10
5.6294537028
 20
3.5354725617
 30
0.0
 10
5.6344778252
 20
3.5244852145
 30
0.0
 10
5.6401394735
 20
3.5140041823
 30
0.0
 10
5.6454362147
 20
3.5057123548
 30
0.0
 10
5.6500169117
 20
3.499386672
 30
0.0
 10
5.653623176
 20
3.4948015406
 30
0.0
 10
5.6574084634
 20
3.4903700443
 30
0.0
 10
5.6627022681
 20
3.4846651302
 30
0.0
 10
5.6683626826
 20
3.4792800486
 30
0.0
 10
5.6743608098
 20
3.4742371516
 30
0.0
 10
5.6790498623
 20
3.4706099715
 30
0.0
 10
5.6839178378
 20
3.4671499411
 30
0.0
 10
5.6889635132
 20
3.4638588985
 30
0.0
 10
5.6941826975
 20
3.460734199
 30
0.0
 10
5.6995710313
 20
3.4577730324
 30
0.0
 10
5.7051249052
 20
3.4549762461
 30
0.0
 10
5.7089131521
 20
3.4532342753
 30
0.0
 10
5.7108328278
 20
3.4523915753
 30
0.0
  0
SPLINE
  5
318
100
AcDbEntity
  8
0
100
AcDbSpline
 62
7
  6
CONTINUOUS
 70
0
 71
3
 72
15
 73
11
 74
0
 42
0.0000001
 43
0.0000001
 44
0.0000000001
 40
0.0
 40
0.0
 40
0.0
 40
0.0
 40
0.1278754896
 40
0.255182361
 40
0.3818239778
 40
0.5076573842
 40
0.63252862
 40
0.7563144841
 40
0.8788725078
 40
1.0
 40
1.0
 40
1.0
 40
1.0
 10
6.0276317102
 20
3.6550089724
 30
0.0
 10
6.0279653759
 20
3.6553350651
 30
0.0
 10
6.028620261
 20
3.6559970961
 30
0.0
 10
6.029570524
 20
3.6570159645
 30
0.0
 10
6.0304905006
 20
3.658052262
 30
0.0
 10
6.0313826854
 20
3.6591009408
 30
0.0
 10
6.032241493
 20
3.6601638417
 30
0.0
 10
6.0330610769
 20
3.6612423587
 30
0.0
 10
6.0338384955
 20
3.662334907
 30
0.0
 10
6.0343324743
 20
3.6630743022
 30
0.0
 10
6.034572678
 20
3.6634452534
 30
0.0
  0
SPLINE
  5
319
100
AcDbEntity
  8
0
100
AcDbSpline
 62
7
  6
CONTINUOUS
 70
0
 71
3
 72
15
 73
11
 74
0
 42
0.0000001
 43
0.0000001
 44
0.0000000001
 40
0.0
 40
0.0
 40
0.0
 40
0.0
 40
0.121127492
 40
0.2436855156
 40
0.3674713797
 40
0.4923426155
 40
0.618176022
 40
0.7448176388
 40
0.8721245103
 40
1.0
 40
1.0
 40
1.0
 40
1.0
 10
5.7601508756
 20
3.663568835
 30
0.0
 10
5.7603907451
 20
3.6631976677
 30
0.0
 10
5.7608840578
 20
3.6624578278
 30
0.0
 10
5.7616604921
 20
3.6613645796
 30
0.0
 10
5.7624791044
 20
3.6602853249
 30
0.0
 10
5.7633369543
 20
3.6592216507
 30
0.0
 10
5.7642281944
 20
3.6581721688
 30
0.0
 10
5.7651472374
 20
3.6571350431
 30
0.0
 10
5.7660965824
 20
3.6561153191
 30
0.0
 10
5.766750871
 20
3.6554526985
 30
0.0
 10
5.7670842429
 20
3.6551263054
 30
0.0
  0
SPLINE
  5
31A
100
AcDbEntity
  8
0
100
AcDbSpline
 62
7
  6
CONTINUOUS
 70
0
 71
3
 72
11
 73
7
 74
0
 42
0.0000001
 43
0.0000001
 44
0.0000000001
 40
0.0
 40
0.0
 40
0.0
 40
0.0
 40
0.2509650173
 40
0.5008955128
 40
0.7503685171
 40
1.0
 40
1.0
 40
1.0
 40
1.0
 10
5.7536249207
 20
3.6927263979
 30
0.0
 10
5.7536269773
 20
3.6902076907
 30
0.0
 10
5.7539021607
 20
3.685176592
 30
0.0
 10
5.7551352686
 20
3.6777322178
 30
0.0
 10
5.7571907483
 20
3.6704856244
 30
0.0
 10
5.7590826358
 20
3.6658350025
 30
0.0
 10
5.7601508756
 20
3.663568835
 30
0.0
  0
SPLINE
  5
31B
100
AcDbEntity
  8
0
100
AcDbSpline
 62
7
  6
CONTINUOUS
 70
0
 71
3
 72
13
 73
9
 74
0
 42
0.0000001
 43
0.0000001
 44
0.0000000001
 40
0.0
 40
0.0
 40
0.0
 40
0.0
 40
0.2415107985
 40
0.3643883974
 40
0.4886786125
 40
0.6143935611
 40
0.741538399
 40
1.0
 40
1.0
 40
1.0
 40
1.0
 10
5.7108328278
 20
3.4523915753
 30
0.0
 10
5.7142777547
 20
3.450888022
 30
0.0
 10
5.7195358987
 20
3.4487549118
 30
0.0
 10
5.7266850115
 20
3.4461584378
 30
0.0
 10
5.7321866282
 20
3.4443096474
 30
0.0
 10
5.7377929042
 20
3.4425689765
 30
0.0
 10
5.7454437886
 20
3.4403780934
 30
0.0
 10
5.7512661221
 20
3.4389134014
 30
0.0
 10
5.7551863711
 20
3.4380119266
 30
0.0
  0
SPLINE
  5
31C
100
AcDbEntity
  8
0
100
AcDbSpline
 62
7
  6
CONTINUOUS
 70
0
 71
3
 72
11
 73
7
 74
0
 42
0.0000001
 43
0.0000001
 44
0.0000000001
 40
0.0
 40
0.0
 40
0.0
 40
0.0
 40
0.2496314829
 40
0.4991044872
 40
0.7490349827
 40
1.0
 40
1.0
 40
1.0
 40
1.0
 10
6.034572678
 20
3.6634452534
 30
0.0
 10
6.0356429584
 20
3.6657104578
 30
0.0
 10
6.0375390339
 20
3.6703593739
 30
0.0
 10
6.0396010395
 20
3.677604113
 30
0.0
 10
6.0408408518
 20
3.6850473735
 30
0.0
 10
6.0411205665
 20
3.6900782224
 30
0.0
 10
6.0411248916
 20
3.6925969267
 30
0.0
  0
LINE
  5
31D
100
AcDbEntity
  8
0
100
AcDbLine
 62
7
  6
CONTINUOUS
 10
5.7670842429
 20
3.6551263054
 11
5.7705432262
 21
3.6520544291
  0
LINE
  5
31E
100
AcDbEntity
  8
0
100
AcDbLine
 62
7
  6
CONTINUOUS
 10
6.024169961
 20
3.6519402122
 11
6.0276317102
 21
3.6550089724
  0
SPLINE
  5
31F
100
AcDbEntity
  8
0
100
AcDbSpline
 62
7
  6
CONTINUOUS
 70
0
 71
3
 72
20
 73
16
 74
0
 42
0.0000001
 43
0.0000001
 44
0.0000000001
 40
0.0
 40
0.0
 40
0.0
 40
0.0
 40
0.1171016356
 40
0.2372399275
 40
0.3600777816
 40
0.4223910135
 40
0.4852284771
 40
0.548535944
 40
0.6122572274
 40
0.6763341485
 40
0.7407075113
 40
0.8053204672
 40
0.8701167438
 40
0.9350335348
 40
1.0
 40
1.0
 40
1.0
 40
1.0
 10
5.7551863711
 20
3.4380119266
 30
0.0
 10
5.7606317911
 20
3.4367611526
 30
0.0
 10
5.7717253648
 20
3.4344889742
 30
0.0
 10
5.7886904653
 20
3.4317535694
 30
0.0
 10
5.8031469629
 20
3.4299470832
 30
0.0
 10
5.814917893
 20
3.4287420822
 30
0.0
 10
5.8238750352
 20
3.4279497748
 30
0.0
 10
5.8329085484
 20
3.427267647
 30
0.0
 10
5.8420085781
 20
3.4266899207
 30
0.0
 10
5.8511653188
 20
3.4262123745
 30
0.0
 10
5.8603691291
 20
3.4258309877
 30
0.0
 10
5.8696105514
 20
3.4255399421
 30
0.0
 10
5.8788801271
 20
3.4253317816
 30
0.0
 10
5.8881680005
 20
3.42520266
 30
0.0
 10
5.894365082
 20
3.4251710795
 30
0.0
 10
5.8974647988
 20
3.4251691683
 30
0.0
  0
SPLINE
  5
320
100
AcDbEntity
  8
0
100
AcDbSpline
 62
7
  6
CONTINUOUS
 70
0
 71
3
 72
33
 73
29
 74
0
 42
0.0000001
 43
0.0000001
 44
0.0000000001
 40
0.0
 40
0.0
 40
0.0
 40
0.0
 40
0.0723954478
 40
0.1084816499
 40
0.1444293529
 40
0.2157362175
 40
0.2859666526
 40
0.320573521
 40
0.3547874883
 40
0.3885712748
 40
0.4218906302
 40
0.4547153016
 40
0.4870203638
 40
0.5499941957
 40
0.610758708
 40
0.6403380707
 40
0.6694080823
 40
0.7261611973
 40
0.7539752165
 40
0.7814999617
 40
0.808811939
 40
0.8359850519
 40
0.8630894272
 40
0.8901949768
 40
0.9173708234
 40
0.9446945278
 40
0.9722308616
 40
1.0
 40
1.0
 40
1.0
 40
1.0
 10
5.8974647988
 20
3.4251691683
 30
0.0
 10
5.9046988445
 20
3.4251677954
 30
0.0
 10
5.9155392184
 20
3.4252845192
 30
0.0
 10
5.9299663529
 20
3.4256653271
 30
0.0
 10
5.9442796913
 20
3.4262040431
 30
0.0
 10
5.961988893
 20
3.4271980565
 30
0.0
 10
5.9795308074
 20
3.4286745377
 30
0.0
 10
5.9933447578
 20
3.4301744942
 30
0.0
 10
6.0035169892
 20
3.4314610948
 30
0.0
 10
6.0135346395
 20
3.4329298738
 30
0.0
 10
6.0233806256
 20
3.4345967148
 30
0.0
 10
6.0330372561
 20
3.4364806037
 30
0.0
 10
6.0455291383
 20
3.4392811755
 30
0.0
 10
6.0605821206
 20
3.4433936379
 30
0.0
 10
6.0750394115
 20
3.4485156466
 30
0.0
 10
6.0860111185
 20
3.4532160412
 30
0.0
 10
6.0963962891
 20
3.4582346094
 30
0.0
 10
6.1062584528
 20
3.4639114624
 30
0.0
 10
6.1154747045
 20
3.4702852595
 30
0.0
 10
6.121993083
 20
3.4753644291
 30
0.0
 10
6.128154335
 20
3.4807745383
 30
0.0
 10
6.1339602452
 20
3.4865045603
 30
0.0
 10
6.1394135954
 20
3.4925430732
 30
0.0
 10
6.1445196344
 20
3.4988780339
 30
0.0
 10
6.14928502
 20
3.5054998472
 30
0.0
 10
6.153712098
 20
3.512403576
 30
0.0
 10
6.1578037708
 20
3.5195788707
 30
0.0
 10
6.1603120646
 20
3.5245056447
 30
0.0
 10
6.161517602
 20
3.5270048887
 30
0.0
  0
SPLINE
  5
321
100
AcDbEntity
  8
0
100
AcDbSpline
 62
7
  6
CONTINUOUS
 70
0
 71
3
 72
16
 73
12
 74
0
 42
0.0000001
 43
0.0000001
 44
0.0000000001
 40
0.0
 40
0.0
 40
0.0
 40
0.0
 40
0.1185231107
 40
0.1785055453
 40
0.2389285091
 40
0.3610535168
 40
0.4850142671
 40
0.6109120001
 40
0.7387438504
 40
0.8684588286
 40
1.0
 40
1.0
 40
1.0
 40
1.0
 10
6.161517602
 20
3.5270048887
 30
0.0
 10
6.1630007597
 20
3.530070876
 30
0.0
 10
6.1650942628
 20
3.5347576477
 30
0.0
 10
6.1676491516
 20
3.5411308506
 30
0.0
 10
6.1700867646
 20
3.5476606766
 30
0.0
 10
6.1728892148
 20
3.5560138948
 30
0.0
 10
6.1758693543
 20
3.5662822013
 30
0.0
 10
6.1785003456
 20
3.576814189
 30
0.0
 10
6.1808094434
 20
3.5875900936
 30
0.0
 10
6.182823221
 20
3.5985895577
 30
0.0
 10
6.1839767923
 20
3.6060088065
 30
0.0
 10
6.1845132601
 20
3.6097505138
 30
0.0
  0
SPLINE
  5
322
100
AcDbEntity
  8
0
100
AcDbSpline
 62
7
  6
CONTINUOUS
 70
0
 71
3
 72
34
 73
30
 74
0
 42
0.0000001
 43
0.0000001
 44
0.0000000001
 40
0.0
 40
0.0
 40
0.0
 40
0.0
 40
0.0685237125
 40
0.1023093382
 40
0.1357575511
 40
0.2015867903
 40
0.2659307291
 40
0.297529911
 40
0.3287442264
 40
0.3900416183
 40
0.420170151
 40
0.4499862901
 40
0.4795239394
 40
0.5088233651
 40
0.5379394895
 40
0.5669404841
 40
0.5959011841
 40
0.6249003825
 40
0.6540173707
 40
0.683328797
 40
0.7129099084
 40
0.742831283
 40
0.7731578516
 40
0.8039456216
 40
0.8352392937
 40
0.8670714682
 40
0.9324063699
 40
0.9659271801
 40
1.0
 40
1.0
 40
1.0
 40
1.0
 10
6.1741487249
 20
4.1849197084
 30
0.0
 10
6.1733915145
 20
4.1917050077
 30
0.0
 10
6.172145348
 20
4.2018237778
 30
0.0
 10
6.1701979837
 20
4.2152096678
 30
0.0
 10
6.1680771551
 20
4.2282972935
 30
0.0
 10
6.1650370988
 20
4.2443182351
 30
0.0
 10
6.1613363936
 20
4.2600132692
 30
0.0
 10
6.1579285675
 20
4.2722176199
 30
0.0
 10
6.1542502042
 20
4.2840250007
 30
0.0
 10
6.1500505522
 20
4.2955130994
 30
0.0
 10
6.1452531846
 20
4.3066026848
 30
0.0
 10
6.1413776854
 20
4.31463507
 30
0.0
 10
6.1371894403
 20
4.3224155312
 30
0.0
 10
6.1326720517
 20
4.329928856
 30
0.0
 10
6.1278129396
 20
4.3371618641
 30
0.0
 10
6.1226036309
 20
4.3441050527
 30
0.0
 10
6.117036356
 20
4.3507497011
 30
0.0
 10
6.1111067358
 20
4.3570890969
 30
0.0
 10
6.1048113927
 20
4.3631162195
 30
0.0
 10
6.0981486882
 20
4.3688241092
 30
0.0
 10
6.0911197675
 20
4.374207141
 30
0.0
 10
6.0837289246
 20
4.3792624475
 30
0.0
 10
6.0759832995
 20
4.3839898845
 30
0.0
 10
6.0678936028
 20
4.3883936867
 30
0.0
 10
6.0594717784
 20
4.3924792453
 30
0.0
 10
6.0477185107
 20
4.3975552908
 30
0.0
 10
6.0354510146
 20
4.4019675693
 30
0.0
 10
6.022764817
 20
4.4057774121
 30
0.0
 10
6.0162520635
 20
4.4074983639
 30
0.0
 10
6.0129569165
 20
4.408315176
 30
0.0
  0
SPLINE
  5
323
100
AcDbEntity
  8
0
100
AcDbSpline
 62
7
  6
CONTINUOUS
 70
0
 71
3
 72
55
 73
51
 74
0
 42
0.0000001
 43
0.0000001
 44
0.0000000001
 40
0.0
 40
0.0
 40
0.0
 40
0.0
 40
0.0334014226
 40
0.0666041382
 40
0.0831593894
 40
0.0997032695
 40
0.1328043026
 40
0.1659780088
 40
0.1992483771
 40
0.2660231147
 40
0.2994146834
 40
0.3325103578
 40
0.3650351548
 40
0.3968211053
 40
0.4124361755
 40
0.4278894871
 40
0.4432231578
 40
0.4508652914
 40
0.4585030055
 40
0.4737966173
 40
0.4891415449
 40
0.5199250112
 40
0.5505104529
 40
0.5655687907
 40
0.5803950471
 40
0.5949566007
 40
0.6092550462
 40
0.6233401966
 40
0.6373242738
 40
0.6443367161
 40
0.6513958995
 40
0.6657255941
 40
0.6804252075
 40
0.6955371926
 40
0.711054509
 40
0.726932967
 40
0.7431015793
 40
0.7594709115
 40
0.7924012706
 40
0.8087472776
 40
0.8248742102
 40
0.8328261361
 40
0.8406960368
 40
0.8562052578
 40
0.8714349472
 40
0.8864152918
 40
0.915732035
 40
0.9443447502
 40
0.9723978095
 40
1.0
 40
1.0
 40
1.0
 40
1.0
 10
5.7826719154
 20
4.4087807934
 30
0.0
 10
5.7816318681
 20
4.4085219559
 30
0.0
 10
5.7795672878
 20
4.4079670163
 30
0.0
 10
5.7770259024
 20
4.4071486689
 30
0.0
 10
5.7750326175
 20
4.4064041929
 30
0.0
 10
5.7730647451
 20
4.4056037052
 30
0.0
 10
5.770643258
 20
4.4045062846
 30
0.0
 10
5.7677909379
 20
4.4030671505
 30
0.0
 10
5.7640359832
 20
4.4010232452
 30
0.0
 10
5.7603401851
 20
4.3988604397
 30
0.0
 10
5.7566507204
 20
4.3966989678
 30
0.0
 10
5.7538752925
 20
4.3951515782
 30
0.0
 10
5.7510787449
 20
4.3937524906
 30
0.0
 10
5.7487068154
 20
4.3927679065
 30
0.0
 10
5.7467906096
 20
4.3921358274
 30
0.0
 10
5.7453513689
 20
4.3917508732
 30
0.0
 10
5.7441409211
 20
4.3915100767
 30
0.0
 10
5.7431683162
 20
4.3913708523
 30
0.0
 10
5.7421923422
 20
4.3912691427
 30
0.0
 10
5.7409645534
 20
4.3912101386
 30
0.0
 10
5.7389929513
 20
4.3912303355
 30
0.0
 10
5.7365366475
 20
4.3914145166
 30
0.0
 10
5.7340974393
 20
4.3916659521
 30
0.0
 10
5.7321631205
 20
4.3918211987
 30
0.0
 10
5.7307383529
 20
4.3918916708
 30
0.0
 10
5.7293358574
 20
4.391894874
 30
0.0
 10
5.7279592793
 20
4.3918085173
 30
0.0
 10
5.7266125034
 20
4.3916098804
 30
0.0
 10
5.7255190357
 20
4.3913316923
 30
0.0
 10
5.7246696567
 20
4.3910318289
 30
0.0
 10
5.7238298827
 20
4.3906765963
 30
0.0
 10
5.7228029313
 20
4.390136637
 30
0.0
 10
5.7216148611
 20
4.3893625931
 30
0.0
 10
5.7204588688
 20
4.3884780046
 30
0.0
 10
5.7193296972
 20
4.3875012654
 30
0.0
 10
5.7182221589
 20
4.3864505871
 30
0.0
 10
5.7171313169
 20
4.3853441384
 30
0.0
 10
5.7156899215
 20
4.3838158011
 30
0.0
 10
5.714271801
 20
4.3822581893
 30
0.0
 10
5.7128394724
 20
4.3807242806
 30
0.0
 10
5.7119365219
 20
4.3797928077
 30
0.0
 10
5.7112062931
 20
4.3790732142
 30
0.0
 10
5.7104783091
 20
4.3783797985
 30
0.0
 10
5.7095604628
 20
4.3775473798
 30
0.0
 10
5.7084429081
 20
4.3765966342
 30
0.0
 10
5.7069511922
 20
4.3754032848
 30
0.0
 10
5.7050627734
 20
4.3740201962
 30
0.0
 10
5.7027584963
 20
4.3725012776
 30
0.0
 10
5.7004426827
 20
4.371104371
 30
0.0
 10
5.6988866243
 20
4.3702276787
 30
0.0
 10
5.6981109478
 20
4.3698001626
 30
0.0
  0
SPLINE
  5
324
100
AcDbEntity
  8
0
100
AcDbSpline
 62
7
  6
CONTINUOUS
 70
0
 71
3
 72
18
 73
14
 74
0
 42
0.0000001
 43
0.0000001
 44
0.0000000001
 40
0.0
 40
0.0
 40
0.0
 40
0.0
 40
0.0645534868
 40
0.1301566126
 40
0.2633952918
 40
0.3974648689
 40
0.5300852366
 40
0.6589588943
 40
0.7817776934
 40
0.8401937187
 40
0.8962285796
 40
0.9495934174
 40
1.0
 40
1.0
 40
1.0
 40
1.0
 10
5.6981107948
 20
4.3698001094
 30
0.0
 10
5.6986912154
 20
4.3673213748
 30
0.0
 10
5.6998285067
 20
4.3623158313
 30
0.0
 10
5.7020146016
 20
4.3521608337
 30
0.0
 10
5.7045870491
 20
4.3392855966
 30
0.0
 10
5.7074496997
 20
4.3237752772
 30
0.0
 10
5.7101175248
 20
4.3084051162
 30
0.0
 10
5.7126048316
 20
4.2934544758
 30
0.0
 10
5.7145702623
 20
4.2813837498
 30
0.0
 10
5.7160777765
 20
4.2721488253
 30
0.0
 10
5.7171535171
 20
4.2656187167
 30
0.0
 10
5.7181951602
 20
4.2594031349
 30
0.0
 10
5.7188891296
 20
4.2553699657
 30
0.0
 10
5.7192326104
 20
4.2534119905
 30
0.0
  0
SPLINE
  5
325
100
AcDbEntity
  8
0
100
AcDbSpline
 62
7
  6
CONTINUOUS
 70
0
 71
3
 72
11
 73
7
 74
0
 42
0.0000001
 43
0.0000001
 44
0.0000000001
 40
0.0
 40
0.0
 40
0.0
 40
0.0
 40
0.2603133275
 40
0.5167345208
 40
0.7648623427
 40
1.0
 40
1.0
 40
1.0
 40
1.0
 10
6.1615176099
 20
3.5270048891
 30
0.0
 10
6.1596983177
 20
3.5309770778
 30
0.0
 10
6.156321735
 20
3.5389710209
 30
0.0
 10
6.1519051881
 20
3.5510284447
 30
0.0
 10
6.1480981054
 20
3.5628476658
 30
0.0
 10
6.1458582014
 20
3.5706444458
 30
0.0
 10
6.1448178315
 20
3.5744513004
 30
0.0
  0
ENDSEC
  0
SECTION
  2
OBJECTS
  0
DICTIONARY
  5
C
100
AcDbDictionary
280
0
281
1
  3
ACAD_GROUP
350
D
  3
ACAD_MLINESTYLE
350
17
  3
ACAD_LAYOUT
350
1A
  3
ACAD_PLOTSETTINGS
350
19
  3
ACAD_PLOTSTYLENAME
350
E
  0
DICTIONARY
  5
D
102
{ACAD_REACTORS
330
C
102
}
100
AcDbDictionary
280
0
281
1
  0
ACDBDICTIONARYWDFLT
  5
E
102
{ACAD_REACTORS
330
C
102
}
100
AcDbDictionary
281
1
  3
Normal
350
F
100
AcDbDictionaryWithDefault
340
F
  0
DICTIONARY
  5
17
102
{ACAD_REACTORS
330
C
102
}
100
AcDbDictionary
280
0
281
1
  3
Standard
350
18
  0
DICTIONARY
  5
19
102
{ACAD_REACTORS
330
C
102
}
100
AcDbDictionary
281
1
  0
DICTIONARY
  5
1A
102
{ACAD_REACTORS
330
C
102
}
100
AcDbDictionary
281
1
  3
Model
350
326
  3
Layout1
350
327
  0
ACDBPLACEHOLDER
  5
F
102
{ACAD_REACTORS
330
E
102
}
  0
MLINESTYLE
  5
18
102
{ACAD_REACTORS
330
17
102
}
100
AcDbMlineStyle
  2
STANDARD
 70
0
  3

 62
256
 51
90.0
 52
90.0
 71
2
 49
0.5
 62
256
  6
BYLAYER
 49
-0.5
 62
256
  6
BYLAYER
  0
LAYOUT
  5
326
102
{ACAD_REACTORS
330
1A
102
}
100
AcDbPlotSettings
  1

  2
none_device
  4
ANSI_A_(11.00_x_8.50_Inches)
  6

 40
0.0
 41
0.0
 42
0.0
 43
0.0
 44
279.4
 45
215.9
 46
0.0
 47
0.0
 48
0.0
 49
0.0
140
0.0
141
0.0
142
1.0
143
1.0
 70
1024
 72
0
 73
0
 74
0
  7

 75
0
147
1.0
148
0.0
149
0.0
100
AcDbLayout
  1
Model
 70
0
 71
0
 10
0.0
 20
0.0
 11
11.0
 21
8.5
 12
0.0
 22
0.0
 32
0.0
 14
0.0
 24
0.0
 34
0.0
 15
0.0
 25
0.0
 35
0.0
146
0.0
 13
0.0
 23
0.0
 33
0.0
 16
1.0
 26
0.0
 36
0.0
 17
0.0
 27
1.0
 37
0.0
 76
0
330
202
345
0
346
0
  0
LAYOUT
  5
327
102
{ACAD_REACTORS
330
1A
102
}
100
AcDbPlotSettings
  1

  2
none_device
  4
ANSI_A_(11.00_x_8.50_Inches)
  6

 40
0.0
 41
0.0
 42
0.0
 43
0.0
 44
279.4
 45
215.9
 46
0.0
 47
0.0
 48
0.0
 49
0.0
140
0.0
141
0.0
142
1.0
143
1.0
 70
0
 72
0
 73
0
 74
0
  7

 75
0
147
1.0
148
0.0
149
0.0
100
AcDbLayout
  1
Layout1
 70
0
 71
1
 10
0.0
 20
0.0
 11
11.0
 21
8.5
 12
0.0
 22
0.0
 32
0.0
 14
0.0
 24
0.0
 34
0.0
 15
0.0
 25
0.0
 35
0.0
146
0.0
 13
0.0
 23
0.0
 33
0.0
 16
1.0
 26
0.0
 36
0.0
 17
0.0
 27
1.0
 37
0.0
 76
0
330
203
345
0
346
0
  0
ENDSEC
  0
EOF
