999
DXF file: 2433_TOP.dxf
999
Pro/ENGINEER 2018400 by Parametric Technology Corporation
  0
SECTION
  2
HEADER
  9
$ACADVER
  1
AC1027
  9
$DWGCODEPAGE
  3
ANSI_1252
  9
$EXTMAX
 10
11.0
 20
8.5
 30
0.0
  9
$EXTMIN
 10
0.0
 20
0.0
 30
0.0
  9
$LIMMIN
 10
0.0
 20
0.0
  9
$LIMMAX
 10
11.0
 20
8.5
  9
$VIEWCTR
 10
5.5
 20
4.25
  9
$VIEWSIZE
 40
8.5
  9
$CLAYER
  8
0
  9
$LTSCALE
 40
0.605
  9
$CELTYPE
  6
BYLAYER
  9
$DIMSCALE
 40
1.0
  9
$DIMASZ
 40
0.1
  9
$DIMEXO
 40
0.0625
  9
$DIMDLI
 40
0.418
  9
$DIMEXE
 40
0.125
  9
$DIMCEN
 40
0.099
  9
$DIMLFAC
 40
1.0
  9
$DIMBLK
  1
_FILLED
  9
$DIMALT
 70
1
  9
$DIMALTD
 70
2
  9
$DIMALTTD
 70
2
  9
$DIMALTF
 40
25.4
  9
$DIMTXT
 40
0.08
  9
$DIMTOL
 70
1
  9
$DIMLIM
 70
0
  9
$DIMTFAC
 40
1.0
  9
$DIMTP
 40
0.001
  9
$DIMTM
 40
0.001
  9
$DIMGAP
 40
0.09
  9
$DIMDSEP
 70
46
  9
$AUNITS
 70
0
  9
$PDMODE
 70
3
  9
$PDSIZE
 40
0.3125
  9
$HANDSEED
  5
300
  9
$TILEMODE
 70
1
  9
$MEASUREMENT
 70
0
  9
$INSUNITS
 70
1
  0
ENDSEC
  0
SECTION
  2
CLASSES
  0
CLASS
  1
ACDBDICTIONARYWDFLT
  2
AcDbDictionaryWithDefault
  3
AutoCAD 2000
 90
0
 91
1
280
0
281
0
  0
CLASS
  1
ACDBPLACEHOLDER
  2
AcDbPlaceHolder
  3
AutoCAD 2000
 90
0
 91
1
280
0
281
0
  0
CLASS
  1
LAYOUT
  2
AcDbLayout
  3
AutoCAD 2000
 90
0
 91
0
280
0
281
0
  0
ENDSEC
  0
SECTION
  2
TABLES
  0
TABLE
  2
VPORT
  5
8
100
AcDbSymbolTable
 70
2
  0
VPORT
  5
1F4
100
AcDbSymbolTableRecord
100
AcDbViewportTableRecord
  2
*ACTIVE
 70
0
 10
0.0
 20
0.0
 11
1.0
 21
1.0
 12
5.5
 22
4.25
 13
0.0
 23
0.0
 14
1.0
 24
1.0
 15
0.0
 25
0.0
 16
0.0
 26
0.0
 36
1.0
 17
0.0
 27
0.0
 37
0.0
 40
8.5
 41
1.2941176471
 42
50.0
 43
0.0
 44
0.0
 50
0.0
 51
0.0
 71
0
 72
100
 73
1
 74
1
 75
0
 76
0
 77
0
 78
0
  0
ENDTAB
  0
TABLE
  2
LTYPE
  5
5
100
AcDbSymbolTable
 70
6
  0
LTYPE
  5
14
100
AcDbSymbolTableRecord
100
AcDbLinetypeTableRecord
  2
BYBLOCK
 70
0
  3

 72
65
 73
0
 40
0.0
  0
LTYPE
  5
15
100
AcDbSymbolTableRecord
100
AcDbLinetypeTableRecord
  2
BYLAYER
 70
0
  3

 72
65
 73
0
 40
0.0
  0
LTYPE
  5
16
100
AcDbSymbolTableRecord
100
AcDbLinetypeTableRecord
  2
CONTINUOUS
 70
64
  3
Solid line
 72
65
 73
0
 40
0.0
  0
LTYPE
  5
1F5
100
AcDbSymbolTableRecord
100
AcDbLinetypeTableRecord
  2
CENTER
 70
64
  3
____ _ ____ _ ____ _ ____ _ ____ _ ____ _ ____
 72
65
 73
4
 40
0.6
 49
0.375
 74
0
 49
-0.075
 74
0
 49
0.075
 74
0
 49
-0.075
 74
0
  0
LTYPE
  5
1F6
100
AcDbSymbolTableRecord
100
AcDbLinetypeTableRecord
  2
HIDDEN
 70
64
  3
- - - - - - - - - - - - - - - - - - - -
 72
65
 73
2
 40
0.2
 49
0.1
 74
0
 49
-0.1
 74
0
  0
LTYPE
  5
1F7
100
AcDbSymbolTableRecord
100
AcDbLinetypeTableRecord
  2
PHANTOM
 70
64
  3
_____ _ _ _____ _ _ _____ _ _ _____
 72
65
 73
6
 40
0.8
 49
0.45
 74
0
 49
-0.05
 74
0
 49
0.1
 74
0
 49
-0.05
 74
0
 49
0.1
 74
0
 49
-0.05
 74
0
  0
LTYPE
  5
1F8
100
AcDbSymbolTableRecord
100
AcDbLinetypeTableRecord
  2
DOT
 70
64
  3
. . . . . . . . . . . . . . . . . . . .
 72
65
 73
2
 40
0.2
 49
0.1
 74
0
 49
-0.1
 74
0
  0
LTYPE
  5
1F9
100
AcDbSymbolTableRecord
100
AcDbLinetypeTableRecord
  2
DASHED
 70
64
  3
- - - - - - - - - - - - - - - - - - - -
 72
65
 73
2
 40
0.2
 49
0.1
 74
0
 49
-0.1
 74
0
  0
ENDTAB
  0
TABLE
  2
LAYER
  5
2
100
AcDbSymbolTable
 70
36
  0
LAYER
  5
10
100
AcDbSymbolTableRecord
100
AcDbLayerTableRecord
  2
0
 70
0
 62
7
  6
CONTINUOUS
370
-3
390
F
  0
LAYER
  5
1FA
100
AcDbSymbolTableRecord
100
AcDbLayerTableRecord
  2
DEFAULT_1
 70
0
 62
7
  6
CENTER
370
-3
390
F
  0
LAYER
  5
1FB
100
AcDbSymbolTableRecord
100
AcDbLayerTableRecord
  2
DEFAULT_2
 70
0
 62
8
  6
HIDDEN
370
-3
390
F
  0
LAYER
  5
1FC
100
AcDbSymbolTableRecord
100
AcDbLayerTableRecord
  2
DEFAULT_3
 70
0
 62
7
  6
PHANTOM
370
-3
390
F
  0
LAYER
  5
1FD
100
AcDbSymbolTableRecord
100
AcDbLayerTableRecord
  2
DEFAULT_COORDINATE_SYSTEM
 70
0
 62
7
  6
CONTINUOUS
370
-3
390
F
  0
LAYER
  5
1FE
100
AcDbSymbolTableRecord
100
AcDbLayerTableRecord
  2
DEFAULT_DATUM_AXES
 70
0
 62
7
  6
CONTINUOUS
370
-3
390
F
  0
LAYER
  5
1FF
100
AcDbSymbolTableRecord
100
AcDbLayerTableRecord
  2
DEFAULT_DATUM_PLANES
 70
0
 62
7
  6
CONTINUOUS
370
-3
390
F
  0
ENDTAB
  0
TABLE
  2
STYLE
  5
3
100
AcDbSymbolTable
 70
1
  0
STYLE
  5
11
100
AcDbSymbolTableRecord
100
AcDbTextStyleTableRecord
  2
STANDARD
 70
0
 40
0.0
 41
0.8
 50
0.0
 71
0
 42
0.2
  3
txt
  4

  0
STYLE
  5
200
100
AcDbSymbolTableRecord
100
AcDbTextStyleTableRecord
  2
TEXTSTYLE_1
 70
0
 40
0.0
 41
0.8
 50
0.0
 71
0
 42
0.2
  3
gdt
  4

  0
ENDTAB
  0
TABLE
  2
VIEW
  5
6
100
AcDbSymbolTable
 70
0
  0
ENDTAB
  0
TABLE
  2
UCS
  5
7
100
AcDbSymbolTable
 70
0
  0
ENDTAB
  0
TABLE
  2
APPID
  5
9
100
AcDbSymbolTable
 70
1
  0
APPID
  5
201
100
AcDbSymbolTableRecord
100
AcDbRegAppTableRecord
  2
ACAD
 70
0
  0
ENDTAB
  0
TABLE
  2
BLOCK_RECORD
  5
1
100
AcDbSymbolTable
 70
0
  0
BLOCK_RECORD
  5
202
100
AcDbSymbolTableRecord
100
AcDbBlockTableRecord
  2
*Model_Space
  0
BLOCK_RECORD
  5
203
100
AcDbSymbolTableRecord
100
AcDbBlockTableRecord
  2
*Paper_Space
  0
BLOCK_RECORD
  5
204
100
AcDbSymbolTableRecord
100
AcDbBlockTableRecord
  2
_FILLED
  0
ENDTAB
  0
TABLE
  2
DIMSTYLE
  5
A
100
AcDbSymbolTable
 70
1
100
AcDbDimStyleTable
 71
0
  0
DIMSTYLE
105
205
100
AcDbSymbolTableRecord
100
AcDbDimStyleTableRecord
  2
STANDARD
 70
0
  3

  4

 40
1.0
 41
0.1
 42
0.0625
 43
0.38
 44
0.125
 45
0.0
 46
0.0
 47
0.001
 48
0.001
140
0.08
141
0.09
142
0.0
143
25.4
144
1.0
145
0.0
146
1.0
147
0.09
 71
1.0
 72
0.0
 73
1
 74
1
 75
0
 76
0
 77
0
 78
4
 79
1
170
1
171
2
172
0
173
0
174
0
175
0
176
0
177
0
178
0
270
2
179
3
271
3
272
3
273
2
274
2
275
0
280
0
281
0
282
0
283
1
284
4
285
0
286
0
287
3
288
0
340
11
278
46
341
204
342
204
343
204
344
204
  0
ENDTAB
  0
ENDSEC
  0
SECTION
  2
BLOCKS
  0
BLOCK
  5
20
100
AcDbEntity
  8
0
100
AcDbBlockBegin
  2
*Model_Space
 70
0
 10
0.0
 20
0.0
 30
0.0
  3
*Model_Space
  1

  0
ENDBLK
  5
21
100
AcDbEntity
  8
0
100
AcDbBlockEnd
  0
BLOCK
  5
1C
100
AcDbEntity
  8
0
100
AcDbBlockBegin
  2
*Paper_Space
 70
0
 10
0.0
 20
0.0
 30
0.0
  3
*Paper_Space
  1

  0
ENDBLK
  5
1D
100
AcDbEntity
  8
0
100
AcDbBlockEnd
  0
BLOCK
  5
206
100
AcDbEntity
  8
0
100
AcDbBlockBegin
  2
_FILLED
 70
64
 10
0.0
 20
0.0
  3
_FILLED
  1

  0
SOLID
  5
207
100
AcDbEntity
  8
0
  6
BYBLOCK
 62
0
100
AcDbTrace
 10
0.0
 20
0.0
 11
-1.0
 21
0.2
 12
-1.0
 22
-0.2
 13
-1.0
 23
-0.2
  0
ENDBLK
  5
208
100
AcDbEntity
  8
0
  6
BYBLOCK
 62
0
100
AcDbBlockEnd
  0
ENDSEC
  0
SECTION
  2
ENTITIES
  0
MTEXT
  5
209
100
AcDbEntity
  8
0
100
AcDbMText
 62
2
  6
CONTINUOUS
  7
STANDARD
 71
3
 72
1
 10
4.8082298137
 20
1.6917536972
 30
0.0
 11
1.0
 21
0.0
 31
0.0
 73
2
 44
0.9
  1
SCALE  .500
 40
0.08
 41
0.704
  0
LINE
  5
20A
100
AcDbEntity
  8
0
100
AcDbLine
 62
7
  6
CONTINUOUS
 10
0.0
 20
0.0
 11
0.0
 21
8.5
  0
LINE
  5
20B
100
AcDbEntity
  8
0
100
AcDbLine
 62
7
  6
CONTINUOUS
 10
0.0
 20
0.0
 11
11.0
 21
0.0
  0
LINE
  5
20C
100
AcDbEntity
  8
0
100
AcDbLine
 62
7
  6
CONTINUOUS
 10
0.0
 20
8.5
 11
11.0
 21
8.5
  0
LINE
  5
20D
100
AcDbEntity
  8
0
100
AcDbLine
 62
7
  6
CONTINUOUS
 10
11.0
 20
0.0
 11
11.0
 21
8.5
  0
LINE
  5
20E
100
AcDbEntity
  8
0
100
AcDbLine
 62
7
  6
CONTINUOUS
 10
4.100744273
 20
4.8162573813
 11
4.100744273
 21
4.8187573813
  0
LINE
  5
20F
100
AcDbEntity
  8
0
100
AcDbLine
 62
7
  6
CONTINUOUS
 10
4.100744273
 20
5.2662573813
 11
4.100744273
 21
5.2687573813
  0
LINE
  5
210
100
AcDbEntity
  8
0
100
AcDbLine
 62
7
  6
CONTINUOUS
 10
4.156994273
 20
4.7812573813
 11
4.1569895385
 21
4.2373975084
  0
LINE
  5
211
100
AcDbEntity
  8
0
100
AcDbLine
 62
7
  6
CONTINUOUS
 10
4.1569895385
 20
4.2373975084
 11
4.1569435705
 21
4.2191673398
  0
LINE
  5
212
100
AcDbEntity
  8
0
100
AcDbLine
 62
7
  6
CONTINUOUS
 10
4.1565422388
 20
4.1675291884
 11
4.1565400723
 21
4.167159403
  0
LINE
  5
213
100
AcDbEntity
  8
0
100
AcDbLine
 62
7
  6
CONTINUOUS
 10
4.1569439929
 20
4.2192607286
 11
4.1568512968
 21
4.2013997818
  0
LINE
  5
214
100
AcDbEntity
  8
0
100
AcDbLine
 62
7
  6
CONTINUOUS
 10
4.1568512968
 20
4.2013997818
 11
4.1567128594
 21
4.1838133267
  0
LINE
  5
215
100
AcDbEntity
  8
0
100
AcDbLine
 62
7
  6
CONTINUOUS
 10
4.1567128594
 20
4.1838133267
 11
4.1564731668
 21
4.1616609995
  0
LWPOLYLINE
  5
216
100
AcDbEntity
  8
0
100
AcDbPolyline
 62
7
  6
CONTINUOUS
 90
28
 70
0
 10
4.1565422392
 20
4.1675292247
 10
4.1562239557
 20
4.1441121153
 10
4.1558018972
 20
4.1198770684
 10
4.1552902545
 20
4.0959496151
 10
4.1546904979
 20
4.0723459107
 10
4.1540040746
 20
4.0490741805
 10
4.1532322583
 20
4.0261347331
 10
4.1523766385
 20
4.0035361238
 10
4.1514390208
 20
3.9812887876
 10
4.1504209709
 20
3.9593946007
 10
4.1493242814
 20
3.9378590264
 10
4.1481510484
 20
3.9166909189
 10
4.1469033595
 20
3.8958961252
 10
4.1455832088
 20
3.8754770884
 10
4.1441930431
 20
3.8554414527
 10
4.1427358674
 20
3.8358017054
 10
4.1412141952
 20
3.8165606989
 10
4.1396306797
 20
3.7977215522
 10
4.1379888858
 20
3.7792959106
 10
4.1362915778
 20
3.7612839047
 10
4.1345418004
 20
3.7436875497
 10
4.1327439311
 20
3.7265200245
 10
4.1309011258
 20
3.7097802882
 10
4.1290166922
 20
3.6934678507
 10
4.1270956675
 20
3.6775953555
 10
4.1251421662
 20
3.6621652032
 10
4.1231591586
 20
3.6471699641
 10
4.1212760362
 20
3.6335012737
  0
LWPOLYLINE
  5
217
100
AcDbEntity
  8
0
100
AcDbPolyline
 62
7
  6
CONTINUOUS
 90
12
 70
0
 10
4.7863755865
 20
3.1070824546
 10
4.7826761587
 20
3.1151132297
 10
4.7787534869
 20
3.1238421249
 10
4.7747986171
 20
3.1328650712
 10
4.7708170208
 20
3.1421753805
 10
4.7668130904
 20
3.1517686466
 10
4.7627900028
 20
3.1616433777
 10
4.7587534918
 20
3.1717917435
 10
4.7547068659
 20
3.182211767
 10
4.7506496147
 20
3.192911615
 10
4.7465846529
 20
3.2038910356
 10
4.7425181234
 20
3.2151410144
  0
LWPOLYLINE
  5
218
100
AcDbEntity
  8
0
100
AcDbPolyline
 62
7
  6
CONTINUOUS
 90
7
 70
0
 10
4.1212760419
 20
3.6335013139
 10
4.1192930409
 20
3.6196655954
 10
4.1182023824
 20
3.6122828148
 10
4.1170917795
 20
3.6049192604
 10
4.1159613174
 20
3.5975755745
 10
4.1148111437
 20
3.5902527725
 10
4.1136413525
 20
3.5829514867
  0
LINE
  5
219
100
AcDbEntity
  8
0
100
AcDbLine
 62
7
  6
CONTINUOUS
 10
4.1136413525
 20
3.5829514867
 11
4.1113889429
 21
3.5692829202
  0
LWPOLYLINE
  5
21A
100
AcDbEntity
  8
0
100
AcDbPolyline
 62
7
  6
CONTINUOUS
 90
24
 70
0
 10
4.1113889415
 20
3.5692829122
 10
4.1090177447
 20
3.5554027864
 10
4.1064049938
 20
3.5406528642
 10
4.1037093278
 20
3.5259759227
 10
4.1009320942
 20
3.5113758858
 10
4.0980748676
 20
3.4968575743
 10
4.0951394733
 20
3.482426691
 10
4.0921275561
 20
3.4680876726
 10
4.0890409066
 20
3.4538453743
 10
4.0858817398
 20
3.4397062492
 10
4.0826520214
 20
3.4256752437
 10
4.0793537699
 20
3.4117572764
 10
4.075989469
 20
3.3979589222
 10
4.072561594
 20
3.3842863344
 10
4.0690722346
 20
3.3707438497
 10
4.0655234797
 20
3.3573356687
 10
4.0619178808
 20
3.3440675848
 10
4.0582580247
 20
3.3309452818
 10
4.0545462544
 20
3.3179734006
 10
4.0507853262
 20
3.3051578931
 10
4.0469783046
 20
3.2925055369
 10
4.0431282868
 20
3.2800229699
 10
4.0392385784
 20
3.267717273
 10
4.0353125938
 20
3.2555956353
  0
LWPOLYLINE
  5
21B
100
AcDbEntity
  8
0
100
AcDbPolyline
 62
7
  6
CONTINUOUS
 90
14
 70
0
 10
5.4700155011
 20
5.8100994576
 10
5.469103815
 20
5.8094189019
 10
5.4680866285
 20
5.8085928915
 10
5.4671187355
 20
5.8077346049
 10
5.4662005106
 20
5.8068472619
 10
5.4653320556
 20
5.8059339165
 10
5.4645134646
 20
5.8049977124
 10
5.4637448029
 20
5.8040419149
 10
5.4630259944
 20
5.8030698152
 10
5.4623562387
 20
5.8020838489
 10
5.4617343837
 20
5.8010858339
 10
5.4611596287
 20
5.8000780041
 10
5.4606313991
 20
5.799063052
 10
5.4601488214
 20
5.7980432573
  0
LINE
  5
21C
100
AcDbEntity
  8
0
100
AcDbLine
 62
7
  6
CONTINUOUS
 10
4.7425181234
 20
3.2151410144
 11
4.738143482
 21
3.2275498102
  0
LINE
  5
21D
100
AcDbEntity
  8
0
100
AcDbLine
 62
7
  6
CONTINUOUS
 10
4.738143482
 20
3.2275498102
 11
4.7351948083
 21
3.2361053248
  0
LINE
  5
21E
100
AcDbEntity
  8
0
100
AcDbLine
 62
7
  6
CONTINUOUS
 10
4.7351948083
 20
3.2361053248
 11
4.7337079605
 21
3.2404809272
  0
LINE
  5
21F
100
AcDbEntity
  8
0
100
AcDbLine
 62
7
  6
CONTINUOUS
 10
4.381994273
 20
4.7812573813
 11
4.381994273
 21
2.8935859954
  0
LINE
  5
220
100
AcDbEntity
  8
0
100
AcDbLine
 62
7
  6
CONTINUOUS
 10
4.7337079605
 20
3.2404809272
 11
4.7324324738
 21
3.2442678187
  0
LWPOLYLINE
  5
221
100
AcDbEntity
  8
0
100
AcDbPolyline
 62
7
  6
CONTINUOUS
 90
25
 70
0
 10
4.7324323614
 20
3.2442681536
 10
4.7286759521
 20
3.2555956353
 10
4.7247499676
 20
3.267717273
 10
4.7208602591
 20
3.2800229699
 10
4.7170102413
 20
3.2925055369
 10
4.7132032197
 20
3.3051578931
 10
4.7094422915
 20
3.3179734006
 10
4.7057305212
 20
3.3309452818
 10
4.7020706651
 20
3.3440675848
 10
4.6984650663
 20
3.3573356687
 10
4.6949163113
 20
3.3707438497
 10
4.6914269519
 20
3.3842863344
 10
4.6879990769
 20
3.3979589222
 10
4.684634776
 20
3.4117572764
 10
4.6813365245
 20
3.4256752437
 10
4.6781068061
 20
3.4397062492
 10
4.6749476393
 20
3.4538453743
 10
4.6718609898
 20
3.4680876726
 10
4.6688490726
 20
3.482426691
 10
4.6659136783
 20
3.4968575743
 10
4.6630564517
 20
3.5113758858
 10
4.6602792182
 20
3.5259759227
 10
4.6575835521
 20
3.5406528642
 10
4.6549708012
 20
3.5554027864
 10
4.6525996044
 20
3.5692829122
  0
LINE
  5
222
100
AcDbEntity
  8
0
100
AcDbLine
 62
7
  6
CONTINUOUS
 10
4.0353125938
 20
3.2555956353
 11
4.0310270069
 21
3.2426932844
  0
LINE
  5
223
100
AcDbEntity
  8
0
100
AcDbLine
 62
7
  6
CONTINUOUS
 10
4.0310270069
 20
3.2426932844
 11
4.0280533776
 21
3.233942001
  0
LINE
  5
224
100
AcDbEntity
  8
0
100
AcDbLine
 62
7
  6
CONTINUOUS
 10
4.0280533776
 20
3.233942001
 11
4.0253137993
 21
3.226025433
  0
LWPOLYLINE
  5
225
100
AcDbEntity
  8
0
100
AcDbPolyline
 62
7
  6
CONTINUOUS
 90
13
 70
0
 10
4.0253137379
 20
3.226025257
 10
4.0214704225
 20
3.2151410144
 10
4.017403893
 20
3.2038910356
 10
4.0133389312
 20
3.192911615
 10
4.00928168
 20
3.182211767
 10
4.0052350541
 20
3.1717917435
 10
4.0011985432
 20
3.1616433777
 10
3.9971754555
 20
3.1517686466
 10
3.9931715252
 20
3.1421753805
 10
3.9891899288
 20
3.1328650712
 10
3.9852350591
 20
3.1238421249
 10
3.9813123872
 20
3.1151132297
 10
3.9776129594
 20
3.1070824546
  0
LWPOLYLINE
  5
226
100
AcDbEntity
  8
0
100
AcDbPolyline
 62
7
  6
CONTINUOUS
 90
7
 70
0
 10
4.652599603
 20
3.5692829202
 10
4.6503471934
 20
3.5829514867
 10
4.6491774022
 20
3.5902527725
 10
4.6480272285
 20
3.5975755745
 10
4.6468967664
 20
3.6049192604
 10
4.6457861636
 20
3.6122828148
 10
4.644695505
 20
3.6196655954
  0
LINE
  5
227
100
AcDbEntity
  8
0
100
AcDbLine
 62
7
  6
CONTINUOUS
 10
4.644695505
 20
3.6196655954
 11
4.6427125041
 21
3.6335013139
  0
LWPOLYLINE
  5
228
100
AcDbEntity
  8
0
100
AcDbPolyline
 62
7
  6
CONTINUOUS
 90
27
 70
0
 10
4.6427125097
 20
3.6335012737
 10
4.6408293873
 20
3.6471699641
 10
4.6388463797
 20
3.6621652032
 10
4.6368928784
 20
3.6775953555
 10
4.6349718537
 20
3.6934678507
 10
4.6330874201
 20
3.7097802882
 10
4.6312446148
 20
3.7265200245
 10
4.6294467455
 20
3.7436875497
 10
4.6276969681
 20
3.7612839047
 10
4.6259996601
 20
3.7792959106
 10
4.6243578662
 20
3.7977215522
 10
4.6227743507
 20
3.8165606989
 10
4.6212526785
 20
3.8358017054
 10
4.6197955028
 20
3.8554414527
 10
4.6184053371
 20
3.8754770884
 10
4.6170851864
 20
3.8958961252
 10
4.6158374975
 20
3.9166909189
 10
4.6146642645
 20
3.9378590264
 10
4.613567575
 20
3.9593946007
 10
4.6125495251
 20
3.9812887876
 10
4.6116119074
 20
4.0035361238
 10
4.6107562876
 20
4.0261347331
 10
4.6099844713
 20
4.0490741805
 10
4.609298048
 20
4.0723459107
 10
4.6086982914
 20
4.0959496151
 10
4.6081866488
 20
4.1198770684
 10
4.6077645902
 20
4.1441121153
  0
LINE
  5
229
100
AcDbEntity
  8
0
100
AcDbLine
 62
7
  6
CONTINUOUS
 10
4.6077645902
 20
4.1441121153
 11
4.6073616074
 21
4.1751241623
  0
LINE
  5
22A
100
AcDbEntity
  8
0
100
AcDbLine
 62
7
  6
CONTINUOUS
 10
4.6073616074
 20
4.1751241623
 11
4.6072008372
 21
4.1925723514
  0
LINE
  5
22B
100
AcDbEntity
  8
0
100
AcDbLine
 62
7
  6
CONTINUOUS
 10
4.6072008372
 20
4.1925723514
 11
4.6070850978
 21
4.2102955027
  0
LINE
  5
22C
100
AcDbEntity
  8
0
100
AcDbLine
 62
7
  6
CONTINUOUS
 10
4.6074484737
 20
4.167159403
 11
4.6074463072
 21
4.1675291884
  0
LINE
  5
22D
100
AcDbEntity
  8
0
100
AcDbLine
 62
7
  6
CONTINUOUS
 10
4.6069998112
 20
4.2369616842
 11
4.6070850978
 21
4.2102955027
  0
LINE
  5
22E
100
AcDbEntity
  8
0
100
AcDbLine
 62
7
  6
CONTINUOUS
 10
4.6070157956
 20
4.2282952636
 11
4.606994273
 21
4.2454573815
  0
LINE
  5
22F
100
AcDbEntity
  8
0
100
AcDbLine
 62
7
  6
CONTINUOUS
 10
4.606994273
 20
4.7812573813
 11
4.606994273
 21
4.2454573813
  0
LINE
  5
230
100
AcDbEntity
  8
0
100
AcDbLine
 62
7
  6
CONTINUOUS
 10
4.663244273
 20
4.8162573813
 11
4.663244273
 21
4.8187573813
  0
LINE
  5
231
100
AcDbEntity
  8
0
100
AcDbLine
 62
7
  6
CONTINUOUS
 10
4.663244273
 20
5.2662573813
 11
4.663244273
 21
5.2687573813
  0
LWPOLYLINE
  5
232
100
AcDbEntity
  8
0
100
AcDbPolyline
 62
7
  6
CONTINUOUS
 90
4
 70
0
 10
5.4601488229
 20
5.7980432606
 10
5.4601386858
 20
5.7980221016
 10
5.4600869299
 20
5.7979083862
 10
5.4591017566
 20
5.7957164554
  0
LINE
  5
233
100
AcDbEntity
  8
0
100
AcDbLine
 62
7
  6
CONTINUOUS
 10
5.073794273
 20
5.2519875265
 11
5.073794273
 21
6.0144871022
  0
LWPOLYLINE
  5
234
100
AcDbEntity
  8
0
100
AcDbPolyline
 62
7
  6
CONTINUOUS
 90
13
 70
0
 10
5.4380940624
 20
5.4424546562
 10
5.4381990202
 20
5.4426835227
 10
5.4383582632
 20
5.443063567
 10
5.4385002914
 20
5.4434457637
 10
5.4386254273
 20
5.4438294998
 10
5.4387339397
 20
5.4442139955
 10
5.4388261293
 20
5.4445985038
 10
5.4389023639
 20
5.4449825233
 10
5.4389629748
 20
5.4453653762
 10
5.4390083179
 20
5.4457464167
 10
5.4390387846
 20
5.4461252478
 10
5.4390547482
 20
5.4465012884
 10
5.4390574421
 20
5.4466943461
  0
LINE
  5
235
100
AcDbEntity
  8
0
100
AcDbLine
 62
7
  6
CONTINUOUS
 10
4.135744273
 20
4.7812573813
 11
4.628244273
 21
4.7812573813
  0
LINE
  5
236
100
AcDbEntity
  8
0
100
AcDbLine
 62
7
  6
CONTINUOUS
 10
4.663244273
 20
4.8162573813
 11
4.100744273
 21
4.8162573813
  0
LINE
  5
237
100
AcDbEntity
  8
0
100
AcDbLine
 62
7
  6
CONTINUOUS
 10
4.663244273
 20
4.8187573813
 11
4.100744273
 21
4.8187573813
  0
LINE
  5
238
100
AcDbEntity
  8
0
100
AcDbLine
 62
7
  6
CONTINUOUS
 10
5.1102645716
 20
6.0299191049
 11
5.1102645716
 21
5.2365555238
  0
LINE
  5
239
100
AcDbEntity
  8
0
100
AcDbLine
 62
7
  6
CONTINUOUS
 10
5.1493991813
 20
6.0118625268
 11
5.1493991813
 21
5.2546121018
  0
LINE
  5
23A
100
AcDbEntity
  8
0
100
AcDbLine
 62
7
  6
CONTINUOUS
 10
4.1300651924
 20
4.8532935659
 11
4.6339233535
 21
4.8532935659
  0
LINE
  5
23B
100
AcDbEntity
  8
0
100
AcDbLine
 62
7
  6
CONTINUOUS
 10
4.1506992314
 20
4.8740407937
 11
4.6132893145
 21
4.8740407937
  0
LINE
  5
23C
100
AcDbEntity
  8
0
100
AcDbLine
 62
7
  6
CONTINUOUS
 10
5.2943207072
 20
5.9793699373
 11
5.2943207072
 21
5.2871046914
  0
LINE
  5
23D
100
AcDbEntity
  8
0
100
AcDbLine
 62
7
  6
CONTINUOUS
 10
5.3460310411
 20
5.9826421301
 11
5.3460310411
 21
5.2838324986
  0
LINE
  5
23E
100
AcDbEntity
  8
0
100
AcDbLine
 62
7
  6
CONTINUOUS
 10
5.4431764293
 20
5.4850853629
 11
5.4431668086
 21
5.4850139407
  0
LINE
  5
23F
100
AcDbEntity
  8
0
100
AcDbLine
 62
7
  6
CONTINUOUS
 10
5.4426932014
 20
5.7871964479
 11
5.4427353308
 21
5.7854644395
  0
LINE
  5
240
100
AcDbEntity
  8
0
100
AcDbLine
 62
7
  6
CONTINUOUS
 10
5.3886254595
 20
5.5917199624
 11
5.3886254595
 21
5.2922929731
  0
LINE
  5
241
100
AcDbEntity
  8
0
100
AcDbLine
 62
7
  6
CONTINUOUS
 10
5.3886254595
 20
5.6762083702
 11
5.3886254595
 21
5.9741816556
  0
LINE
  5
242
100
AcDbEntity
  8
0
100
AcDbLine
 62
7
  6
CONTINUOUS
 10
5.398531861
 20
5.3193883758
 11
5.398531861
 21
5.5576895688
  0
LINE
  5
243
100
AcDbEntity
  8
0
100
AcDbLine
 62
7
  6
CONTINUOUS
 10
5.398531861
 20
5.7102290367
 11
5.398531861
 21
5.9470862528
  0
LINE
  5
244
100
AcDbEntity
  8
0
100
AcDbLine
 62
7
  6
CONTINUOUS
 10
5.438094074
 20
5.4424546942
 11
5.438094074
 21
5.4927730834
  0
LINE
  5
245
100
AcDbEntity
  8
0
100
AcDbLine
 62
7
  6
CONTINUOUS
 10
5.438094074
 20
5.7751536041
 11
5.438094074
 21
5.8240199538
  0
LINE
  5
246
100
AcDbEntity
  8
0
100
AcDbLine
 62
7
  6
CONTINUOUS
 10
5.4390575371
 20
5.776242078
 11
5.4390575371
 21
5.8197372954
  0
LINE
  5
247
100
AcDbEntity
  8
0
100
AcDbLine
 62
7
  6
CONTINUOUS
 10
5.4431668086
 20
5.4850139407
 11
5.4431668086
 21
5.4872598725
  0
LINE
  5
248
100
AcDbEntity
  8
0
100
AcDbLine
 62
7
  6
CONTINUOUS
 10
5.4431668086
 20
5.7806622254
 11
5.4431668086
 21
5.7814518177
  0
LINE
  5
249
100
AcDbEntity
  8
0
100
AcDbLine
 62
7
  6
CONTINUOUS
 10
5.4390574447
 20
5.446694346
 11
5.4390575371
 21
5.4916793456
  0
LINE
  5
24A
100
AcDbEntity
  8
0
100
AcDbLine
 62
7
  6
CONTINUOUS
 10
5.4426932014
 20
5.4793272248
 11
5.4427353308
 21
5.4810540815
  0
LINE
  5
24B
100
AcDbEntity
  8
0
100
AcDbLine
 62
7
  6
CONTINUOUS
 10
4.1506992314
 20
5.210973969
 11
4.6132893145
 21
5.210973969
  0
LINE
  5
24C
100
AcDbEntity
  8
0
100
AcDbLine
 62
7
  6
CONTINUOUS
 10
4.1300651924
 20
5.2317211968
 11
4.6339233535
 21
5.2317211968
  0
LINE
  5
24D
100
AcDbEntity
  8
0
100
AcDbLine
 62
7
  6
CONTINUOUS
 10
4.663244273
 20
5.2662573813
 11
4.100744273
 21
5.2662573813
  0
LINE
  5
24E
100
AcDbEntity
  8
0
100
AcDbLine
 62
7
  6
CONTINUOUS
 10
4.663244273
 20
5.2687573813
 11
4.100744273
 21
5.2687573813
  0
LINE
  5
24F
100
AcDbEntity
  8
0
100
AcDbLine
 62
7
  6
CONTINUOUS
 10
4.628244273
 20
5.3037573813
 11
4.135744273
 21
5.3037573813
  0
LWPOLYLINE
  5
250
100
AcDbEntity
  8
0
100
AcDbPolyline
 62
7
  6
CONTINUOUS
 90
19
 70
0
 10
4.789460761
 20
5.2802301909
 10
4.7939685501
 20
5.2797815261
 10
4.7984941948
 20
5.2793519842
 10
4.8030377851
 20
5.2789423005
 10
4.8075990369
 20
5.2785532608
 10
4.8121776863
 20
5.2781856616
 10
4.8167738427
 20
5.2778402861
 10
4.821387202
 20
5.2775179665
 10
4.8260174787
 20
5.2772195475
 10
4.8306647984
 20
5.2769458645
 10
4.8353288356
 20
5.2766977996
 10
4.8400092814
 20
5.2764762481
 10
4.8447062735
 20
5.2762821032
 10
4.8494194632
 20
5.2761162998
 10
4.8541485167
 20
5.2759797874
 10
4.8588935784
 20
5.2758735221
 10
4.8636544509
 20
5.275798493
 10
4.8684305966
 20
5.2757557117
 10
5.073794273
 20
5.2757373143
  0
LINE
  5
251
100
AcDbEntity
  8
0
100
AcDbLine
 62
7
  6
CONTINUOUS
 10
4.780499747
 20
5.2811818921
 11
4.789460761
 21
5.2802301909
  0
LINE
  5
252
100
AcDbEntity
  8
0
100
AcDbLine
 62
7
  6
CONTINUOUS
 10
4.7716122156
 20
5.2822013251
 11
4.780499747
 21
5.2811818921
  0
LINE
  5
253
100
AcDbEntity
  8
0
100
AcDbLine
 62
7
  6
CONTINUOUS
 10
4.7627994762
 20
5.2832829148
 11
4.7716122156
 21
5.2822013251
  0
LINE
  5
254
100
AcDbEntity
  8
0
100
AcDbLine
 62
7
  6
CONTINUOUS
 10
4.7540625032
 20
5.2844213313
 11
4.7627994762
 21
5.2832829148
  0
LINE
  5
255
100
AcDbEntity
  8
0
100
AcDbLine
 62
7
  6
CONTINUOUS
 10
4.7454023445
 20
5.2856114358
 11
4.7540625032
 21
5.2844213313
  0
LINE
  5
256
100
AcDbEntity
  8
0
100
AcDbLine
 62
7
  6
CONTINUOUS
 10
4.7368202184
 20
5.286848254
 11
4.7454023445
 21
5.2856114358
  0
LINE
  5
257
100
AcDbEntity
  8
0
100
AcDbLine
 62
7
  6
CONTINUOUS
 10
4.7283171098
 20
5.2881270251
 11
4.7368202184
 21
5.286848254
  0
LINE
  5
258
100
AcDbEntity
  8
0
100
AcDbLine
 62
7
  6
CONTINUOUS
 10
4.7198940934
 20
5.2894431496
 11
4.7283171098
 21
5.2881270251
  0
LINE
  5
259
100
AcDbEntity
  8
0
100
AcDbLine
 62
7
  6
CONTINUOUS
 10
4.7115523318
 20
5.2907921806
 11
4.7198940934
 21
5.2894431496
  0
LINE
  5
25A
100
AcDbEntity
  8
0
100
AcDbLine
 62
7
  6
CONTINUOUS
 10
4.7032929007
 20
5.2921698446
 11
4.7115523318
 21
5.2907921806
  0
LINE
  5
25B
100
AcDbEntity
  8
0
100
AcDbLine
 62
7
  6
CONTINUOUS
 10
4.6910604174
 20
5.2942810699
 11
4.7032929007
 21
5.2921698446
  0
LINE
  5
25C
100
AcDbEntity
  8
0
100
AcDbLine
 62
7
  6
CONTINUOUS
 10
4.6790159391
 20
5.2964348145
 11
4.6910604174
 21
5.2942810699
  0
LINE
  5
25D
100
AcDbEntity
  8
0
100
AcDbLine
 62
7
  6
CONTINUOUS
 10
4.6671593134
 20
5.2986192866
 11
4.6790159391
 21
5.2964348145
  0
LINE
  5
25E
100
AcDbEntity
  8
0
100
AcDbLine
 62
7
  6
CONTINUOUS
 10
4.651644255
 20
5.3015603701
 11
4.6671593134
 21
5.2986192866
  0
LINE
  5
25F
100
AcDbEntity
  8
0
100
AcDbLine
 62
7
  6
CONTINUOUS
 10
4.6327275815
 20
5.3052475255
 11
4.651644255
 21
5.3015603701
  0
LINE
  5
260
100
AcDbEntity
  8
0
100
AcDbLine
 62
7
  6
CONTINUOUS
 10
4.6289566153
 20
5.3059930439
 11
4.6327275815
 21
5.3052475255
  0
LINE
  5
261
100
AcDbEntity
  8
0
100
AcDbLine
 62
7
  6
CONTINUOUS
 10
5.4431668086
 20
5.7814518177
 11
5.4431764293
 21
5.7813780074
  0
LINE
  5
262
100
AcDbEntity
  8
0
100
AcDbLine
 62
7
  6
CONTINUOUS
 10
5.4390575371
 20
5.4771939338
 11
5.4425867843
 21
5.4771939338
  0
LINE
  5
263
100
AcDbEntity
  8
0
100
AcDbLine
 62
7
  6
CONTINUOUS
 10
5.7717247949
 20
5.5041198863
 11
5.7717247949
 21
5.5134489922
  0
LINE
  5
264
100
AcDbEntity
  8
0
100
AcDbLine
 62
7
  6
CONTINUOUS
 10
5.7717247949
 20
5.754479511
 11
5.7717247949
 21
5.7626198732
  0
LINE
  5
265
100
AcDbEntity
  8
0
100
AcDbLine
 62
7
  6
CONTINUOUS
 10
5.7978252327
 20
5.5041198863
 11
5.7978252328
 21
5.5653702437
  0
LINE
  5
266
100
AcDbEntity
  8
0
100
AcDbLine
 62
7
  6
CONTINUOUS
 10
5.7978252328
 20
5.7025535768
 11
5.7978252327
 21
5.7626198601
  0
LINE
  5
267
100
AcDbEntity
  8
0
100
AcDbLine
 62
7
  6
CONTINUOUS
 10
5.821794273
 20
5.5220145973
 11
5.821794273
 21
5.7447251492
  0
LINE
  5
268
100
AcDbEntity
  8
0
100
AcDbLine
 62
7
  6
CONTINUOUS
 10
5.4390575371
 20
5.4852795542
 11
5.4423859657
 21
5.4852795542
  0
LINE
  5
269
100
AcDbEntity
  8
0
100
AcDbLine
 62
7
  6
CONTINUOUS
 10
5.7978252327
 20
5.5041198863
 11
5.7717247949
 21
5.5041198863
  0
LINE
  5
26A
100
AcDbEntity
  8
0
100
AcDbLine
 62
7
  6
CONTINUOUS
 10
5.4601385092
 20
5.4687180428
 11
5.4601485522
 21
5.4686970877
  0
LWPOLYLINE
  5
26B
100
AcDbEntity
  8
0
100
AcDbPolyline
 62
7
  6
CONTINUOUS
 90
14
 70
0
 10
5.4601485508
 20
5.4686970909
 10
5.460631355
 20
5.4676767836
 10
5.4611598151
 20
5.4666613997
 10
5.461734797
 20
5.4656532179
 10
5.4623568691
 20
5.4646549266
 10
5.4630268233
 20
5.463668759
 10
5.4637458004
 20
5.4626965347
 10
5.4645145907
 20
5.4617406872
 10
5.4653332645
 20
5.4608044997
 10
5.4662017501
 20
5.45989123
 10
5.4671199472
 20
5.4590040144
 10
5.4680877469
 20
5.4581459
 10
5.4691047685
 20
5.4573200984
 10
5.4700155075
 20
5.456640278
  0
LINE
  5
26C
100
AcDbEntity
  8
0
100
AcDbLine
 62
7
  6
CONTINUOUS
 10
5.4596805689
 20
5.469732534
 11
5.4601385092
 21
5.4687180428
  0
LINE
  5
26D
100
AcDbEntity
  8
0
100
AcDbLine
 62
7
  6
CONTINUOUS
 10
5.458243765
 20
5.4729483026
 11
5.4601155609
 21
5.4687716079
  0
LINE
  5
26E
100
AcDbEntity
  8
0
100
AcDbLine
 62
7
  6
CONTINUOUS
 10
5.4582625595
 20
5.4729318346
 11
5.4585805174
 21
5.4722145162
  0
LINE
  5
26F
100
AcDbEntity
  8
0
100
AcDbLine
 62
7
  6
CONTINUOUS
 10
5.4601155609
 20
5.4687716079
 11
5.4601493083
 21
5.4686954123
  0
LINE
  5
270
100
AcDbEntity
  8
0
100
AcDbLine
 62
7
  6
CONTINUOUS
 10
4.791994273
 20
5.6332373143
 11
4.872044273
 21
5.6332373143
  0
LINE
  5
271
100
AcDbEntity
  8
0
100
AcDbLine
 62
7
  6
CONTINUOUS
 10
5.7978252327
 20
5.7626198601
 11
5.7717247949
 21
5.7626198601
  0
LINE
  5
272
100
AcDbEntity
  8
0
100
AcDbLine
 62
7
  6
CONTINUOUS
 10
5.4423859657
 20
5.7812816883
 11
5.4390575371
 21
5.7812816883
  0
LINE
  5
273
100
AcDbEntity
  8
0
100
AcDbLine
 62
7
  6
CONTINUOUS
 10
5.4425864526
 20
5.7893427722
 11
5.4390575371
 21
5.7893427722
  0
LINE
  5
274
100
AcDbEntity
  8
0
100
AcDbLine
 62
7
  6
CONTINUOUS
 10
4.6480115772
 20
5.9642263499
 11
4.6289451946
 21
5.9604901178
  0
LINE
  5
275
100
AcDbEntity
  8
0
100
AcDbLine
 62
7
  6
CONTINUOUS
 10
4.6654569314
 20
5.9675502724
 11
4.6480115772
 21
5.9642263499
  0
LINE
  5
276
100
AcDbEntity
  8
0
100
AcDbLine
 62
7
  6
CONTINUOUS
 10
4.6788129771
 20
5.9700168113
 11
4.6654569314
 21
5.9675502724
  0
LINE
  5
277
100
AcDbEntity
  8
0
100
AcDbLine
 62
7
  6
CONTINUOUS
 10
4.6924028674
 20
5.9724434672
 11
4.6788129771
 21
5.9700168113
  0
LINE
  5
278
100
AcDbEntity
  8
0
100
AcDbLine
 62
7
  6
CONTINUOUS
 10
4.7015940135
 20
5.9740310065
 11
4.6924028674
 21
5.9724434672
  0
LINE
  5
279
100
AcDbEntity
  8
0
100
AcDbLine
 62
7
  6
CONTINUOUS
 10
4.7108906375
 20
5.9755882564
 11
4.7015940135
 21
5.9740310065
  0
LINE
  5
27A
100
AcDbEntity
  8
0
100
AcDbLine
 62
7
  6
CONTINUOUS
 10
4.720291964
 20
5.9771094801
 11
4.7108906375
 21
5.9755882564
  0
LINE
  5
27B
100
AcDbEntity
  8
0
100
AcDbLine
 62
7
  6
CONTINUOUS
 10
4.7297969383
 20
5.9785886309
 11
4.720291964
 21
5.9771094801
  0
LINE
  5
27C
100
AcDbEntity
  8
0
100
AcDbLine
 62
7
  6
CONTINUOUS
 10
4.739404795
 20
5.9800194305
 11
4.7297969383
 21
5.9785886309
  0
LINE
  5
27D
100
AcDbEntity
  8
0
100
AcDbLine
 62
7
  6
CONTINUOUS
 10
4.7491142954
 20
5.9813952388
 11
4.739404795
 21
5.9800194305
  0
LWPOLYLINE
  5
27E
100
AcDbEntity
  8
0
100
AcDbPolyline
 62
7
  6
CONTINUOUS
 90
23
 70
0
 10
4.8677660558
 20
5.9907208957
 10
4.8623523075
 20
5.99066548
 10
4.8569601968
 20
5.9905689357
 10
4.8515905908
 20
5.990432776
 10
4.8462436965
 20
5.9902584713
 10
4.8409190564
 20
5.9900474262
 10
4.8356171454
 20
5.9898010376
 10
4.8303384695
 20
5.9895206775
 10
4.8250825902
 20
5.9892076334
 10
4.8198499395
 20
5.9888632043
 10
4.8146409831
 20
5.988488667
 10
4.8094553098
 20
5.9880852039
 10
4.8042933129
 20
5.9876540239
 10
4.7991554212
 20
5.987196316
 10
4.7940412576
 20
5.9867131689
 10
4.7889511797
 20
5.9862057082
 10
4.7838855831
 20
5.985675042
 10
4.7788441293
 20
5.9851221756
 10
4.773827144
 20
5.9845481579
 10
4.7688349917
 20
5.9839540223
 10
4.763867377
 20
5.9833406999
 10
4.7589245963
 20
5.9827091688
 10
4.7491142954
 20
5.9813952388
  0
LINE
  5
27F
100
AcDbEntity
  8
0
100
AcDbLine
 62
7
  6
CONTINUOUS
 10
5.073794273
 20
5.9907373143
 11
4.8677660558
 21
5.9907208957
  0
ARC
  5
280
100
AcDbEntity
  8
0
100
AcDbCircle
 62
7
  6
CONTINUOUS
 10
-2.464399931
 20
4.2445649997
 40
6.6213924811
100
AcDbArc
 50
359.3333838474
 51
359.7802300753
  0
ARC
  5
281
100
AcDbEntity
  8
0
100
AcDbCircle
 62
7
  6
CONTINUOUS
 10
-2.1876473487
 20
4.2415614494
 40
6.344623645
100
AcDbArc
 50
359.0949614244
 51
359.278431656
  0
ARC
  5
282
100
AcDbEntity
  8
0
100
AcDbCircle
 62
7
  6
CONTINUOUS
 10
-2.072819511
 20
4.2397903635
 40
6.2297821577
100
AcDbArc
 50
358.9638257474
 51
359.0945671552
  0
ARC
  5
283
100
AcDbEntity
  8
0
100
AcDbCircle
 62
7
  6
CONTINUOUS
 10
-1.895701033
 20
4.2364401715
 40
6.0526319062
100
AcDbArc
 50
358.6974379324
 51
358.8555923081
  0
ARC
  5
284
100
AcDbEntity
  8
0
100
AcDbCircle
 62
7
  6
CONTINUOUS
 10
1.4545838875
 20
3.9980788595
 40
2.6920936686
100
AcDbArc
 50
352.0308897298
 51
352.2147180443
  0
ARC
  5
285
100
AcDbEntity
  8
0
100
AcDbCircle
 62
7
  6
CONTINUOUS
 10
1.6034741893
 20
3.9771353694
 40
2.5417376201
100
AcDbArc
 50
350.7629879921
 51
352.0331260188
  0
ARC
  5
286
100
AcDbEntity
  8
0
100
AcDbCircle
 62
7
  6
CONTINUOUS
 10
1.6946249808
 20
3.9626804286
 40
2.4494485381
100
AcDbArc
 50
350.5042058047
 51
350.7544754873
  0
ARC
  5
287
100
AcDbEntity
  8
0
100
AcDbCircle
 62
7
  6
CONTINUOUS
 10
2.3141778961
 20
3.7931417793
 40
1.8065959922
100
AcDbArc
 50
340.8788951173
 51
341.5294866678
  0
ARC
  5
288
100
AcDbEntity
  8
0
100
AcDbCircle
 62
7
  6
CONTINUOUS
 10
4.182645442
 20
3.6249262271
 40
0.0619655984
100
AcDbArc
 50
172.0456546392
 51
180.0712712984
  0
ARC
  5
289
100
AcDbEntity
  8
0
100
AcDbCircle
 62
7
  6
CONTINUOUS
 10
4.135744273
 20
4.8187573813
 40
0.035
100
AcDbArc
 50
99.3380668668
 51
180.0
  0
ARC
  5
28A
100
AcDbEntity
  8
0
100
AcDbCircle
 62
7
  6
CONTINUOUS
 10
4.135744273
 20
4.8162573813
 40
0.035
100
AcDbArc
 50
180.0
 51
270.0
  0
ARC
  5
28B
100
AcDbEntity
  8
0
100
AcDbCircle
 62
7
  6
CONTINUOUS
 10
3.089994273
 20
5.0425073813
 40
1.074
100
AcDbArc
 50
350.9753707255
 51
9.0246292745
  0
ARC
  5
28C
100
AcDbEntity
  8
0
100
AcDbCircle
 62
7
  6
CONTINUOUS
 10
4.135744273
 20
5.2687573813
 40
0.035
100
AcDbArc
 50
90.0
 51
180.0
  0
ARC
  5
28D
100
AcDbEntity
  8
0
100
AcDbCircle
 62
7
  6
CONTINUOUS
 10
4.135744273
 20
5.2662573813
 40
0.035
100
AcDbArc
 50
180.0
 51
260.6619331332
  0
ARC
  5
28E
100
AcDbEntity
  8
0
100
AcDbCircle
 62
7
  6
CONTINUOUS
 10
4.1260087063
 20
5.2070524935
 40
0.025
100
AcDbArc
 50
9.0246292745
 51
80.6619331332
  0
ARC
  5
28F
100
AcDbEntity
  8
0
100
AcDbCircle
 62
7
  6
CONTINUOUS
 10
4.1260087063
 20
4.8779622692
 40
0.025
100
AcDbArc
 50
279.3380668668
 51
350.9753707255
  0
ARC
  5
290
100
AcDbEntity
  8
0
100
AcDbCircle
 62
7
  6
CONTINUOUS
 10
11.2283884771
 20
4.2445649997
 40
6.6213924813
100
AcDbArc
 50
180.2197699247
 51
180.6666161526
  0
ARC
  5
291
100
AcDbEntity
  8
0
100
AcDbCircle
 62
7
  6
CONTINUOUS
 10
10.9516358947
 20
4.2415614494
 40
6.344623645
100
AcDbArc
 50
180.721568344
 51
180.9050385756
  0
ARC
  5
292
100
AcDbEntity
  8
0
100
AcDbCircle
 62
7
  6
CONTINUOUS
 10
10.836808057
 20
4.2397903635
 40
6.2297821579
100
AcDbArc
 50
180.9054328448
 51
181.0361742526
  0
ARC
  5
293
100
AcDbEntity
  8
0
100
AcDbCircle
 62
7
  6
CONTINUOUS
 10
10.6596895803
 20
4.2364401715
 40
6.0526319076
100
AcDbArc
 50
181.144407692
 51
181.3025620676
  0
ARC
  5
294
100
AcDbEntity
  8
0
100
AcDbCircle
 62
7
  6
CONTINUOUS
 10
7.3094046583
 20
3.9980788595
 40
2.6920936685
100
AcDbArc
 50
187.7852819557
 51
187.9691102702
  0
ARC
  5
295
100
AcDbEntity
  8
0
100
AcDbCircle
 62
7
  6
CONTINUOUS
 10
7.1605143566
 20
3.9771353694
 40
2.5417376201
100
AcDbArc
 50
187.9668739812
 51
189.2370120079
  0
ARC
  5
296
100
AcDbEntity
  8
0
100
AcDbCircle
 62
7
  6
CONTINUOUS
 10
7.0693635653
 20
3.9626804286
 40
2.4494485382
100
AcDbArc
 50
189.2455245127
 51
189.4957941953
  0
ARC
  5
297
100
AcDbEntity
  8
0
100
AcDbCircle
 62
7
  6
CONTINUOUS
 10
6.4498106498
 20
3.7931417793
 40
1.8065959922
100
AcDbArc
 50
198.4705133322
 51
199.1211048827
  0
ARC
  5
298
100
AcDbEntity
  8
0
100
AcDbCircle
 62
7
  6
CONTINUOUS
 10
4.5813431039
 20
3.6249262271
 40
0.0619655984
100
AcDbArc
 50
359.9287287016
 51
7.9543453608
  0
ARC
  5
299
100
AcDbEntity
  8
0
100
AcDbCircle
 62
7
  6
CONTINUOUS
 10
4.628244273
 20
4.8187573813
 40
0.035
100
AcDbArc
 50
0.0
 51
80.6619331332
  0
ARC
  5
29A
100
AcDbEntity
  8
0
100
AcDbCircle
 62
7
  6
CONTINUOUS
 10
4.628244273
 20
4.8162573813
 40
0.035
100
AcDbArc
 50
270.0
 51
360.0
  0
ARC
  5
29B
100
AcDbEntity
  8
0
100
AcDbCircle
 62
7
  6
CONTINUOUS
 10
4.628244273
 20
5.2687573813
 40
0.035
100
AcDbArc
 50
0.0
 51
90.0
  0
ARC
  5
29C
100
AcDbEntity
  8
0
100
AcDbCircle
 62
7
  6
CONTINUOUS
 10
4.628244273
 20
5.2662573813
 40
0.035
100
AcDbArc
 50
279.3380668668
 51
360.0
  0
ARC
  5
29D
100
AcDbEntity
  8
0
100
AcDbCircle
 62
7
  6
CONTINUOUS
 10
4.6379798396
 20
5.2070524935
 40
0.025
100
AcDbArc
 50
99.3380668668
 51
170.9753707255
  0
ARC
  5
29E
100
AcDbEntity
  8
0
100
AcDbCircle
 62
7
  6
CONTINUOUS
 10
4.6379798396
 20
4.8779622692
 40
0.025
100
AcDbArc
 50
189.0246292745
 51
260.6619331332
  0
ARC
  5
29F
100
AcDbEntity
  8
0
100
AcDbCircle
 62
7
  6
CONTINUOUS
 10
4.381994273
 20
5.6332373143
 40
0.5842699124
100
AcDbArc
 50
37.6596527501
 51
247.9680689558
  0
ARC
  5
2A0
100
AcDbEntity
  8
0
100
AcDbCircle
 62
7
  6
CONTINUOUS
 10
4.381994273
 20
5.6332373143
 40
0.5842699124
100
AcDbArc
 50
292.0319310443
 51
322.3409885961
  0
ARC
  5
2A1
100
AcDbEntity
  8
0
100
AcDbCircle
 62
7
  6
CONTINUOUS
 10
4.381994273
 20
5.6332373143
 40
0.5791511029
100
AcDbArc
 50
292.2637431491
 51
321.9850426597
  0
ARC
  5
2A2
100
AcDbEntity
  8
0
100
AcDbCircle
 62
7
  6
CONTINUOUS
 10
4.381994273
 20
5.6332373143
 40
0.5791511029
100
AcDbArc
 50
38.0159666942
 51
247.7362568646
  0
ARC
  5
2A3
100
AcDbEntity
  8
0
100
AcDbCircle
 62
7
  6
CONTINUOUS
 10
4.381994273
 20
5.6332373143
 40
0.5117982719
100
AcDbArc
 50
43.0130797616
 51
243.7814593017
  0
ARC
  5
2A4
100
AcDbEntity
  8
0
100
AcDbCircle
 62
7
  6
CONTINUOUS
 10
4.381994273
 20
5.6332373143
 40
0.5117982719
100
AcDbArc
 50
296.2185406983
 51
316.9888210205
  0
ARC
  5
2A5
100
AcDbEntity
  8
0
100
AcDbCircle
 62
7
  6
CONTINUOUS
 10
4.381994273
 20
5.6332373143
 40
0.5099668415
100
AcDbArc
 50
296.3563615628
 51
316.8415988142
  0
ARC
  5
2A6
100
AcDbEntity
  8
0
100
AcDbCircle
 62
7
  6
CONTINUOUS
 10
4.381994273
 20
5.6332373143
 40
0.5099668415
100
AcDbArc
 50
43.160393577
 51
243.6436384242
  0
ARC
  5
2A7
100
AcDbEntity
  8
0
100
AcDbCircle
 62
7
  6
CONTINUOUS
 10
4.9794898269
 20
5.6597986293
 40
0.5075
100
AcDbArc
 50
325.6629561157
 51
334.6425610624
  0
ARC
  5
2A8
100
AcDbEntity
  8
0
100
AcDbCircle
 62
7
  6
CONTINUOUS
 10
4.9794898269
 20
5.6066759993
 40
0.5075
100
AcDbArc
 50
25.3574363857
 51
34.3370438843
  0
ARC
  5
2A9
100
AcDbEntity
  8
0
100
AcDbCircle
 62
7
  6
CONTINUOUS
 10
4.381994273
 20
5.6332373143
 40
0.4870633417
100
AcDbArc
 50
298.214637456
 51
314.9392238815
  0
ARC
  5
2AA
100
AcDbEntity
  8
0
100
AcDbCircle
 62
7
  6
CONTINUOUS
 10
4.381994273
 20
5.6332373143
 40
0.4870633417
100
AcDbArc
 50
45.0629318246
 51
241.7853625453
  0
ARC
  5
2AB
100
AcDbEntity
  8
0
100
AcDbCircle
 62
7
  6
CONTINUOUS
 10
4.381994273
 20
5.6332373143
 40
0.459
100
AcDbArc
 50
307.7818089845
 51
312.3840907677
  0
ARC
  5
2AC
100
AcDbEntity
  8
0
100
AcDbCircle
 62
7
  6
CONTINUOUS
 10
4.381994273
 20
5.6332373143
 40
0.459
100
AcDbArc
 50
47.6180259747
 51
232.2181910155
  0
ARC
  5
2AD
100
AcDbEntity
  8
0
100
AcDbCircle
 62
7
  6
CONTINUOUS
 10
4.381994273
 20
5.6332373143
 40
0.41
100
AcDbArc
 50
306.5238111847
 51
233.4761888153
  0
CIRCLE
  5
2AE
100
AcDbEntity
  8
0
100
AcDbCircle
 62
7
  6
CONTINUOUS
 10
4.381994273
 20
5.6332373143
 40
0.252
  0
CIRCLE
  5
2AF
100
AcDbEntity
  8
0
100
AcDbCircle
 62
7
  6
CONTINUOUS
 10
4.381994273
 20
5.6332373143
 40
0.242
  0
CIRCLE
  5
2B0
100
AcDbEntity
  8
0
100
AcDbCircle
 62
7
  6
CONTINUOUS
 10
4.381994273
 20
5.6332373143
 40
0.22525
  0
ARC
  5
2B1
100
AcDbEntity
  8
0
100
AcDbCircle
 62
7
  6
CONTINUOUS
 10
5.673994273
 20
5.0425073813
 40
1.074
100
AcDbArc
 50
170.9753707255
 51
189.0246292745
  0
ARC
  5
2B2
100
AcDbEntity
  8
0
100
AcDbCircle
 62
7
  6
CONTINUOUS
 10
5.093808177
 20
5.4244873143
 40
0.59
100
AcDbArc
 50
70.1321580976
 51
84.5934547903
  0
ARC
  5
2B3
100
AcDbEntity
  8
0
100
AcDbCircle
 62
7
  6
CONTINUOUS
 10
5.1555236139
 20
5.1899012733
 40
0.065
100
AcDbArc
 50
95.4065452097
 51
134.1303391118
  0
ARC
  5
2B4
100
AcDbEntity
  8
0
100
AcDbCircle
 62
7
  6
CONTINUOUS
 10
5.3164110707
 20
5.225973555
 40
0.065
100
AcDbArc
 50
62.8905419182
 51
109.8678419024
  0
ARC
  5
2B5
100
AcDbEntity
  8
0
100
AcDbCircle
 62
7
  6
CONTINUOUS
 10
5.357031861
 20
5.3192019777
 40
0.0415
100
AcDbArc
 50
319.5781890883
 51
360.0
  0
ARC
  5
2B6
100
AcDbEntity
  8
0
100
AcDbCircle
 62
7
  6
CONTINUOUS
 10
5.3619802559
 20
5.3149873143
 40
0.035
100
AcDbArc
 50
242.8905419182
 51
319.5781890883
  0
ARC
  5
2B7
100
AcDbEntity
  8
0
100
AcDbCircle
 62
7
  6
CONTINUOUS
 10
5.095294273
 20
5.2519873143
 40
0.0215
100
AcDbArc
 50
180.0
 51
314.1303391118
  0
ARC
  5
2B8
100
AcDbEntity
  8
0
100
AcDbCircle
 62
7
  6
CONTINUOUS
 10
5.4290575371
 20
5.4467373332
 40
0.01
100
AcDbArc
 50
334.6425658628
 51
359.7537007916
  0
ARC
  5
2B9
100
AcDbEntity
  8
0
100
AcDbCircle
 62
7
  6
CONTINUOUS
 10
5.093808177
 20
5.8419873143
 40
0.59
100
AcDbArc
 50
275.4065452097
 51
289.8678419024
  0
ARC
  5
2BA
100
AcDbEntity
  8
0
100
AcDbCircle
 62
7
  6
CONTINUOUS
 10
5.521794273
 20
5.6333698732
 40
0.32
100
AcDbArc
 50
339.6358670891
 51
20.3641329109
  0
ARC
  5
2BB
100
AcDbEntity
  8
0
100
AcDbCircle
 62
7
  6
CONTINUOUS
 10
5.596794273
 20
5.6333698732
 40
0.2175
100
AcDbArc
 50
36.4593894586
 51
125.6541556654
  0
ARC
  5
2BC
100
AcDbEntity
  8
0
100
AcDbCircle
 62
7
  6
CONTINUOUS
 10
5.596794273
 20
5.6333698732
 40
0.2175
100
AcDbArc
 50
234.3458475769
 51
323.5406105414
  0
CIRCLE
  5
2BD
100
AcDbEntity
  8
0
100
AcDbCircle
 62
7
  6
CONTINUOUS
 10
5.596794273
 20
5.6339623552
 40
0.2124285231
  0
CIRCLE
  5
2BE
100
AcDbEntity
  8
0
100
AcDbCircle
 62
7
  6
CONTINUOUS
 10
5.596794273
 20
5.6339626659
 40
0.2124046974
  0
CIRCLE
  5
2BF
100
AcDbEntity
  8
0
100
AcDbCircle
 62
7
  6
CONTINUOUS
 10
5.596794273
 20
5.6339777629
 40
0.1893374806
  0
CIRCLE
  5
2C0
100
AcDbEntity
  8
0
100
AcDbCircle
 62
7
  6
CONTINUOUS
 10
5.596794273
 20
5.6339885016
 40
0.1371049365
  0
ARC
  5
2C1
100
AcDbEntity
  8
0
100
AcDbCircle
 62
7
  6
CONTINUOUS
 10
5.1555236139
 20
6.0765733553
 40
0.065
100
AcDbArc
 50
225.8696608882
 51
264.5934547903
  0
ARC
  5
2C2
100
AcDbEntity
  8
0
100
AcDbCircle
 62
7
  6
CONTINUOUS
 10
5.3164110707
 20
6.0405010737
 40
0.065
100
AcDbArc
 50
250.1321580976
 51
297.1094580818
  0
ARC
  5
2C3
100
AcDbEntity
  8
0
100
AcDbCircle
 62
7
  6
CONTINUOUS
 10
5.357031861
 20
5.9472726509
 40
0.0415
100
AcDbArc
 50
0.0
 51
40.4218109117
  0
ARC
  5
2C4
100
AcDbEntity
  8
0
100
AcDbCircle
 62
7
  6
CONTINUOUS
 10
5.3619802559
 20
5.9514873143
 40
0.035
100
AcDbArc
 50
40.4218109117
 51
117.1094580818
  0
CIRCLE
  5
2C5
100
AcDbEntity
  8
0
100
AcDbCircle
 62
7
  6
CONTINUOUS
 10
5.596794273
 20
5.633998382
 40
0.0346910143
  0
ARC
  5
2C6
100
AcDbEntity
  8
0
100
AcDbCircle
 62
7
  6
CONTINUOUS
 10
5.7978252328
 20
5.7376198627
 40
0.025
100
AcDbArc
 50
16.5117198198
 51
90.0000002179
  0
ARC
  5
2C7
100
AcDbEntity
  8
0
100
AcDbCircle
 62
7
  6
CONTINUOUS
 10
5.7978252328
 20
5.5291198838
 40
0.025
100
AcDbArc
 50
269.9999997772
 51
343.4882801788
  0
ARC
  5
2C8
100
AcDbEntity
  8
0
100
AcDbCircle
 62
7
  6
CONTINUOUS
 10
5.095294273
 20
6.0144873143
 40
0.0215
100
AcDbArc
 50
45.8696608882
 51
180.0
  0
ARC
  5
2C9
100
AcDbEntity
  8
0
100
AcDbCircle
 62
7
  6
CONTINUOUS
 10
5.4290575371
 20
5.8197373143
 40
0.01
100
AcDbArc
 50
0.0
 51
25.3574363857
  0
SPLINE
  5
2CA
100
AcDbEntity
  8
0
100
AcDbSpline
 62
7
  6
CONTINUOUS
 70
0
 71
3
 72
40
 73
36
 74
0
 42
0.0000001
 43
0.0000001
 44
0.0000000001
 40
0.0
 40
0.0
 40
0.0
 40
0.0
 40
0.0090233209
 40
0.0176505764
 40
0.0259362156
 40
0.0339314471
 40
0.0416836109
 40
0.0492356793
 40
0.0566259419
 40
0.0638879078
 40
0.0781198617
 40
0.0920513011
 40
0.1057655515
 40
0.1193315947
 40
0.1328034249
 40
0.1462207975
 40
0.1730062878
 40
0.1998722332
 40
0.2269275045
 40
0.2542410291
 40
0.2818644803
 40
0.309834103
 40
0.3381700257
 40
0.3959773664
 40
0.4254854023
 40
0.4554065967
 40
0.5165127021
 40
0.5793823333
 40
0.6440897276
 40
0.7107214304
 40
0.7447896963
 40
0.7793904851
 40
0.8503145949
 40
0.9237602506
 40
1.0
 40
1.0
 40
1.0
 40
1.0
 10
4.794494273
 20
3.0719090922
 30
0.0
 10
4.794494273
 20
3.070458102
 30
0.0
 10
4.7944227756
 20
3.0676191927
 30
0.0
 10
4.7940988288
 20
3.0634592851
 30
0.0
 10
4.7935778527
 20
3.0594861017
 30
0.0
 10
4.7928769715
 20
3.0556838601
 30
0.0
 10
4.7920133681
 20
3.0520365454
 30
0.0
 10
4.7910042787
 20
3.0485281341
 30
0.0
 10
4.7898669125
 20
3.0451424307
 30
0.0
 10
4.7882140705
 20
3.0408008301
 30
0.0
 10
4.7859133716
 20
3.0355843375
 30
0.0
 10
4.7827908871
 20
3.0296127708
 30
0.0
 10
4.7793586005
 20
3.0239391621
 30
0.0
 10
4.7756503012
 20
3.0185323864
 30
0.0
 10
4.7716994491
 20
3.0133607632
 30
0.0
 10
4.7661361037
 20
3.00675822
 30
0.0
 10
4.7586464037
 20
2.9989800714
 30
0.0
 10
4.7489809821
 20
2.990305299
 30
0.0
 10
4.738715803
 20
2.9822140457
 30
0.0
 10
4.727923648
 20
2.9746297556
 30
0.0
 10
4.7166424472
 20
2.9675161265
 30
0.0
 10
4.7049101472
 20
2.9608368354
 30
0.0
 10
4.6886076552
 20
2.9524058557
 30
0.0
 10
4.6716376835
 20
2.9447578368
 30
0.0
 10
4.6541084139
 20
2.9378154393
 30
0.0
 10
4.6358862751
 20
2.931202196
 30
0.0
 10
4.6122888296
 20
2.9237069022
 30
0.0
 10
4.5829469704
 20
2.9159429676
 30
0.0
 10
4.5524225335
 20
2.9092993934
 30
0.0
 10
4.5262137709
 20
2.9047203642
 30
0.0
 10
4.504681941
 20
2.9015909389
 30
0.0
 10
4.4824085718
 20
2.8987927968
 30
0.0
 10
4.4537527908
 20
2.8960448573
 30
0.0
 10
4.4183268447
 20
2.8940301167
 30
0.0
 10
4.3942539645
 20
2.8935859954
 30
0.0
 10
4.381994273
 20
2.8935859954
 30
0.0
  0
SPLINE
  5
2CB
100
AcDbEntity
  8
0
100
AcDbSpline
 62
7
  6
CONTINUOUS
 70
0
 71
3
 72
16
 73
12
 74
0
 42
0.0000001
 43
0.0000001
 44
0.0000000001
 40
0.0
 40
0.0
 40
0.0
 40
0.0
 40
0.1431600479
 40
0.2789413351
 40
0.4085776486
 40
0.533205692
 40
0.653846216
 40
0.7713916767
 40
0.8292500095
 40
0.8866067042
 40
1.0
 40
1.0
 40
1.0
 40
1.0
 10
3.969494273
 20
3.0719090922
 30
0.0
 10
3.969494273
 20
3.0736460901
 30
0.0
 10
3.9695963958
 20
3.0770316476
 30
0.0
 10
3.9700596345
 20
3.0819705277
 30
0.0
 10
3.9707986796
 20
3.0866481471
 30
0.0
 10
3.9717835637
 20
3.0910918505
 30
0.0
 10
3.972984159
 20
3.0953294153
 30
0.0
 10
3.9741453645
 20
3.0987301928
 30
0.0
 10
3.9751511949
 20
3.1013693498
 30
0.0
 10
3.9761938147
 20
3.1039398623
 30
0.0
 10
3.9770314666
 20
3.1058355456
 30
0.0
 10
3.9776129583
 20
3.1070824523
 30
0.0
  0
SPLINE
  5
2CC
100
AcDbEntity
  8
0
100
AcDbSpline
 62
7
  6
CONTINUOUS
 70
0
 71
3
 72
40
 73
36
 74
0
 42
0.0000001
 43
0.0000001
 44
0.0000000001
 40
0.0
 40
0.0
 40
0.0
 40
0.0
 40
0.0762397494
 40
0.1496854051
 40
0.2206095149
 40
0.2552103037
 40
0.2892785696
 40
0.3559102724
 40
0.4206176667
 40
0.4834872979
 40
0.5445934033
 40
0.5745145977
 40
0.6040226336
 40
0.6618299743
 40
0.690165897
 40
0.7181355197
 40
0.7457589709
 40
0.7730724955
 40
0.8001277668
 40
0.8269937122
 40
0.8537792025
 40
0.8671965751
 40
0.8806684053
 40
0.8942344485
 40
0.9079486989
 40
0.9218801383
 40
0.9361120922
 40
0.9433740581
 40
0.9507643207
 40
0.9583163891
 40
0.9660685529
 40
0.9740637844
 40
0.9823494236
 40
0.9909766791
 40
1.0
 40
1.0
 40
1.0
 40
1.0
 10
4.381994273
 20
2.8935859954
 30
0.0
 10
4.3697345814
 20
2.8935859954
 30
0.0
 10
4.3456617012
 20
2.8940301167
 30
0.0
 10
4.3102357551
 20
2.8960448573
 30
0.0
 10
4.2815799741
 20
2.8987927968
 30
0.0
 10
4.259306605
 20
2.9015909389
 30
0.0
 10
4.237774775
 20
2.9047203642
 30
0.0
 10
4.2115660124
 20
2.9092993934
 30
0.0
 10
4.1810415755
 20
2.9159429676
 30
0.0
 10
4.1516997163
 20
2.9237069022
 30
0.0
 10
4.1281022708
 20
2.931202196
 30
0.0
 10
4.109880132
 20
2.9378154393
 30
0.0
 10
4.0923508624
 20
2.9447578368
 30
0.0
 10
4.0753808907
 20
2.9524058557
 30
0.0
 10
4.0590783987
 20
2.9608368354
 30
0.0
 10
4.0473460987
 20
2.9675161265
 30
0.0
 10
4.0360648979
 20
2.9746297556
 30
0.0
 10
4.0252727429
 20
2.9822140457
 30
0.0
 10
4.0150075639
 20
2.990305299
 30
0.0
 10
4.0053421423
 20
2.9989800714
 30
0.0
 10
3.9978524422
 20
3.00675822
 30
0.0
 10
3.9922890968
 20
3.0133607632
 30
0.0
 10
3.9883382447
 20
3.0185323864
 30
0.0
 10
3.9846299454
 20
3.0239391621
 30
0.0
 10
3.9811976588
 20
3.0296127708
 30
0.0
 10
3.9780751743
 20
3.0355843375
 30
0.0
 10
3.9757744754
 20
3.0408008301
 30
0.0
 10
3.9741216334
 20
3.0451424307
 30
0.0
 10
3.9729842672
 20
3.0485281341
 30
0.0
 10
3.9719751778
 20
3.0520365454
 30
0.0
 10
3.9711115744
 20
3.0556838601
 30
0.0
 10
3.9704106932
 20
3.0594861017
 30
0.0
 10
3.9698897171
 20
3.0634592851
 30
0.0
 10
3.9695657704
 20
3.0676191927
 30
0.0
 10
3.969494273
 20
3.070458102
 30
0.0
 10
3.969494273
 20
3.0719090922
 30
0.0
  0
SPLINE
  5
2CD
100
AcDbEntity
  8
0
100
AcDbSpline
 62
7
  6
CONTINUOUS
 70
0
 71
3
 72
16
 73
12
 74
0
 42
0.0000001
 43
0.0000001
 44
0.0000000001
 40
0.0
 40
0.0
 40
0.0
 40
0.0
 40
0.1133932958
 40
0.1707499905
 40
0.2286083233
 40
0.346153784
 40
0.466794308
 40
0.5914223514
 40
0.7210586649
 40
0.8568399521
 40
1.0
 40
1.0
 40
1.0
 40
1.0
 10
4.7863755876
 20
3.1070824523
 30
0.0
 10
4.7869570793
 20
3.1058355456
 30
0.0
 10
4.7877947312
 20
3.1039398623
 30
0.0
 10
4.788837351
 20
3.1013693498
 30
0.0
 10
4.7898431814
 20
3.0987301928
 30
0.0
 10
4.7910043869
 20
3.0953294153
 30
0.0
 10
4.7922049822
 20
3.0910918505
 30
0.0
 10
4.7931898664
 20
3.0866481471
 30
0.0
 10
4.7939289115
 20
3.0819705277
 30
0.0
 10
4.7943921501
 20
3.0770316476
 30
0.0
 10
4.794494273
 20
3.0736460901
 30
0.0
 10
4.794494273
 20
3.0719090922
 30
0.0
  0
SPLINE
  5
2CE
100
AcDbEntity
  8
0
100
AcDbSpline
 62
7
  6
CONTINUOUS
 70
0
 71
3
 72
11
 73
7
 74
0
 42
0.0000001
 43
0.0000001
 44
0.0000000001
 40
0.0
 40
0.0
 40
0.0
 40
0.0
 40
0.2307424898
 40
0.4715003889
 40
0.7263363142
 40
1.0
 40
1.0
 40
1.0
 40
1.0
 10
4.0253137379
 20
3.226025257
 30
0.0
 10
4.0246765401
 20
3.2242000161
 30
0.0
 10
4.0235001362
 20
3.2204245508
 30
0.0
 10
4.0221563028
 20
3.2144818919
 30
0.0
 10
4.0212918056
 20
3.2080864274
 30
0.0
 10
4.0211009477
 20
3.2036553316
 30
0.0
 10
4.0211009477
 20
3.2013624497
 30
0.0
  0
LINE
  5
2CF
100
AcDbEntity
  8
0
100
AcDbLine
 62
7
  6
CONTINUOUS
 10
4.7544255955
 20
5.461803244
 11
4.872044273
 21
5.4704659389
  0
SPLINE
  5
2D0
100
AcDbEntity
  8
0
100
AcDbSpline
 62
7
  6
CONTINUOUS
 70
0
 71
3
 72
11
 73
7
 74
0
 42
0.0000001
 43
0.0000001
 44
0.0000000001
 40
0.0
 40
0.0
 40
0.0
 40
0.0
 40
0.2309730675
 40
0.4720104245
 40
0.7268947483
 40
1.0
 40
1.0
 40
1.0
 40
1.0
 10
4.0315560721
 20
3.2442678187
 30
0.0
 10
4.0309708754
 20
3.2425232815
 30
0.0
 10
4.0298939187
 20
3.2389166117
 30
0.0
 10
4.028669164
 20
3.2332502866
 30
0.0
 10
4.0278838136
 20
3.2271668954
 30
0.0
 10
4.0277103966
 20
3.2229579571
 30
0.0
 10
4.0277103966
 20
3.2207822343
 30
0.0
  0
SPLINE
  5
2D1
100
AcDbEntity
  8
0
100
AcDbSpline
 62
7
  6
CONTINUOUS
 70
0
 71
3
 72
36
 73
32
 74
0
 42
0.0000001
 43
0.0000001
 44
0.0000000001
 40
0.0
 40
0.0
 40
0.0
 40
0.0
 40
0.0893003105
 40
0.1768400354
 40
0.2621567388
 40
0.3447854531
 40
0.4242638018
 40
0.5001471508
 40
0.5366052396
 40
0.5719999937
 40
0.6062762679
 40
0.6393801821
 40
0.6712623443
 40
0.7018871187
 40
0.7312244444
 40
0.7592475444
 40
0.7859315371
 40
0.811248811
 40
0.8351788105
 40
0.8577132692
 40
0.8788623079
 40
0.8986684436
 40
0.9172087138
 40
0.9346054301
 40
0.9510665966
 40
0.9590540797
 40
0.9669526377
 40
0.9748414731
 40
0.9828518646
 40
0.991164924
 40
1.0
 40
1.0
 40
1.0
 40
1.0
 10
4.381994273
 20
4.3172573813
 30
0.0
 10
4.3891475897
 20
4.3172573813
 30
0.0
 10
4.4033136283
 20
4.3174042226
 30
0.0
 10
4.4243048503
 20
4.318051217
 30
0.0
 10
4.4447449308
 20
4.3190972855
 30
0.0
 10
4.4645151221
 20
4.3205165901
 30
0.0
 10
4.4834985598
 20
4.3222832003
 30
0.0
 10
4.498762569
 20
4.3240617989
 30
0.0
 10
4.5104881111
 20
4.325664665
 30
0.0
 10
4.5188943582
 20
4.3269349643
 30
0.0
 10
4.5270152146
 20
4.328289428
 30
0.0
 10
4.534835697
 20
4.3297281363
 30
0.0
 10
4.542341987
 20
4.3312513912
 30
0.0
 10
4.5495214667
 20
4.3328608086
 30
0.0
 10
4.5563626922
 20
4.3345581802
 30
0.0
 10
4.5628542865
 20
4.3363453396
 30
0.0
 10
4.5689842332
 20
4.3382237477
 30
0.0
 10
4.5747380371
 20
4.3401999686
 30
0.0
 10
4.5801003057
 20
4.342280506
 30
0.0
 10
4.5850556992
 20
4.3444720028
 30
0.0
 10
4.5895901741
 20
4.3467817791
 30
0.0
 10
4.5936871761
 20
4.3492244732
 30
0.0
 10
4.5973312924
 20
4.3518156444
 30
0.0
 10
4.6004940375
 20
4.3545875458
 30
0.0
 10
4.6027260087
 20
4.357105361
 30
0.0
 10
4.6042014962
 20
4.3592387899
 30
0.0
 10
4.6051463308
 20
4.3608952522
 30
0.0
 10
4.6059341426
 20
4.3626347081
 30
0.0
 10
4.6065333011
 20
4.3644842648
 30
0.0
 10
4.606912096
 20
4.3664689951
 30
0.0
 10
4.606994273
 20
4.3678445401
 30
0.0
 10
4.606994273
 20
4.3685522655
 30
0.0
  0
SPLINE
  5
2D2
100
AcDbEntity
  8
0
100
AcDbSpline
 62
7
  6
CONTINUOUS
 70
0
 71
3
 72
37
 73
33
 74
0
 42
0.0000001
 43
0.0000001
 44
0.0000000001
 40
0.0
 40
0.0
 40
0.0
 40
0.0
 40
0.0860782204
 40
0.1702047828
 40
0.2520619357
 40
0.3313276449
 40
0.4076763592
 40
0.4807819583
 40
0.5160199212
 40
0.5503262011
 40
0.5836605402
 40
0.6159844344
 40
0.6472637899
 40
0.6774764499
 40
0.7066060994
 40
0.7346406985
 40
0.7615709693
 40
0.7873856937
 40
0.8120827866
 40
0.8356747693
 40
0.858194018
 40
0.8797053673
 40
0.900310396
 40
0.9201607241
 40
0.9298772874
 40
0.9395048104
 40
0.9490956094
 40
0.9587127158
 40
0.9684393484
 40
0.978422351
 40
0.9888622917
 40
1.0
 40
1.0
 40
1.0
 40
1.0
 10
4.381994273
 20
4.1789769096
 30
0.0
 10
4.3890887628
 20
4.1789769096
 30
0.0
 10
4.4031176385
 20
4.1791659542
 30
0.0
 10
4.4238778367
 20
4.1800031185
 30
0.0
 10
4.4440481045
 20
4.1813576046
 30
0.0
 10
4.4635361925
 20
4.1831960965
 30
0.0
 10
4.4822501186
 20
4.1854848776
 30
0.0
 10
4.4972999953
 20
4.1877877101
 30
0.0
 10
4.5088732805
 20
4.1898613662
 30
0.0
 10
4.5171917684
 20
4.1915068028
 30
0.0
 10
4.5252422915
 20
4.1932615138
 30
0.0
 10
4.5330119305
 20
4.1951256457
 30
0.0
 10
4.5404886982
 20
4.1970995775
 30
0.0
 10
4.5476613366
 20
4.1991855382
 30
0.0
 10
4.5545195122
 20
4.2013859537
 30
0.0
 10
4.5610528768
 20
4.2037032878
 30
0.0
 10
4.567250435
 20
4.206139559
 30
0.0
 10
4.5730975107
 20
4.2087035316
 30
0.0
 10
4.5785783012
 20
4.2114038399
 30
0.0
 10
4.5836769083
 20
4.2142492712
 30
0.0
 10
4.5883784666
 20
4.2172493003
 30
0.0
 10
4.5926631061
 20
4.2204233524
 30
0.0
 10
4.5965112826
 20
4.2237910749
 30
0.0
 10
4.5993438859
 20
4.2268161024
 30
0.0
 10
4.6013355536
 20
4.2293617763
 30
0.0
 10
4.6026808268
 20
4.2313331794
 30
0.0
 10
4.6038785996
 20
4.2333883779
 30
0.0
 10
4.6049200656
 20
4.2355363102
 30
0.0
 10
4.60579777
 20
4.2377917116
 30
0.0
 10
4.6064710943
 20
4.2401883607
 30
0.0
 10
4.6069003091
 20
4.2427591194
 30
0.0
 10
4.606994273
 20
4.2445394214
 30
0.0
 10
4.606994273
 20
4.2454573813
 30
0.0
  0
LINE
  5
2D3
100
AcDbEntity
  8
0
100
AcDbLine
 62
7
  6
CONTINUOUS
 10
4.606994273
 20
4.2454573813
 11
4.6069995134
 21
4.2369616796
  0
LINE
  5
2D4
100
AcDbEntity
  8
0
100
AcDbLine
 62
7
  6
CONTINUOUS
 10
4.6070164268
 20
4.2280111227
 11
4.6070387984
 21
4.2207492773
  0
SPLINE
  5
2D5
100
AcDbEntity
  8
0
100
AcDbSpline
 62
7
  6
CONTINUOUS
 70
0
 71
3
 72
9
 73
5
 74
0
 42
0.0000001
 43
0.0000001
 44
0.0000000001
 40
0.0
 40
0.0
 40
0.0
 40
0.0
 40
0.483325619
 40
1.0
 40
1.0
 40
1.0
 40
1.0
 10
4.1113889415
 20
3.5692829122
 30
0.0
 10
4.1111024471
 20
3.567575488
 30
0.0
 10
4.1106555042
 20
3.5640168524
 30
0.0
 10
4.1105104749
 20
3.5604328991
 30
0.0
 10
4.1105104749
 20
3.558582149
 30
0.0
  0
SPLINE
  5
2D6
100
AcDbEntity
  8
0
100
AcDbSpline
 62
7
  6
CONTINUOUS
 70
0
 71
3
 72
38
 73
34
 74
0
 42
0.0000001
 43
0.0000001
 44
0.0000000001
 40
0.0
 40
0.0
 40
0.0
 40
0.0
 40
0.0841247392
 40
0.1661856002
 40
0.2459522538
 40
0.3231892605
 40
0.3976541041
 40
0.4337688377
 40
0.4690958932
 40
0.5036044868
 40
0.5372624527
 40
0.5700386568
 40
0.6019039818
 40
0.6328336356
 40
0.6628136574
 40
0.6918360147
 40
0.7198974073
 40
0.7469976692
 40
0.7731351163
 40
0.7983180893
 40
0.8225703203
 40
0.8459355678
 40
0.8684895217
 40
0.8903450405
 40
0.9116671786
 40
0.9222066583
 40
0.9327177865
 40
0.9432549188
 40
0.9538826779
 40
0.964687175
 40
0.9758254779
 40
0.9875112389
 40
1.0
 40
1.0
 40
1.0
 40
1.0
 10
4.381994273
 20
4.0917164911
 30
0.0
 10
4.3890656863
 20
4.0917164911
 30
0.0
 10
4.4030359887
 20
4.0919276912
 30
0.0
 10
4.4236920623
 20
4.092866764
 30
0.0
 10
4.4437330501
 20
4.094387893
 30
0.0
 10
4.4630828653
 20
4.0964546444
 30
0.0
 10
4.4787241115
 20
4.0986220938
 30
0.0
 10
4.4908257506
 20
4.1006188547
 30
0.0
 10
4.4995860888
 20
4.1022261317
 30
0.0
 10
4.5081121892
 20
4.1039573158
 30
0.0
 10
4.5163925743
 20
4.1058127871
 30
0.0
 10
4.5244154501
 20
4.1077928618
 30
0.0
 10
4.5321691393
 20
4.1098978954
 30
0.0
 10
4.5396427858
 20
4.1121285039
 30
0.0
 10
4.5468259306
 20
4.1144875168
 30
0.0
 10
4.553708887
 20
4.1169779615
 30
0.0
 10
4.5602819067
 20
4.1196028923
 30
0.0
 10
4.5665346067
 20
4.1223648891
 30
0.0
 10
4.5724520943
 20
4.1252742876
 30
0.0
 10
4.5780182288
 20
4.1283412313
 30
0.0
 10
4.5832166952
 20
4.1315759781
 30
0.0
 10
4.5880321476
 20
4.1349895242
 30
0.0
 10
4.5924424616
 20
4.1386042492
 30
0.0
 10
4.5964259134
 20
4.1424429988
 30
0.0
 10
4.5993658228
 20
4.1458822636
 30
0.0
 10
4.6014448452
 20
4.1487765677
 30
0.0
 10
4.602859033
 20
4.1510260655
 30
0.0
 10
4.6041232521
 20
4.1533718713
 30
0.0
 10
4.6052276321
 20
4.1558242647
 30
0.0
 10
4.60616368
 20
4.1584003351
 30
0.0
 10
4.6068850978
 20
4.1611381825
 30
0.0
 10
4.6073469367
 20
4.1640756201
 30
0.0
 10
4.6074484737
 20
4.1661096144
 30
0.0
 10
4.6074484737
 20
4.167159403
 30
0.0
  0
LINE
  5
2D7
100
AcDbEntity
  8
0
100
AcDbLine
 62
7
  6
CONTINUOUS
 10
4.608044611
 20
4.1271330601
 11
4.6082649753
 21
4.1155548634
  0
LINE
  5
2D8
100
AcDbEntity
  8
0
100
AcDbLine
 62
7
  6
CONTINUOUS
 10
4.6086217102
 20
4.0988515096
 11
4.6087820617
 21
4.091975513
  0
SPLINE
  5
2D9
100
AcDbEntity
  8
0
100
AcDbSpline
 62
7
  6
CONTINUOUS
 70
0
 71
3
 72
15
 73
11
 74
0
 42
0.0000001
 43
0.0000001
 44
0.0000000001
 40
0.0
 40
0.0
 40
0.0
 40
0.0
 40
0.1288666424
 40
0.2573746436
 40
0.385145646
 40
0.511804921
 40
0.6369820461
 40
0.7603117429
 40
0.8814349224
 40
1.0
 40
1.0
 40
1.0
 40
1.0
 10
4.6087820617
 20
4.091975513
 30
0.0
 10
4.6092541541
 20
4.0722211451
 30
0.0
 10
4.610393668
 20
4.0327717558
 30
0.0
 10
4.6127296692
 20
3.9737597837
 30
0.0
 10
4.6157273948
 20
3.9151163829
 30
0.0
 10
4.6194225022
 20
3.8570243406
 30
0.0
 10
4.623850612
 20
3.7996663211
 30
0.0
 10
4.6290473163
 20
3.7432248411
 30
0.0
 10
4.6350481312
 20
3.6878826997
 30
0.0
 10
4.6396621183
 20
3.6514177973
 30
0.0
 10
4.642124905
 20
3.6334049806
 30
0.0
  0
SPLINE
  5
2DA
100
AcDbEntity
  8
0
100
AcDbSpline
 62
7
  6
CONTINUOUS
 70
0
 71
3
 72
34
 73
30
 74
0
 42
0.0000001
 43
0.0000001
 44
0.0000000001
 40
0.0
 40
0.0
 40
0.0
 40
0.0
 40
0.0753312713
 40
0.1480754104
 40
0.2184264265
 40
0.2865702259
 40
0.352665448
 40
0.4168000054
 40
0.4790546228
 40
0.5395091374
 40
0.5982738101
 40
0.6555132635
 40
0.6836376363
 40
0.7114684268
 40
0.7390465604
 40
0.7664282368
 40
0.7936867213
 40
0.8209217244
 40
0.8482709913
 40
0.862051477
 40
0.8759430552
 40
0.8899854387
 40
0.9042315575
 40
0.9187461741
 40
0.9336045749
 40
0.9489118286
 40
0.9648800249
 40
0.9817959272
 40
1.0
 40
1.0
 40
1.0
 40
1.0
 10
4.381994273
 20
3.4950727173
 30
0.0
 10
4.3899202776
 20
3.4950727173
 30
0.0
 10
4.4055024346
 20
3.4954037602
 30
0.0
 10
4.4284422765
 20
3.496907547
 30
0.0
 10
4.4505401297
 20
3.4993579411
 30
0.0
 10
4.4718120443
 20
3.5027033807
 30
0.0
 10
4.4922678717
 20
3.5068891417
 30
0.0
 10
4.5118941615
 20
3.5119207942
 30
0.0
 10
4.5306629367
 20
3.5178022758
 30
0.0
 10
4.5485339821
 20
3.524558404
 30
0.0
 10
4.565463161
 20
3.532213525
 30
0.0
 10
4.5788126585
 20
3.5394415862
 30
0.0
 10
4.5889264538
 20
3.5457366464
 30
0.0
 10
4.5961779945
 20
3.550708384
 30
0.0
 10
4.6031180077
 20
3.5559790358
 30
0.0
 10
4.6097249082
 20
3.5615697137
 30
0.0
 10
4.6159779884
 20
3.5675026876
 30
0.0
 10
4.6218368948
 20
3.5738217134
 30
0.0
 10
4.6263471259
 20
3.5794350676
 30
0.0
 10
4.6296872375
 20
3.584165345
 30
0.0
 10
4.6320592222
 20
3.5878599853
 30
0.0
 10
4.6342814544
 20
3.591703536
 30
0.0
 10
4.6363345465
 20
3.5957142463
 30
0.0
 10
4.6381991287
 20
3.599910524
 30
0.0
 10
4.6398569288
 20
3.6043123373
 30
0.0
 10
4.6412916645
 20
3.6089532486
 30
0.0
 10
4.6424160282
 20
3.6139035244
 30
0.0
 10
4.6431463477
 20
3.6192359823
 30
0.0
 10
4.6433086544
 20
3.6229337993
 30
0.0
 10
4.6433086544
 20
3.6248491469
 30
0.0
  0
SPLINE
  5
2DB
100
AcDbEntity
  8
0
100
AcDbSpline
 62
7
  6
CONTINUOUS
 70
0
 71
3
 72
34
 73
30
 74
0
 42
0.0000001
 43
0.0000001
 44
0.0000000001
 40
0.0
 40
0.0
 40
0.0
 40
0.0
 40
0.0747587195
 40
0.1469155658
 40
0.2167011304
 40
0.2843345887
 40
0.3500029989
 40
0.413815062
 40
0.4758680332
 40
0.536254522
 40
0.5950914864
 40
0.6525390012
 40
0.6808146217
 40
0.7088256976
 40
0.7366106958
 40
0.7642227513
 40
0.791731279
 40
0.8192310142
 40
0.8468542819
 40
0.860773572
 40
0.874804383
 40
0.8889858885
 40
0.9033706851
 40
0.9180233797
 40
0.933019299
 40
0.9484641356
 40
0.9645726223
 40
0.9816358334
 40
1.0
 40
1.0
 40
1.0
 40
1.0
 10
4.381994273
 20
3.4204626371
 30
0.0
 10
4.3902021749
 20
3.4204626371
 30
0.0
 10
4.406335035
 20
3.4208254217
 30
0.0
 10
4.4300784974
 20
3.4224704942
 30
0.0
 10
4.4529411087
 20
3.4251450225
 30
0.0
 10
4.4749472904
 20
3.4287876435
 30
0.0
 10
4.4961147396
 20
3.4333334362
 30
0.0
 10
4.5164351933
 20
3.4387820524
 30
0.0
 10
4.5358845359
 20
3.4451312481
 30
0.0
 10
4.5544251371
 20
3.4524008827
 30
0.0
 10
4.5720146724
 20
3.4606098355
 30
0.0
 10
4.5859009322
 20
3.4683298048
 30
0.0
 10
4.5964385057
 20
3.4750353242
 30
0.0
 10
4.6040064414
 20
3.4803255566
 30
0.0
 10
4.6112575213
 20
3.4859247354
 30
0.0
 10
4.6181690183
 20
3.4918544697
 30
0.0
 10
4.6247190843
 20
3.4981375396
 30
0.0
 10
4.6308645433
 20
3.5048197283
 30
0.0
 10
4.6356018778
 20
3.5107475255
 30
0.0
 10
4.6391140905
 20
3.5157387711
 30
0.0
 10
4.6416100693
 20
3.5196351427
 30
0.0
 10
4.6439501583
 20
3.5236864844
 30
0.0
 10
4.6461136856
 20
3.5279121076
 30
0.0
 10
4.6480800051
 20
3.5323315059
 30
0.0
 10
4.6498296303
 20
3.5369658307
 30
0.0
 10
4.651345209
 20
3.5418506671
 30
0.0
 10
4.6525338098
 20
3.5470607358
 30
0.0
 10
4.6533063236
 20
3.5526734482
 30
0.0
 10
4.653478071
 20
3.5565659122
 30
0.0
 10
4.653478071
 20
3.558582149
 30
0.0
  0
SPLINE
  5
2DC
100
AcDbEntity
  8
0
100
AcDbSpline
 62
7
  6
CONTINUOUS
 70
0
 71
3
 72
15
 73
11
 74
0
 42
0.0000001
 43
0.0000001
 44
0.0000000001
 40
0.0
 40
0.0
 40
0.0
 40
0.0
 40
0.1402364951
 40
0.2764508188
 40
0.4084847526
 40
0.5361738535
 40
0.6593478961
 40
0.7778313135
 40
0.891443645
 40
1.0
 40
1.0
 40
1.0
 40
1.0
 10
4.653478071
 20
3.558582149
 30
0.0
 10
4.6561629999
 20
3.542531032
 30
0.0
 10
4.6617687075
 20
3.5109405381
 30
0.0
 10
4.6709728473
 20
3.4644359989
 30
0.0
 10
4.6807742761
 20
3.4195429324
 30
0.0
 10
4.6910937763
 20
3.3763206659
 30
0.0
 10
4.7018521652
 20
3.3348282391
 30
0.0
 10
4.712970259
 20
3.2951246804
 30
0.0
 10
4.724368781
 20
3.2572692544
 30
0.0
 10
4.7322867447
 20
3.2327309246
 30
0.0
 10
4.7362781493
 20
3.2207822343
 30
0.0
  0
SPLINE
  5
2DD
100
AcDbEntity
  8
0
100
AcDbSpline
 62
7
  6
CONTINUOUS
 70
0
 71
3
 72
39
 73
35
 74
0
 42
0.0000001
 43
0.0000001
 44
0.0000000001
 40
0.0
 40
0.0
 40
0.0
 40
0.0
 40
0.0757694979
 40
0.1487705835
 40
0.2192675402
 40
0.2875159431
 40
0.3537350866
 40
0.418040341
 40
0.4805280708
 40
0.5412855049
 40
0.5710504562
 40
0.6004196514
 40
0.65802233
 40
0.6863044588
 40
0.7142615141
 40
0.7419211712
 40
0.769327171
 40
0.7965393279
 40
0.8236376845
 40
0.8507422205
 40
0.8643551473
 40
0.8780479844
 40
0.8918610902
 40
0.9058489654
 40
0.9200802713
 40
0.9346369252
 40
0.9420697999
 40
0.9496364057
 40
0.9573698083
 40
0.9653075543
 40
0.9734915908
 40
0.9819679891
 40
0.9907865019
 40
1.0
 40
1.0
 40
1.0
 40
1.0
 10
4.381994273
 20
3.0600702877
 30
0.0
 10
4.3925710849
 20
3.0600702877
 30
0.0
 10
4.4133408508
 20
3.0604692599
 30
0.0
 10
4.4439030088
 20
3.0622827655
 30
0.0
 10
4.4733220053
 20
3.0652319234
 30
0.0
 10
4.5016578762
 20
3.0692490166
 30
0.0
 10
4.5289568095
 20
3.0742608868
 30
0.0
 10
4.5552277291
 20
3.080282628
 30
0.0
 10
4.5804533965
 20
3.0873266741
 30
0.0
 10
4.6007120912
 20
3.0941297285
 30
0.0
 10
4.6163369375
 20
3.1001324779
 30
0.0
 10
4.6313652673
 20
3.1064372598
 30
0.0
 10
4.645895595
 20
3.1133806433
 30
0.0
 10
4.6598316282
 20
3.1210247255
 30
0.0
 10
4.6698604988
 20
3.1270806317
 30
0.0
 10
4.6794979957
 20
3.1335254678
 30
0.0
 10
4.6887123935
 20
3.1403905283
 30
0.0
 10
4.6974723334
 20
3.1477075504
 30
0.0
 10
4.7057166857
 20
3.1555419377
 30
0.0
 10
4.7120976182
 20
3.1625496801
 30
0.0
 10
4.7168368392
 20
3.1684879358
 30
0.0
 10
4.7202052889
 20
3.1731382472
 30
0.0
 10
4.7233670455
 20
3.1779945038
 30
0.0
 10
4.7262935848
 20
3.1830837107
 30
0.0
 10
4.7289562287
 20
3.1884325097
 30
0.0
 10
4.7309179939
 20
3.1930967638
 30
0.0
 10
4.7323279936
 20
3.1969749018
 30
0.0
 10
4.733298601
 20
3.199997077
 30
0.0
 10
4.7341598557
 20
3.2031255269
 30
0.0
 10
4.734897039
 20
3.2063741509
 30
0.0
 10
4.735495412
 20
3.20975671
 30
0.0
 10
4.7359402764
 20
3.213286962
 30
0.0
 10
4.7362169782
 20
3.216978475
 30
0.0
 10
4.7362781493
 20
3.2194961042
 30
0.0
 10
4.7362781493
 20
3.2207822343
 30
0.0
  0
SPLINE
  5
2DE
100
AcDbEntity
  8
0
100
AcDbSpline
 62
7
  6
CONTINUOUS
 70
0
 71
3
 72
40
 73
36
 74
0
 42
0.0000001
 43
0.0000001
 44
0.0000000001
 40
0.0
 40
0.0
 40
0.0
 40
0.0
 40
0.0760107007
 40
0.149233693
 40
0.219926986
 40
0.2883417325
 40
0.3546942234
 40
0.4190961964
 40
0.4816411319
 40
0.5424144215
 40
0.5721715548
 40
0.6015221928
 40
0.659054975
 40
0.6872859213
 40
0.7151809569
 40
0.7427679625
 40
0.7700913708
 40
0.7972120326
 40
0.8242108975
 40
0.837703031
 40
0.8512149714
 40
0.8647731937
 40
0.8784106766
 40
0.8921683437
 40
0.9061013188
 40
0.920279103
 40
0.9347846898
 40
0.9421933559
 40
0.9497368378
 40
0.9574484159
 40
0.9653659098
 40
0.9735315888
 40
0.9819918844
 40
0.9907969332
 40
1.0
 40
1.0
 40
1.0
 40
1.0
 10
4.381994273
 20
3.0412499825
 30
0.0
 10
4.3927620351
 20
3.0412499825
 30
0.0
 10
4.4139050439
 20
3.0416357074
 30
0.0
 10
4.4450179406
 20
3.0433926126
 30
0.0
 10
4.4749683621
 20
3.0462545933
 30
0.0
 10
4.5038183742
 20
3.0501597491
 30
0.0
 10
4.531615347
 20
3.0550406977
 30
0.0
 10
4.5583689912
 20
3.0609197257
 30
0.0
 10
4.5840620268
 20
3.0678165415
 30
0.0
 10
4.6047032103
 20
3.0744998836
 30
0.0
 10
4.6206255527
 20
3.08041292
 30
0.0
 10
4.6359357871
 20
3.0866320854
 30
0.0
 10
4.6507436533
 20
3.0934999428
 30
0.0
 10
4.6649503235
 20
3.1010845325
 30
0.0
 10
4.6751727396
 20
3.10710362
 30
0.0
 10
4.6849970386
 20
3.1135217566
 30
0.0
 10
4.6943908868
 20
3.1203718712
 30
0.0
 10
4.703321692
 20
3.127686496
 30
0.0
 10
4.7103288656
 20
3.134228559
 30
0.0
 10
4.7156272005
 20
3.1397491421
 30
0.0
 10
4.7194368522
 20
3.1440531329
 30
0.0
 10
4.7230667985
 20
3.1485365771
 30
0.0
 10
4.7265012673
 20
3.1532150802
 30
0.0
 10
4.7297250174
 20
3.1581054389
 30
0.0
 10
4.7327088924
 20
3.1632352789
 30
0.0
 10
4.7354236458
 20
3.1686318653
 30
0.0
 10
4.7374235574
 20
3.1733417041
 30
0.0
 10
4.73886089
 20
3.1772601534
 30
0.0
 10
4.7398503743
 20
3.1803154019
 30
0.0
 10
4.7407283574
 20
3.1834795654
 30
0.0
 10
4.7414798392
 20
3.1867668156
 30
0.0
 10
4.7420897983
 20
3.1901911809
 30
0.0
 10
4.7425432567
 20
3.1937666866
 30
0.0
 10
4.7428252823
 20
3.1975071635
 30
0.0
 10
4.7428875982
 20
3.2000587329
 30
0.0
 10
4.7428875982
 20
3.2013624497
 30
0.0
  0
LINE
  5
2DF
100
AcDbEntity
  8
0
100
AcDbLine
 62
7
  6
CONTINUOUS
 10
5.4700156331
 20
5.8100996818
 11
5.4661783525
 21
5.8014784911
  0
SPLINE
  5
2E0
100
AcDbEntity
  8
0
100
AcDbSpline
 62
7
  6
CONTINUOUS
 70
0
 71
3
 72
9
 73
5
 74
0
 42
0.0000001
 43
0.0000001
 44
0.0000000001
 40
0.0
 40
0.0
 40
0.0
 40
0.0
 40
0.516674381
 40
1.0
 40
1.0
 40
1.0
 40
1.0
 10
4.653478071
 20
3.558582149
 30
0.0
 10
4.653478071
 20
3.5604328991
 30
0.0
 10
4.6533330418
 20
3.5640168524
 30
0.0
 10
4.6528860989
 20
3.567575488
 30
0.0
 10
4.6525996044
 20
3.5692829122
 30
0.0
  0
SPLINE
  5
2E1
100
AcDbEntity
  8
0
100
AcDbSpline
 62
7
  6
CONTINUOUS
 70
0
 71
3
 72
11
 73
7
 74
0
 42
0.0000001
 43
0.0000001
 44
0.0000000001
 40
0.0
 40
0.0
 40
0.0
 40
0.0
 40
0.2731052517
 40
0.5279895755
 40
0.7690269325
 40
1.0
 40
1.0
 40
1.0
 40
1.0
 10
4.7362781493
 20
3.2207822343
 30
0.0
 10
4.7362781493
 20
3.2229579571
 30
0.0
 10
4.7361047323
 20
3.2271668954
 30
0.0
 10
4.735319382
 20
3.2332502866
 30
0.0
 10
4.7340946272
 20
3.2389166117
 30
0.0
 10
4.7330176706
 20
3.2425232815
 30
0.0
 10
4.7324324738
 20
3.2442678187
 30
0.0
  0
SPLINE
  5
2E2
100
AcDbEntity
  8
0
100
AcDbSpline
 62
7
  6
CONTINUOUS
 70
0
 71
3
 72
11
 73
7
 74
0
 42
0.0000001
 43
0.0000001
 44
0.0000000001
 40
0.0
 40
0.0
 40
0.0
 40
0.0
 40
0.2736636858
 40
0.5284996111
 40
0.7692575102
 40
1.0
 40
1.0
 40
1.0
 40
1.0
 10
4.7428875982
 20
3.2013624497
 30
0.0
 10
4.7428875982
 20
3.2036553316
 30
0.0
 10
4.7426967403
 20
3.2080864274
 30
0.0
 10
4.7418322431
 20
3.2144818919
 30
0.0
 10
4.7404884097
 20
3.2204245508
 30
0.0
 10
4.7393120059
 20
3.2242000161
 30
0.0
 10
4.738674808
 20
3.226025257
 30
0.0
  0
LINE
  5
2E3
100
AcDbEntity
  8
0
100
AcDbLine
 62
7
  6
CONTINUOUS
 10
4.156994273
 20
4.2454573813
 11
4.1569890325
 21
4.2369616796
  0
LINE
  5
2E4
100
AcDbEntity
  8
0
100
AcDbLine
 62
7
  6
CONTINUOUS
 10
4.1569721191
 20
4.2280111227
 11
4.1569497476
 21
4.2207492773
  0
LINE
  5
2E5
100
AcDbEntity
  8
0
100
AcDbLine
 62
7
  6
CONTINUOUS
 10
4.1559439349
 20
4.1271330601
 11
4.1557235707
 21
4.1155548634
  0
LINE
  5
2E6
100
AcDbEntity
  8
0
100
AcDbLine
 62
7
  6
CONTINUOUS
 10
4.1553668357
 20
4.0988515096
 11
4.1552064842
 21
4.091975513
  0
SPLINE
  5
2E7
100
AcDbEntity
  8
0
100
AcDbSpline
 62
7
  6
CONTINUOUS
 70
0
 71
3
 72
15
 73
11
 74
0
 42
0.0000001
 43
0.0000001
 44
0.0000000001
 40
0.0
 40
0.0
 40
0.0
 40
0.0
 40
0.1288666424
 40
0.2573746436
 40
0.385145646
 40
0.511804921
 40
0.6369820461
 40
0.7603117429
 40
0.8814349224
 40
1.0
 40
1.0
 40
1.0
 40
1.0
 10
4.1552064842
 20
4.091975513
 30
0.0
 10
4.1547343918
 20
4.0722211451
 30
0.0
 10
4.153594878
 20
4.0327717558
 30
0.0
 10
4.1512588767
 20
3.9737597837
 30
0.0
 10
4.1482611511
 20
3.9151163829
 30
0.0
 10
4.1445660437
 20
3.8570243406
 30
0.0
 10
4.140137934
 20
3.7996663211
 30
0.0
 10
4.1349412296
 20
3.7432248411
 30
0.0
 10
4.1289404148
 20
3.6878826997
 30
0.0
 10
4.1243264277
 20
3.6514177973
 30
0.0
 10
4.1218636409
 20
3.6334049806
 30
0.0
  0
SPLINE
  5
2E8
100
AcDbEntity
  8
0
100
AcDbSpline
 62
7
  6
CONTINUOUS
 70
0
 71
3
 72
15
 73
11
 74
0
 42
0.0000001
 43
0.0000001
 44
0.0000000001
 40
0.0
 40
0.0
 40
0.0
 40
0.0
 40
0.1402364951
 40
0.2764508188
 40
0.4084847526
 40
0.5361738535
 40
0.6593478961
 40
0.7778313135
 40
0.891443645
 40
1.0
 40
1.0
 40
1.0
 40
1.0
 10
4.1105104749
 20
3.558582149
 30
0.0
 10
4.107825546
 20
3.542531032
 30
0.0
 10
4.1022198384
 20
3.5109405381
 30
0.0
 10
4.0930156986
 20
3.4644359989
 30
0.0
 10
4.0832142698
 20
3.4195429324
 30
0.0
 10
4.0728947697
 20
3.3763206659
 30
0.0
 10
4.0621363807
 20
3.3348282391
 30
0.0
 10
4.0510182869
 20
3.2951246804
 30
0.0
 10
4.039619765
 20
3.2572692544
 30
0.0
 10
4.0317018012
 20
3.2327309246
 30
0.0
 10
4.0277103966
 20
3.2207822343
 30
0.0
  0
SPLINE
  5
2E9
100
AcDbEntity
  8
0
100
AcDbSpline
 62
7
  6
CONTINUOUS
 70
0
 71
3
 72
36
 73
32
 74
0
 42
0.0000001
 43
0.0000001
 44
0.0000000001
 40
0.0
 40
0.0
 40
0.0
 40
0.0
 40
0.008835076
 40
0.0171481354
 40
0.0251585269
 40
0.0330473623
 40
0.0409459203
 40
0.0489334034
 40
0.0653945699
 40
0.0827912862
 40
0.1013315564
 40
0.1211376921
 40
0.1422867308
 40
0.1648211895
 40
0.188751189
 40
0.2140684629
 40
0.2407524556
 40
0.2687755556
 40
0.2981128813
 40
0.3287376557
 40
0.3606198179
 40
0.3937237321
 40
0.4280000063
 40
0.4633947604
 40
0.4998528492
 40
0.5757361982
 40
0.6552145469
 40
0.7378432612
 40
0.8231599646
 40
0.9106996895
 40
1.0
 40
1.0
 40
1.0
 40
1.0
 10
4.156994273
 20
4.3685522655
 30
0.0
 10
4.156994273
 20
4.3678445401
 30
0.0
 10
4.15707645
 20
4.3664689951
 30
0.0
 10
4.1574552448
 20
4.3644842648
 30
0.0
 10
4.1580544033
 20
4.3626347081
 30
0.0
 10
4.1588422151
 20
4.3608952522
 30
0.0
 10
4.1597870497
 20
4.3592387899
 30
0.0
 10
4.1612625372
 20
4.357105361
 30
0.0
 10
4.1634945085
 20
4.3545875458
 30
0.0
 10
4.1666572535
 20
4.3518156444
 30
0.0
 10
4.1703013698
 20
4.3492244732
 30
0.0
 10
4.1743983718
 20
4.3467817791
 30
0.0
 10
4.1789328467
 20
4.3444720028
 30
0.0
 10
4.1838882402
 20
4.342280506
 30
0.0
 10
4.1892505088
 20
4.3401999686
 30
0.0
 10
4.1950043127
 20
4.3382237477
 30
0.0
 10
4.2011342594
 20
4.3363453396
 30
0.0
 10
4.2076258537
 20
4.3345581802
 30
0.0
 10
4.2144670792
 20
4.3328608086
 30
0.0
 10
4.221646559
 20
4.3312513912
 30
0.0
 10
4.2291528489
 20
4.3297281363
 30
0.0
 10
4.2369733313
 20
4.328289428
 30
0.0
 10
4.2450941877
 20
4.3269349643
 30
0.0
 10
4.2535004348
 20
4.325664665
 30
0.0
 10
4.265225977
 20
4.3240617989
 30
0.0
 10
4.2804899862
 20
4.3222832003
 30
0.0
 10
4.2994734239
 20
4.3205165901
 30
0.0
 10
4.3192436151
 20
4.3190972855
 30
0.0
 10
4.3396836956
 20
4.318051217
 30
0.0
 10
4.3606749176
 20
4.3174042226
 30
0.0
 10
4.3748409563
 20
4.3172573813
 30
0.0
 10
4.381994273
 20
4.3172573813
 30
0.0
  0
SPLINE
  5
2EA
100
AcDbEntity
  8
0
100
AcDbSpline
 62
7
  6
CONTINUOUS
 70
0
 71
3
 72
37
 73
33
 74
0
 42
0.0000001
 43
0.0000001
 44
0.0000000001
 40
0.0
 40
0.0
 40
0.0
 40
0.0
 40
0.0111377083
 40
0.021577649
 40
0.0315606516
 40
0.0412872842
 40
0.0509043906
 40
0.0604951896
 40
0.0701227126
 40
0.0798392759
 40
0.099689604
 40
0.1202946327
 40
0.141805982
 40
0.1643252307
 40
0.1879172134
 40
0.2126143063
 40
0.2384290307
 40
0.2653593015
 40
0.2933939006
 40
0.3225235501
 40
0.3527362101
 40
0.3840155656
 40
0.4163394598
 40
0.4496737989
 40
0.4839800788
 40
0.5192180417
 40
0.5923236408
 40
0.6686723551
 40
0.7479380643
 40
0.8297952172
 40
0.9139217796
 40
1.0
 40
1.0
 40
1.0
 40
1.0
 10
4.156994273
 20
4.2454573813
 30
0.0
 10
4.156994273
 20
4.2445394214
 30
0.0
 10
4.1570882368
 20
4.2427591194
 30
0.0
 10
4.1575174516
 20
4.2401883607
 30
0.0
 10
4.1581907759
 20
4.2377917116
 30
0.0
 10
4.1590684803
 20
4.2355363102
 30
0.0
 10
4.1601099463
 20
4.2333883779
 30
0.0
 10
4.1613077191
 20
4.2313331794
 30
0.0
 10
4.1626529923
 20
4.2293617763
 30
0.0
 10
4.16464466
 20
4.2268161024
 30
0.0
 10
4.1674772633
 20
4.2237910749
 30
0.0
 10
4.1713254399
 20
4.2204233524
 30
0.0
 10
4.1756100793
 20
4.2172493003
 30
0.0
 10
4.1803116376
 20
4.2142492712
 30
0.0
 10
4.1854102447
 20
4.2114038399
 30
0.0
 10
4.1908910353
 20
4.2087035316
 30
0.0
 10
4.1967381109
 20
4.206139559
 30
0.0
 10
4.2029356691
 20
4.2037032878
 30
0.0
 10
4.2094690337
 20
4.2013859537
 30
0.0
 10
4.2163272093
 20
4.1991855382
 30
0.0
 10
4.2234998477
 20
4.1970995775
 30
0.0
 10
4.2309766154
 20
4.1951256457
 30
0.0
 10
4.2387462544
 20
4.1932615138
 30
0.0
 10
4.2467967775
 20
4.1915068028
 30
0.0
 10
4.2551152654
 20
4.1898613662
 30
0.0
 10
4.2666885506
 20
4.1877877101
 30
0.0
 10
4.2817384273
 20
4.1854848776
 30
0.0
 10
4.3004523534
 20
4.1831960965
 30
0.0
 10
4.3199404414
 20
4.1813576046
 30
0.0
 10
4.3401107092
 20
4.1800031185
 30
0.0
 10
4.3608709075
 20
4.1791659542
 30
0.0
 10
4.3748997831
 20
4.1789769096
 30
0.0
 10
4.381994273
 20
4.1789769096
 30
0.0
  0
SPLINE
  5
2EB
100
AcDbEntity
  8
0
100
AcDbSpline
 62
7
  6
CONTINUOUS
 70
0
 71
3
 72
38
 73
34
 74
0
 42
0.0000001
 43
0.0000001
 44
0.0000000001
 40
0.0
 40
0.0
 40
0.0
 40
0.0
 40
0.0124887611
 40
0.0241745221
 40
0.035312825
 40
0.0461173221
 40
0.0567450812
 40
0.0672822135
 40
0.0777933417
 40
0.0883328214
 40
0.1096549595
 40
0.1315104783
 40
0.1540644322
 40
0.1774296797
 40
0.2016819107
 40
0.2268648837
 40
0.2530023308
 40
0.2801025927
 40
0.3081639853
 40
0.3371863426
 40
0.3671663644
 40
0.3980960182
 40
0.4299613432
 40
0.4627375473
 40
0.4963955132
 40
0.5309041068
 40
0.5662311623
 40
0.6023458959
 40
0.6768107395
 40
0.7540477462
 40
0.8338143998
 40
0.9158752608
 40
1.0
 40
1.0
 40
1.0
 40
1.0
 10
4.1565400723
 20
4.167159403
 30
0.0
 10
4.1565400723
 20
4.1661096144
 30
0.0
 10
4.1566416092
 20
4.1640756201
 30
0.0
 10
4.1571034482
 20
4.1611381825
 30
0.0
 10
4.157824866
 20
4.1584003351
 30
0.0
 10
4.1587609139
 20
4.1558242647
 30
0.0
 10
4.1598652938
 20
4.1533718713
 30
0.0
 10
4.161129513
 20
4.1510260655
 30
0.0
 10
4.1625437007
 20
4.1487765677
 30
0.0
 10
4.1646227231
 20
4.1458822636
 30
0.0
 10
4.1675626325
 20
4.1424429988
 30
0.0
 10
4.1715460843
 20
4.1386042492
 30
0.0
 10
4.1759563984
 20
4.1349895242
 30
0.0
 10
4.1807718507
 20
4.1315759781
 30
0.0
 10
4.1859703171
 20
4.1283412313
 30
0.0
 10
4.1915364516
 20
4.1252742876
 30
0.0
 10
4.1974539392
 20
4.1223648891
 30
0.0
 10
4.2037066392
 20
4.1196028923
 30
0.0
 10
4.2102796589
 20
4.1169779615
 30
0.0
 10
4.2171626153
 20
4.1144875168
 30
0.0
 10
4.2243457601
 20
4.1121285039
 30
0.0
 10
4.2318194067
 20
4.1098978954
 30
0.0
 10
4.2395730958
 20
4.1077928618
 30
0.0
 10
4.2475959716
 20
4.1058127871
 30
0.0
 10
4.2558763567
 20
4.1039573158
 30
0.0
 10
4.2644024571
 20
4.1022261317
 30
0.0
 10
4.2731627953
 20
4.1006188547
 30
0.0
 10
4.2852644345
 20
4.0986220938
 30
0.0
 10
4.3009056807
 20
4.0964546444
 30
0.0
 10
4.3202554958
 20
4.094387893
 30
0.0
 10
4.3402964836
 20
4.092866764
 30
0.0
 10
4.3609525572
 20
4.0919276912
 30
0.0
 10
4.3749228596
 20
4.0917164911
 30
0.0
 10
4.381994273
 20
4.0917164911
 30
0.0
  0
SPLINE
  5
2EC
100
AcDbEntity
  8
0
100
AcDbSpline
 62
7
  6
CONTINUOUS
 70
0
 71
3
 72
34
 73
30
 74
0
 42
0.0000001
 43
0.0000001
 44
0.0000000001
 40
0.0
 40
0.0
 40
0.0
 40
0.0
 40
0.0182040728
 40
0.0351199751
 40
0.0510881714
 40
0.0663954251
 40
0.0812538259
 40
0.0957684425
 40
0.1100145613
 40
0.1240569448
 40
0.137948523
 40
0.1517290087
 40
0.1790782756
 40
0.2063132787
 40
0.2335717632
 40
0.2609534396
 40
0.2885315732
 40
0.3163623637
 40
0.3444867365
 40
0.4017261899
 40
0.4604908626
 40
0.5209453772
 40
0.5831999946
 40
0.647334552
 40
0.7134297741
 40
0.7815735735
 40
0.8519245896
 40
0.9246687287
 40
1.0
 40
1.0
 40
1.0
 40
1.0
 10
4.1206798915
 20
3.6248491469
 30
0.0
 10
4.1206798915
 20
3.6229337993
 30
0.0
 10
4.1208421982
 20
3.6192359823
 30
0.0
 10
4.1215725177
 20
3.6139035244
 30
0.0
 10
4.1226968814
 20
3.6089532486
 30
0.0
 10
4.1241316171
 20
3.6043123373
 30
0.0
 10
4.1257894172
 20
3.599910524
 30
0.0
 10
4.1276539994
 20
3.5957142463
 30
0.0
 10
4.1297070915
 20
3.591703536
 30
0.0
 10
4.1319293238
 20
3.5878599853
 30
0.0
 10
4.1343013084
 20
3.584165345
 30
0.0
 10
4.13764142
 20
3.5794350676
 30
0.0
 10
4.1421516511
 20
3.5738217134
 30
0.0
 10
4.1480105575
 20
3.5675026876
 30
0.0
 10
4.1542636377
 20
3.5615697137
 30
0.0
 10
4.1608705382
 20
3.5559790358
 30
0.0
 10
4.1678105514
 20
3.550708384
 30
0.0
 10
4.1750620921
 20
3.5457366464
 30
0.0
 10
4.1851758874
 20
3.5394415862
 30
0.0
 10
4.1985253849
 20
3.532213525
 30
0.0
 10
4.2154545639
 20
3.524558404
 30
0.0
 10
4.2333256092
 20
3.5178022758
 30
0.0
 10
4.2520943844
 20
3.5119207942
 30
0.0
 10
4.2717206742
 20
3.5068891417
 30
0.0
 10
4.2921765016
 20
3.5027033807
 30
0.0
 10
4.3134484162
 20
3.4993579411
 30
0.0
 10
4.3355462694
 20
3.496907547
 30
0.0
 10
4.3584861113
 20
3.4954037602
 30
0.0
 10
4.3740682683
 20
3.4950727173
 30
0.0
 10
4.381994273
 20
3.4950727173
 30
0.0
  0
SPLINE
  5
2ED
100
AcDbEntity
  8
0
100
AcDbSpline
 62
7
  6
CONTINUOUS
 70
0
 71
3
 72
34
 73
30
 74
0
 42
0.0000001
 43
0.0000001
 44
0.0000000001
 40
0.0
 40
0.0
 40
0.0
 40
0.0
 40
0.0183641666
 40
0.0354273777
 40
0.0515358644
 40
0.066980701
 40
0.0819766203
 40
0.0966293149
 40
0.1110141115
 40
0.125195617
 40
0.139226428
 40
0.1531457181
 40
0.1807689858
 40
0.208268721
 40
0.2357772487
 40
0.2633893042
 40
0.2911743024
 40
0.3191853783
 40
0.3474609988
 40
0.4049085136
 40
0.463745478
 40
0.5241319668
 40
0.586184938
 40
0.6499970011
 40
0.7156654113
 40
0.7832988696
 40
0.8530844342
 40
0.9252412805
 40
1.0
 40
1.0
 40
1.0
 40
1.0
 10
4.1105104749
 20
3.558582149
 30
0.0
 10
4.1105104749
 20
3.5565659122
 30
0.0
 10
4.1106822223
 20
3.5526734482
 30
0.0
 10
4.1114547361
 20
3.5470607358
 30
0.0
 10
4.112643337
 20
3.5418506671
 30
0.0
 10
4.1141589156
 20
3.5369658307
 30
0.0
 10
4.1159085409
 20
3.5323315059
 30
0.0
 10
4.1178748604
 20
3.5279121076
 30
0.0
 10
4.1200383876
 20
3.5236864844
 30
0.0
 10
4.1223784766
 20
3.5196351427
 30
0.0
 10
4.1248744555
 20
3.5157387711
 30
0.0
 10
4.1283866681
 20
3.5107475255
 30
0.0
 10
4.1331240026
 20
3.5048197283
 30
0.0
 10
4.1392694616
 20
3.4981375396
 30
0.0
 10
4.1458195276
 20
3.4918544697
 30
0.0
 10
4.1527310246
 20
3.4859247354
 30
0.0
 10
4.1599821045
 20
3.4803255566
 30
0.0
 10
4.1675500402
 20
3.4750353242
 30
0.0
 10
4.1780876137
 20
3.4683298048
 30
0.0
 10
4.1919738736
 20
3.4606098355
 30
0.0
 10
4.2095634088
 20
3.4524008827
 30
0.0
 10
4.22810401
 20
3.4451312481
 30
0.0
 10
4.2475533526
 20
3.4387820524
 30
0.0
 10
4.2678738063
 20
3.4333334362
 30
0.0
 10
4.2890412555
 20
3.4287876435
 30
0.0
 10
4.3110474373
 20
3.4251450225
 30
0.0
 10
4.3339100485
 20
3.4224704942
 30
0.0
 10
4.3576535109
 20
3.4208254217
 30
0.0
 10
4.373786371
 20
3.4204626371
 30
0.0
 10
4.381994273
 20
3.4204626371
 30
0.0
  0
SPLINE
  5
2EE
100
AcDbEntity
  8
0
100
AcDbSpline
 62
7
  6
CONTINUOUS
 70
0
 71
3
 72
39
 73
35
 74
0
 42
0.0000001
 43
0.0000001
 44
0.0000000001
 40
0.0
 40
0.0
 40
0.0
 40
0.0
 40
0.0092134981
 40
0.0180320109
 40
0.0265084092
 40
0.0346924457
 40
0.0426301917
 40
0.0503635943
 40
0.0579302001
 40
0.0653630748
 40
0.0799197287
 40
0.0941510346
 40
0.1081389098
 40
0.1219520156
 40
0.1356448527
 40
0.1492577795
 40
0.1763623155
 40
0.2034606721
 40
0.230672829
 40
0.2580788288
 40
0.2857384859
 40
0.3136955412
 40
0.34197767
 40
0.3995803486
 40
0.4289495438
 40
0.4587144951
 40
0.5194719292
 40
0.581959659
 40
0.6462649134
 40
0.7124840569
 40
0.7807324598
 40
0.8512294165
 40
0.9242305021
 40
1.0
 40
1.0
 40
1.0
 40
1.0
 10
4.0277103966
 20
3.2207822343
 30
0.0
 10
4.0277103966
 20
3.2194961042
 30
0.0
 10
4.0277715678
 20
3.216978475
 30
0.0
 10
4.0280482695
 20
3.213286962
 30
0.0
 10
4.0284931339
 20
3.20975671
 30
0.0
 10
4.0290915069
 20
3.2063741509
 30
0.0
 10
4.0298286902
 20
3.2031255269
 30
0.0
 10
4.0306899449
 20
3.199997077
 30
0.0
 10
4.0316605523
 20
3.1969749018
 30
0.0
 10
4.0330705521
 20
3.1930967638
 30
0.0
 10
4.0350323172
 20
3.1884325097
 30
0.0
 10
4.0376949611
 20
3.1830837107
 30
0.0
 10
4.0406215004
 20
3.1779945038
 30
0.0
 10
4.0437832571
 20
3.1731382472
 30
0.0
 10
4.0471517067
 20
3.1684879358
 30
0.0
 10
4.0518909277
 20
3.1625496801
 30
0.0
 10
4.0582718602
 20
3.1555419377
 30
0.0
 10
4.0665162125
 20
3.1477075504
 30
0.0
 10
4.0752761525
 20
3.1403905283
 30
0.0
 10
4.0844905502
 20
3.1335254678
 30
0.0
 10
4.0941280471
 20
3.1270806317
 30
0.0
 10
4.1041569177
 20
3.1210247255
 30
0.0
 10
4.1180929509
 20
3.1133806433
 30
0.0
 10
4.1326232787
 20
3.1064372598
 30
0.0
 10
4.1476516085
 20
3.1001324779
 30
0.0
 10
4.1632764547
 20
3.0941297285
 30
0.0
 10
4.1835351494
 20
3.0873266741
 30
0.0
 10
4.2087608169
 20
3.080282628
 30
0.0
 10
4.2350317365
 20
3.0742608868
 30
0.0
 10
4.2623306697
 20
3.0692490166
 30
0.0
 10
4.2906665406
 20
3.0652319234
 30
0.0
 10
4.3200855371
 20
3.0622827655
 30
0.0
 10
4.3506476951
 20
3.0604692599
 30
0.0
 10
4.3714174611
 20
3.0600702877
 30
0.0
 10
4.381994273
 20
3.0600702877
 30
0.0
  0
SPLINE
  5
2EF
100
AcDbEntity
  8
0
100
AcDbSpline
 62
7
  6
CONTINUOUS
 70
0
 71
3
 72
40
 73
36
 74
0
 42
0.0000001
 43
0.0000001
 44
0.0000000001
 40
0.0
 40
0.0
 40
0.0
 40
0.0
 40
0.0092030668
 40
0.0180081156
 40
0.0264684112
 40
0.0346340902
 40
0.0425515841
 40
0.0502631622
 40
0.0578066441
 40
0.0652153102
 40
0.079720897
 40
0.0938986812
 40
0.1078316563
 40
0.1215893234
 40
0.1352268063
 40
0.1487850286
 40
0.162296969
 40
0.1757891025
 40
0.2027879674
 40
0.2299086292
 40
0.2572320375
 40
0.2848190431
 40
0.3127140787
 40
0.340945025
 40
0.3984778072
 40
0.4278284452
 40
0.4575855785
 40
0.5183588681
 40
0.5809038036
 40
0.6453057766
 40
0.7116582675
 40
0.780073014
 40
0.850766307
 40
0.9239892993
 40
1.0
 40
1.0
 40
1.0
 40
1.0
 10
4.0211009477
 20
3.2013624497
 30
0.0
 10
4.0211009477
 20
3.2000587329
 30
0.0
 10
4.0211632636
 20
3.1975071635
 30
0.0
 10
4.0214452892
 20
3.1937666866
 30
0.0
 10
4.0218987476
 20
3.1901911809
 30
0.0
 10
4.0225087068
 20
3.1867668156
 30
0.0
 10
4.0232601885
 20
3.1834795654
 30
0.0
 10
4.0241381717
 20
3.1803154019
 30
0.0
 10
4.0251276559
 20
3.1772601534
 30
0.0
 10
4.0265649885
 20
3.1733417041
 30
0.0
 10
4.0285649001
 20
3.1686318653
 30
0.0
 10
4.0312796535
 20
3.1632352789
 30
0.0
 10
4.0342635285
 20
3.1581054389
 30
0.0
 10
4.0374872786
 20
3.1532150802
 30
0.0
 10
4.0409217474
 20
3.1485365771
 30
0.0
 10
4.0445516937
 20
3.1440531329
 30
0.0
 10
4.0483613454
 20
3.1397491421
 30
0.0
 10
4.0536596803
 20
3.134228559
 30
0.0
 10
4.060666854
 20
3.127686496
 30
0.0
 10
4.0695976591
 20
3.1203718712
 30
0.0
 10
4.0789915073
 20
3.1135217566
 30
0.0
 10
4.0888158063
 20
3.10710362
 30
0.0
 10
4.0990382224
 20
3.1010845325
 30
0.0
 10
4.1132448927
 20
3.0934999428
 30
0.0
 10
4.1280527589
 20
3.0866320854
 30
0.0
 10
4.1433629933
 20
3.08041292
 30
0.0
 10
4.1592853357
 20
3.0744998836
 30
0.0
 10
4.1799265191
 20
3.0678165415
 30
0.0
 10
4.2056195547
 20
3.0609197257
 30
0.0
 10
4.2323731989
 20
3.0550406977
 30
0.0
 10
4.2601701717
 20
3.0501597491
 30
0.0
 10
4.2890201839
 20
3.0462545933
 30
0.0
 10
4.3189706053
 20
3.0433926126
 30
0.0
 10
4.350083502
 20
3.0416357074
 30
0.0
 10
4.3712265108
 20
3.0412499825
 30
0.0
 10
4.381994273
 20
3.0412499825
 30
0.0
  0
SPLINE
  5
2F0
100
AcDbEntity
  8
0
100
AcDbSpline
 62
7
  6
CONTINUOUS
 70
0
 71
3
 72
14
 73
10
 74
0
 42
0.0000001
 43
0.0000001
 44
0.0000000001
 40
0.0
 40
0.0
 40
0.0
 40
0.0
 40
0.2761824563
 40
0.4079371284
 40
0.5353556626
 40
0.6583548122
 40
0.7768510367
 40
0.8907606501
 40
1.0
 40
1.0
 40
1.0
 40
1.0
 10
4.7428875982
 20
3.2013624497
 30
0.0
 10
4.7470925701
 20
3.1892360823
 30
0.0
 10
4.7534991052
 20
3.1713914062
 30
0.0
 10
4.7623206128
 20
3.1481283934
 30
0.0
 10
4.7688162855
 20
3.1315980866
 30
0.0
 10
4.7752823403
 20
3.1157195768
 30
0.0
 10
4.7817054122
 20
3.1005028075
 30
0.0
 10
4.7880720627
 20
3.0859578175
 30
0.0
 10
4.7923608081
 20
3.0765155942
 30
0.0
 10
4.794494273
 20
3.0719090922
 30
0.0
  0
SPLINE
  5
2F1
100
AcDbEntity
  8
0
100
AcDbSpline
 62
7
  6
CONTINUOUS
 70
0
 71
3
 72
14
 73
10
 74
0
 42
0.0000001
 43
0.0000001
 44
0.0000000001
 40
0.0
 40
0.0
 40
0.0
 40
0.0
 40
0.2761824563
 40
0.4079371284
 40
0.5353556626
 40
0.6583548122
 40
0.7768510367
 40
0.8907606501
 40
1.0
 40
1.0
 40
1.0
 40
1.0
 10
4.0211009477
 20
3.2013624497
 30
0.0
 10
4.0168959758
 20
3.1892360823
 30
0.0
 10
4.0104894407
 20
3.1713914062
 30
0.0
 10
4.0016679331
 20
3.1481283934
 30
0.0
 10
3.9951722604
 20
3.1315980866
 30
0.0
 10
3.9887062056
 20
3.1157195768
 30
0.0
 10
3.9822831337
 20
3.1005028075
 30
0.0
 10
3.9759164832
 20
3.0859578175
 30
0.0
 10
3.9716277378
 20
3.0765155942
 30
0.0
 10
3.969494273
 20
3.0719090922
 30
0.0
  0
LINE
  5
2F2
100
AcDbEntity
  8
0
100
AcDbLine
 62
7
  6
CONTINUOUS
 10
5.4654142277
 20
5.4670520043
 11
5.4700156552
 21
5.4566400633
  0
SPLINE
  5
2F3
100
AcDbEntity
  8
0
100
AcDbSpline
 62
7
  6
CONTINUOUS
 70
0
 71
3
 72
88
 73
84
 74
0
 42
0.0000001
 43
0.0000001
 44
0.0000000001
 40
0.0
 40
0.0
 40
0.0
 40
0.0
 40
0.0000103259
 40
0.000027299
 40
0.0000870582
 40
0.0001833992
 40
0.0003169328
 40
0.000487868
 40
0.0006962986
 40
0.000942273
 40
0.0012258186
 40
0.0019056773
 40
0.0027359457
 40
0.0037166421
 40
0.0048476785
 40
0.0061287587
 40
0.0075595397
 40
0.0091396796
 40
0.0108688543
 40
0.0127467675
 40
0.0147731466
 40
0.0192700437
 40
0.0243569813
 40
0.0300313765
 40
0.0362902653
 40
0.0431297717
 40
0.0505457573
 40
0.0585337463
 40
0.0670884343
 40
0.0762044491
 40
0.096098853
 40
0.1068653996
 40
0.1181698461
 40
0.1300053453
 40
0.1361200155
 40
0.1423647924
 40
0.1487388084
 40
0.1552411596
 40
0.1618707425
 40
0.1686263981
 40
0.1755070162
 40
0.1825115931
 40
0.189639283
 40
0.1968894244
 40
0.2042611316
 40
0.2117530029
 40
0.2193634363
 40
0.2270908496
 40
0.2349338775
 40
0.2428915569
 40
0.2509633629
 40
0.2591485302
 40
0.2758537334
 40
0.2929948846
 40
0.3105602839
 40
0.3285404832
 40
0.3469251153
 40
0.3562656321
 40
0.3657030579
 40
0.3848628639
 40
0.4043929793
 40
0.4242818219
 40
0.4445174272
 40
0.4650874904
 40
0.4859796901
 40
0.5286799921
 40
0.550462312
 40
0.572515408
 40
0.6173803806
 40
0.6631669576
 40
0.6863713739
 40
0.7097646751
 40
0.7570614543
 40
0.7809365515
 40
0.8049436112
 40
0.8290679364
 40
0.8411694775
 40
0.8532948296
 40
0.9019991716
 40
0.9264486478
 40
0.9509434283
 40
0.9754663708
 40
1.0
 40
1.0
 40
1.0
 40
1.0
 10
4.8720768814
 20
5.9907373044
 30
0.0
 10
4.8720756543
 20
5.9907372125
 30
0.0
 10
4.8720728301
 20
5.9907349128
 30
0.0
 10
4.8720685844
 20
5.9907254987
 30
0.0
 10
4.8720642089
 20
5.990705106
 30
0.0
 10
4.8720600201
 20
5.9906709274
 30
0.0
 10
4.8720564639
 20
5.9906232403
 30
0.0
 10
4.8720536655
 20
5.9905621936
 30
0.0
 10
4.8720516885
 20
5.9904876877
 30
0.0
 10
4.8720505803
 20
5.9903997521
 30
0.0
 10
4.8720503038
 20
5.9902556261
 30
0.0
 10
4.8720527001
 20
5.9900418775
 30
0.0
 10
4.8720593464
 20
5.989745113
 30
0.0
 10
4.8720702916
 20
5.9893946779
 30
0.0
 10
4.872085438
 20
5.9889906346
 30
0.0
 10
4.8721035424
 20
5.9885330293
 30
0.0
 10
4.8721235628
 20
5.9880219375
 30
0.0
 10
4.8721443779
 20
5.9874574366
 30
0.0
 10
4.8721648808
 20
5.9868396059
 30
0.0
 10
4.8721839673
 20
5.9861685261
 30
0.0
 10
4.8722067847
 20
5.9851676001
 30
0.0
 10
4.8722270108
 20
5.9837841177
 30
0.0
 10
4.8722368292
 20
5.9819657775
 30
0.0
 10
4.8722303262
 20
5.9799374416
 30
0.0
 10
4.8722067397
 20
5.9777003741
 30
0.0
 10
4.8721703583
 20
5.9752559144
 30
0.0
 10
4.8721245148
 20
5.9726055239
 30
0.0
 10
4.872073157
 20
5.9697507993
 30
0.0
 10
4.8720238288
 20
5.9666934128
 30
0.0
 10
4.8719687625
 20
5.9622170452
 30
0.0
 10
4.8719513944
 20
5.9574767318
 30
0.0
 10
4.871949601
 20
5.9524756666
 30
0.0
 10
4.8719510231
 20
5.9484349817
 30
0.0
 10
4.8719571582
 20
5.9449486719
 30
0.0
 10
4.8719684207
 20
5.9420653478
 30
0.0
 10
4.8719809256
 20
5.9398328893
 30
0.0
 10
4.8719982166
 20
5.93755426
 30
0.0
 10
4.8720210327
 20
5.9352298204
 30
0.0
 10
4.8720450896
 20
5.9328599115
 30
0.0
 10
4.872066141
 20
5.9304448916
 30
0.0
 10
4.8720799566
 20
5.9279851256
 30
0.0
 10
4.8720821972
 20
5.9254809811
 30
0.0
 10
4.8720689515
 20
5.9229328218
 30
0.0
 10
4.8720346625
 20
5.9203411007
 30
0.0
 10
4.8719832285
 20
5.9177062722
 30
0.0
 10
4.8719238212
 20
5.9150286729
 30
0.0
 10
4.8718643161
 20
5.912308674
 30
0.0
 10
4.8718130133
 20
5.9095466447
 30
0.0
 10
4.8717778383
 20
5.9067429612
 30
0.0
 10
4.8717678126
 20
5.9038980078
 30
0.0
 10
4.8717876335
 20
5.9010123435
 30
0.0
 10
4.8718422222
 20
5.8970845535
 30
0.0
 10
4.8719449647
 20
5.8920766459
 30
0.0
 10
4.8720618947
 20
5.8859508995
 30
0.0
 10
4.8721110077
 20
5.8796722156
 30
0.0
 10
4.8721128443
 20
5.8732452561
 30
0.0
 10
4.8720954703
 20
5.8677985124
 30
0.0
 10
4.8720822687
 20
5.8633698175
 30
0.0
 10
4.872071504
 20
5.8588487367
 30
0.0
 10
4.8720618548
 20
5.8531133423
 30
0.0
 10
4.8720556222
 20
5.8461324332
 30
0.0
 10
4.8720538608
 20
5.8390233173
 30
0.0
 10
4.8720548802
 20
5.8317902695
 30
0.0
 10
4.8720563505
 20
5.8244376504
 30
0.0
 10
4.8720553799
 20
5.8144078824
 30
0.0
 10
4.8720487088
 20
5.8042336501
 30
0.0
 10
4.8720463086
 20
5.7939210704
 30
0.0
 10
4.8720489246
 20
5.783350524
 30
0.0
 10
4.8720565821
 20
5.7699193596
 30
0.0
 10
4.8720581756
 20
5.7563509876
 30
0.0
 10
4.8720521259
 20
5.745341426
 30
0.0
 10
4.8720391398
 20
5.7341518982
 30
0.0
 10
4.8720229579
 20
5.7228824452
 30
0.0
 10
4.8720249979
 20
5.7115398388
 30
0.0
 10
4.8720341479
 20
5.7029587328
 30
0.0
 10
4.8720416453
 20
5.6957806964
 30
0.0
 10
4.8720445052
 20
5.6900186162
 30
0.0
 10
4.87204364
 20
5.6813273006
 30
0.0
 10
4.8720303696
 20
5.6711644722
 30
0.0
 10
4.8720256753
 20
5.6595275545
 30
0.0
 10
4.8720320642
 20
5.6507723692
 30
0.0
 10
4.8720408687
 20
5.6420071589
 30
0.0
 10
4.872044273
 20
5.6361610204
 30
0.0
 10
4.872044273
 20
5.6332373143
 30
0.0
  0
SPLINE
  5
2F4
100
AcDbEntity
  8
0
100
AcDbSpline
 62
7
  6
CONTINUOUS
 70
0
 71
3
 72
50
 73
46
 74
0
 42
0.0000001
 43
0.0000001
 44
0.0000000001
 40
0.0
 40
0.0
 40
0.0
 40
0.0
 40
0.0000238053
 40
0.0000780644
 40
0.0001652709
 40
0.0002859013
 40
0.0004401305
 40
0.0006280459
 40
0.0008497006
 40
0.0011051272
 40
0.001717315
 40
0.0024645807
 40
0.0033468329
 40
0.0043639558
 40
0.0055158212
 40
0.006802294
 40
0.0082232352
 40
0.0097785037
 40
0.0132914524
 40
0.0173399973
 40
0.0219229975
 40
0.0270393199
 40
0.0326878421
 40
0.0388674547
 40
0.0455768711
 40
0.0528137628
 40
0.0688591882
 40
0.0869821177
 40
0.1071608725
 40
0.1293737408
 40
0.1535981311
 40
0.1798039849
 40
0.2079574164
 40
0.2380245113
 40
0.2699713631
 40
0.3393616204
 40
0.415790659
 40
0.4988915811
 40
0.5428269361
 40
0.5882845404
 40
0.6835588853
 40
0.7332718141
 40
0.7842936829
 40
0.8899724988
 40
1.0
 40
1.0
 40
1.0
 40
1.0
 10
4.8721372692
 20
5.2757376511
 30
0.0
 10
4.8721357346
 20
5.275737832
 30
0.0
 10
4.872133324
 20
5.2757437113
 30
0.0
 10
4.8721312036
 20
5.2757532153
 30
0.0
 10
4.8721287617
 20
5.2757706043
 30
0.0
 10
4.8721266322
 20
5.2757937804
 30
0.0
 10
4.8721246228
 20
5.2758238439
 30
0.0
 10
4.8721228692
 20
5.2758603675
 30
0.0
 10
4.8721213593
 20
5.2759035181
 30
0.0
 10
4.8721196115
 20
5.2759741975
 30
0.0
 10
4.8721182498
 20
5.2760790168
 30
0.0
 10
4.8721176417
 20
5.276224525
 30
0.0
 10
4.8721179319
 20
5.2763963202
 30
0.0
 10
4.8721190432
 20
5.2765943742
 30
0.0
 10
4.872120902
 20
5.2768186618
 30
0.0
 10
4.8721234294
 20
5.2770691562
 30
0.0
 10
4.8721265457
 20
5.2773458307
 30
0.0
 10
4.8721315899
 20
5.2777670139
 30
0.0
 10
4.8721389792
 20
5.2783587396
 30
0.0
 10
4.8721485425
 20
5.2791469845
 30
0.0
 10
4.8721584928
 20
5.2800393077
 30
0.0
 10
4.8721681779
 20
5.2810354944
 30
0.0
 10
4.8721769448
 20
5.2821353301
 30
0.0
 10
4.8721841447
 20
5.2833385878
 30
0.0
 10
4.8721890982
 20
5.2846449591
 30
0.0
 10
4.8721929418
 20
5.286591729
 30
0.0
 10
4.8721921632
 20
5.2892793595
 30
0.0
 10
4.8721842505
 20
5.2928070397
 30
0.0
 10
4.872170248
 20
5.2967350341
 30
0.0
 10
4.8721511486
 20
5.3010590585
 30
0.0
 10
4.8721278911
 20
5.3057742884
 30
0.0
 10
4.8721019154
 20
5.3108751133
 30
0.0
 10
4.8720747893
 20
5.316355189
 30
0.0
 10
4.8720480694
 20
5.3222079209
 30
0.0
 10
4.8720140278
 20
5.3307373416
 30
0.0
 10
4.8719818647
 20
5.3422761585
 30
0.0
 10
4.8719644177
 20
5.3571354376
 30
0.0
 10
4.8719703904
 20
5.3703424396
 30
0.0
 10
4.8719876101
 20
5.3815390586
 30
0.0
 10
4.8720099683
 20
5.3935258502
 30
0.0
 10
4.8720337855
 20
5.4058876646
 30
0.0
 10
4.8720489965
 20
5.4186106712
 30
0.0
 10
4.8720560887
 20
5.4320090424
 30
0.0
 10
4.8720532272
 20
5.4493224534
 30
0.0
 10
4.8720467208
 20
5.4633240163
 30
0.0
 10
4.872044273
 20
5.4704659355
 30
0.0
  0
SPLINE
  5
2F5
100
AcDbEntity
  8
0
100
AcDbSpline
 62
7
  6
CONTINUOUS
 70
0
 71
3
 72
23
 73
19
 74
0
 42
0.0000001
 43
0.0000001
 44
0.0000000001
 40
0.0
 40
0.0
 40
0.0
 40
0.0
 40
0.1172243318
 40
0.1770205852
 40
0.2375325688
 40
0.298709926
 40
0.3605002468
 40
0.4228487675
 40
0.4857008766
 40
0.5490020068
 40
0.6126971539
 40
0.6767299025
 40
0.7088551738
 40
0.7410437494
 40
0.8055840321
 40
0.8702970915
 40
0.9351245094
 40
1.0
 40
1.0
 40
1.0
 40
1.0
 10
4.872044273
 20
5.4704659355
 30
0.0
 10
4.8720464688
 20
5.4768262193
 30
0.0
 10
4.8720621982
 20
5.4864308833
 30
0.0
 10
4.8720869792
 20
5.4993187514
 30
0.0
 10
4.8721033366
 20
5.5091656697
 30
0.0
 10
4.8721133157
 20
5.5191207901
 30
0.0
 10
4.8721114314
 20
5.5291755638
 30
0.0
 10
4.8720892051
 20
5.5393211872
 30
0.0
 10
4.8720419422
 20
5.5495486938
 30
0.0
 10
4.8719856804
 20
5.5598492137
 30
0.0
 10
4.8719346325
 20
5.5702138225
 30
0.0
 10
4.8719068153
 20
5.5788869994
 30
0.0
 10
4.8718994073
 20
5.5858507475
 30
0.0
 10
4.8719036267
 20
5.5928420354
 30
0.0
 10
4.8719268282
 20
5.6016014277
 30
0.0
 10
4.8719742723
 20
5.6121316351
 30
0.0
 10
4.8720264854
 20
5.6226800032
 30
0.0
 10
4.8720442729
 20
5.6297173407
 30
0.0
 10
4.8720442729
 20
5.6332373143
 30
0.0
  0
ELLIPSE
  5
2F6
100
AcDbEntity
  8
0
100
AcDbEllipse
 62
7
  6
CONTINUOUS
 10
5.4435435608
 20
3.6657100434
 30
0.0
 11
-0.0000060371
 21
1.82
 31
0.0
 40
0.0073654219
 41
0.0276585512
 42
0.0533961647
  0
ELLIPSE
  5
2F7
100
AcDbEntity
  8
0
100
AcDbEllipse
 62
7
  6
CONTINUOUS
 10
5.4435435608
 20
7.6007096444
 30
0.0
 11
-0.0000060371
 21
1.82
 31
0.0
 40
0.0073654219
 41
-3.1958895364
 42
-3.1701519229
  0
ELLIPSE
  5
2F8
100
AcDbEntity
  8
0
100
AcDbEllipse
 62
7
  6
CONTINUOUS
 10
5.4428419138
 20
5.4331873725
 30
0.0
 11
-0.0000001659
 21
0.05
 31
0.0
 40
0.0073654219
 41
0.0533961647
 42
0.2931644827
  0
ELLIPSE
  5
2F9
100
AcDbEntity
  8
0
100
AcDbEllipse
 62
7
  6
CONTINUOUS
 10
5.4428419138
 20
5.8333181152
 30
0.0
 11
-0.0000001659
 21
0.05
 31
0.0
 40
0.0073654219
 41
-3.4356578544
 42
-3.1958895364
  0
ELLIPSE
  5
2FA
100
AcDbEntity
  8
0
100
AcDbEllipse
 62
7
  6
CONTINUOUS
 10
5.4430942701
 20
5.6332373143
 30
0.0
 11
-0.0000005855
 21
0.1765
 31
0.0
 40
0.0073654219
 41
0.5757607517
 42
0.5905669543
  0
ELLIPSE
  5
2FB
100
AcDbEntity
  8
0
100
AcDbEllipse
 62
7
  6
CONTINUOUS
 10
5.4430942701
 20
5.6332373143
 30
0.0
 11
-0.0000005855
 21
0.1765
 31
0.0
 40
0.0073654219
 41
-3.7470631697
 42
-3.7182541234
  0
ELLIPSE
  5
2FC
100
AcDbEntity
  8
0
100
AcDbEllipse
 62
7
  6
CONTINUOUS
 10
5.4425866185
 20
5.5271939338
 30
0.0
 11
-0.0000001659
 21
0.05
 31
0.0
 40
0.0073654219
 41
-3.7182541234
 42
-2.8484281709
  0
ELLIPSE
  5
2FD
100
AcDbEntity
  8
0
100
AcDbEllipse
 62
7
  6
CONTINUOUS
 10
5.4425866185
 20
5.7393427722
 30
0.0
 11
-0.0000001659
 21
0.05
 31
0.0
 40
0.0073654219
 41
5.9891201064
 42
6.8589460589
  0
ENDSEC
  0
SECTION
  2
OBJECTS
  0
DICTIONARY
  5
C
100
AcDbDictionary
280
0
281
1
  3
ACAD_GROUP
350
D
  3
ACAD_MLINESTYLE
350
17
  3
ACAD_LAYOUT
350
1A
  3
ACAD_PLOTSETTINGS
350
19
  3
ACAD_PLOTSTYLENAME
350
E
  0
DICTIONARY
  5
D
102
{ACAD_REACTORS
330
C
102
}
100
AcDbDictionary
280
0
281
1
  0
ACDBDICTIONARYWDFLT
  5
E
102
{ACAD_REACTORS
330
C
102
}
100
AcDbDictionary
281
1
  3
Normal
350
F
100
AcDbDictionaryWithDefault
340
F
  0
DICTIONARY
  5
17
102
{ACAD_REACTORS
330
C
102
}
100
AcDbDictionary
280
0
281
1
  3
Standard
350
18
  0
DICTIONARY
  5
19
102
{ACAD_REACTORS
330
C
102
}
100
AcDbDictionary
281
1
  0
DICTIONARY
  5
1A
102
{ACAD_REACTORS
330
C
102
}
100
AcDbDictionary
281
1
  3
Model
350
2FE
  3
Layout1
350
2FF
  0
ACDBPLACEHOLDER
  5
F
102
{ACAD_REACTORS
330
E
102
}
  0
MLINESTYLE
  5
18
102
{ACAD_REACTORS
330
17
102
}
100
AcDbMlineStyle
  2
STANDARD
 70
0
  3

 62
256
 51
90.0
 52
90.0
 71
2
 49
0.5
 62
256
  6
BYLAYER
 49
-0.5
 62
256
  6
BYLAYER
  0
LAYOUT
  5
2FE
102
{ACAD_REACTORS
330
1A
102
}
100
AcDbPlotSettings
  1

  2
none_device
  4
ANSI_A_(11.00_x_8.50_Inches)
  6

 40
0.0
 41
0.0
 42
0.0
 43
0.0
 44
279.4
 45
215.9
 46
0.0
 47
0.0
 48
0.0
 49
0.0
140
0.0
141
0.0
142
1.0
143
1.0
 70
1024
 72
0
 73
0
 74
0
  7

 75
0
147
1.0
148
0.0
149
0.0
100
AcDbLayout
  1
Model
 70
0
 71
0
 10
0.0
 20
0.0
 11
11.0
 21
8.5
 12
0.0
 22
0.0
 32
0.0
 14
0.0
 24
0.0
 34
0.0
 15
0.0
 25
0.0
 35
0.0
146
0.0
 13
0.0
 23
0.0
 33
0.0
 16
1.0
 26
0.0
 36
0.0
 17
0.0
 27
1.0
 37
0.0
 76
0
330
202
345
0
346
0
  0
LAYOUT
  5
2FF
102
{ACAD_REACTORS
330
1A
102
}
100
AcDbPlotSettings
  1

  2
none_device
  4
ANSI_A_(11.00_x_8.50_Inches)
  6

 40
0.0
 41
0.0
 42
0.0
 43
0.0
 44
279.4
 45
215.9
 46
0.0
 47
0.0
 48
0.0
 49
0.0
140
0.0
141
0.0
142
1.0
143
1.0
 70
0
 72
0
 73
0
 74
0
  7

 75
0
147
1.0
148
0.0
149
0.0
100
AcDbLayout
  1
Layout1
 70
0
 71
1
 10
0.0
 20
0.0
 11
11.0
 21
8.5
 12
0.0
 22
0.0
 32
0.0
 14
0.0
 24
0.0
 34
0.0
 15
0.0
 25
0.0
 35
0.0
146
0.0
 13
0.0
 23
0.0
 33
0.0
 16
1.0
 26
0.0
 36
0.0
 17
0.0
 27
1.0
 37
0.0
 76
0
330
203
345
0
346
0
  0
ENDSEC
  0
EOF
