999
DXF file: 2440-3912_front.dxf
999
Pro/ENGINEER 2018400 by Parametric Technology Corporation
  0
SECTION
  2
HEADER
  9
$ACADVER
  1
AC1027
  9
$DWGCODEPAGE
  3
ANSI_1252
  9
$EXTMAX
 10
11.0
 20
8.5
 30
0.0
  9
$EXTMIN
 10
0.0
 20
0.0
 30
0.0
  9
$LIMMIN
 10
0.0
 20
0.0
  9
$LIMMAX
 10
11.0
 20
8.5
  9
$VIEWCTR
 10
5.5
 20
4.25
  9
$VIEWSIZE
 40
8.5
  9
$CLAYER
  8
0
  9
$LTSCALE
 40
0.605
  9
$CELTYPE
  6
BYLAYER
  9
$DIMSCALE
 40
1.0
  9
$DIMASZ
 40
0.1
  9
$DIMEXO
 40
0.0625
  9
$DIMDLI
 40
0.418
  9
$DIMEXE
 40
0.125
  9
$DIMCEN
 40
0.099
  9
$DIMLFAC
 40
1.0
  9
$DIMBLK
  1
_FILLED
  9
$DIMALT
 70
1
  9
$DIMALTD
 70
1
  9
$DIMALTTD
 70
2
  9
$DIMALTF
 40
25.4
  9
$DIMTXT
 40
0.08
  9
$DIMTOL
 70
1
  9
$DIMLIM
 70
0
  9
$DIMTFAC
 40
1.0
  9
$DIMTP
 40
0.01
  9
$DIMTM
 40
0.01
  9
$DIMGAP
 40
0.09
  9
$DIMDSEP
 70
46
  9
$AUNITS
 70
0
  9
$PDMODE
 70
3
  9
$PDSIZE
 40
0.3125
  9
$HANDSEED
  5
226
  9
$TILEMODE
 70
1
  9
$MEASUREMENT
 70
0
  9
$INSUNITS
 70
1
  0
ENDSEC
  0
SECTION
  2
CLASSES
  0
CLASS
  1
ACDBDICTIONARYWDFLT
  2
AcDbDictionaryWithDefault
  3
AutoCAD 2000
 90
0
 91
1
280
0
281
0
  0
CLASS
  1
ACDBPLACEHOLDER
  2
AcDbPlaceHolder
  3
AutoCAD 2000
 90
0
 91
1
280
0
281
0
  0
CLASS
  1
LAYOUT
  2
AcDbLayout
  3
AutoCAD 2000
 90
0
 91
0
280
0
281
0
  0
ENDSEC
  0
SECTION
  2
TABLES
  0
TABLE
  2
VPORT
  5
8
100
AcDbSymbolTable
 70
2
  0
VPORT
  5
1F4
100
AcDbSymbolTableRecord
100
AcDbViewportTableRecord
  2
*ACTIVE
 70
0
 10
0.0
 20
0.0
 11
1.0
 21
1.0
 12
5.5
 22
4.25
 13
0.0
 23
0.0
 14
1.0
 24
1.0
 15
0.0
 25
0.0
 16
0.0
 26
0.0
 36
1.0
 17
0.0
 27
0.0
 37
0.0
 40
8.5
 41
1.2941176471
 42
50.0
 43
0.0
 44
0.0
 50
0.0
 51
0.0
 71
0
 72
100
 73
1
 74
1
 75
0
 76
0
 77
0
 78
0
  0
ENDTAB
  0
TABLE
  2
LTYPE
  5
5
100
AcDbSymbolTable
 70
6
  0
LTYPE
  5
14
100
AcDbSymbolTableRecord
100
AcDbLinetypeTableRecord
  2
BYBLOCK
 70
0
  3

 72
65
 73
0
 40
0.0
  0
LTYPE
  5
15
100
AcDbSymbolTableRecord
100
AcDbLinetypeTableRecord
  2
BYLAYER
 70
0
  3

 72
65
 73
0
 40
0.0
  0
LTYPE
  5
16
100
AcDbSymbolTableRecord
100
AcDbLinetypeTableRecord
  2
CONTINUOUS
 70
64
  3
Solid line
 72
65
 73
0
 40
0.0
  0
LTYPE
  5
1F5
100
AcDbSymbolTableRecord
100
AcDbLinetypeTableRecord
  2
CENTER
 70
64
  3
____ _ ____ _ ____ _ ____ _ ____ _ ____ _ ____
 72
65
 73
4
 40
0.6
 49
0.375
 74
0
 49
-0.075
 74
0
 49
0.075
 74
0
 49
-0.075
 74
0
  0
LTYPE
  5
1F6
100
AcDbSymbolTableRecord
100
AcDbLinetypeTableRecord
  2
HIDDEN
 70
64
  3
- - - - - - - - - - - - - - - - - - - -
 72
65
 73
2
 40
0.2
 49
0.1
 74
0
 49
-0.1
 74
0
  0
LTYPE
  5
1F7
100
AcDbSymbolTableRecord
100
AcDbLinetypeTableRecord
  2
PHANTOM
 70
64
  3
_____ _ _ _____ _ _ _____ _ _ _____
 72
65
 73
6
 40
0.8
 49
0.45
 74
0
 49
-0.05
 74
0
 49
0.1
 74
0
 49
-0.05
 74
0
 49
0.1
 74
0
 49
-0.05
 74
0
  0
LTYPE
  5
1F8
100
AcDbSymbolTableRecord
100
AcDbLinetypeTableRecord
  2
DOT
 70
64
  3
. . . . . . . . . . . . . . . . . . . .
 72
65
 73
2
 40
0.2
 49
0.1
 74
0
 49
-0.1
 74
0
  0
LTYPE
  5
1F9
100
AcDbSymbolTableRecord
100
AcDbLinetypeTableRecord
  2
DASHED
 70
64
  3
- - - - - - - - - - - - - - - - - - - -
 72
65
 73
2
 40
0.2
 49
0.1
 74
0
 49
-0.1
 74
0
  0
ENDTAB
  0
TABLE
  2
LAYER
  5
2
100
AcDbSymbolTable
 70
36
  0
LAYER
  5
10
100
AcDbSymbolTableRecord
100
AcDbLayerTableRecord
  2
0
 70
0
 62
7
  6
CONTINUOUS
370
-3
390
F
  0
LAYER
  5
1FA
100
AcDbSymbolTableRecord
100
AcDbLayerTableRecord
  2
DEFAULT_1
 70
0
 62
7
  6
CENTER
370
-3
390
F
  0
LAYER
  5
1FB
100
AcDbSymbolTableRecord
100
AcDbLayerTableRecord
  2
DEFAULT_2
 70
0
 62
8
  6
HIDDEN
370
-3
390
F
  0
LAYER
  5
1FC
100
AcDbSymbolTableRecord
100
AcDbLayerTableRecord
  2
DEFAULT_3
 70
0
 62
7
  6
PHANTOM
370
-3
390
F
  0
LAYER
  5
1FD
100
AcDbSymbolTableRecord
100
AcDbLayerTableRecord
  2
DEFAULT_COORDINATE_SYSTEM
 70
0
 62
7
  6
CONTINUOUS
370
-3
390
F
  0
LAYER
  5
1FE
100
AcDbSymbolTableRecord
100
AcDbLayerTableRecord
  2
DEFAULT_DATUM_AXES
 70
0
 62
7
  6
CONTINUOUS
370
-3
390
F
  0
LAYER
  5
1FF
100
AcDbSymbolTableRecord
100
AcDbLayerTableRecord
  2
DEFAULT_DATUM_PLANES
 70
0
 62
7
  6
CONTINUOUS
370
-3
390
F
  0
ENDTAB
  0
TABLE
  2
STYLE
  5
3
100
AcDbSymbolTable
 70
1
  0
STYLE
  5
11
100
AcDbSymbolTableRecord
100
AcDbTextStyleTableRecord
  2
STANDARD
 70
0
 40
0.0
 41
0.8
 50
0.0
 71
0
 42
0.2
  3
txt
  4

  0
STYLE
  5
200
100
AcDbSymbolTableRecord
100
AcDbTextStyleTableRecord
  2
TEXTSTYLE_1
 70
0
 40
0.0
 41
0.8
 50
0.0
 71
0
 42
0.2
  3
gdt
  4

  0
ENDTAB
  0
TABLE
  2
VIEW
  5
6
100
AcDbSymbolTable
 70
0
  0
ENDTAB
  0
TABLE
  2
UCS
  5
7
100
AcDbSymbolTable
 70
0
  0
ENDTAB
  0
TABLE
  2
APPID
  5
9
100
AcDbSymbolTable
 70
1
  0
APPID
  5
201
100
AcDbSymbolTableRecord
100
AcDbRegAppTableRecord
  2
ACAD
 70
0
  0
ENDTAB
  0
TABLE
  2
BLOCK_RECORD
  5
1
100
AcDbSymbolTable
 70
0
  0
BLOCK_RECORD
  5
202
100
AcDbSymbolTableRecord
100
AcDbBlockTableRecord
  2
*Model_Space
  0
BLOCK_RECORD
  5
203
100
AcDbSymbolTableRecord
100
AcDbBlockTableRecord
  2
*Paper_Space
  0
BLOCK_RECORD
  5
204
100
AcDbSymbolTableRecord
100
AcDbBlockTableRecord
  2
_FILLED
  0
ENDTAB
  0
TABLE
  2
DIMSTYLE
  5
A
100
AcDbSymbolTable
 70
1
100
AcDbDimStyleTable
 71
0
  0
DIMSTYLE
105
205
100
AcDbSymbolTableRecord
100
AcDbDimStyleTableRecord
  2
STANDARD
 70
0
  3

  4

 40
1.0
 41
0.1
 42
0.0625
 43
0.38
 44
0.125
 45
0.0
 46
0.0
 47
0.01
 48
0.01
140
0.08
141
0.09
142
0.0
143
25.4
144
1.0
145
0.0
146
1.0
147
0.09
 71
1.0
 72
0.0
 73
1
 74
1
 75
0
 76
0
 77
0
 78
4
 79
1
170
1
171
1
172
0
173
0
174
0
175
0
176
0
177
0
178
0
270
2
179
2
271
2
272
2
273
2
274
2
275
0
280
0
281
0
282
0
283
1
284
4
285
0
286
0
287
3
288
0
340
11
278
46
341
204
342
204
343
204
344
204
  0
ENDTAB
  0
ENDSEC
  0
SECTION
  2
BLOCKS
  0
BLOCK
  5
20
100
AcDbEntity
  8
0
100
AcDbBlockBegin
  2
*Model_Space
 70
0
 10
0.0
 20
0.0
 30
0.0
  3
*Model_Space
  1

  0
ENDBLK
  5
21
100
AcDbEntity
  8
0
100
AcDbBlockEnd
  0
BLOCK
  5
1C
100
AcDbEntity
  8
0
100
AcDbBlockBegin
  2
*Paper_Space
 70
0
 10
0.0
 20
0.0
 30
0.0
  3
*Paper_Space
  1

  0
ENDBLK
  5
1D
100
AcDbEntity
  8
0
100
AcDbBlockEnd
  0
BLOCK
  5
206
100
AcDbEntity
  8
0
100
AcDbBlockBegin
  2
_FILLED
 70
64
 10
0.0
 20
0.0
  3
_FILLED
  1

  0
SOLID
  5
207
100
AcDbEntity
  8
0
  6
BYBLOCK
 62
0
100
AcDbTrace
 10
0.0
 20
0.0
 11
-1.0
 21
0.2
 12
-1.0
 22
-0.2
 13
-1.0
 23
-0.2
  0
ENDBLK
  5
208
100
AcDbEntity
  8
0
  6
BYBLOCK
 62
0
100
AcDbBlockEnd
  0
ENDSEC
  0
SECTION
  2
ENTITIES
  0
MTEXT
  5
209
100
AcDbEntity
  8
0
100
AcDbMText
 62
2
  6
CONTINUOUS
  7
STANDARD
 71
3
 72
1
 10
5.4654114907
 20
2.7420535714
 30
0.0
 11
1.0
 21
0.0
 31
0.0
 73
2
 44
0.9
  1
SCALE  .500
 40
0.08
 41
0.704
  0
LINE
  5
20A
100
AcDbEntity
  8
0
100
AcDbLine
 62
7
  6
CONTINUOUS
 10
0.0
 20
0.0
 11
0.0
 21
8.5
  0
LINE
  5
20B
100
AcDbEntity
  8
0
100
AcDbLine
 62
7
  6
CONTINUOUS
 10
0.0
 20
0.0
 11
11.0
 21
0.0
  0
LINE
  5
20C
100
AcDbEntity
  8
0
100
AcDbLine
 62
7
  6
CONTINUOUS
 10
0.0
 20
8.5
 11
11.0
 21
8.5
  0
LINE
  5
20D
100
AcDbEntity
  8
0
100
AcDbLine
 62
7
  6
CONTINUOUS
 10
11.0
 20
0.0
 11
11.0
 21
8.5
  0
LINE
  5
20E
100
AcDbEntity
  8
0
100
AcDbLine
 62
7
  6
CONTINUOUS
 10
3.1626164596
 20
4.8219138199
 11
3.1626164596
 21
4.1969138199
  0
LINE
  5
20F
100
AcDbEntity
  8
0
100
AcDbLine
 62
7
  6
CONTINUOUS
 10
2.3519801355
 20
4.1969138199
 11
8.3482527838
 21
4.1969138199
  0
LINE
  5
210
100
AcDbEntity
  8
0
100
AcDbLine
 62
7
  6
CONTINUOUS
 10
2.3519801355
 20
4.8219138199
 11
8.3482527838
 21
4.8219138199
  0
LINE
  5
211
100
AcDbEntity
  8
0
100
AcDbLine
 62
7
  6
CONTINUOUS
 10
7.5376164596
 20
4.8219138199
 11
7.5376164596
 21
4.1969138199
  0
ARC
  5
212
100
AcDbEntity
  8
0
100
AcDbCircle
 62
7
  6
CONTINUOUS
 10
8.3501164596
 20
4.5094138199
 40
0.75
100
AcDbArc
 50
204.6248529162
 51
155.3751470838
  0
ARC
  5
213
100
AcDbEntity
  8
0
100
AcDbCircle
 62
7
  6
CONTINUOUS
 10
2.3501164596
 20
4.5094138199
 40
0.75
100
AcDbArc
 50
24.6248529162
 51
335.3751470838
  0
ARC
  5
214
100
AcDbEntity
  8
0
100
AcDbCircle
 62
7
  6
CONTINUOUS
 10
8.3501164596
 20
4.5094138199
 40
0.6846666667
100
AcDbArc
 50
207.1576154603
 51
152.8423837451
  0
ARC
  5
215
100
AcDbEntity
  8
0
100
AcDbCircle
 62
7
  6
CONTINUOUS
 10
2.3501164596
 20
4.5094138199
 40
0.6846666667
100
AcDbArc
 50
27.1576154603
 51
332.8423837451
  0
ARC
  5
216
100
AcDbEntity
  8
0
100
AcDbCircle
 62
7
  6
CONTINUOUS
 10
8.3501164596
 20
4.5094138199
 40
0.68
100
AcDbArc
 50
207.3593326252
 51
152.6406674956
  0
ARC
  5
217
100
AcDbEntity
  8
0
100
AcDbCircle
 62
7
  6
CONTINUOUS
 10
2.3501164596
 20
4.5094138199
 40
0.68
100
AcDbArc
 50
27.3593325195
 51
332.6406678934
  0
ARC
  5
218
100
AcDbEntity
  8
0
100
AcDbCircle
 62
7
  6
CONTINUOUS
 10
2.3501164596
 20
4.5094138199
 40
0.675133432
100
AcDbArc
 50
27.5746687525
 51
332.42533123
  0
ARC
  5
219
100
AcDbEntity
  8
0
100
AcDbCircle
 62
7
  6
CONTINUOUS
 10
8.3501164596
 20
4.5094138199
 40
0.675133432
100
AcDbArc
 50
207.5746687525
 51
152.42533123
  0
ARC
  5
21A
100
AcDbEntity
  8
0
100
AcDbCircle
 62
7
  6
CONTINUOUS
 10
2.3501164596
 20
4.5094138199
 40
0.4425
100
AcDbArc
 50
44.9365341363
 51
315.0634658637
  0
ARC
  5
21B
100
AcDbEntity
  8
0
100
AcDbCircle
 62
7
  6
CONTINUOUS
 10
8.3501164596
 20
4.5094138199
 40
0.4425
100
AcDbArc
 50
224.9365341363
 51
135.0634658637
  0
ARC
  5
21C
100
AcDbEntity
  8
0
100
AcDbCircle
 62
7
  6
CONTINUOUS
 10
2.3501164596
 20
4.5094138199
 40
0.4375
100
AcDbArc
 50
45.5877231478
 51
314.4122768541
  0
ARC
  5
21D
100
AcDbEntity
  8
0
100
AcDbCircle
 62
7
  6
CONTINUOUS
 10
8.3501164596
 20
4.5094138199
 40
0.4375
100
AcDbArc
 50
225.5904542271
 51
134.4095457737
  0
ARC
  5
21E
100
AcDbEntity
  8
0
100
AcDbCircle
 62
7
  6
CONTINUOUS
 10
2.3501164596
 20
4.5094138199
 40
0.4075
100
AcDbArc
 50
50.0969620823
 51
309.903038013
  0
ARC
  5
21F
100
AcDbEntity
  8
0
100
AcDbCircle
 62
7
  6
CONTINUOUS
 10
8.3501164596
 20
4.5094138199
 40
0.4075
100
AcDbArc
 50
230.0807044389
 51
129.9192950693
  0
SPLINE
  5
220
100
AcDbEntity
  8
0
100
AcDbSpline
 62
7
  6
CONTINUOUS
 70
0
 71
3
 72
28
 73
24
 74
0
 42
0.0000001
 43
0.0000001
 44
0.0000000001
 40
0.0
 40
0.0
 40
0.0
 40
0.0
 40
0.0624948172
 40
0.0937515655
 40
0.1250083774
 40
0.1875034613
 40
0.2499989525
 40
0.2812562035
 40
0.3125134112
 40
0.3750086323
 40
0.4375030079
 40
0.4999969204
 40
0.5624907502
 40
0.6249844025
 40
0.6562405249
 40
0.6874965692
 40
0.7187525045
 40
0.7500083929
 40
0.8125018888
 40
0.8749941121
 40
0.9062493074
 40
0.9375081484
 40
1.0
 40
1.0
 40
1.0
 40
1.0
 10
8.3482527838
 20
4.1969138199
 30
0.0
 10
8.3584842062
 20
4.1969138214
 30
0.0
 10
8.3738467441
 20
4.1976657382
 30
0.0
 10
8.3941654823
 20
4.2001637721
 30
0.0
 10
8.4143395033
 20
4.2036523675
 30
0.0
 10
8.4391999564
 20
4.2098593317
 30
0.0
 10
8.4633339133
 20
4.218469545
 30
0.0
 10
8.4820596171
 20
4.2267464472
 30
0.0
 10
8.5003569887
 20
4.2359310554
 30
0.0
 10
8.5223518959
 20
4.249078465
 30
0.0
 10
8.5470664905
 20
4.2673616319
 30
0.0
 10
8.5698712452
 20
4.2879802613
 30
0.0
 10
8.5905430459
 20
4.3107342207
 30
0.0
 10
8.6058295386
 20
4.33129978
 30
0.0
 10
8.6167995207
 20
4.3485848305
 30
0.0
 10
8.6243817142
 20
4.3619404168
 30
0.0
 10
8.6312988595
 20
4.3756521776
 30
0.0
 10
8.6396098492
 20
4.3943616146
 30
0.0
 10
8.6482588862
 20
4.4184810931
 30
0.0
 10
8.6544966215
 20
4.443333076
 30
0.0
 10
8.6580035765
 20
4.463503605
 30
0.0
 10
8.6605147563
 20
4.4838203656
 30
0.0
 10
8.6612712109
 20
4.4991828829
 30
0.0
 10
8.6612712109
 20
4.5094138199
 30
0.0
  0
SPLINE
  5
221
100
AcDbEntity
  8
0
100
AcDbSpline
 62
7
  6
CONTINUOUS
 70
0
 71
3
 72
28
 73
24
 74
0
 42
0.0000001
 43
0.0000001
 44
0.0000000001
 40
0.0
 40
0.0
 40
0.0
 40
0.0
 40
0.062494809
 40
0.0937515566
 40
0.125008375
 40
0.1875034834
 40
0.2499989975
 40
0.2812562527
 40
0.3125134558
 40
0.3750086489
 40
0.437502993
 40
0.499996896
 40
0.5624907269
 40
0.6249843715
 40
0.6562404875
 40
0.6874965266
 40
0.7187524601
 40
0.7500083521
 40
0.812501861
 40
0.8749940917
 40
0.9062492892
 40
0.9375081357
 40
1.0
 40
1.0
 40
1.0
 40
1.0
 10
2.3519801355
 20
4.8219138199
 30
0.0
 10
2.3417487144
 20
4.8219138205
 30
0.0
 10
2.326386178
 20
4.8211619003
 30
0.0
 10
2.30606744
 20
4.8186638689
 30
0.0
 10
2.2858934144
 20
4.8151752708
 30
0.0
 10
2.2610329528
 20
4.8089683047
 30
0.0
 10
2.2368989876
 20
4.8003580888
 30
0.0
 10
2.2181732821
 20
4.7920811815
 30
0.0
 10
2.1998759137
 20
4.7828965773
 30
0.0
 10
2.1778810171
 20
4.7697491703
 30
0.0
 10
2.1531664318
 20
4.75146601
 30
0.0
 10
2.1303616815
 20
4.7308473856
 30
0.0
 10
2.1096898819
 20
4.7080934288
 30
0.0
 10
2.0944033891
 20
4.6875278722
 30
0.0
 10
2.083433408
 20
4.6702428247
 30
0.0
 10
2.0758512145
 20
4.656887241
 30
0.0
 10
2.0689340687
 20
4.6431754811
 30
0.0
 10
2.0606230769
 20
4.6244660423
 30
0.0
 10
2.0519740372
 20
4.6003465607
 30
0.0
 10
2.0457363
 20
4.5754945744
 30
0.0
 10
2.0422293437
 20
4.5553240431
 30
0.0
 10
2.0397181637
 20
4.5350072792
 30
0.0
 10
2.0389617084
 20
4.5196447589
 30
0.0
 10
2.0389617084
 20
4.5094138199
 30
0.0
  0
SPLINE
  5
222
100
AcDbEntity
  8
0
100
AcDbSpline
 62
7
  6
CONTINUOUS
 70
0
 71
3
 72
28
 73
24
 74
0
 42
0.0000001
 43
0.0000001
 44
0.0000000001
 40
0.0
 40
0.0
 40
0.0
 40
0.0
 40
0.0624918516
 40
0.0937506926
 40
0.1250058879
 40
0.1874981112
 40
0.2499916071
 40
0.2812474955
 40
0.3125034308
 40
0.3437594751
 40
0.3750155975
 40
0.4375092498
 40
0.5000030796
 40
0.5624969921
 40
0.6249913677
 40
0.6874865888
 40
0.7187437965
 40
0.7500010475
 40
0.8124965387
 40
0.8749916226
 40
0.9062484345
 40
0.9375051828
 40
1.0
 40
1.0
 40
1.0
 40
1.0
 10
2.0389617084
 20
4.5094138199
 30
0.0
 10
2.0389617084
 20
4.4991828829
 30
0.0
 10
2.039718163
 20
4.4838203656
 30
0.0
 10
2.0422293428
 20
4.463503605
 30
0.0
 10
2.0457362977
 20
4.443333076
 30
0.0
 10
2.0519740331
 20
4.4184810931
 30
0.0
 10
2.06062307
 20
4.3943616146
 30
0.0
 10
2.0689340597
 20
4.3756521776
 30
0.0
 10
2.0758512051
 20
4.3619404168
 30
0.0
 10
2.0834333985
 20
4.3485848305
 30
0.0
 10
2.0944033807
 20
4.33129978
 30
0.0
 10
2.1096898734
 20
4.3107342207
 30
0.0
 10
2.1303616741
 20
4.2879802613
 30
0.0
 10
2.1531664288
 20
4.2673616319
 30
0.0
 10
2.1778810233
 20
4.249078465
 30
0.0
 10
2.1998759306
 20
4.2359310554
 30
0.0
 10
2.2181733021
 20
4.2267464472
 30
0.0
 10
2.2368990059
 20
4.218469545
 30
0.0
 10
2.2610329629
 20
4.2098593317
 30
0.0
 10
2.2858934159
 20
4.2036523675
 30
0.0
 10
2.306067437
 20
4.2001637721
 30
0.0
 10
2.3263861752
 20
4.1976657382
 30
0.0
 10
2.3417487131
 20
4.1969138214
 30
0.0
 10
2.3519801355
 20
4.1969138199
 30
0.0
  0
SPLINE
  5
223
100
AcDbEntity
  8
0
100
AcDbSpline
 62
7
  6
CONTINUOUS
 70
0
 71
3
 72
28
 73
24
 74
0
 42
0.0000001
 43
0.0000001
 44
0.0000000001
 40
0.0
 40
0.0
 40
0.0
 40
0.0
 40
0.0624918643
 40
0.0937507108
 40
0.1250059083
 40
0.187498139
 40
0.2499916479
 40
0.2812475399
 40
0.3125034734
 40
0.3437595125
 40
0.3750156285
 40
0.4375092731
 40
0.500003104
 40
0.562497007
 40
0.6249913511
 40
0.6874865442
 40
0.7187437473
 40
0.7500010025
 40
0.8124965166
 40
0.874991625
 40
0.9062484434
 40
0.937505191
 40
1.0
 40
1.0
 40
1.0
 40
1.0
 10
8.6612712109
 20
4.5094138199
 30
0.0
 10
8.6612712109
 20
4.5196447589
 30
0.0
 10
8.6605147555
 20
4.5350072792
 30
0.0
 10
8.6580035755
 20
4.5553240431
 30
0.0
 10
8.6544966193
 20
4.5754945744
 30
0.0
 10
8.648258882
 20
4.6003465607
 30
0.0
 10
8.6396098423
 20
4.6244660423
 30
0.0
 10
8.6312988505
 20
4.6431754811
 30
0.0
 10
8.6243817048
 20
4.656887241
 30
0.0
 10
8.6167995112
 20
4.6702428247
 30
0.0
 10
8.6058295302
 20
4.6875278722
 30
0.0
 10
8.5905430374
 20
4.7080934288
 30
0.0
 10
8.5698712378
 20
4.7308473856
 30
0.0
 10
8.5470664874
 20
4.75146601
 30
0.0
 10
8.5223519022
 20
4.7697491703
 30
0.0
 10
8.5003570055
 20
4.7828965773
 30
0.0
 10
8.4820596372
 20
4.7920811815
 30
0.0
 10
8.4633339316
 20
4.8003580888
 30
0.0
 10
8.4391999664
 20
4.8089683047
 30
0.0
 10
8.4143395049
 20
4.8151752708
 30
0.0
 10
8.3941654793
 20
4.8186638689
 30
0.0
 10
8.3738467412
 20
4.8211619003
 30
0.0
 10
8.3584842049
 20
4.8219138205
 30
0.0
 10
8.3482527838
 20
4.8219138199
 30
0.0
  0
ENDSEC
  0
SECTION
  2
OBJECTS
  0
DICTIONARY
  5
C
100
AcDbDictionary
280
0
281
1
  3
ACAD_GROUP
350
D
  3
ACAD_MLINESTYLE
350
17
  3
ACAD_LAYOUT
350
1A
  3
ACAD_PLOTSETTINGS
350
19
  3
ACAD_PLOTSTYLENAME
350
E
  0
DICTIONARY
  5
D
102
{ACAD_REACTORS
330
C
102
}
100
AcDbDictionary
280
0
281
1
  0
ACDBDICTIONARYWDFLT
  5
E
102
{ACAD_REACTORS
330
C
102
}
100
AcDbDictionary
281
1
  3
Normal
350
F
100
AcDbDictionaryWithDefault
340
F
  0
DICTIONARY
  5
17
102
{ACAD_REACTORS
330
C
102
}
100
AcDbDictionary
280
0
281
1
  3
Standard
350
18
  0
DICTIONARY
  5
19
102
{ACAD_REACTORS
330
C
102
}
100
AcDbDictionary
281
1
  0
DICTIONARY
  5
1A
102
{ACAD_REACTORS
330
C
102
}
100
AcDbDictionary
281
1
  3
Model
350
224
  3
Layout1
350
225
  0
ACDBPLACEHOLDER
  5
F
102
{ACAD_REACTORS
330
E
102
}
  0
MLINESTYLE
  5
18
102
{ACAD_REACTORS
330
17
102
}
100
AcDbMlineStyle
  2
STANDARD
 70
0
  3

 62
256
 51
90.0
 52
90.0
 71
2
 49
0.5
 62
256
  6
BYLAYER
 49
-0.5
 62
256
  6
BYLAYER
  0
LAYOUT
  5
224
102
{ACAD_REACTORS
330
1A
102
}
100
AcDbPlotSettings
  1

  2
none_device
  4
ANSI_A_(11.00_x_8.50_Inches)
  6

 40
0.0
 41
0.0
 42
0.0
 43
0.0
 44
279.4
 45
215.9
 46
0.0
 47
0.0
 48
0.0
 49
0.0
140
0.0
141
0.0
142
1.0
143
1.0
 70
1024
 72
0
 73
0
 74
0
  7

 75
0
147
1.0
148
0.0
149
0.0
100
AcDbLayout
  1
Model
 70
0
 71
0
 10
0.0
 20
0.0
 11
11.0
 21
8.5
 12
0.0
 22
0.0
 32
0.0
 14
0.0
 24
0.0
 34
0.0
 15
0.0
 25
0.0
 35
0.0
146
0.0
 13
0.0
 23
0.0
 33
0.0
 16
1.0
 26
0.0
 36
0.0
 17
0.0
 27
1.0
 37
0.0
 76
0
330
202
345
0
346
0
  0
LAYOUT
  5
225
102
{ACAD_REACTORS
330
1A
102
}
100
AcDbPlotSettings
  1

  2
none_device
  4
ANSI_A_(11.00_x_8.50_Inches)
  6

 40
0.0
 41
0.0
 42
0.0
 43
0.0
 44
279.4
 45
215.9
 46
0.0
 47
0.0
 48
0.0
 49
0.0
140
0.0
141
0.0
142
1.0
143
1.0
 70
0
 72
0
 73
0
 74
0
  7

 75
0
147
1.0
148
0.0
149
0.0
100
AcDbLayout
  1
Layout1
 70
0
 71
1
 10
0.0
 20
0.0
 11
11.0
 21
8.5
 12
0.0
 22
0.0
 32
0.0
 14
0.0
 24
0.0
 34
0.0
 15
0.0
 25
0.0
 35
0.0
146
0.0
 13
0.0
 23
0.0
 33
0.0
 16
1.0
 26
0.0
 36
0.0
 17
0.0
 27
1.0
 37
0.0
 76
0
330
203
345
0
346
0
  0
ENDSEC
  0
EOF
