999
DXF file: E:\BT Custom\CADOUTPUT\_FRONT.dxf
999
Pro/ENGINEER 2018400 by Parametric Technology Corporation
  0
SECTION
  2
HEADER
  9
$ACADVER
  1
AC1018
  9
$DWGCODEPAGE
  3
ANSI_1252
  9
$EXTMAX
 10
22.0
 20
17.0
 30
0.0
  9
$EXTMIN
 10
0.0
 20
0.0
 30
0.0
  9
$LIMMIN
 10
0.0
 20
0.0
  9
$LIMMAX
 10
22.0
 20
17.0
  9
$VIEWCTR
 10
11.0
 20
8.5
  9
$VIEWSIZE
 40
17.0
  9
$CLAYER
  8
0
  9
$LTSCALE
 40
1.21
  9
$CELTYPE
  6
BYLAYER
  9
$DIMSCALE
 40
1.0
  9
$DIMASZ
 40
0.1
  9
$DIMEXO
 40
0.0625
  9
$DIMDLI
 40
0.836
  9
$DIMEXE
 40
0.125
  9
$DIMCEN
 40
0.198
  9
$DIMLFAC
 40
1.0
  9
$DIMBLK
  1
_FILLED
  9
$DIMALT
 70
1
  9
$DIMALTD
 70
2
  9
$DIMALTTD
 70
2
  9
$DIMALTF
 40
25.4
  9
$DIMTXT
 40
0.08
  9
$DIMTOL
 70
1
  9
$DIMLIM
 70
0
  9
$DIMTFAC
 40
1.0
  9
$DIMTP
 40
0.001
  9
$DIMTM
 40
0.001
  9
$DIMGAP
 40
0.09
  9
$DIMDSEP
 70
46
  9
$AUNITS
 70
0
  9
$PDMODE
 70
3
  9
$PDSIZE
 40
0.06
  9
$HANDSEED
  5
3DF
  9
$TILEMODE
 70
1
  9
$MEASUREMENT
 70
0
  9
$INSUNITS
 70
1
  0
ENDSEC
  0
SECTION
  2
CLASSES
  0
CLASS
  1
ACDBDICTIONARYWDFLT
  2
AcDbDictionaryWithDefault
  3
AutoCAD 2000
 90
0
 91
1
280
0
281
0
  0
CLASS
  1
ACDBPLACEHOLDER
  2
AcDbPlaceHolder
  3
AutoCAD 2000
 90
0
 91
1
280
0
281
0
  0
CLASS
  1
LAYOUT
  2
AcDbLayout
  3
AutoCAD 2000
 90
0
 91
0
280
0
281
0
  0
ENDSEC
  0
SECTION
  2
TABLES
  0
TABLE
  2
VPORT
  5
8
100
AcDbSymbolTable
 70
2
  0
VPORT
  5
1F4
100
AcDbSymbolTableRecord
100
AcDbViewportTableRecord
  2
*ACTIVE
 70
0
 10
0.0
 20
0.0
 11
1.0
 21
1.0
 12
11.0
 22
8.5
 13
0.0
 23
0.0
 14
1.0
 24
1.0
 15
0.0
 25
0.0
 16
0.0
 26
0.0
 36
1.0
 17
0.0
 27
0.0
 37
0.0
 40
17.0
 41
1.2941176471
 42
50.0
 43
0.0
 44
0.0
 50
0.0
 51
0.0
 71
0
 72
100
 73
1
 74
1
 75
0
 76
0
 77
0
 78
0
  0
ENDTAB
  0
TABLE
  2
LTYPE
  5
5
100
AcDbSymbolTable
 70
6
  0
LTYPE
  5
14
100
AcDbSymbolTableRecord
100
AcDbLinetypeTableRecord
  2
BYBLOCK
 70
0
  3

 72
65
 73
0
 40
0.0
  0
LTYPE
  5
15
100
AcDbSymbolTableRecord
100
AcDbLinetypeTableRecord
  2
BYLAYER
 70
0
  3

 72
65
 73
0
 40
0.0
  0
LTYPE
  5
16
100
AcDbSymbolTableRecord
100
AcDbLinetypeTableRecord
  2
CONTINUOUS
 70
64
  3
Solid line
 72
65
 73
0
 40
0.0
  0
LTYPE
  5
1F5
100
AcDbSymbolTableRecord
100
AcDbLinetypeTableRecord
  2
CENTER
 70
64
  3
____ _ ____ _ ____ _ ____ _ ____ _ ____ _ ____
 72
65
 73
4
 40
0.6
 49
0.375
 74
0
 49
-0.075
 74
0
 49
0.075
 74
0
 49
-0.075
 74
0
  0
LTYPE
  5
1F6
100
AcDbSymbolTableRecord
100
AcDbLinetypeTableRecord
  2
HIDDEN
 70
64
  3
- - - - - - - - - - - - - - - - - - - -
 72
65
 73
2
 40
0.2
 49
0.1
 74
0
 49
-0.1
 74
0
  0
LTYPE
  5
1F7
100
AcDbSymbolTableRecord
100
AcDbLinetypeTableRecord
  2
PHANTOM
 70
64
  3
_____ _ _ _____ _ _ _____ _ _ _____
 72
65
 73
6
 40
0.8
 49
0.45
 74
0
 49
-0.05
 74
0
 49
0.1
 74
0
 49
-0.05
 74
0
 49
0.1
 74
0
 49
-0.05
 74
0
  0
LTYPE
  5
1F8
100
AcDbSymbolTableRecord
100
AcDbLinetypeTableRecord
  2
DOT
 70
64
  3
. . . . . . . . . . . . . . . . . . . .
 72
65
 73
2
 40
0.2
 49
0.1
 74
0
 49
-0.1
 74
0
  0
LTYPE
  5
1F9
100
AcDbSymbolTableRecord
100
AcDbLinetypeTableRecord
  2
DASHED
 70
64
  3
- - - - - - - - - - - - - - - - - - - -
 72
65
 73
2
 40
0.2
 49
0.1
 74
0
 49
-0.1
 74
0
  0
ENDTAB
  0
TABLE
  2
LAYER
  5
2
100
AcDbSymbolTable
 70
36
  0
LAYER
  5
10
100
AcDbSymbolTableRecord
100
AcDbLayerTableRecord
  2
0
 70
0
 62
7
  6
CONTINUOUS
370
-3
390
F
  0
LAYER
  5
1FA
100
AcDbSymbolTableRecord
100
AcDbLayerTableRecord
  2
DEFAULT_1
 70
0
 62
7
  6
CENTER
370
-3
390
F
  0
LAYER
  5
1FB
100
AcDbSymbolTableRecord
100
AcDbLayerTableRecord
  2
DEFAULT_2
 70
0
 62
8
  6
HIDDEN
370
-3
390
F
  0
LAYER
  5
1FC
100
AcDbSymbolTableRecord
100
AcDbLayerTableRecord
  2
DEFAULT_3
 70
0
 62
7
  6
PHANTOM
370
-3
390
F
  0
LAYER
  5
1FD
100
AcDbSymbolTableRecord
100
AcDbLayerTableRecord
  2
ALL_FEATURES
 70
0
 62
7
  6
CONTINUOUS
370
-3
390
F
  0
LAYER
  5
1FE
100
AcDbSymbolTableRecord
100
AcDbLayerTableRecord
  2
AXES_FEATURES
 70
0
 62
7
  6
CONTINUOUS
370
-3
390
F
  0
LAYER
  5
1FF
100
AcDbSymbolTableRecord
100
AcDbLayerTableRecord
  2
DIMENSIONS
 70
0
 62
7
  6
CONTINUOUS
370
-3
390
F
  0
ENDTAB
  0
TABLE
  2
STYLE
  5
3
100
AcDbSymbolTable
 70
1
  0
STYLE
  5
11
100
AcDbSymbolTableRecord
100
AcDbTextStyleTableRecord
  2
STANDARD
 70
0
 40
0.0
 41
0.8
 50
0.0
 71
0
 42
0.2
  3
txt
  4

  0
STYLE
  5
200
100
AcDbSymbolTableRecord
100
AcDbTextStyleTableRecord
  2
TEXTSTYLE_1
 70
0
 40
0.0
 41
0.8
 50
0.0
 71
0
 42
0.2
  3
gdt
  4

  0
ENDTAB
  0
TABLE
  2
VIEW
  5
6
100
AcDbSymbolTable
 70
0
  0
ENDTAB
  0
TABLE
  2
UCS
  5
7
100
AcDbSymbolTable
 70
0
  0
ENDTAB
  0
TABLE
  2
APPID
  5
9
100
AcDbSymbolTable
 70
1
  0
APPID
  5
201
100
AcDbSymbolTableRecord
100
AcDbRegAppTableRecord
  2
ACAD
 70
0
  0
ENDTAB
  0
TABLE
  2
BLOCK_RECORD
  5
1
100
AcDbSymbolTable
 70
0
  0
BLOCK_RECORD
  5
202
100
AcDbSymbolTableRecord
100
AcDbBlockTableRecord
  2
*Model_Space
  0
BLOCK_RECORD
  5
203
100
AcDbSymbolTableRecord
100
AcDbBlockTableRecord
  2
*Paper_Space
  0
BLOCK_RECORD
  5
204
100
AcDbSymbolTableRecord
100
AcDbBlockTableRecord
  2
_FILLED
  0
ENDTAB
  0
TABLE
  2
DIMSTYLE
  5
A
100
AcDbSymbolTable
 70
1
100
AcDbDimStyleTable
 71
0
  0
DIMSTYLE
105
205
100
AcDbSymbolTableRecord
100
AcDbDimStyleTableRecord
  2
STANDARD
 70
0
  3

  4

 40
1.0
 41
0.1
 42
0.0625
 43
0.38
 44
0.125
 45
0.0
 46
0.0
 47
0.001
 48
0.001
140
0.08
141
0.09
142
0.0
143
25.4
144
1.0
145
0.0
146
1.0
147
0.09
 71
1.0
 72
0.0
 73
1
 74
1
 75
0
 76
0
 77
0
 78
4
 79
1
170
1
171
2
172
0
173
0
174
0
175
0
176
0
177
0
178
0
270
2
179
3
271
3
272
3
273
2
274
2
275
0
280
0
281
0
282
0
283
1
284
4
285
0
286
0
287
3
288
0
340
11
278
46
341
204
342
204
343
204
344
204
  0
ENDTAB
  0
ENDSEC
  0
SECTION
  2
BLOCKS
  0
BLOCK
  5
20
100
AcDbEntity
  8
0
100
AcDbBlockBegin
  2
*Model_Space
 70
0
 10
0.0
 20
0.0
 30
0.0
  3
*Model_Space
  1

  0
ENDBLK
  5
21
100
AcDbEntity
  8
0
100
AcDbBlockEnd
  0
BLOCK
  5
1C
100
AcDbEntity
  8
0
100
AcDbBlockBegin
  2
*Paper_Space
 70
0
 10
0.0
 20
0.0
 30
0.0
  3
*Paper_Space
  1

  0
ENDBLK
  5
1D
100
AcDbEntity
  8
0
100
AcDbBlockEnd
  0
BLOCK
  5
206
100
AcDbEntity
  8
0
100
AcDbBlockBegin
  2
_FILLED
 70
64
 10
0.0
 20
0.0
  3
_FILLED
  1

  0
SOLID
  5
207
100
AcDbEntity
  8
0
  6
BYBLOCK
 62
0
100
AcDbTrace
 10
0.0
 20
0.0
 11
-1.0
 21
0.2
 12
-1.0
 22
-0.2
 13
-1.0
 23
-0.2
  0
ENDBLK
  5
208
100
AcDbEntity
  8
0
  6
BYBLOCK
 62
0
100
AcDbBlockEnd
  0
ENDSEC
  0
SECTION
  2
ENTITIES
  0
LINE
  5
209
100
AcDbEntity
  8
0
100
AcDbLine
 62
7
  6
CONTINUOUS
 10
3.6376923427
 20
8.9041726524
 11
3.6376923427
 21
8.4051656584
  0
LINE
  5
20A
100
AcDbEntity
  8
0
100
AcDbLine
 62
9
  6
CONTINUOUS
 10
3.6601796482
 20
8.9510007945
 11
3.6601796482
 21
8.3583375163
  0
LINE
  5
20B
100
AcDbEntity
  8
0
100
AcDbLine
 62
9
  6
CONTINUOUS
 10
3.7577381483
 20
9.1013863541
 11
3.7577381483
 21
8.2079519567
  0
LINE
  5
20C
100
AcDbEntity
  8
0
100
AcDbLine
 62
9
  6
CONTINUOUS
 10
3.8157894705
 20
9.1462191554
 11
3.8157894705
 21
8.1631191554
  0
LINE
  5
20D
100
AcDbEntity
  8
0
100
AcDbLine
 62
9
  6
CONTINUOUS
 10
3.8376923427
 20
8.1631191554
 11
3.8376923427
 21
9.1462191554
  0
LINE
  5
20E
100
AcDbEntity
  8
0
100
AcDbLine
 62
7
  6
CONTINUOUS
 10
3.8776923427
 20
8.2031195816
 11
3.8776923427
 21
9.1062187292
  0
LINE
  5
20F
100
AcDbEntity
  8
0
100
AcDbLine
 62
7
  6
CONTINUOUS
 10
5.8376923427
 20
5.9336685199
 11
5.8376923427
 21
5.8241695021
  0
LINE
  5
210
100
AcDbEntity
  8
0
100
AcDbLine
 62
7
  6
CONTINUOUS
 10
6.0526923424
 20
8.9336691554
 11
6.0526923424
 21
8.6546691554
  0
LINE
  5
211
100
AcDbEntity
  8
0
100
AcDbLine
 62
7
  6
CONTINUOUS
 10
6.0526923424
 20
8.6545997309
 11
6.0526923424
 21
8.3756691554
  0
LINE
  5
212
100
AcDbEntity
  8
0
100
AcDbLine
 62
9
  6
CONTINUOUS
 10
6.1330677336
 20
8.9813731295
 11
6.1330677336
 21
8.3279651813
  0
LINE
  5
213
100
AcDbEntity
  8
0
100
AcDbLine
 62
7
  6
CONTINUOUS
 10
6.1926923427
 20
6.4641695021
 11
6.1926923427
 21
6.2541695021
  0
LINE
  5
214
100
AcDbEntity
  8
0
100
AcDbLine
 62
7
  6
CONTINUOUS
 10
6.2276923427
 20
6.5341695021
 11
6.2276923427
 21
6.4641695021
  0
LINE
  5
215
100
AcDbEntity
  8
0
100
AcDbLine
 62
9
  6
CONTINUOUS
 10
6.4006901163
 20
8.9570488724
 11
6.4006901163
 21
8.3522894384
  0
LINE
  5
216
100
AcDbEntity
  8
0
100
AcDbLine
 62
7
  6
CONTINUOUS
 10
6.4476923427
 20
8.39167178
 11
6.4476923427
 21
8.9176660189
  0
LINE
  5
217
100
AcDbEntity
  8
0
100
AcDbLine
 62
7
  6
CONTINUOUS
 10
6.4876923427
 20
7.9841695021
 11
6.4876923427
 21
7.9141695021
  0
LINE
  5
218
100
AcDbEntity
  8
0
100
AcDbLine
 62
7
  6
CONTINUOUS
 10
6.5496923427
 20
8.4240195843
 11
6.5496923427
 21
8.8853187265
  0
LINE
  5
219
100
AcDbEntity
  8
0
100
AcDbLine
 62
7
  6
CONTINUOUS
 10
6.6076923427
 20
8.0641695021
 11
6.6076923427
 21
7.9941695021
  0
LINE
  5
21A
100
AcDbEntity
  8
0
100
AcDbLine
 62
7
  6
CONTINUOUS
 10
6.6576923427
 20
9.0217971355
 11
6.6576923427
 21
9.0149411055
  0
LINE
  5
21B
100
AcDbEntity
  8
0
100
AcDbLine
 62
7
  6
CONTINUOUS
 10
6.6791923427
 20
8.2941695021
 11
6.6791923427
 21
8.0741695021
  0
LINE
  5
21C
100
AcDbEntity
  8
0
100
AcDbLine
 62
7
  6
CONTINUOUS
 10
7.1961923427
 20
8.2941695021
 11
7.1961923427
 21
8.0741695021
  0
LINE
  5
21D
100
AcDbEntity
  8
0
100
AcDbLine
 62
7
  6
CONTINUOUS
 10
7.2176923427
 20
9.0217971355
 11
7.2176923427
 21
9.0149411055
  0
LINE
  5
21E
100
AcDbEntity
  8
0
100
AcDbLine
 62
7
  6
CONTINUOUS
 10
7.2676923427
 20
8.0641695021
 11
7.2676923427
 21
7.9941695021
  0
LINE
  5
21F
100
AcDbEntity
  8
0
100
AcDbLine
 62
7
  6
CONTINUOUS
 10
7.3876923427
 20
7.9841695021
 11
7.3876923427
 21
7.9141695021
  0
LINE
  5
220
100
AcDbEntity
  8
0
100
AcDbLine
 62
7
  6
CONTINUOUS
 10
7.6476923427
 20
6.5341695021
 11
7.6476923427
 21
6.4641695021
  0
LINE
  5
221
100
AcDbEntity
  8
0
100
AcDbLine
 62
7
  6
CONTINUOUS
 10
7.6826923427
 20
6.4641695021
 11
7.6826923427
 21
6.2541695021
  0
LINE
  5
222
100
AcDbEntity
  8
0
100
AcDbLine
 62
7
  6
CONTINUOUS
 10
5.8377014859
 20
5.8241695021
 11
8.0376831996
 21
5.8241695021
  0
LINE
  5
223
100
AcDbEntity
  8
0
100
AcDbLine
 62
7
  6
CONTINUOUS
 10
9.7377026641
 20
5.8241695021
 11
12.1376820214
 21
5.8241695021
  0
LINE
  5
224
100
AcDbEntity
  8
0
100
AcDbLine
 62
7
  6
CONTINUOUS
 10
13.8377014859
 20
5.8241695021
 11
16.0376831996
 21
5.8241695021
  0
LINE
  5
225
100
AcDbEntity
  8
0
100
AcDbLine
 62
9
  6
CONTINUOUS
 10
16.0376923427
 20
5.9336685217
 11
13.8376923427
 21
5.9336685217
  0
LINE
  5
226
100
AcDbEntity
  8
0
100
AcDbLine
 62
9
  6
CONTINUOUS
 10
8.0376923427
 20
5.9336685217
 11
5.8376923427
 21
5.9336685217
  0
LINE
  5
227
100
AcDbEntity
  8
0
100
AcDbLine
 62
9
  6
CONTINUOUS
 10
12.1376923427
 20
5.9423189342
 11
9.7376923427
 21
5.9423189342
  0
LINE
  5
228
100
AcDbEntity
  8
0
100
AcDbLine
 62
9
  6
CONTINUOUS
 10
9.7913941369
 20
6.0619044303
 11
12.0839905486
 21
6.0619044303
  0
LINE
  5
229
100
AcDbEntity
  8
0
100
AcDbLine
 62
9
  6
CONTINUOUS
 10
15.9569688899
 20
6.0667127232
 11
13.9184157956
 21
6.0667127232
  0
LINE
  5
22A
100
AcDbEntity
  8
0
100
AcDbLine
 62
9
  6
CONTINUOUS
 10
7.9569688899
 20
6.0667127232
 11
5.9184157956
 21
6.0667127232
  0
LINE
  5
22B
100
AcDbEntity
  8
0
100
AcDbLine
 62
7
  6
CONTINUOUS
 10
8.0376923427
 20
5.9336685199
 11
8.0376923427
 21
5.8241695021
  0
LINE
  5
22C
100
AcDbEntity
  8
0
100
AcDbLine
 62
9
  6
CONTINUOUS
 10
11.9611897195
 20
6.1710607228
 11
9.9141949659
 21
6.1710607228
  0
LINE
  5
22D
100
AcDbEntity
  8
0
100
AcDbLine
 62
9
  6
CONTINUOUS
 10
15.7732668279
 20
6.2440280472
 11
14.1021178576
 21
6.2440280472
  0
LINE
  5
22E
100
AcDbEntity
  8
0
100
AcDbLine
 62
9
  6
CONTINUOUS
 10
7.7732668279
 20
6.2440280472
 11
6.1021178576
 21
6.2440280472
  0
LINE
  5
22F
100
AcDbEntity
  8
0
100
AcDbLine
 62
9
  6
CONTINUOUS
 10
9.9648590919
 20
6.2471558461
 11
11.9105255936
 21
6.2471558461
  0
LINE
  5
230
100
AcDbEntity
  8
0
100
AcDbLine
 62
7
  6
CONTINUOUS
 10
15.7558648765
 20
6.2541695021
 11
14.119519809
 21
6.2541695021
  0
LINE
  5
231
100
AcDbEntity
  8
0
100
AcDbLine
 62
7
  6
CONTINUOUS
 10
7.7558648765
 20
6.2541695021
 11
6.119519809
 21
6.2541695021
  0
LINE
  5
232
100
AcDbEntity
  8
0
100
AcDbLine
 62
7
  6
CONTINUOUS
 10
11.8726917039
 20
6.2741695021
 11
10.0026929815
 21
6.2741695021
  0
LINE
  5
233
100
AcDbEntity
  8
0
100
AcDbLine
 62
7
  6
CONTINUOUS
 10
15.6826919313
 20
6.4641695021
 11
14.1926927542
 21
6.4641695021
  0
LINE
  5
234
100
AcDbEntity
  8
0
100
AcDbLine
 62
7
  6
CONTINUOUS
 10
7.6826919313
 20
6.4641695021
 11
6.1926927542
 21
6.4641695021
  0
LINE
  5
235
100
AcDbEntity
  8
0
100
AcDbLine
 62
9
  6
CONTINUOUS
 10
11.8226923427
 20
6.4911695021
 11
10.0526923427
 21
6.4911695021
  0
LINE
  5
236
100
AcDbEntity
  8
0
100
AcDbLine
 62
7
  6
CONTINUOUS
 10
15.6476923427
 20
6.5341695021
 11
14.2276923427
 21
6.5341695021
  0
LINE
  5
237
100
AcDbEntity
  8
0
100
AcDbLine
 62
7
  6
CONTINUOUS
 10
7.6476923427
 20
6.5341695021
 11
6.2276923427
 21
6.5341695021
  0
LINE
  5
238
100
AcDbEntity
  8
0
100
AcDbLine
 62
7
  6
CONTINUOUS
 10
11.7626817227
 20
6.5511695021
 11
10.1127029628
 21
6.5511695021
  0
LINE
  5
239
100
AcDbEntity
  8
0
100
AcDbLine
 62
9
  6
CONTINUOUS
 10
11.7626923427
 20
6.5864906721
 11
10.1126923427
 21
6.5864906721
  0
LINE
  5
23A
100
AcDbEntity
  8
0
100
AcDbLine
 62
9
  6
CONTINUOUS
 10
11.7397948003
 20
6.6887966952
 11
10.1355898852
 21
6.6887966952
  0
LINE
  5
23B
100
AcDbEntity
  8
0
100
AcDbLine
 62
9
  6
CONTINUOUS
 10
6.5281102889
 20
6.8684831346
 11
7.3472743966
 21
6.8684831346
  0
LINE
  5
23C
100
AcDbEntity
  8
0
100
AcDbLine
 62
9
  6
CONTINUOUS
 10
14.5281102889
 20
6.8684831346
 11
15.3472743966
 21
6.8684831346
  0
LINE
  5
23D
100
AcDbEntity
  8
0
100
AcDbLine
 62
9
  6
CONTINUOUS
 10
6.5504275153
 20
7.4330088213
 11
7.3249571701
 21
7.4330088213
  0
LINE
  5
23E
100
AcDbEntity
  8
0
100
AcDbLine
 62
9
  6
CONTINUOUS
 10
14.5504275153
 20
7.4330088213
 11
15.3249571701
 21
7.4330088213
  0
LINE
  5
23F
100
AcDbEntity
  8
0
100
AcDbLine
 62
9
  6
CONTINUOUS
 10
6.4324358671
 20
7.7146750984
 11
7.4429488183
 21
7.7146750984
  0
LINE
  5
240
100
AcDbEntity
  8
0
100
AcDbLine
 62
9
  6
CONTINUOUS
 10
14.4324358671
 20
7.7146750984
 11
15.4429488183
 21
7.7146750984
  0
LINE
  5
241
100
AcDbEntity
  8
0
100
AcDbLine
 62
7
  6
CONTINUOUS
 10
11.9611897336
 20
6.1710607102
 11
12.0839905486
 21
6.0619044303
  0
LINE
  5
242
100
AcDbEntity
  8
0
100
AcDbLine
 62
7
  6
CONTINUOUS
 10
9.7376923427
 20
5.9423189319
 11
9.7376923427
 21
5.8241695021
  0
LINE
  5
243
100
AcDbEntity
  8
0
100
AcDbLine
 62
7
  6
CONTINUOUS
 10
10.2955827462
 20
10.551453432
 11
10.1824020416
 21
10.4691401922
  0
LINE
  5
244
100
AcDbEntity
  8
0
100
AcDbLine
 62
9
  6
CONTINUOUS
 10
10.4422220102
 20
7.7911695021
 11
11.4331626752
 21
7.7911695021
  0
LINE
  5
245
100
AcDbEntity
  8
0
100
AcDbLine
 62
9
  6
CONTINUOUS
 10
15.5124579008
 20
7.8169167527
 11
14.3629267847
 21
7.8169167527
  0
LINE
  5
246
100
AcDbEntity
  8
0
100
AcDbLine
 62
9
  6
CONTINUOUS
 10
7.5124579008
 20
7.8169167527
 11
6.3629267847
 21
7.8169167527
  0
LINE
  5
247
100
AcDbEntity
  8
0
100
AcDbLine
 62
7
  6
CONTINUOUS
 10
15.4654225272
 20
7.9141695021
 11
14.4099611621
 21
7.9141695021
  0
LINE
  5
248
100
AcDbEntity
  8
0
100
AcDbLine
 62
7
  6
CONTINUOUS
 10
7.4654225272
 20
7.9141695021
 11
6.4099621583
 21
7.9141695021
  0
LINE
  5
249
100
AcDbEntity
  8
0
100
AcDbLine
 62
9
  6
CONTINUOUS
 10
15.3876923427
 20
7.9841695021
 11
14.4876923427
 21
7.9841695021
  0
LINE
  5
24A
100
AcDbEntity
  8
0
100
AcDbLine
 62
9
  6
CONTINUOUS
 10
7.3876923427
 20
7.9841695021
 11
6.4876923427
 21
7.9841695021
  0
LINE
  5
24B
100
AcDbEntity
  8
0
100
AcDbLine
 62
7
  6
CONTINUOUS
 10
15.3776855677
 20
7.9941695021
 11
14.4976991178
 21
7.9941695021
  0
LINE
  5
24C
100
AcDbEntity
  8
0
100
AcDbLine
 62
7
  6
CONTINUOUS
 10
7.3776855677
 20
7.9941695021
 11
6.4976991178
 21
7.9941695021
  0
LINE
  5
24D
100
AcDbEntity
  8
0
100
AcDbLine
 62
9
  6
CONTINUOUS
 10
15.2676923427
 20
8.0641695021
 11
14.6076923427
 21
8.0641695021
  0
LINE
  5
24E
100
AcDbEntity
  8
0
100
AcDbLine
 62
9
  6
CONTINUOUS
 10
7.2676923427
 20
8.0641695021
 11
6.6076923427
 21
8.0641695021
  0
LINE
  5
24F
100
AcDbEntity
  8
0
100
AcDbLine
 62
7
  6
CONTINUOUS
 10
15.2576913611
 20
8.0741695021
 11
14.6176933244
 21
8.0741695021
  0
LINE
  5
250
100
AcDbEntity
  8
0
100
AcDbLine
 62
7
  6
CONTINUOUS
 10
7.2576913611
 20
8.0741695021
 11
6.6176933244
 21
8.0741695021
  0
LINE
  5
251
100
AcDbEntity
  8
0
100
AcDbLine
 62
7
  6
CONTINUOUS
 10
3.8376923427
 20
8.1631191554
 11
3.8157894712
 21
8.1631191554
  0
LINE
  5
252
100
AcDbEntity
  8
0
100
AcDbLine
 62
7
  6
CONTINUOUS
 10
18.0376923427
 20
8.1631191554
 11
18.0595952143
 21
8.1631191554
  0
LINE
  5
253
100
AcDbEntity
  8
0
100
AcDbLine
 62
7
  6
CONTINUOUS
 10
10.0526923427
 20
6.4911695021
 11
10.0526923427
 21
6.2741695021
  0
LINE
  5
254
100
AcDbEntity
  8
0
100
AcDbLine
 62
7
  6
CONTINUOUS
 10
10.1126923427
 20
6.5864906693
 11
10.1126923427
 21
6.5511695021
  0
LINE
  5
255
100
AcDbEntity
  8
0
100
AcDbLine
 62
7
  6
CONTINUOUS
 10
10.1576923427
 20
10.4206160266
 11
10.1576923427
 21
10.3399107039
  0
LINE
  5
256
100
AcDbEntity
  8
0
100
AcDbLine
 62
7
  6
CONTINUOUS
 10
10.3625112407
 20
9.8286853051
 11
10.3625112406
 21
9.8176677529
  0
LINE
  5
257
100
AcDbEntity
  8
0
100
AcDbLine
 62
7
  6
CONTINUOUS
 10
10.379137696
 20
9.8189184208
 11
10.379137696
 21
9.8274346372
  0
LINE
  5
258
100
AcDbEntity
  8
0
100
AcDbLine
 62
7
  6
CONTINUOUS
 10
10.3865112406
 20
9.8515106609
 11
10.3865112405
 21
9.84320766
  0
LINE
  5
259
100
AcDbEntity
  8
0
100
AcDbLine
 62
7
  6
CONTINUOUS
 10
10.3924167522
 20
9.8527629786
 11
10.3924167522
 21
9.8556808932
  0
LINE
  5
25A
100
AcDbEntity
  8
0
100
AcDbLine
 62
7
  6
CONTINUOUS
 10
10.4185077747
 20
9.8114297868
 11
10.4185077747
 21
9.8274346372
  0
LINE
  5
25B
100
AcDbEntity
  8
0
100
AcDbLine
 62
7
  6
CONTINUOUS
 10
10.4326923427
 20
12.6011695021
 11
10.4326923427
 21
12.5211695021
  0
LINE
  5
25C
100
AcDbEntity
  8
0
100
AcDbLine
 62
7
  6
CONTINUOUS
 10
10.4345077747
 20
9.8199460032
 11
10.4345077747
 21
9.8114297868
  0
LINE
  5
25D
100
AcDbEntity
  8
0
100
AcDbLine
 62
7
  6
CONTINUOUS
 10
10.1126923427
 20
9.8506535955
 11
10.1132894901
 21
9.8547125986
  0
LWPOLYLINE
  5
25E
100
AcDbEntity
  8
0
100
AcDbPolyline
 62
7
  6
CONTINUOUS
 90
5
 70
0
 10
10.493245213
 20
11.2245911064
 10
10.4918651169
 20
11.219221959
 10
10.484183511
 20
11.1909488866
 10
10.4700977545
 20
11.1418811456
 10
10.4487344477
 20
11.069598622
  0
LWPOLYLINE
  5
25F
100
AcDbEntity
  8
0
100
AcDbPolyline
 62
7
  6
CONTINUOUS
 90
4
 70
0
 10
10.2169013393
 20
10.2677787196
 10
10.1825491653
 20
10.1368953326
 10
10.1469300626
 20
9.995465517
 10
10.1131593298
 20
9.8547157556
  0
LWPOLYLINE
  5
260
100
AcDbEntity
  8
0
100
AcDbPolyline
 62
7
  6
CONTINUOUS
 90
3
 70
0
 10
10.2302157451
 20
10.3172719936
 10
10.2262936662
 20
10.3027571852
 10
10.2169012379
 20
10.2677783401
  0
LWPOLYLINE
  5
261
100
AcDbEntity
  8
0
100
AcDbPolyline
 62
7
  6
CONTINUOUS
 90
4
 70
0
 10
10.3646169539
 20
10.7885933055
 10
10.3239285799
 20
10.6503192676
 10
10.2783840842
 20
10.4914671879
 10
10.2302155894
 20
10.3172714183
  0
LWPOLYLINE
  5
262
100
AcDbEntity
  8
0
100
AcDbPolyline
 62
7
  6
CONTINUOUS
 90
4
 70
0
 10
10.4487344477
 20
11.069598622
 10
10.4133900128
 20
10.9516803505
 10
10.4057393616
 20
10.9261950239
 10
10.3646169539
 20
10.7885933055
  0
LINE
  5
263
100
AcDbEntity
  8
0
100
AcDbLine
 62
7
  6
CONTINUOUS
 10
10.379137696
 20
9.8274346372
 11
10.3814703716
 21
9.8350511708
  0
LINE
  5
264
100
AcDbEntity
  8
0
100
AcDbLine
 62
7
  6
CONTINUOUS
 10
10.3945135695
 20
9.8561557003
 11
10.3814702571
 21
9.8350511775
  0
LINE
  5
265
100
AcDbEntity
  8
0
100
AcDbLine
 62
9
  6
CONTINUOUS
 10
10.3865112406
 20
9.8515106609
 11
10.3625112407
 21
9.8286853046
  0
LINE
  5
266
100
AcDbEntity
  8
0
100
AcDbLine
 62
9
  6
CONTINUOUS
 10
10.3625112406
 20
9.8176677548
 11
10.3824413142
 21
9.8366223808
  0
LINE
  5
267
100
AcDbEntity
  8
0
100
AcDbLine
 62
7
  6
CONTINUOUS
 10
15.2086923427
 20
8.2941695021
 11
14.6666923427
 21
8.2941695021
  0
LINE
  5
268
100
AcDbEntity
  8
0
100
AcDbLine
 62
7
  6
CONTINUOUS
 10
6.6666923427
 20
8.2941695021
 11
7.2086923427
 21
8.2941695021
  0
LINE
  5
269
100
AcDbEntity
  8
0
100
AcDbLine
 62
7
  6
CONTINUOUS
 10
6.5496923427
 20
8.4240191554
 11
6.4476923427
 21
8.4240191554
  0
LINE
  5
26A
100
AcDbEntity
  8
0
100
AcDbLine
 62
7
  6
CONTINUOUS
 10
15.3256923427
 20
8.4240191554
 11
15.4276923427
 21
8.4240191554
  0
LINE
  5
26B
100
AcDbEntity
  8
0
100
AcDbLine
 62
7
  6
CONTINUOUS
 10
10.4776923427
 20
12.1111695021
 11
10.4776923427
 21
12.0011695021
  0
LINE
  5
26C
100
AcDbEntity
  8
0
100
AcDbLine
 62
9
  6
CONTINUOUS
 10
10.5064797445
 20
9.7783168965
 11
10.5064797446
 21
9.7731790396
  0
LINE
  5
26D
100
AcDbEntity
  8
0
100
AcDbLine
 62
7
  6
CONTINUOUS
 10
10.5096923427
 20
9.8434372321
 11
10.5096923427
 21
9.8390832743
  0
LINE
  5
26E
100
AcDbEntity
  8
0
100
AcDbLine
 62
7
  6
CONTINUOUS
 10
10.5096923427
 20
9.8088632172
 11
10.5096923427
 21
9.8341390024
  0
LINE
  5
26F
100
AcDbEntity
  8
0
100
AcDbLine
 62
9
  6
CONTINUOUS
 10
10.5105269884
 20
9.8731740187
 11
10.5105269884
 21
9.8680361614
  0
LINE
  5
270
100
AcDbEntity
  8
0
100
AcDbLine
 62
9
  6
CONTINUOUS
 10
10.5105269884
 20
9.855870138
 11
10.5105269884
 21
9.848381504
  0
LINE
  5
271
100
AcDbEntity
  8
0
100
AcDbLine
 62
9
  6
CONTINUOUS
 10
10.5105269884
 20
9.8088618012
 11
10.5105269884
 21
9.7879385579
  0
LINE
  5
272
100
AcDbEntity
  8
0
100
AcDbLine
 62
7
  6
CONTINUOUS
 10
10.5256923427
 20
9.8341390024
 11
10.5256923427
 21
9.8088618012
  0
LINE
  5
273
100
AcDbEntity
  8
0
100
AcDbLine
 62
7
  6
CONTINUOUS
 10
10.5256923427
 20
9.8390832743
 11
10.5256923427
 21
9.8434372321
  0
LINE
  5
274
100
AcDbEntity
  8
0
100
AcDbLine
 62
7
  6
CONTINUOUS
 10
10.5936923427
 20
9.8434372321
 11
10.5936923427
 21
9.8390832743
  0
LINE
  5
275
100
AcDbEntity
  8
0
100
AcDbLine
 62
7
  6
CONTINUOUS
 10
10.5936923427
 20
9.8088618012
 11
10.5936923427
 21
9.8341390024
  0
LINE
  5
276
100
AcDbEntity
  8
0
100
AcDbLine
 62
7
  6
CONTINUOUS
 10
10.6096923427
 20
9.8341390024
 11
10.6096923427
 21
9.8088618012
  0
LINE
  5
277
100
AcDbEntity
  8
0
100
AcDbLine
 62
7
  6
CONTINUOUS
 10
10.6096923427
 20
9.8390832743
 11
10.6096923427
 21
9.8434372321
  0
LINE
  5
278
100
AcDbEntity
  8
0
100
AcDbLine
 62
7
  6
CONTINUOUS
 10
10.6776923427
 20
9.8434372321
 11
10.6776923427
 21
9.8390832743
  0
LINE
  5
279
100
AcDbEntity
  8
0
100
AcDbLine
 62
7
  6
CONTINUOUS
 10
10.6776923427
 20
9.8088618012
 11
10.6776923427
 21
9.8341390024
  0
LINE
  5
27A
100
AcDbEntity
  8
0
100
AcDbLine
 62
7
  6
CONTINUOUS
 10
10.6936923427
 20
9.8341390024
 11
10.6936923427
 21
9.8088618012
  0
LINE
  5
27B
100
AcDbEntity
  8
0
100
AcDbLine
 62
7
  6
CONTINUOUS
 10
10.6936923427
 20
9.8390832743
 11
10.6936923427
 21
9.8434372321
  0
LINE
  5
27C
100
AcDbEntity
  8
0
100
AcDbLine
 62
7
  6
CONTINUOUS
 10
10.7126923427
 20
12.2611695021
 11
10.7126923427
 21
12.1511695021
  0
LINE
  5
27D
100
AcDbEntity
  8
0
100
AcDbLine
 62
7
  6
CONTINUOUS
 10
10.7616923427
 20
9.8434372321
 11
10.7616923427
 21
9.8390832743
  0
LINE
  5
27E
100
AcDbEntity
  8
0
100
AcDbLine
 62
7
  6
CONTINUOUS
 10
10.7616923427
 20
9.8088618012
 11
10.7616923427
 21
9.8341390024
  0
LINE
  5
27F
100
AcDbEntity
  8
0
100
AcDbLine
 62
7
  6
CONTINUOUS
 10
10.7776923427
 20
9.8341390024
 11
10.7776923427
 21
9.8088618012
  0
LINE
  5
280
100
AcDbEntity
  8
0
100
AcDbLine
 62
7
  6
CONTINUOUS
 10
10.7776923427
 20
9.8390832743
 11
10.7776923427
 21
9.8434372321
  0
LINE
  5
281
100
AcDbEntity
  8
0
100
AcDbLine
 62
7
  6
CONTINUOUS
 10
10.8456923427
 20
9.8434372321
 11
10.8456923427
 21
9.8390832743
  0
LINE
  5
282
100
AcDbEntity
  8
0
100
AcDbLine
 62
7
  6
CONTINUOUS
 10
10.8456923427
 20
9.8088618012
 11
10.8456923427
 21
9.8341390024
  0
LINE
  5
283
100
AcDbEntity
  8
0
100
AcDbLine
 62
7
  6
CONTINUOUS
 10
10.8616923427
 20
9.8341390024
 11
10.8616923427
 21
9.8088618012
  0
LINE
  5
284
100
AcDbEntity
  8
0
100
AcDbLine
 62
7
  6
CONTINUOUS
 10
10.8616923427
 20
9.8390832743
 11
10.8616923427
 21
9.8434372321
  0
LINE
  5
285
100
AcDbEntity
  8
0
100
AcDbLine
 62
7
  6
CONTINUOUS
 10
10.9296923427
 20
9.8434372321
 11
10.9296923427
 21
9.8390832743
  0
LINE
  5
286
100
AcDbEntity
  8
0
100
AcDbLine
 62
7
  6
CONTINUOUS
 10
10.9296923427
 20
9.8088618012
 11
10.9296923427
 21
9.8341390024
  0
LINE
  5
287
100
AcDbEntity
  8
0
100
AcDbLine
 62
9
  6
CONTINUOUS
 10
10.9376923427
 20
9.9665349684
 11
10.9376923427
 21
11.6241695021
  0
LINE
  5
288
100
AcDbEntity
  8
0
100
AcDbLine
 62
7
  6
CONTINUOUS
 10
10.9456923427
 20
9.8434372321
 11
10.9456923427
 21
9.8390832743
  0
LINE
  5
289
100
AcDbEntity
  8
0
100
AcDbLine
 62
7
  6
CONTINUOUS
 10
10.9456923427
 20
9.8088618012
 11
10.9456923427
 21
9.8341390024
  0
LINE
  5
28A
100
AcDbEntity
  8
0
100
AcDbLine
 62
7
  6
CONTINUOUS
 10
6.5496923427
 20
8.8853191554
 11
6.4476923427
 21
8.8853191554
  0
LINE
  5
28B
100
AcDbEntity
  8
0
100
AcDbLine
 62
7
  6
CONTINUOUS
 10
15.3256923427
 20
8.8853191554
 11
15.4276923427
 21
8.8853191554
  0
LINE
  5
28C
100
AcDbEntity
  8
0
100
AcDbLine
 62
9
  6
CONTINUOUS
 10
7.2365542381
 20
8.9924302655
 11
6.6388304474
 21
8.9924302655
  0
LINE
  5
28D
100
AcDbEntity
  8
0
100
AcDbLine
 62
9
  6
CONTINUOUS
 10
14.6388304474
 20
8.9924302655
 11
15.2365405998
 21
8.9924282975
  0
LINE
  5
28E
100
AcDbEntity
  8
0
100
AcDbLine
 62
7
  6
CONTINUOUS
 10
15.2299275885
 20
8.9949411055
 11
14.645457097
 21
8.9949411055
  0
LINE
  5
28F
100
AcDbEntity
  8
0
100
AcDbLine
 62
7
  6
CONTINUOUS
 10
7.2299275885
 20
8.9949411055
 11
6.645457097
 21
8.9949411055
  0
LINE
  5
290
100
AcDbEntity
  8
0
100
AcDbLine
 62
9
  6
CONTINUOUS
 10
6.6576923427
 20
9.0149411055
 11
7.2176923427
 21
9.0149411055
  0
LINE
  5
291
100
AcDbEntity
  8
0
100
AcDbLine
 62
9
  6
CONTINUOUS
 10
14.6576923427
 20
9.0149411055
 11
15.2176923427
 21
9.0149411055
  0
LINE
  5
292
100
AcDbEntity
  8
0
100
AcDbLine
 62
9
  6
CONTINUOUS
 10
15.2176923427
 20
9.0217971356
 11
14.6576923427
 21
9.0217971356
  0
LINE
  5
293
100
AcDbEntity
  8
0
100
AcDbLine
 62
9
  6
CONTINUOUS
 10
7.2176923427
 20
9.0217971356
 11
6.6576923427
 21
9.0217971356
  0
LINE
  5
294
100
AcDbEntity
  8
0
100
AcDbLine
 62
9
  6
CONTINUOUS
 10
10.4422220102
 20
9.056562265
 11
11.4331626752
 21
9.056562265
  0
LINE
  5
295
100
AcDbEntity
  8
0
100
AcDbLine
 62
9
  6
CONTINUOUS
 10
6.7118858909
 20
9.0975204942
 11
7.1634987945
 21
9.0975204942
  0
LINE
  5
296
100
AcDbEntity
  8
0
100
AcDbLine
 62
9
  6
CONTINUOUS
 10
14.7118858909
 20
9.0975204942
 11
15.1634987945
 21
9.0975204942
  0
LINE
  5
297
100
AcDbEntity
  8
0
100
AcDbLine
 62
7
  6
CONTINUOUS
 10
3.8376923427
 20
9.1462191554
 11
3.8157894712
 21
9.1462191554
  0
LINE
  5
298
100
AcDbEntity
  8
0
100
AcDbLine
 62
7
  6
CONTINUOUS
 10
18.0376923427
 20
9.1462191554
 11
18.0595952143
 21
9.1462191554
  0
LINE
  5
299
100
AcDbEntity
  8
0
100
AcDbLine
 62
7
  6
CONTINUOUS
 10
11.0136923427
 20
9.8341390024
 11
11.0136923427
 21
9.8088618012
  0
LINE
  5
29A
100
AcDbEntity
  8
0
100
AcDbLine
 62
7
  6
CONTINUOUS
 10
11.0136923427
 20
9.8390832743
 11
11.0136923427
 21
9.8434372321
  0
LINE
  5
29B
100
AcDbEntity
  8
0
100
AcDbLine
 62
7
  6
CONTINUOUS
 10
11.0296923427
 20
9.8434372321
 11
11.0296923427
 21
9.8390832743
  0
LINE
  5
29C
100
AcDbEntity
  8
0
100
AcDbLine
 62
7
  6
CONTINUOUS
 10
11.0296923427
 20
9.8088618012
 11
11.0296923427
 21
9.8341390024
  0
LINE
  5
29D
100
AcDbEntity
  8
0
100
AcDbLine
 62
7
  6
CONTINUOUS
 10
11.0976923427
 20
9.8341390024
 11
11.0976923427
 21
9.8088618012
  0
LINE
  5
29E
100
AcDbEntity
  8
0
100
AcDbLine
 62
7
  6
CONTINUOUS
 10
11.0976923427
 20
9.8390832743
 11
11.0976923427
 21
9.8434372321
  0
LINE
  5
29F
100
AcDbEntity
  8
0
100
AcDbLine
 62
7
  6
CONTINUOUS
 10
11.1136923427
 20
9.8434372321
 11
11.1136923427
 21
9.8390832743
  0
LINE
  5
2A0
100
AcDbEntity
  8
0
100
AcDbLine
 62
7
  6
CONTINUOUS
 10
11.1136923427
 20
9.8088618012
 11
11.1136923427
 21
9.8341390024
  0
LINE
  5
2A1
100
AcDbEntity
  8
0
100
AcDbLine
 62
7
  6
CONTINUOUS
 10
11.1626923427
 20
12.2611695021
 11
11.1626923427
 21
12.1511695021
  0
LINE
  5
2A2
100
AcDbEntity
  8
0
100
AcDbLine
 62
7
  6
CONTINUOUS
 10
11.1816923427
 20
9.8341390024
 11
11.1816923427
 21
9.8088618012
  0
LINE
  5
2A3
100
AcDbEntity
  8
0
100
AcDbLine
 62
7
  6
CONTINUOUS
 10
11.1816923427
 20
9.8390832743
 11
11.1816923427
 21
9.8434372321
  0
LINE
  5
2A4
100
AcDbEntity
  8
0
100
AcDbLine
 62
7
  6
CONTINUOUS
 10
11.1976923427
 20
9.8434372321
 11
11.1976923427
 21
9.8390832743
  0
LINE
  5
2A5
100
AcDbEntity
  8
0
100
AcDbLine
 62
7
  6
CONTINUOUS
 10
11.1976923427
 20
9.8088618012
 11
11.1976923427
 21
9.8341390024
  0
LINE
  5
2A6
100
AcDbEntity
  8
0
100
AcDbLine
 62
7
  6
CONTINUOUS
 10
11.2656923427
 20
9.8341390024
 11
11.2656923427
 21
9.8088618012
  0
LINE
  5
2A7
100
AcDbEntity
  8
0
100
AcDbLine
 62
7
  6
CONTINUOUS
 10
11.2656923427
 20
9.8390832743
 11
11.2656923427
 21
9.8434372321
  0
LINE
  5
2A8
100
AcDbEntity
  8
0
100
AcDbLine
 62
7
  6
CONTINUOUS
 10
11.2816923427
 20
9.8434372321
 11
11.2816923427
 21
9.8390832743
  0
LINE
  5
2A9
100
AcDbEntity
  8
0
100
AcDbLine
 62
7
  6
CONTINUOUS
 10
11.2816923427
 20
9.8088618012
 11
11.2816923427
 21
9.8341390024
  0
LINE
  5
2AA
100
AcDbEntity
  8
0
100
AcDbLine
 62
7
  6
CONTINUOUS
 10
11.3496923427
 20
9.8341390024
 11
11.3496923427
 21
9.8088618012
  0
LINE
  5
2AB
100
AcDbEntity
  8
0
100
AcDbLine
 62
7
  6
CONTINUOUS
 10
11.3496923427
 20
9.8390832743
 11
11.3496923427
 21
9.8434372321
  0
LINE
  5
2AC
100
AcDbEntity
  8
0
100
AcDbLine
 62
9
  6
CONTINUOUS
 10
11.3647887994
 20
9.848381504
 11
11.3647887994
 21
9.855870138
  0
LINE
  5
2AD
100
AcDbEntity
  8
0
100
AcDbLine
 62
9
  6
CONTINUOUS
 10
11.3647887994
 20
9.8680361614
 11
11.3647887994
 21
9.8731740186
  0
LINE
  5
2AE
100
AcDbEntity
  8
0
100
AcDbLine
 62
9
  6
CONTINUOUS
 10
11.3648576971
 20
9.7879385579
 11
11.3648576971
 21
9.8088618012
  0
LINE
  5
2AF
100
AcDbEntity
  8
0
100
AcDbLine
 62
7
  6
CONTINUOUS
 10
11.3656923427
 20
9.8434372321
 11
11.3656923427
 21
9.8390832743
  0
LINE
  5
2B0
100
AcDbEntity
  8
0
100
AcDbLine
 62
7
  6
CONTINUOUS
 10
11.3656923427
 20
9.8088632172
 11
11.3656923427
 21
9.8341390024
  0
LINE
  5
2B1
100
AcDbEntity
  8
0
100
AcDbLine
 62
9
  6
CONTINUOUS
 10
11.368904938
 20
9.7731790395
 11
11.3689049382
 21
9.7783168964
  0
LINE
  5
2B2
100
AcDbEntity
  8
0
100
AcDbLine
 62
7
  6
CONTINUOUS
 10
11.3976923427
 20
12.1111695021
 11
11.3976923427
 21
12.0011695021
  0
LINE
  5
2B3
100
AcDbEntity
  8
0
100
AcDbLine
 62
7
  6
CONTINUOUS
 10
11.4408769107
 20
9.8114297868
 11
11.4408769107
 21
9.8199460032
  0
LINE
  5
2B4
100
AcDbEntity
  8
0
100
AcDbLine
 62
7
  6
CONTINUOUS
 10
11.4426923427
 20
12.6011695021
 11
11.4426923427
 21
12.5211695021
  0
LINE
  5
2B5
100
AcDbEntity
  8
0
100
AcDbLine
 62
7
  6
CONTINUOUS
 10
11.4568769107
 20
9.8274133466
 11
11.4568769107
 21
9.8114297868
  0
LINE
  5
2B6
100
AcDbEntity
  8
0
100
AcDbLine
 62
7
  6
CONTINUOUS
 10
11.4829679333
 20
9.8556808932
 11
11.4829679333
 21
9.8527437029
  0
LINE
  5
2B7
100
AcDbEntity
  8
0
100
AcDbLine
 62
7
  6
CONTINUOUS
 10
11.4888734449
 20
9.8431883843
 11
11.4888734449
 21
9.8515106603
  0
LINE
  5
2B8
100
AcDbEntity
  8
0
100
AcDbLine
 62
7
  6
CONTINUOUS
 10
11.4962469895
 20
9.8274133466
 11
11.4962469895
 21
9.8189184208
  0
LINE
  5
2B9
100
AcDbEntity
  8
0
100
AcDbLine
 62
7
  6
CONTINUOUS
 10
11.5128734448
 20
9.8176677528
 11
11.5128734449
 21
9.828685305
  0
LINE
  5
2BA
100
AcDbEntity
  8
0
100
AcDbLine
 62
7
  6
CONTINUOUS
 10
10.5064797418
 20
9.7731790393
 11
11.3689049433
 21
9.7731790393
  0
LINE
  5
2BB
100
AcDbEntity
  8
0
100
AcDbLine
 62
7
  6
CONTINUOUS
 10
11.3648576971
 20
9.7783168965
 11
10.5105269884
 21
9.7783168965
  0
LINE
  5
2BC
100
AcDbEntity
  8
0
100
AcDbLine
 62
7
  6
CONTINUOUS
 10
11.3648576971
 20
9.782994286
 11
10.5105269884
 21
9.782994286
  0
LINE
  5
2BD
100
AcDbEntity
  8
0
100
AcDbLine
 62
7
  6
CONTINUOUS
 10
10.5105269884
 20
9.7879385579
 11
11.3648576971
 21
9.7879385579
  0
LINE
  5
2BE
100
AcDbEntity
  8
0
100
AcDbLine
 62
7
  6
CONTINUOUS
 10
11.3648576971
 20
9.8088618012
 11
11.3496923427
 21
9.8088618012
  0
LINE
  5
2BF
100
AcDbEntity
  8
0
100
AcDbLine
 62
7
  6
CONTINUOUS
 10
11.2816923427
 20
9.8088618012
 11
11.2656923427
 21
9.8088618012
  0
LINE
  5
2C0
100
AcDbEntity
  8
0
100
AcDbLine
 62
7
  6
CONTINUOUS
 10
11.1976923427
 20
9.8088618012
 11
11.1816923427
 21
9.8088618012
  0
LINE
  5
2C1
100
AcDbEntity
  8
0
100
AcDbLine
 62
7
  6
CONTINUOUS
 10
11.1136923427
 20
9.8088618012
 11
11.0976923427
 21
9.8088618012
  0
LINE
  5
2C2
100
AcDbEntity
  8
0
100
AcDbLine
 62
7
  6
CONTINUOUS
 10
11.0296923427
 20
9.8088618012
 11
11.0136923427
 21
9.8088618012
  0
LINE
  5
2C3
100
AcDbEntity
  8
0
100
AcDbLine
 62
7
  6
CONTINUOUS
 10
10.9456923427
 20
9.8088618012
 11
10.9296923427
 21
9.8088618012
  0
LINE
  5
2C4
100
AcDbEntity
  8
0
100
AcDbLine
 62
7
  6
CONTINUOUS
 10
10.8616923427
 20
9.8088618012
 11
10.8456923427
 21
9.8088618012
  0
LINE
  5
2C5
100
AcDbEntity
  8
0
100
AcDbLine
 62
7
  6
CONTINUOUS
 10
10.7776923427
 20
9.8088618012
 11
10.7616923427
 21
9.8088618012
  0
LINE
  5
2C6
100
AcDbEntity
  8
0
100
AcDbLine
 62
7
  6
CONTINUOUS
 10
10.6936923427
 20
9.8088618012
 11
10.6776923427
 21
9.8088618012
  0
LINE
  5
2C7
100
AcDbEntity
  8
0
100
AcDbLine
 62
7
  6
CONTINUOUS
 10
10.6096923427
 20
9.8088618012
 11
10.5936923427
 21
9.8088618012
  0
LINE
  5
2C8
100
AcDbEntity
  8
0
100
AcDbLine
 62
7
  6
CONTINUOUS
 10
10.5256923427
 20
9.8088618012
 11
10.5105269884
 21
9.8088618012
  0
LINE
  5
2C9
100
AcDbEntity
  8
0
100
AcDbLine
 62
7
  6
CONTINUOUS
 10
10.9296923427
 20
9.8341390024
 11
10.8616923427
 21
9.8341390024
  0
LINE
  5
2CA
100
AcDbEntity
  8
0
100
AcDbLine
 62
7
  6
CONTINUOUS
 10
10.8456923427
 20
9.8341390024
 11
10.7776923427
 21
9.8341390024
  0
LINE
  5
2CB
100
AcDbEntity
  8
0
100
AcDbLine
 62
7
  6
CONTINUOUS
 10
10.7616923427
 20
9.8341390024
 11
10.6936923427
 21
9.8341390024
  0
LINE
  5
2CC
100
AcDbEntity
  8
0
100
AcDbLine
 62
7
  6
CONTINUOUS
 10
10.6776923427
 20
9.8341390024
 11
10.6096923427
 21
9.8341390024
  0
LINE
  5
2CD
100
AcDbEntity
  8
0
100
AcDbLine
 62
7
  6
CONTINUOUS
 10
10.5936923427
 20
9.8341390024
 11
10.5256923427
 21
9.8341390024
  0
LINE
  5
2CE
100
AcDbEntity
  8
0
100
AcDbLine
 62
7
  6
CONTINUOUS
 10
10.5096923427
 20
9.8341390024
 11
10.45035059
 21
9.8341390024
  0
LINE
  5
2CF
100
AcDbEntity
  8
0
100
AcDbLine
 62
7
  6
CONTINUOUS
 10
10.9456923427
 20
9.8341390024
 11
11.0136923427
 21
9.8341390024
  0
LINE
  5
2D0
100
AcDbEntity
  8
0
100
AcDbLine
 62
7
  6
CONTINUOUS
 10
11.0296923427
 20
9.8341390024
 11
11.0976923427
 21
9.8341390024
  0
LINE
  5
2D1
100
AcDbEntity
  8
0
100
AcDbLine
 62
7
  6
CONTINUOUS
 10
11.1136923427
 20
9.8341390024
 11
11.1816923427
 21
9.8341390024
  0
LINE
  5
2D2
100
AcDbEntity
  8
0
100
AcDbLine
 62
7
  6
CONTINUOUS
 10
11.1976923427
 20
9.8341390024
 11
11.2656923427
 21
9.8341390024
  0
LINE
  5
2D3
100
AcDbEntity
  8
0
100
AcDbLine
 62
7
  6
CONTINUOUS
 10
11.2816923427
 20
9.8341390024
 11
11.3496923427
 21
9.8341390024
  0
LINE
  5
2D4
100
AcDbEntity
  8
0
100
AcDbLine
 62
7
  6
CONTINUOUS
 10
11.3656923427
 20
9.8341390024
 11
11.4250341452
 21
9.8341390024
  0
LINE
  5
2D5
100
AcDbEntity
  8
0
100
AcDbLine
 62
7
  6
CONTINUOUS
 10
10.9296923427
 20
9.8390832743
 11
10.8616923427
 21
9.8390832743
  0
LINE
  5
2D6
100
AcDbEntity
  8
0
100
AcDbLine
 62
7
  6
CONTINUOUS
 10
10.8456923427
 20
9.8390832743
 11
10.7776923427
 21
9.8390832743
  0
LINE
  5
2D7
100
AcDbEntity
  8
0
100
AcDbLine
 62
7
  6
CONTINUOUS
 10
10.7616923427
 20
9.8390832743
 11
10.6936923427
 21
9.8390832743
  0
LINE
  5
2D8
100
AcDbEntity
  8
0
100
AcDbLine
 62
7
  6
CONTINUOUS
 10
10.6776923427
 20
9.8390832743
 11
10.6096923427
 21
9.8390832743
  0
LINE
  5
2D9
100
AcDbEntity
  8
0
100
AcDbLine
 62
7
  6
CONTINUOUS
 10
10.5936923427
 20
9.8390832743
 11
10.5256923427
 21
9.8390832743
  0
LINE
  5
2DA
100
AcDbEntity
  8
0
100
AcDbLine
 62
7
  6
CONTINUOUS
 10
10.5096923427
 20
9.8390832743
 11
10.4667329771
 21
9.8390832743
  0
LINE
  5
2DB
100
AcDbEntity
  8
0
100
AcDbLine
 62
7
  6
CONTINUOUS
 10
10.9456923427
 20
9.8390832743
 11
11.0136923427
 21
9.8390832743
  0
LINE
  5
2DC
100
AcDbEntity
  8
0
100
AcDbLine
 62
7
  6
CONTINUOUS
 10
11.0296923427
 20
9.8390832743
 11
11.0976923427
 21
9.8390832743
  0
LINE
  5
2DD
100
AcDbEntity
  8
0
100
AcDbLine
 62
7
  6
CONTINUOUS
 10
11.1136923427
 20
9.8390832743
 11
11.1816923427
 21
9.8390832743
  0
LINE
  5
2DE
100
AcDbEntity
  8
0
100
AcDbLine
 62
7
  6
CONTINUOUS
 10
11.1976923427
 20
9.8390832743
 11
11.2656923427
 21
9.8390832743
  0
LINE
  5
2DF
100
AcDbEntity
  8
0
100
AcDbLine
 62
7
  6
CONTINUOUS
 10
11.2816923427
 20
9.8390832743
 11
11.3496923427
 21
9.8390832743
  0
LINE
  5
2E0
100
AcDbEntity
  8
0
100
AcDbLine
 62
7
  6
CONTINUOUS
 10
11.3656923427
 20
9.8390832743
 11
11.408651579
 21
9.8390832743
  0
LINE
  5
2E1
100
AcDbEntity
  8
0
100
AcDbLine
 62
7
  6
CONTINUOUS
 10
11.3648576971
 20
9.8434372321
 11
10.5105269884
 21
9.8434372321
  0
LINE
  5
2E2
100
AcDbEntity
  8
0
100
AcDbLine
 62
7
  6
CONTINUOUS
 10
10.5105269884
 20
9.848381504
 11
11.3647887994
 21
9.848381504
  0
LINE
  5
2E3
100
AcDbEntity
  8
0
100
AcDbLine
 62
7
  6
CONTINUOUS
 10
10.5105269884
 20
9.855870138
 11
11.3647887994
 21
9.855870138
  0
LINE
  5
2E4
100
AcDbEntity
  8
0
100
AcDbLine
 62
7
  6
CONTINUOUS
 10
10.5105269884
 20
9.8680361614
 11
11.3647887994
 21
9.8680361614
  0
LINE
  5
2E5
100
AcDbEntity
  8
0
100
AcDbLine
 62
7
  6
CONTINUOUS
 10
11.3689049437
 20
9.8731740186
 11
10.5064797422
 21
9.8731740187
  0
LINE
  5
2E6
100
AcDbEntity
  8
0
100
AcDbLine
 62
7
  6
CONTINUOUS
 10
11.7176923427
 20
10.4206160266
 11
11.7176923427
 21
10.3399107039
  0
LINE
  5
2E7
100
AcDbEntity
  8
0
100
AcDbLine
 62
7
  6
CONTINUOUS
 10
11.7626923427
 20
6.5864906693
 11
11.7626923427
 21
6.5511695021
  0
LINE
  5
2E8
100
AcDbEntity
  8
0
100
AcDbLine
 62
7
  6
CONTINUOUS
 10
11.8226923427
 20
6.4911695021
 11
11.8226923427
 21
6.2741695021
  0
LINE
  5
2E9
100
AcDbEntity
  8
0
100
AcDbLine
 62
9
  6
CONTINUOUS
 10
11.6668963009
 20
10.2588980473
 11
11.6608142027
 21
10.2588980473
  0
LINE
  5
2EA
100
AcDbEntity
  8
0
100
AcDbLine
 62
9
  6
CONTINUOUS
 10
10.2145704828
 20
10.2588980473
 11
10.2084883846
 21
10.2588980473
  0
LINE
  5
2EB
100
AcDbEntity
  8
0
100
AcDbLine
 62
9
  6
CONTINUOUS
 10
10.1576923427
 20
10.3399107039
 11
10.2364757891
 21
10.3399107039
  0
LINE
  5
2EC
100
AcDbEntity
  8
0
100
AcDbLine
 62
9
  6
CONTINUOUS
 10
11.6389088963
 20
10.3399107039
 11
11.7176923427
 21
10.3399107039
  0
LINE
  5
2ED
100
AcDbEntity
  8
0
100
AcDbLine
 62
9
  6
CONTINUOUS
 10
11.4929144722
 20
9.8366498649
 11
11.5128734448
 21
9.8176677539
  0
LINE
  5
2EE
100
AcDbEntity
  8
0
100
AcDbLine
 62
9
  6
CONTINUOUS
 10
11.5128734449
 20
9.8286853036
 11
11.4888734449
 21
9.8515106603
  0
LINE
  5
2EF
100
AcDbEntity
  8
0
100
AcDbLine
 62
7
  6
CONTINUOUS
 10
11.4808698928
 20
9.8561384037
 11
11.4939132052
 21
9.8350338809
  0
LINE
  5
2F0
100
AcDbEntity
  8
0
100
AcDbLine
 62
7
  6
CONTINUOUS
 10
11.4939130915
 20
9.8350338742
 11
11.4962469895
 21
9.8274133466
  0
LINE
  5
2F1
100
AcDbEntity
  8
0
100
AcDbLine
 62
7
  6
CONTINUOUS
 10
11.4767950742
 20
10.9023499958
 11
11.4556625962
 21
10.9727578754
  0
LWPOLYLINE
  5
2F2
100
AcDbEntity
  8
0
100
AcDbPolyline
 62
7
  6
CONTINUOUS
 90
6
 70
0
 10
11.4556602747
 20
10.9727656009
 10
11.4266502378
 20
11.069598622
 10
11.4052869309
 20
11.1418811456
 10
11.3912011745
 20
11.1909488866
 10
11.3835195686
 20
11.219221959
 10
11.3821394725
 20
11.2245911064
  0
LWPOLYLINE
  5
2F3
100
AcDbEntity
  8
0
100
AcDbPolyline
 62
7
  6
CONTINUOUS
 90
5
 70
0
 10
11.6451690961
 20
10.3172714183
 10
11.5970006013
 20
10.4914671879
 10
11.5514561055
 20
10.6503192676
 10
11.5107677316
 20
10.7885933055
 10
11.4767953429
 20
10.9023490989
  0
LWPOLYLINE
  5
2F4
100
AcDbEntity
  8
0
100
AcDbPolyline
 62
7
  6
CONTINUOUS
 90
3
 70
0
 10
11.6584834475
 20
10.2677783401
 10
11.6544353758
 20
10.2828926368
 10
11.6451689404
 20
10.3172719936
  0
LWPOLYLINE
  5
2F5
100
AcDbEntity
  8
0
100
AcDbPolyline
 62
7
  6
CONTINUOUS
 90
4
 70
0
 10
11.7622253556
 20
9.8547157556
 10
11.7284546228
 20
9.995465517
 10
11.6928355202
 20
10.1368953326
 10
11.6584833461
 20
10.2677787196
  0
LINE
  5
2F6
100
AcDbEntity
  8
0
100
AcDbLine
 62
7
  6
CONTINUOUS
 10
11.7620313311
 20
9.8547109776
 11
11.7626923427
 21
9.8506535955
  0
LINE
  5
2F7
100
AcDbEntity
  8
0
100
AcDbLine
 62
7
  6
CONTINUOUS
 10
12.1376923427
 20
5.9423189319
 11
12.1376923427
 21
5.8241695021
  0
LINE
  5
2F8
100
AcDbEntity
  8
0
100
AcDbLine
 62
7
  6
CONTINUOUS
 10
9.9141949518
 20
6.1710607102
 11
9.7913941369
 21
6.0619044303
  0
LINE
  5
2F9
100
AcDbEntity
  8
0
100
AcDbLine
 62
9
  6
CONTINUOUS
 10
11.7176923427
 20
10.4206160271
 11
11.6165923157
 21
10.4206160271
  0
LINE
  5
2FA
100
AcDbEntity
  8
0
100
AcDbLine
 62
9
  6
CONTINUOUS
 10
10.2587923698
 20
10.4206160271
 11
10.1576923427
 21
10.4206160271
  0
LINE
  5
2FB
100
AcDbEntity
  8
0
100
AcDbLine
 62
9
  6
CONTINUOUS
 10
10.1824020416
 20
10.4691401922
 11
10.2722102386
 21
10.4691401922
  0
LINE
  5
2FC
100
AcDbEntity
  8
0
100
AcDbLine
 62
9
  6
CONTINUOUS
 10
11.6031744468
 20
10.4691401922
 11
11.6929826439
 21
10.4691401922
  0
LINE
  5
2FD
100
AcDbEntity
  8
0
100
AcDbLine
 62
7
  6
CONTINUOUS
 10
11.5798019392
 20
10.551453432
 11
11.6929826439
 21
10.4691401922
  0
LINE
  5
2FE
100
AcDbEntity
  8
0
100
AcDbLine
 62
9
  6
CONTINUOUS
 10
10.5201119307
 20
11.9241297765
 11
11.3552722507
 21
11.924130059
  0
LINE
  5
2FF
100
AcDbEntity
  8
0
100
AcDbLine
 62
9
  6
CONTINUOUS
 10
10.5128316304
 20
11.9614659321
 11
11.3625530551
 21
11.9614659321
  0
LINE
  5
300
100
AcDbEntity
  8
0
100
AcDbLine
 62
9
  6
CONTINUOUS
 10
10.4776923427
 20
12.0011695021
 11
11.3976923427
 21
12.0011695021
  0
LINE
  5
301
100
AcDbEntity
  8
0
100
AcDbLine
 62
7
  6
CONTINUOUS
 10
13.8376923427
 20
5.9336685199
 11
13.8376923427
 21
5.8241695021
  0
LINE
  5
302
100
AcDbEntity
  8
0
100
AcDbLine
 62
7
  6
CONTINUOUS
 10
14.1926923427
 20
6.4641695021
 11
14.1926923427
 21
6.2541695021
  0
LINE
  5
303
100
AcDbEntity
  8
0
100
AcDbLine
 62
7
  6
CONTINUOUS
 10
14.2276923427
 20
6.5341695021
 11
14.2276923427
 21
6.4641695021
  0
LINE
  5
304
100
AcDbEntity
  8
0
100
AcDbLine
 62
9
  6
CONTINUOUS
 10
11.3976923427
 20
12.1111695021
 11
10.4776923427
 21
12.1111695021
  0
LINE
  5
305
100
AcDbEntity
  8
0
100
AcDbLine
 62
7
  6
CONTINUOUS
 10
11.357685743
 20
12.1511695021
 11
10.5176923427
 21
12.1511695021
  0
LINE
  5
306
100
AcDbEntity
  8
0
100
AcDbLine
 62
7
  6
CONTINUOUS
 10
11.1626923427
 20
12.2611695021
 11
10.7126923427
 21
12.2611695021
  0
LINE
  5
307
100
AcDbEntity
  8
0
100
AcDbLine
 62
7
  6
CONTINUOUS
 10
11.4226923427
 20
12.5011695021
 11
10.4526923427
 21
12.5011695021
  0
LINE
  5
308
100
AcDbEntity
  8
0
100
AcDbLine
 62
9
  6
CONTINUOUS
 10
10.4326923427
 20
12.5211695021
 11
11.4426923427
 21
12.5211695021
  0
LINE
  5
309
100
AcDbEntity
  8
0
100
AcDbLine
 62
7
  6
CONTINUOUS
 10
14.4876923427
 20
7.9841695021
 11
14.4876923427
 21
7.9141695021
  0
LINE
  5
30A
100
AcDbEntity
  8
0
100
AcDbLine
 62
7
  6
CONTINUOUS
 10
14.6076923427
 20
8.0641695021
 11
14.6076923427
 21
7.9941695021
  0
LINE
  5
30B
100
AcDbEntity
  8
0
100
AcDbLine
 62
7
  6
CONTINUOUS
 10
14.6576923427
 20
9.0217971355
 11
14.6576923427
 21
9.0149411055
  0
LINE
  5
30C
100
AcDbEntity
  8
0
100
AcDbLine
 62
7
  6
CONTINUOUS
 10
14.6791923427
 20
8.2941695021
 11
14.6791923427
 21
8.0741695021
  0
LINE
  5
30D
100
AcDbEntity
  8
0
100
AcDbLine
 62
9
  6
CONTINUOUS
 10
11.4426923427
 20
12.6011695021
 11
10.4326923427
 21
12.6011695021
  0
LINE
  5
30E
100
AcDbEntity
  8
0
100
AcDbLine
 62
7
  6
CONTINUOUS
 10
11.4226923427
 20
12.6211695021
 11
10.4526927055
 21
12.6211695021
  0
LINE
  5
30F
100
AcDbEntity
  8
0
100
AcDbLine
 62
7
  6
CONTINUOUS
 10
15.1961923427
 20
8.2941695021
 11
15.1961923427
 21
8.0741695021
  0
LINE
  5
310
100
AcDbEntity
  8
0
100
AcDbLine
 62
7
  6
CONTINUOUS
 10
15.2176923427
 20
9.0217971355
 11
15.2176923427
 21
9.0149411055
  0
LINE
  5
311
100
AcDbEntity
  8
0
100
AcDbLine
 62
7
  6
CONTINUOUS
 10
15.2676923427
 20
8.0641695021
 11
15.2676923427
 21
7.9941695021
  0
LINE
  5
312
100
AcDbEntity
  8
0
100
AcDbLine
 62
7
  6
CONTINUOUS
 10
15.3256923427
 20
8.8853187265
 11
15.3256923427
 21
8.4240195843
  0
LINE
  5
313
100
AcDbEntity
  8
0
100
AcDbLine
 62
7
  6
CONTINUOUS
 10
15.3876923427
 20
7.9841695021
 11
15.3876923427
 21
7.9141695021
  0
LINE
  5
314
100
AcDbEntity
  8
0
100
AcDbLine
 62
7
  6
CONTINUOUS
 10
15.4276923427
 20
8.39167178
 11
15.4276923427
 21
8.9176660189
  0
LINE
  5
315
100
AcDbEntity
  8
0
100
AcDbLine
 62
9
  6
CONTINUOUS
 10
15.4746945691
 20
8.3522894384
 11
15.4746945691
 21
8.9570488724
  0
LINE
  5
316
100
AcDbEntity
  8
0
100
AcDbLine
 62
7
  6
CONTINUOUS
 10
15.6476923427
 20
6.5341695021
 11
15.6476923427
 21
6.4641695021
  0
LINE
  5
317
100
AcDbEntity
  8
0
100
AcDbLine
 62
7
  6
CONTINUOUS
 10
15.6826923427
 20
6.4641695021
 11
15.6826923427
 21
6.2541695021
  0
LINE
  5
318
100
AcDbEntity
  8
0
100
AcDbLine
 62
9
  6
CONTINUOUS
 10
15.7423169518
 20
8.3279651813
 11
15.7423169518
 21
8.9813731295
  0
LINE
  5
319
100
AcDbEntity
  8
0
100
AcDbLine
 62
7
  6
CONTINUOUS
 10
15.822692343
 20
8.3756691554
 11
15.822692343
 21
8.6546691554
  0
LINE
  5
31A
100
AcDbEntity
  8
0
100
AcDbLine
 62
7
  6
CONTINUOUS
 10
15.822692343
 20
8.6547376798
 11
15.822692343
 21
8.9336691554
  0
LINE
  5
31B
100
AcDbEntity
  8
0
100
AcDbLine
 62
7
  6
CONTINUOUS
 10
16.0376923427
 20
5.9336685199
 11
16.0376923427
 21
5.8241695021
  0
LINE
  5
31C
100
AcDbEntity
  8
0
100
AcDbLine
 62
7
  6
CONTINUOUS
 10
17.9976923427
 20
8.2031191554
 11
17.9976923427
 21
9.1062187292
  0
LINE
  5
31D
100
AcDbEntity
  8
0
100
AcDbLine
 62
9
  6
CONTINUOUS
 10
18.0376923427
 20
9.1462191554
 11
18.0376923427
 21
8.1631191554
  0
LINE
  5
31E
100
AcDbEntity
  8
0
100
AcDbLine
 62
9
  6
CONTINUOUS
 10
18.059595215
 20
8.1631191554
 11
18.059595215
 21
9.1462191554
  0
LINE
  5
31F
100
AcDbEntity
  8
0
100
AcDbLine
 62
9
  6
CONTINUOUS
 10
18.1176465371
 20
8.2079519567
 11
18.1176465371
 21
9.1013863541
  0
LINE
  5
320
100
AcDbEntity
  8
0
100
AcDbLine
 62
9
  6
CONTINUOUS
 10
18.2152050372
 20
8.3583375163
 11
18.2152050372
 21
8.9510007945
  0
LINE
  5
321
100
AcDbEntity
  8
0
100
AcDbLine
 62
7
  6
CONTINUOUS
 10
18.2376923427
 20
8.4051648348
 11
18.2376923427
 21
8.904173476
  0
ARC
  5
322
100
AcDbEntity
  8
0
100
AcDbCircle
 62
7
  6
CONTINUOUS
 10
1.8647975264
 20
-32.8570180488
 40
42.0
100
AcDbArc
 50
84.2774261875
 51
87.2529863377
  0
ARC
  5
323
100
AcDbEntity
  8
0
100
AcDbCircle
 62
7
  6
CONTINUOUS
 10
1.9865962936
 20
8.1891559356
 40
8.5
100
AcDbArc
 50
5.8571043435
 51
10.729872964
  0
ARC
  5
324
100
AcDbEntity
  8
0
100
AcDbCircle
 62
7
  6
CONTINUOUS
 10
4.2745891346
 20
8.4238658836
 40
6.2
100
AcDbArc
 50
354.1428956565
 51
5.8571043435
  0
ARC
  5
325
100
AcDbEntity
  8
0
100
AcDbCircle
 62
7
  6
CONTINUOUS
 10
7.0599717236
 20
8.1381320339
 40
3.4
100
AcDbArc
 50
334.7686002164
 51
354.1428956565
  0
ARC
  5
326
100
AcDbEntity
  8
0
100
AcDbCircle
 62
7
  6
CONTINUOUS
 10
8.4817668731
 20
7.1139613155
 40
1.2
100
AcDbArc
 50
149.9606392759
 51
164.581171616
  0
ARC
  5
327
100
AcDbEntity
  8
0
100
AcDbCircle
 62
7
  6
CONTINUOUS
 10
5.3936178123
 20
7.1139613155
 40
1.2
100
AcDbArc
 50
15.418828384
 51
30.0393607241
  0
ARC
  5
328
100
AcDbEntity
  8
0
100
AcDbCircle
 62
7
  6
CONTINUOUS
 10
5.6538999955
 20
7.1857470043
 40
0.93
100
AcDbArc
 50
340.053415241
 51
15.418828384
  0
ARC
  5
329
100
AcDbEntity
  8
0
100
AcDbCircle
 62
7
  6
CONTINUOUS
 10
8.22148469
 20
7.1857470043
 40
0.93
100
AcDbArc
 50
164.581171616
 51
199.946584759
  0
ARC
  5
32A
100
AcDbEntity
  8
0
100
AcDbCircle
 62
7
  6
CONTINUOUS
 10
5.6966064116
 20
7.2891695021
 40
0.85
100
AcDbArc
 50
30.0393607241
 51
38.3803608088
  0
ARC
  5
32B
100
AcDbEntity
  8
0
100
AcDbCircle
 62
7
  6
CONTINUOUS
 10
8.1787782738
 20
7.2891695021
 40
0.85
100
AcDbArc
 50
141.6196391912
 51
149.9606392759
  0
ARC
  5
32C
100
AcDbEntity
  8
0
100
AcDbCircle
 62
7
  6
CONTINUOUS
 10
6.9376923427
 20
8.4349411055
 40
0.7
100
AcDbArc
 50
71.180936631
 51
108.819063369
  0
ARC
  5
32D
100
AcDbEntity
  8
0
100
AcDbCircle
 62
7
  6
CONTINUOUS
 10
5.964103648
 20
7.0731695021
 40
0.6
100
AcDbArc
 50
296.0601511633
 51
340.053415241
  0
ARC
  5
32E
100
AcDbEntity
  8
0
100
AcDbCircle
 62
7
  6
CONTINUOUS
 10
7.9112810375
 20
7.0731695021
 40
0.6
100
AcDbArc
 50
199.946584759
 51
243.9398488367
  0
ARC
  5
32F
100
AcDbEntity
  8
0
100
AcDbCircle
 62
7
  6
CONTINUOUS
 10
6.311411745
 20
7.850164581
 40
0.51
100
AcDbArc
 50
79.9181045501
 51
110.4686084913
  0
ARC
  5
330
100
AcDbEntity
  8
0
100
AcDbCircle
 62
7
  6
CONTINUOUS
 10
5.7105861234
 20
6.4658453168
 40
0.45
100
AcDbArc
 50
297.506143265
 51
330.466835469
  0
ARC
  5
331
100
AcDbEntity
  8
0
100
AcDbCircle
 62
7
  6
CONTINUOUS
 10
8.1647985621
 20
6.4658453168
 40
0.45
100
AcDbArc
 50
209.533164531
 51
242.493856735
  0
ARC
  5
332
100
AcDbEntity
  8
0
100
AcDbCircle
 62
7
  6
CONTINUOUS
 10
3.4819943719
 20
8.1359077357
 40
0.285
100
AcDbArc
 50
14.6424786005
 51
51.3022866217
  0
ARC
  5
333
100
AcDbEntity
  8
0
100
AcDbCircle
 62
7
  6
CONTINUOUS
 10
10.3526923427
 20
6.5864906693
 40
0.24
100
AcDbArc
 50
154.7686001822
 51
180.0
  0
ARC
  5
334
100
AcDbEntity
  8
0
100
AcDbCircle
 62
7
  6
CONTINUOUS
 10
9.7946094608
 20
6.3055943876
 40
0.18
100
AcDbArc
 50
311.6335453427
 51
341.0551091433
  0
ARC
  5
335
100
AcDbEntity
  8
0
100
AcDbCircle
 62
7
  6
CONTINUOUS
 10
9.8976923427
 20
5.9423189319
 40
0.16
100
AcDbArc
 50
131.6335393366
 51
180.0
  0
ARC
  5
336
100
AcDbEntity
  8
0
100
AcDbCircle
 62
7
  6
CONTINUOUS
 10
5.9876923427
 20
5.9336685199
 40
0.15
100
AcDbArc
 50
117.5061421611
 51
180.0
  0
ARC
  5
337
100
AcDbEntity
  8
0
100
AcDbCircle
 62
7
  6
CONTINUOUS
 10
7.8876923427
 20
5.9336685199
 40
0.15
100
AcDbArc
 50
0.0
 51
62.4938578389
  0
ARC
  5
338
100
AcDbEntity
  8
0
100
AcDbCircle
 62
7
  6
CONTINUOUS
 10
6.4099611621
 20
7.8541695021
 40
0.06
100
AcDbArc
 50
90.0
 51
218.3803609955
  0
ARC
  5
339
100
AcDbEntity
  8
0
100
AcDbCircle
 62
7
  6
CONTINUOUS
 10
7.4654235234
 20
7.8541695021
 40
0.06
100
AcDbArc
 50
321.6196390045
 51
90.0
  0
ARC
  5
33A
100
AcDbEntity
  8
0
100
AcDbCircle
 62
7
  6
CONTINUOUS
 10
3.6976923427
 20
8.4051648348
 40
0.06
100
AcDbArc
 50
180.0
 51
231.3022818139
  0
ARC
  5
33B
100
AcDbEntity
  8
0
100
AcDbCircle
 62
7
  6
CONTINUOUS
 10
3.8157894712
 20
8.2231191554
 40
0.06
100
AcDbArc
 50
194.6424776248
 51
270.0
  0
ARC
  5
33C
100
AcDbEntity
  8
0
100
AcDbCircle
 62
7
  6
CONTINUOUS
 10
6.1120860822
 20
8.3841770155
 40
0.06
100
AcDbArc
 50
188.151882932
 51
290.4686088224
  0
ARC
  5
33D
100
AcDbEntity
  8
0
100
AcDbCircle
 62
7
  6
CONTINUOUS
 10
10.1126923427
 20
6.4911695021
 40
0.06
100
AcDbArc
 50
90.0
 51
180.0
  0
ARC
  5
33E
100
AcDbEntity
  8
0
100
AcDbCircle
 62
7
  6
CONTINUOUS
 10
3.8376923427
 20
8.2031191554
 40
0.04
100
AcDbArc
 50
270.0
 51
360.0
  0
ARC
  5
33F
100
AcDbEntity
  8
0
100
AcDbCircle
 62
7
  6
CONTINUOUS
 10
6.4076923427
 20
8.39167178
 40
0.04
100
AcDbArc
 50
259.9181044226
 51
360.0
  0
ARC
  5
340
100
AcDbEntity
  8
0
100
AcDbCircle
 62
7
  6
CONTINUOUS
 10
10.0026923427
 20
6.2341695021
 40
0.04
100
AcDbArc
 50
90.0
 51
161.0551073477
  0
ARC
  5
341
100
AcDbEntity
  8
0
100
AcDbCircle
 62
7
  6
CONTINUOUS
 10
7.7558654174
 20
6.2341695021
 40
0.02
100
AcDbArc
 50
29.533164499
 51
89.9999984966
  0
ARC
  5
342
100
AcDbEntity
  8
0
100
AcDbCircle
 62
7
  6
CONTINUOUS
 10
6.1195192681
 20
6.2341695021
 40
0.02
100
AcDbArc
 50
90.0000015034
 51
150.466835501
  0
ARC
  5
343
100
AcDbEntity
  8
0
100
AcDbCircle
 62
7
  6
CONTINUOUS
 10
6.6176923427
 20
8.0641695021
 40
0.01
100
AcDbArc
 50
90.0
 51
180.0
  0
ARC
  5
344
100
AcDbEntity
  8
0
100
AcDbCircle
 62
7
  6
CONTINUOUS
 10
7.2576923427
 20
8.0641695021
 40
0.01
100
AcDbArc
 50
0.0
 51
90.0
  0
ARC
  5
345
100
AcDbEntity
  8
0
100
AcDbCircle
 62
7
  6
CONTINUOUS
 10
6.4976923427
 20
7.9841695021
 40
0.01
100
AcDbArc
 50
90.0
 51
180.0
  0
ARC
  5
346
100
AcDbEntity
  8
0
100
AcDbCircle
 62
7
  6
CONTINUOUS
 10
7.3776923427
 20
7.9841695021
 40
0.01
100
AcDbArc
 50
0.0
 51
90.0
  0
ARC
  5
347
100
AcDbEntity
  8
0
100
AcDbCircle
 62
7
  6
CONTINUOUS
 10
1.8647975264
 20
50.1663563597
 40
42.0
100
AcDbArc
 50
272.7470136623
 51
275.7225738125
  0
ARC
  5
348
100
AcDbEntity
  8
0
100
AcDbCircle
 62
7
  6
CONTINUOUS
 10
10.9376922786
 20
11.1723147063
 40
0.8599994453
100
AcDbArc
 50
119.0490506871
 51
222.6885744031
  0
ARC
  5
349
100
AcDbEntity
  8
0
100
AcDbCircle
 62
7
  6
CONTINUOUS
 10
10.862832759
 20
12.7808657885
 40
0.6
100
AcDbArc
 50
299.9845180961
 51
332.2146479711
  0
ARC
  5
34A
100
AcDbEntity
  8
0
100
AcDbCircle
 62
7
  6
CONTINUOUS
 10
6.311411745
 20
9.4591737298
 40
0.51
100
AcDbArc
 50
249.5313915087
 51
280.0818954499
  0
ARC
  5
34B
100
AcDbEntity
  8
0
100
AcDbCircle
 62
7
  6
CONTINUOUS
 10
6.9376923427
 20
8.6546691554
 40
0.451
100
AcDbArc
 50
306.9334449091
 51
48.4965643961
  0
ARC
  5
34C
100
AcDbEntity
  8
0
100
AcDbCircle
 62
7
  6
CONTINUOUS
 10
6.9376923427
 20
8.6546691554
 40
0.451
100
AcDbArc
 50
131.5034356039
 51
149.2728124246
  0
ARC
  5
34D
100
AcDbEntity
  8
0
100
AcDbCircle
 62
7
  6
CONTINUOUS
 10
6.9376923427
 20
8.6546691554
 40
0.451
100
AcDbArc
 50
210.7265056826
 51
233.0665550909
  0
ARC
  5
34E
100
AcDbEntity
  8
0
100
AcDbCircle
 62
7
  6
CONTINUOUS
 10
10.9376574144
 20
11.1741462651
 40
0.450025352
100
AcDbArc
 50
4.8631598169
 51
89.9955530389
  0
ARC
  5
34F
100
AcDbEntity
  8
0
100
AcDbCircle
 62
7
  6
CONTINUOUS
 10
10.8896354365
 20
11.1574999596
 40
0.4028688057
100
AcDbArc
 50
170.3928742864
 51
171.0033124077
  0
ARC
  5
350
100
AcDbEntity
  8
0
100
AcDbCircle
 62
7
  6
CONTINUOUS
 10
10.8846408235
 20
11.1582922002
 40
0.397811751
100
AcDbArc
 50
171.0035211754
 51
171.3856469366
  0
ARC
  5
351
100
AcDbEntity
  8
0
100
AcDbCircle
 62
7
  6
CONTINUOUS
 10
3.4819943719
 20
9.1734305751
 40
0.285
100
AcDbArc
 50
308.6977133783
 51
345.3575213995
  0
ARC
  5
352
100
AcDbEntity
  8
0
100
AcDbCircle
 62
7
  6
CONTINUOUS
 10
10.5105269773
 20
10.0548519074
 40
0.2459901062
100
AcDbArc
 50
269.8055973393
 51
270.0000025795
  0
ARC
  5
353
100
AcDbEntity
  8
0
100
AcDbCircle
 62
7
  6
CONTINUOUS
 10
10.2476923427
 20
10.3399106986
 40
0.09
100
AcDbArc
 50
180.0
 51
244.1765324592
  0
ARC
  5
354
100
AcDbEntity
  8
0
100
AcDbCircle
 62
7
  6
CONTINUOUS
 10
6.7376923427
 20
9.0217971355
 40
0.08
100
AcDbArc
 50
108.8190635135
 51
180.0
  0
ARC
  5
355
100
AcDbEntity
  8
0
100
AcDbCircle
 62
7
  6
CONTINUOUS
 10
7.1376923427
 20
9.0217971355
 40
0.08
100
AcDbArc
 50
0.0
 51
71.1809364865
  0
ARC
  5
356
100
AcDbEntity
  8
0
100
AcDbCircle
 62
7
  6
CONTINUOUS
 10
3.8157894712
 20
9.0862191554
 40
0.06
100
AcDbArc
 50
90.0
 51
165.3575223752
  0
ARC
  5
357
100
AcDbEntity
  8
0
100
AcDbCircle
 62
7
  6
CONTINUOUS
 10
3.6976923427
 20
8.904173476
 40
0.06
100
AcDbArc
 50
128.6977181861
 51
180.0
  0
ARC
  5
358
100
AcDbEntity
  8
0
100
AcDbCircle
 62
7
  6
CONTINUOUS
 10
6.1120860822
 20
8.9251612953
 40
0.06
100
AcDbArc
 50
69.531391178
 51
171.848117067
  0
ARC
  5
359
100
AcDbEntity
  8
0
100
AcDbCircle
 62
7
  6
CONTINUOUS
 10
10.2176923427
 20
10.4206160266
 40
0.06
100
AcDbArc
 50
126.0273733851
 51
180.0
  0
ARC
  5
35A
100
AcDbEntity
  8
0
100
AcDbCircle
 62
7
  6
CONTINUOUS
 10
10.1823523696
 20
10.2048896339
 40
0.06
100
AcDbArc
 50
58.1952235323
 51
64.1765051726
  0
ARC
  5
35B
100
AcDbEntity
  8
0
100
AcDbCircle
 62
7
  6
CONTINUOUS
 10
10.5176923427
 20
12.0011695021
 40
0.04
100
AcDbArc
 50
180.0
 51
263.0202912811
  0
ARC
  5
35C
100
AcDbEntity
  8
0
100
AcDbCircle
 62
7
  6
CONTINUOUS
 10
10.5176923427
 20
12.1111695021
 40
0.04
100
AcDbArc
 50
90.0
 51
180.0
  0
ARC
  5
35D
100
AcDbEntity
  8
0
100
AcDbCircle
 62
7
  6
CONTINUOUS
 10
3.8376923427
 20
9.1062191554
 40
0.04
100
AcDbArc
 50
0.0
 51
90.0
  0
ARC
  5
35E
100
AcDbEntity
  8
0
100
AcDbCircle
 62
7
  6
CONTINUOUS
 10
6.4076923427
 20
8.9176665308
 40
0.04
100
AcDbArc
 50
0.0
 51
100.0818955774
  0
ARC
  5
35F
100
AcDbEntity
  8
0
100
AcDbCircle
 62
7
  6
CONTINUOUS
 10
6.6776923427
 20
9.0149411055
 40
0.02
100
AcDbArc
 50
180.0
 51
270.0
  0
ARC
  5
360
100
AcDbEntity
  8
0
100
AcDbCircle
 62
7
  6
CONTINUOUS
 10
7.1976923427
 20
9.0149411055
 40
0.02
100
AcDbArc
 50
270.0
 51
360.0
  0
ARC
  5
361
100
AcDbEntity
  8
0
100
AcDbCircle
 62
7
  6
CONTINUOUS
 10
10.4526923427
 20
12.6011695021
 40
0.02
100
AcDbArc
 50
90.0
 51
180.0
  0
ARC
  5
362
100
AcDbEntity
  8
0
100
AcDbCircle
 62
7
  6
CONTINUOUS
 10
10.4526923427
 20
12.5211695021
 40
0.02
100
AcDbArc
 50
180.0
 51
270.0
  0
ARC
  5
363
100
AcDbEntity
  8
0
100
AcDbCircle
 62
7
  6
CONTINUOUS
 10
10.5104012732
 20
11.9416141472
 40
0.02
100
AcDbArc
 50
299.0490427187
 51
83.0202892404
  0
ARC
  5
364
100
AcDbEntity
  8
0
100
AcDbCircle
 62
7
  6
CONTINUOUS
 10
10.4096997212
 20
9.8467685897
 40
0.0178532658
100
AcDbArc
 50
145.8453198149
 51
148.2783861519
  0
ARC
  5
365
100
AcDbEntity
  8
0
100
AcDbCircle
 62
7
  6
CONTINUOUS
 10
10.3980207184
 20
9.8515039513
 40
0.01150948
100
AcDbArc
 50
171.9010558841
 51
179.9665995692
  0
ARC
  5
366
100
AcDbEntity
  8
0
100
AcDbCircle
 62
7
  6
CONTINUOUS
 10
7.2299275887
 20
8.9849411055
 40
0.01
100
AcDbArc
 50
48.4965662358
 51
90.0000012909
  0
ARC
  5
367
100
AcDbEntity
  8
0
100
AcDbCircle
 62
7
  6
CONTINUOUS
 10
6.6454570967
 20
8.9849411055
 40
0.01
100
AcDbArc
 50
89.9999987091
 51
131.5034337642
  0
ARC
  5
368
100
AcDbEntity
  8
0
100
AcDbCircle
 62
7
  6
CONTINUOUS
 10
20.0105871591
 20
-32.8570180488
 40
42.0
100
AcDbArc
 50
92.7470136623
 51
95.7225738125
  0
ARC
  5
369
100
AcDbEntity
  8
0
100
AcDbCircle
 62
7
  6
CONTINUOUS
 10
19.8887883919
 20
8.1891559356
 40
8.5
100
AcDbArc
 50
169.2697700314
 51
174.1428956565
  0
ARC
  5
36A
100
AcDbEntity
  8
0
100
AcDbCircle
 62
7
  6
CONTINUOUS
 10
17.6007955509
 20
8.4238658836
 40
6.2
100
AcDbArc
 50
174.1428956565
 51
185.8571043435
  0
ARC
  5
36B
100
AcDbEntity
  8
0
100
AcDbCircle
 62
7
  6
CONTINUOUS
 10
14.8154129619
 20
8.1381320339
 40
3.4
100
AcDbArc
 50
185.8571043435
 51
205.2313997836
  0
ARC
  5
36C
100
AcDbEntity
  8
0
100
AcDbCircle
 62
7
  6
CONTINUOUS
 10
13.3936178123
 20
7.1139613155
 40
1.2
100
AcDbArc
 50
15.418828384
 51
30.0393607241
  0
ARC
  5
36D
100
AcDbEntity
  8
0
100
AcDbCircle
 62
7
  6
CONTINUOUS
 10
16.4817668731
 20
7.1139613155
 40
1.2
100
AcDbArc
 50
149.9606392759
 51
164.581171616
  0
ARC
  5
36E
100
AcDbEntity
  8
0
100
AcDbCircle
 62
7
  6
CONTINUOUS
 10
16.22148469
 20
7.1857470043
 40
0.93
100
AcDbArc
 50
164.581171616
 51
199.946584759
  0
ARC
  5
36F
100
AcDbEntity
  8
0
100
AcDbCircle
 62
7
  6
CONTINUOUS
 10
13.6538999955
 20
7.1857470043
 40
0.93
100
AcDbArc
 50
340.053415241
 51
15.418828384
  0
ARC
  5
370
100
AcDbEntity
  8
0
100
AcDbCircle
 62
7
  6
CONTINUOUS
 10
16.1787782738
 20
7.2891695021
 40
0.85
100
AcDbArc
 50
141.6196391912
 51
149.9606392759
  0
ARC
  5
371
100
AcDbEntity
  8
0
100
AcDbCircle
 62
7
  6
CONTINUOUS
 10
13.6966064116
 20
7.2891695021
 40
0.85
100
AcDbArc
 50
30.0393607241
 51
38.3803608088
  0
ARC
  5
372
100
AcDbEntity
  8
0
100
AcDbCircle
 62
7
  6
CONTINUOUS
 10
14.9376923427
 20
8.4349411055
 40
0.7
100
AcDbArc
 50
71.180936631
 51
108.819063369
  0
ARC
  5
373
100
AcDbEntity
  8
0
100
AcDbCircle
 62
7
  6
CONTINUOUS
 10
13.964103648
 20
7.0731695021
 40
0.6
100
AcDbArc
 50
296.0601511633
 51
340.053415241
  0
ARC
  5
374
100
AcDbEntity
  8
0
100
AcDbCircle
 62
7
  6
CONTINUOUS
 10
15.9112810375
 20
7.0731695021
 40
0.6
100
AcDbArc
 50
199.946584759
 51
243.9398488367
  0
ARC
  5
375
100
AcDbEntity
  8
0
100
AcDbCircle
 62
7
  6
CONTINUOUS
 10
15.5639729405
 20
7.850164581
 40
0.51
100
AcDbArc
 50
69.5313915087
 51
100.0818954499
  0
ARC
  5
376
100
AcDbEntity
  8
0
100
AcDbCircle
 62
7
  6
CONTINUOUS
 10
16.1647985621
 20
6.4658453168
 40
0.45
100
AcDbArc
 50
209.533164531
 51
242.493856735
  0
ARC
  5
377
100
AcDbEntity
  8
0
100
AcDbCircle
 62
7
  6
CONTINUOUS
 10
13.7105861234
 20
6.4658453168
 40
0.45
100
AcDbArc
 50
297.506143265
 51
330.466835469
  0
ARC
  5
378
100
AcDbEntity
  8
0
100
AcDbCircle
 62
7
  6
CONTINUOUS
 10
18.3933903135
 20
8.1359077357
 40
0.285
100
AcDbArc
 50
128.6977133783
 51
165.3575213995
  0
ARC
  5
379
100
AcDbEntity
  8
0
100
AcDbCircle
 62
7
  6
CONTINUOUS
 10
11.5226923427
 20
6.5864906693
 40
0.24
100
AcDbArc
 50
0.0
 51
25.2313998178
  0
ARC
  5
37A
100
AcDbEntity
  8
0
100
AcDbCircle
 62
7
  6
CONTINUOUS
 10
12.0807752246
 20
6.3055943876
 40
0.18
100
AcDbArc
 50
198.9448908567
 51
228.3664546573
  0
ARC
  5
37B
100
AcDbEntity
  8
0
100
AcDbCircle
 62
7
  6
CONTINUOUS
 10
11.9776923427
 20
5.9423189319
 40
0.16
100
AcDbArc
 50
0.0
 51
48.3664606634
  0
ARC
  5
37C
100
AcDbEntity
  8
0
100
AcDbCircle
 62
7
  6
CONTINUOUS
 10
15.8876923427
 20
5.9336685199
 40
0.15
100
AcDbArc
 50
0.0
 51
62.4938578389
  0
ARC
  5
37D
100
AcDbEntity
  8
0
100
AcDbCircle
 62
7
  6
CONTINUOUS
 10
13.9876923427
 20
5.9336685199
 40
0.15
100
AcDbArc
 50
117.5061421611
 51
180.0
  0
ARC
  5
37E
100
AcDbEntity
  8
0
100
AcDbCircle
 62
7
  6
CONTINUOUS
 10
15.4654235234
 20
7.8541695021
 40
0.06
100
AcDbArc
 50
321.6196390045
 51
90.0
  0
ARC
  5
37F
100
AcDbEntity
  8
0
100
AcDbCircle
 62
7
  6
CONTINUOUS
 10
14.4099611621
 20
7.8541695021
 40
0.06
100
AcDbArc
 50
90.0
 51
218.3803609955
  0
ARC
  5
380
100
AcDbEntity
  8
0
100
AcDbCircle
 62
7
  6
CONTINUOUS
 10
18.1776923427
 20
8.4051648348
 40
0.06
100
AcDbArc
 50
308.6977181861
 51
360.0
  0
ARC
  5
381
100
AcDbEntity
  8
0
100
AcDbCircle
 62
7
  6
CONTINUOUS
 10
18.0595952143
 20
8.2231191554
 40
0.06
100
AcDbArc
 50
270.0
 51
345.3575223752
  0
ARC
  5
382
100
AcDbEntity
  8
0
100
AcDbCircle
 62
7
  6
CONTINUOUS
 10
15.7632986033
 20
8.3841770155
 40
0.06
100
AcDbArc
 50
249.5313911776
 51
351.848117068
  0
ARC
  5
383
100
AcDbEntity
  8
0
100
AcDbCircle
 62
7
  6
CONTINUOUS
 10
11.7626923427
 20
6.4911695021
 40
0.06
100
AcDbArc
 50
0.0
 51
90.0
  0
ARC
  5
384
100
AcDbEntity
  8
0
100
AcDbCircle
 62
7
  6
CONTINUOUS
 10
18.0376923427
 20
8.2031191554
 40
0.04
100
AcDbArc
 50
180.0
 51
270.0
  0
ARC
  5
385
100
AcDbEntity
  8
0
100
AcDbCircle
 62
7
  6
CONTINUOUS
 10
15.4676923427
 20
8.39167178
 40
0.04
100
AcDbArc
 50
180.0
 51
280.0818955774
  0
ARC
  5
386
100
AcDbEntity
  8
0
100
AcDbCircle
 62
7
  6
CONTINUOUS
 10
11.8726923427
 20
6.2341695021
 40
0.04
100
AcDbArc
 50
18.9448926523
 51
90.0
  0
ARC
  5
387
100
AcDbEntity
  8
0
100
AcDbCircle
 62
7
  6
CONTINUOUS
 10
14.1195192681
 20
6.2341695021
 40
0.02
100
AcDbArc
 50
90.0000015034
 51
150.466835501
  0
ARC
  5
388
100
AcDbEntity
  8
0
100
AcDbCircle
 62
7
  6
CONTINUOUS
 10
15.7558654174
 20
6.2341695021
 40
0.02
100
AcDbArc
 50
29.533164499
 51
89.9999984966
  0
ARC
  5
389
100
AcDbEntity
  8
0
100
AcDbCircle
 62
7
  6
CONTINUOUS
 10
15.2576923427
 20
8.0641695021
 40
0.01
100
AcDbArc
 50
0.0
 51
90.0
  0
ARC
  5
38A
100
AcDbEntity
  8
0
100
AcDbCircle
 62
7
  6
CONTINUOUS
 10
14.6176923427
 20
8.0641695021
 40
0.01
100
AcDbArc
 50
90.0
 51
180.0
  0
ARC
  5
38B
100
AcDbEntity
  8
0
100
AcDbCircle
 62
7
  6
CONTINUOUS
 10
15.3776923427
 20
7.9841695021
 40
0.01
100
AcDbArc
 50
0.0
 51
90.0
  0
ARC
  5
38C
100
AcDbEntity
  8
0
100
AcDbCircle
 62
7
  6
CONTINUOUS
 10
14.4976923427
 20
7.9841695021
 40
0.01
100
AcDbArc
 50
90.0
 51
180.0
  0
ARC
  5
38D
100
AcDbEntity
  8
0
100
AcDbCircle
 62
7
  6
CONTINUOUS
 10
11.3648577081
 20
10.0548519074
 40
0.2459901062
100
AcDbArc
 50
269.9999974205
 51
270.1944026607
  0
ARC
  5
38E
100
AcDbEntity
  8
0
100
AcDbCircle
 62
7
  6
CONTINUOUS
 10
11.6276923427
 20
10.3399106986
 40
0.09
100
AcDbArc
 50
295.8234675417
 51
360.0
  0
ARC
  5
38F
100
AcDbEntity
  8
0
100
AcDbCircle
 62
7
  6
CONTINUOUS
 10
11.6576923427
 20
10.4206160266
 40
0.06
100
AcDbArc
 50
0.0
 51
53.9726266149
  0
ARC
  5
390
100
AcDbEntity
  8
0
100
AcDbCircle
 62
7
  6
CONTINUOUS
 10
11.6930323158
 20
10.2048896339
 40
0.06
100
AcDbArc
 50
115.8234948281
 51
121.8047764717
  0
ARC
  5
391
100
AcDbEntity
  8
0
100
AcDbCircle
 62
7
  6
CONTINUOUS
 10
11.4654682011
 20
9.8466120078
 40
0.0181098428
100
AcDbArc
 50
31.7379025717
 51
34.2311313866
  0
ARC
  5
392
100
AcDbEntity
  8
0
100
AcDbCircle
 62
7
  6
CONTINUOUS
 10
11.4774330018
 20
9.8515088589
 40
0.0114404434
100
AcDbArc
 50
0.0090226599
 51
8.123320584
  0
ARC
  5
393
100
AcDbEntity
  8
0
100
AcDbCircle
 62
7
  6
CONTINUOUS
 10
10.9376923427
 20
11.5111695021
 40
1.2
100
AcDbArc
 50
67.6683549908
 51
112.3316450092
  0
ARC
  5
394
100
AcDbEntity
  8
0
100
AcDbCircle
 62
7
  6
CONTINUOUS
 10
10.9376923427
 20
11.1723142434
 40
0.86
100
AcDbArc
 50
317.305909146
 51
60.9509602803
  0
ARC
  5
395
100
AcDbEntity
  8
0
100
AcDbCircle
 62
7
  6
CONTINUOUS
 10
11.0125519265
 20
12.7808657885
 40
0.6
100
AcDbArc
 50
207.7853520289
 51
240.0154819039
  0
ARC
  5
396
100
AcDbEntity
  8
0
100
AcDbCircle
 62
7
  6
CONTINUOUS
 10
10.9376923427
 20
11.1741695021
 40
0.58
100
AcDbArc
 50
335.9345127826
 51
204.0654872174
  0
ARC
  5
397
100
AcDbEntity
  8
0
100
AcDbCircle
 62
9
  6
CONTINUOUS
 10
10.9376923427
 20
11.1741695021
 40
0.5533333269
100
AcDbArc
 50
339.1025850651
 51
200.8605269222
  0
ARC
  5
398
100
AcDbEntity
  8
0
100
AcDbCircle
 62
7
  6
CONTINUOUS
 10
10.9376923427
 20
11.1741695021
 40
0.53
100
AcDbArc
 50
342.7178215218
 51
197.2800846229
  0
ARC
  5
399
100
AcDbEntity
  8
0
100
AcDbCircle
 62
9
  6
CONTINUOUS
 10
10.9376923427
 20
11.1741695021
 40
0.5124999944
100
AcDbArc
 50
345.7661583011
 51
194.249336477
  0
ARC
  5
39A
100
AcDbEntity
  8
0
100
AcDbCircle
 62
7
  6
CONTINUOUS
 10
10.9376923427
 20
11.1741695021
 40
0.4925
100
AcDbArc
 50
349.7637702345
 51
190.2652005826
  0
ARC
  5
39B
100
AcDbEntity
  8
0
100
AcDbCircle
 62
7
  6
CONTINUOUS
 10
10.9377272803
 20
11.1741462659
 40
0.4500253558
100
AcDbArc
 50
90.004448143
 51
176.1240297175
  0
ARC
  5
39C
100
AcDbEntity
  8
0
100
AcDbCircle
 62
7
  6
CONTINUOUS
 10
10.9855368387
 20
11.1574647561
 40
0.4030841122
100
AcDbArc
 50
9.0436267385
 51
9.6075033697
  0
ARC
  5
39D
100
AcDbEntity
  8
0
100
AcDbCircle
 62
7
  6
CONTINUOUS
 10
10.99026538
 20
11.1582182042
 40
0.3982959198
100
AcDbArc
 50
8.6321176343
 51
9.0435088961
  0
ARC
  5
39E
100
AcDbEntity
  8
0
100
AcDbCircle
 62
9
  6
CONTINUOUS
 10
11.0096881396
 20
11.154134247
 40
0.3792568201
100
AcDbArc
 50
9.7692192448
 51
10.7024876813
  0
ARC
  5
39F
100
AcDbEntity
  8
0
100
AcDbCircle
 62
7
  6
CONTINUOUS
 10
11.3576923427
 20
12.0011695021
 40
0.04
100
AcDbArc
 50
276.9797087189
 51
360.0
  0
ARC
  5
3A0
100
AcDbEntity
  8
0
100
AcDbCircle
 62
7
  6
CONTINUOUS
 10
11.3576923427
 20
12.1111695021
 40
0.04
100
AcDbArc
 50
0.0
 51
90.0
  0
ARC
  5
3A1
100
AcDbEntity
  8
0
100
AcDbCircle
 62
7
  6
CONTINUOUS
 10
11.4226923427
 20
12.5211695021
 40
0.02
100
AcDbArc
 50
270.0
 51
360.0
  0
ARC
  5
3A2
100
AcDbEntity
  8
0
100
AcDbCircle
 62
7
  6
CONTINUOUS
 10
11.4226923427
 20
12.6011695021
 40
0.02
100
AcDbArc
 50
0.0
 51
90.0
  0
ARC
  5
3A3
100
AcDbEntity
  8
0
100
AcDbCircle
 62
7
  6
CONTINUOUS
 10
11.3649834123
 20
11.9416141472
 40
0.02
100
AcDbArc
 50
96.9797107596
 51
240.9509572813
  0
ARC
  5
3A4
100
AcDbEntity
  8
0
100
AcDbCircle
 62
7
  6
CONTINUOUS
 10
14.9376923427
 20
8.6546691554
 40
0.451
100
AcDbArc
 50
131.5034356039
 51
233.0665550909
  0
ARC
  5
3A5
100
AcDbEntity
  8
0
100
AcDbCircle
 62
7
  6
CONTINUOUS
 10
14.9376923427
 20
8.6546691554
 40
0.451
100
AcDbArc
 50
30.7271875754
 51
48.4965643961
  0
ARC
  5
3A6
100
AcDbEntity
  8
0
100
AcDbCircle
 62
7
  6
CONTINUOUS
 10
14.9376923427
 20
8.6546691554
 40
0.451
100
AcDbArc
 50
306.9334449091
 51
329.2734943174
  0
ARC
  5
3A7
100
AcDbEntity
  8
0
100
AcDbCircle
 62
7
  6
CONTINUOUS
 10
15.1376923427
 20
9.0217971355
 40
0.08
100
AcDbArc
 50
0.0
 51
71.1809364865
  0
ARC
  5
3A8
100
AcDbEntity
  8
0
100
AcDbCircle
 62
7
  6
CONTINUOUS
 10
14.7376923427
 20
9.0217971355
 40
0.08
100
AcDbArc
 50
108.8190635135
 51
180.0
  0
ARC
  5
3A9
100
AcDbEntity
  8
0
100
AcDbCircle
 62
7
  6
CONTINUOUS
 10
15.4676923427
 20
8.9176665308
 40
0.04
100
AcDbArc
 50
79.9181044226
 51
180.0
  0
ARC
  5
3AA
100
AcDbEntity
  8
0
100
AcDbCircle
 62
7
  6
CONTINUOUS
 10
15.1976923427
 20
9.0149411055
 40
0.02
100
AcDbArc
 50
270.0
 51
360.0
  0
ARC
  5
3AB
100
AcDbEntity
  8
0
100
AcDbCircle
 62
7
  6
CONTINUOUS
 10
14.6776923427
 20
9.0149411055
 40
0.02
100
AcDbArc
 50
180.0
 51
270.0
  0
ARC
  5
3AC
100
AcDbEntity
  8
0
100
AcDbCircle
 62
7
  6
CONTINUOUS
 10
14.6454570967
 20
8.9849411055
 40
0.01
100
AcDbArc
 50
89.9999987091
 51
131.5034337642
  0
ARC
  5
3AD
100
AcDbEntity
  8
0
100
AcDbCircle
 62
7
  6
CONTINUOUS
 10
15.2299275887
 20
8.9849411055
 40
0.01
100
AcDbArc
 50
48.4965662358
 51
90.0000012909
  0
ARC
  5
3AE
100
AcDbEntity
  8
0
100
AcDbCircle
 62
7
  6
CONTINUOUS
 10
15.5639729405
 20
9.4591737298
 40
0.51
100
AcDbArc
 50
259.9181045501
 51
290.4686084913
  0
ARC
  5
3AF
100
AcDbEntity
  8
0
100
AcDbCircle
 62
7
  6
CONTINUOUS
 10
18.3933903135
 20
9.1734305751
 40
0.285
100
AcDbArc
 50
194.6424786005
 51
231.3022866217
  0
ARC
  5
3B0
100
AcDbEntity
  8
0
100
AcDbCircle
 62
7
  6
CONTINUOUS
 10
18.0595952143
 20
9.0862191554
 40
0.06
100
AcDbArc
 50
14.6424776248
 51
90.0
  0
ARC
  5
3B1
100
AcDbEntity
  8
0
100
AcDbCircle
 62
7
  6
CONTINUOUS
 10
18.1776923427
 20
8.904173476
 40
0.06
100
AcDbArc
 50
0.0
 51
51.3022818139
  0
ARC
  5
3B2
100
AcDbEntity
  8
0
100
AcDbCircle
 62
7
  6
CONTINUOUS
 10
15.7632986033
 20
8.9251612953
 40
0.06
100
AcDbArc
 50
8.151882933
 51
110.468608822
  0
ARC
  5
3B3
100
AcDbEntity
  8
0
100
AcDbCircle
 62
7
  6
CONTINUOUS
 10
18.0376923427
 20
9.1062191554
 40
0.04
100
AcDbArc
 50
90.0
 51
180.0
  0
ARC
  5
3B4
100
AcDbEntity
  8
0
100
AcDbCircle
 62
7
  6
CONTINUOUS
 10
20.0105871591
 20
50.1663563597
 40
42.0
100
AcDbArc
 50
264.2774261875
 51
267.2529863377
  0
SPLINE
  5
3B5
100
AcDbEntity
  8
0
100
AcDbSpline
 62
7
  6
CONTINUOUS
 70
0
 71
3
 72
31
 73
27
 74
0
 42
0.0000001
 43
0.0000001
 44
0.0000000001
 40
0.0
 40
0.0
 40
0.0
 40
0.0
 40
0.089013453
 40
0.177315453
 40
0.2640425783
 40
0.3484745759
 40
0.4299132163
 40
0.5076716149
 40
0.5811255423
 40
0.6497133829
 40
0.6820347801
 40
0.7129679229
 40
0.7424677212
 40
0.7705014045
 40
0.7970429113
 40
0.8220743788
 40
0.8455947997
 40
0.8676193868
 40
0.8881786076
 40
0.9073261147
 40
0.9251492697
 40
0.9417677537
 40
0.9573395306
 40
0.9720667858
 40
0.9861936261
 40
1.0
 40
1.0
 40
1.0
 40
1.0
 10
10.5105269884
 20
9.7783168965
 30
0.0
 10
10.5062350911
 20
9.7783168965
 30
0.0
 10
10.4976850349
 20
9.7784465174
 30
0.0
 10
10.4849651771
 20
9.7790263783
 30
0.0
 10
10.4724897621
 20
9.7799877894
 30
0.0
 10
10.4603812482
 20
9.7813203129
 30
0.0
 10
10.4487540604
 20
9.7830107459
 30
0.0
 10
10.4377191117
 20
9.7850431068
 30
0.0
 10
10.4273824916
 20
9.7873968554
 30
0.0
 10
10.4192786436
 20
9.7896500732
 30
0.0
 10
10.4132301751
 20
9.7916088704
 30
0.0
 10
10.4090180893
 20
9.7931142775
 30
0.0
 10
10.4050500959
 20
9.7946817518
 30
0.0
 10
10.4013353909
 20
9.7963071985
 30
0.0
 10
10.3978827039
 20
9.7979866868
 30
0.0
 10
10.3947004639
 20
9.7997167229
 30
0.0
 10
10.3917960373
 20
9.8014931145
 30
0.0
 10
10.3891758618
 20
9.8033114654
 30
0.0
 10
10.3868460954
 20
9.805167887
 30
0.0
 10
10.3848125389
 20
9.8070589675
 30
0.0
 10
10.3830796593
 20
9.8089807499
 30
0.0
 10
10.3816517259
 20
9.8109298964
 30
0.0
 10
10.3805340158
 20
9.8129033729
 30
0.0
 10
10.3797310794
 20
9.8148968341
 30
0.0
 10
10.3792464798
 20
9.8169035666
 30
0.0
 10
10.379137696
 20
9.8182527288
 30
0.0
 10
10.379137696
 20
9.8189184208
 30
0.0
  0
SPLINE
  5
3B6
100
AcDbEntity
  8
0
100
AcDbSpline
 62
7
  6
CONTINUOUS
 70
0
 71
3
 72
31
 73
27
 74
0
 42
0.0000001
 43
0.0000001
 44
0.0000000001
 40
0.0
 40
0.0
 40
0.0
 40
0.0
 40
0.0138063736
 40
0.0279332131
 40
0.0426604671
 40
0.0582322424
 40
0.0748507248
 40
0.0926738783
 40
0.1118213842
 40
0.1323806039
 40
0.1544051893
 40
0.1779256087
 40
0.2029570752
 40
0.2294985806
 40
0.2575322622
 40
0.2870320594
 40
0.3179652017
 40
0.3502865978
 40
0.4188744372
 40
0.4923283642
 40
0.5700867641
 40
0.6515254057
 40
0.7359574054
 40
0.8226845363
 40
0.910986544
 40
1.0
 40
1.0
 40
1.0
 40
1.0
 10
11.4962469895
 20
9.8189184208
 30
0.0
 10
11.4962469895
 20
9.8182527288
 30
0.0
 10
11.4961382057
 20
9.8169035666
 30
0.0
 10
11.4956536062
 20
9.8148968343
 30
0.0
 10
11.49485067
 20
9.8129033732
 30
0.0
 10
11.4937329599
 20
9.8109298969
 30
0.0
 10
11.4923050267
 20
9.8089807505
 30
0.0
 10
11.4905721473
 20
9.8070589682
 30
0.0
 10
11.488538591
 20
9.8051678878
 30
0.0
 10
11.4862088248
 20
9.8033114663
 30
0.0
 10
11.4835886495
 20
9.8014931153
 30
0.0
 10
11.4806842232
 20
9.7997167238
 30
0.0
 10
11.4775019834
 20
9.7979866877
 30
0.0
 10
11.4740492966
 20
9.7963071994
 30
0.0
 10
11.4703345918
 20
9.7946817527
 30
0.0
 10
11.4663665986
 20
9.7931142784
 30
0.0
 10
11.4621545129
 20
9.7916088713
 30
0.0
 10
11.4561060446
 20
9.789650074
 30
0.0
 10
11.4480021968
 20
9.7873968562
 30
0.0
 10
11.4376655767
 20
9.7850431073
 30
0.0
 10
11.4266306278
 20
9.7830107464
 30
0.0
 10
11.4150034399
 20
9.7813203132
 30
0.0
 10
11.4028949256
 20
9.7799877897
 30
0.0
 10
11.3904195098
 20
9.7790263784
 30
0.0
 10
11.3776996512
 20
9.7784465175
 30
0.0
 10
11.3691495945
 20
9.7783168965
 30
0.0
 10
11.3648576971
 20
9.7783168965
 30
0.0
  0
SPLINE
  5
3B7
100
AcDbEntity
  8
0
100
AcDbSpline
 62
7
  6
CONTINUOUS
 70
0
 71
3
 72
30
 73
26
 74
0
 42
0.0000001
 43
0.0000001
 44
0.0000000001
 40
0.0
 40
0.0
 40
0.0
 40
0.0
 40
0.0138029624
 40
0.0279287244
 40
0.0426567907
 40
0.0582302895
 40
0.0748510551
 40
0.0926764434
 40
0.1118242153
 40
0.1323807483
 40
0.1544054691
 40
0.1779278941
 40
0.2029591548
 40
0.2294985024
 40
0.2575338572
 40
0.2870362428
 40
0.3502800227
 40
0.4188709321
 40
0.4923237981
 40
0.5700866307
 40
0.6515194739
 40
0.7359491152
 40
0.8226880177
 40
0.9110020653
 40
1.0
 40
1.0
 40
1.0
 40
1.0
 10
11.4568769107
 20
9.8114297868
 30
0.0
 10
11.4568769107
 20
9.810963685
 30
0.0
 10
11.4568006497
 20
9.8100189534
 30
0.0
 10
11.4564611402
 20
9.8086136984
 30
0.0
 10
11.4558987665
 20
9.8072175596
 30
0.0
 10
11.4551162687
 20
9.8058350894
 30
0.0
 10
11.4541161503
 20
9.8044697713
 30
0.0
 10
11.4529023202
 20
9.8031238213
 30
0.0
 10
11.451478102
 20
9.8017994447
 30
0.0
 10
11.4498466635
 20
9.8004991551
 30
0.0
 10
11.4480115016
 20
9.7992258681
 30
0.0
 10
11.4459771921
 20
9.797981978
 30
0.0
 10
11.4437485682
 20
9.7967702829
 30
0.0
 10
11.4413306551
 20
9.7955937502
 30
0.0
 10
11.4387289224
 20
9.7944554691
 30
0.0
 10
11.4349347459
 20
9.7929571165
 30
0.0
 10
11.4297700837
 20
9.7912112117
 30
0.0
 10
11.4230884754
 20
9.7893537946
 30
0.0
 10
11.4158489465
 20
9.7877047772
 30
0.0
 10
11.4081206584
 20
9.7862819692
 30
0.0
 10
11.3999777519
 20
9.7850975845
 30
0.0
 10
11.3914974101
 20
9.7841645822
 30
0.0
 10
11.3827595443
 20
9.7834911095
 30
0.0
 10
11.3738509075
 20
9.7830852187
 30
0.0
 10
11.3678630012
 20
9.782994286
 30
0.0
 10
11.3648576971
 20
9.782994286
 30
0.0
  0
SPLINE
  5
3B8
100
AcDbEntity
  8
0
100
AcDbSpline
 62
7
  6
CONTINUOUS
 70
0
 71
3
 72
30
 73
26
 74
0
 42
0.0000001
 43
0.0000001
 44
0.0000000001
 40
0.0
 40
0.0
 40
0.0
 40
0.0
 40
0.0889979393
 40
0.1773119999
 40
0.2640509142
 40
0.3484805604
 40
0.4299134049
 40
0.5076762391
 40
0.581129105
 40
0.6497200126
 40
0.7129637888
 40
0.7424661717
 40
0.7705015248
 40
0.7970408706
 40
0.8220721282
 40
0.8455945501
 40
0.867619269
 40
0.8881758001
 40
0.907323569
 40
0.9251489542
 40
0.941769717
 40
0.9573432133
 40
0.9720712774
 40
0.986197038
 40
1.0
 40
1.0
 40
1.0
 40
1.0
 10
10.5105269884
 20
9.782994286
 30
0.0
 10
10.5075216841
 20
9.782994286
 30
0.0
 10
10.5015337772
 20
9.7830852188
 30
0.0
 10
10.4926251394
 20
9.7834911096
 30
0.0
 10
10.4838872726
 20
9.7841645824
 30
0.0
 10
10.4754069302
 20
9.785097585
 30
0.0
 10
10.4672640235
 20
9.7862819698
 30
0.0
 10
10.4595357353
 20
9.787704778
 30
0.0
 10
10.4522962064
 20
9.7893537955
 30
0.0
 10
10.4456145984
 20
9.7912112127
 30
0.0
 10
10.4404499365
 20
9.7929571175
 30
0.0
 10
10.4366557603
 20
9.7944554703
 30
0.0
 10
10.4340540278
 20
9.7955937514
 30
0.0
 10
10.431636115
 20
9.796770284
 30
0.0
 10
10.4294074913
 20
9.7979819791
 30
0.0
 10
10.4273731822
 20
9.7992258692
 30
0.0
 10
10.4255380205
 20
9.8004991562
 30
0.0
 10
10.4239065823
 20
9.8017994457
 30
0.0
 10
10.4224823643
 20
9.8031238222
 30
0.0
 10
10.4212685346
 20
9.8044697721
 30
0.0
 10
10.4202684164
 20
9.80583509
 30
0.0
 10
10.4194859186
 20
9.8072175599
 30
0.0
 10
10.4189235451
 20
9.8086136986
 30
0.0
 10
10.4185840358
 20
9.8100189535
 30
0.0
 10
10.4185077747
 20
9.810963685
 30
0.0
 10
10.4185077747
 20
9.8114297868
 30
0.0
  0
SPLINE
  5
3B9
100
AcDbEntity
  8
0
100
AcDbSpline
 62
7
  6
CONTINUOUS
 70
0
 71
3
 72
29
 73
25
 74
0
 42
0.0000001
 43
0.0000001
 44
0.0000000001
 40
0.0
 40
0.0
 40
0.0
 40
0.0
 40
0.0889987891
 40
0.1773136928
 40
0.2640534353
 40
0.3484838876
 40
0.4299175096
 40
0.5076810863
 40
0.5811346535
 40
0.649726216
 40
0.712970596
 40
0.7704993337
 40
0.7970389328
 40
0.8220704294
 40
0.8455930759
 40
0.8676180051
 40
0.8881747324
 40
0.9073226842
 40
0.9251482396
 40
0.941769161
 40
0.957342806
 40
0.9720710108
 40
0.9861969062
 40
1.0
 40
1.0
 40
1.0
 40
1.0
 10
10.5105269884
 20
9.8434372321
 30
0.0
 10
10.5080442366
 20
9.8434372321
 30
0.0
 10
10.5030974874
 20
9.8433621103
 30
0.0
 10
10.4957378543
 20
9.8430267945
 30
0.0
 10
10.4885192996
 20
9.8424704229
 30
0.0
 10
10.4815134897
 20
9.8416996481
 30
0.0
 10
10.4747864512
 20
9.8407211992
 30
0.0
 10
10.4684019109
 20
9.8395457877
 30
0.0
 10
10.4624212413
 20
9.838183484
 30
0.0
 10
10.4569011617
 20
9.8366490687
 30
0.0
 10
10.4518941748
 20
9.8349560559
 30
0.0
 10
10.4480909599
 20
9.8333884602
 30
0.0
 10
10.4453533985
 20
9.832056586
 30
0.0
 10
10.4435122851
 20
9.8310555435
 30
0.0
 10
10.4418316939
 20
9.8300279451
 30
0.0
 10
10.4403156244
 20
9.8289760511
 30
0.0
 10
10.4389678553
 20
9.8279018521
 30
0.0
 10
10.4377912757
 20
9.8268077537
 30
0.0
 10
10.4367885027
 20
9.8256958332
 30
0.0
 10
10.4359622817
 20
9.8245679124
 30
0.0
 10
10.4353158422
 20
9.8234258218
 30
0.0
 10
10.4348512523
 20
9.8222724392
 30
0.0
 10
10.4345707757
 20
9.8211115254
 30
0.0
 10
10.4345077747
 20
9.8203310607
 30
0.0
 10
10.4345077747
 20
9.8199460032
 30
0.0
  0
SPLINE
  5
3BA
100
AcDbEntity
  8
0
100
AcDbSpline
 62
7
  6
CONTINUOUS
 70
0
 71
3
 72
29
 73
25
 74
0
 42
0.0000001
 43
0.0000001
 44
0.0000000001
 40
0.0
 40
0.0
 40
0.0
 40
0.0
 40
0.0138030942
 40
0.027928991
 40
0.0426571979
 40
0.0582308455
 40
0.0748517698
 40
0.0926773283
 40
0.111825283
 40
0.1323820122
 40
0.1544069434
 40
0.1779295929
 40
0.2029610926
 40
0.2295006936
 40
0.2870294356
 40
0.3502738193
 40
0.4188653836
 40
0.4923189509
 40
0.5700825259
 40
0.6515161467
 40
0.7359465941
 40
0.8226863248
 40
0.9110012156
 40
1.0
 40
1.0
 40
1.0
 40
1.0
 10
11.4408769107
 20
9.8199460032
 30
0.0
 10
11.4408769107
 20
9.8203310607
 30
0.0
 10
11.4408139097
 20
9.8211115255
 30
0.0
 10
11.440533433
 20
9.8222724393
 30
0.0
 10
11.440068843
 20
9.8234258221
 30
0.0
 10
11.4394224034
 20
9.8245679129
 30
0.0
 10
11.4385961823
 20
9.8256958339
 30
0.0
 10
11.437593409
 20
9.8268077545
 30
0.0
 10
11.4364168292
 20
9.827901853
 30
0.0
 10
11.4350690599
 20
9.828976052
 30
0.0
 10
11.4335529902
 20
9.830027946
 30
0.0
 10
11.4318723987
 20
9.8310555445
 30
0.0
 10
11.4300312851
 20
9.8320565869
 30
0.0
 10
11.4272937234
 20
9.8333884612
 30
0.0
 10
11.4234905082
 20
9.8349560568
 30
0.0
 10
11.418483521
 20
9.8366490696
 30
0.0
 10
11.4129634412
 20
9.8381834847
 30
0.0
 10
11.4069827715
 20
9.8395457884
 30
0.0
 10
11.4005982313
 20
9.8407211997
 30
0.0
 10
11.393871193
 20
9.8416996484
 30
0.0
 10
11.3868653836
 20
9.8424704231
 30
0.0
 10
11.3796468297
 20
9.8430267946
 30
0.0
 10
11.3722871975
 20
9.8433621104
 30
0.0
 10
11.3673404487
 20
9.8434372321
 30
0.0
 10
11.3648576971
 20
9.8434372321
 30
0.0
  0
SPLINE
  5
3BB
100
AcDbEntity
  8
0
100
AcDbSpline
 62
7
  6
CONTINUOUS
 70
0
 71
3
 72
30
 73
26
 74
0
 42
0.0000001
 43
0.0000001
 44
0.0000000001
 40
0.0
 40
0.0
 40
0.0
 40
0.0
 40
0.0889979393
 40
0.1773119999
 40
0.2640509142
 40
0.3484805604
 40
0.4299134049
 40
0.5076762391
 40
0.581129105
 40
0.6497200126
 40
0.7129637888
 40
0.7424661717
 40
0.7705015249
 40
0.7970408706
 40
0.8220721282
 40
0.8455945501
 40
0.867619269
 40
0.8881758001
 40
0.907323569
 40
0.9251489542
 40
0.941769717
 40
0.9573432133
 40
0.9720712774
 40
0.986197038
 40
1.0
 40
1.0
 40
1.0
 40
1.0
 10
11.3647887994
 20
9.848381504
 30
0.0
 10
11.3677963539
 20
9.848381504
 30
0.0
 10
11.3737887442
 20
9.848290503
 30
0.0
 10
11.3827040521
 20
9.8478843083
 30
0.0
 10
11.3914484612
 20
9.8472103313
 30
0.0
 10
11.3999351531
 20
9.8462766302
 30
0.0
 10
11.4080841566
 20
9.8450913585
 30
0.0
 10
11.4158182313
 20
9.8436674851
 30
0.0
 10
11.4230631806
 20
9.8420172329
 30
0.0
 10
11.4297497913
 20
9.840158425
 30
0.0
 10
11.4349183202
 20
9.8384112129
 30
0.0
 10
11.4387153372
 20
9.8369117383
 30
0.0
 10
11.4413190177
 20
9.835772605
 30
0.0
 10
11.4437387409
 20
9.8345951914
 30
0.0
 10
11.4459690332
 20
9.8333825891
 30
0.0
 10
11.4480048655
 20
9.8321377677
 30
0.0
 10
11.4498414012
 20
9.8308635273
 30
0.0
 10
11.4514740609
 20
9.8295622643
 30
0.0
 10
11.4528993452
 20
9.8282368961
 30
0.0
 10
11.4541140838
 20
9.8268899385
 30
0.0
 10
11.4551149509
 20
9.8255235984
 30
0.0
 10
11.4558980345
 20
9.8241400933
 30
0.0
 10
11.4564608291
 20
9.8227429093
 30
0.0
 10
11.4568005926
 20
9.8213366023
 30
0.0
 10
11.4568769107
 20
9.8203911634
 30
0.0
 10
11.4568769107
 20
9.8199247126
 30
0.0
  0
SPLINE
  5
3BC
100
AcDbEntity
  8
0
100
AcDbSpline
 62
7
  6
CONTINUOUS
 70
0
 71
3
 72
30
 73
26
 74
0
 42
0.0000001
 43
0.0000001
 44
0.0000000001
 40
0.0
 40
0.0
 40
0.0
 40
0.0
 40
0.0138029624
 40
0.0279287244
 40
0.0426567907
 40
0.0582302895
 40
0.0748510551
 40
0.0926764434
 40
0.1118242153
 40
0.1323807483
 40
0.1544054691
 40
0.1779278941
 40
0.2029591548
 40
0.2294985024
 40
0.2575338572
 40
0.2870362428
 40
0.3502800227
 40
0.4188709321
 40
0.4923237981
 40
0.5700866307
 40
0.6515194739
 40
0.7359491152
 40
0.8226880177
 40
0.9110020653
 40
1.0
 40
1.0
 40
1.0
 40
1.0
 10
10.4185077747
 20
9.8199460032
 30
0.0
 10
10.4185077747
 20
9.820412105
 30
0.0
 10
10.4185840358
 20
9.8213568366
 30
0.0
 10
10.4189235453
 20
9.8227620915
 30
0.0
 10
10.419485919
 20
9.8241582304
 30
0.0
 10
10.4202684168
 20
9.8255407005
 30
0.0
 10
10.4212685352
 20
9.8269060186
 30
0.0
 10
10.4224823653
 20
9.8282519686
 30
0.0
 10
10.4239065835
 20
9.8295763453
 30
0.0
 10
10.4255380219
 20
9.8308766348
 30
0.0
 10
10.4273731839
 20
9.8321499219
 30
0.0
 10
10.4294074934
 20
9.833393812
 30
0.0
 10
10.4316361173
 20
9.834605507
 30
0.0
 10
10.4340540303
 20
9.8357820397
 30
0.0
 10
10.4366557631
 20
9.8369203209
 30
0.0
 10
10.4404499396
 20
9.8384186735
 30
0.0
 10
10.4456146018
 20
9.8401645783
 30
0.0
 10
10.45229621
 20
9.8420219953
 30
0.0
 10
10.4595357389
 20
9.8436710127
 30
0.0
 10
10.4672640271
 20
9.8450938208
 30
0.0
 10
10.4754069336
 20
9.8462782054
 30
0.0
 10
10.4838872753
 20
9.8472112078
 30
0.0
 10
10.4926251412
 20
9.8478846804
 30
0.0
 10
10.5015337779
 20
9.8482905712
 30
0.0
 10
10.5075216843
 20
9.848381504
 30
0.0
 10
10.5105269884
 20
9.848381504
 30
0.0
  0
SPLINE
  5
3BD
100
AcDbEntity
  8
0
100
AcDbSpline
 62
7
  6
CONTINUOUS
 70
0
 71
3
 72
29
 73
25
 74
0
 42
0.0000001
 43
0.0000001
 44
0.0000000001
 40
0.0
 40
0.0
 40
0.0
 40
0.0
 40
0.0138030942
 40
0.027928991
 40
0.0426571979
 40
0.0582308455
 40
0.0748517698
 40
0.0926773283
 40
0.111825283
 40
0.1323820122
 40
0.1544069434
 40
0.1779295929
 40
0.2029610926
 40
0.2295006936
 40
0.2870294356
 40
0.3502738193
 40
0.4188653836
 40
0.4923189509
 40
0.5700825259
 40
0.6515161467
 40
0.7359465941
 40
0.8226863248
 40
0.9110012156
 40
1.0
 40
1.0
 40
1.0
 40
1.0
 10
10.4345077747
 20
9.8114297868
 30
0.0
 10
10.4345077747
 20
9.8110447292
 30
0.0
 10
10.4345707758
 20
9.8102642645
 30
0.0
 10
10.4348512525
 20
9.8091033506
 30
0.0
 10
10.4353158425
 20
9.8079499679
 30
0.0
 10
10.4359622821
 20
9.8068078771
 30
0.0
 10
10.4367885032
 20
9.8056799561
 30
0.0
 10
10.4377912765
 20
9.8045680355
 30
0.0
 10
10.4389678563
 20
9.803473937
 30
0.0
 10
10.4403156256
 20
9.802399738
 30
0.0
 10
10.4418316953
 20
9.801347844
 30
0.0
 10
10.4435122868
 20
9.8003202455
 30
0.0
 10
10.4453534004
 20
9.799319203
 30
0.0
 10
10.4480909621
 20
9.7979873288
 30
0.0
 10
10.4518941773
 20
9.7964197332
 30
0.0
 10
10.4569011645
 20
9.7947267203
 30
0.0
 10
10.4624212443
 20
9.7931923052
 30
0.0
 10
10.468401914
 20
9.7918300016
 30
0.0
 10
10.4747864542
 20
9.7906545903
 30
0.0
 10
10.4815134925
 20
9.7896761415
 30
0.0
 10
10.4885193019
 20
9.7889053669
 30
0.0
 10
10.4957378557
 20
9.7883489954
 30
0.0
 10
10.503097488
 20
9.7880136796
 30
0.0
 10
10.5080442368
 20
9.7879385579
 30
0.0
 10
10.5105269884
 20
9.7879385579
 30
0.0
  0
SPLINE
  5
3BE
100
AcDbEntity
  8
0
100
AcDbSpline
 62
7
  6
CONTINUOUS
 70
0
 71
3
 72
29
 73
25
 74
0
 42
0.0000001
 43
0.0000001
 44
0.0000000001
 40
0.0
 40
0.0
 40
0.0
 40
0.0
 40
0.0889987891
 40
0.1773136928
 40
0.2640534353
 40
0.3484838876
 40
0.4299175096
 40
0.5076810863
 40
0.5811346535
 40
0.649726216
 40
0.712970596
 40
0.7704993337
 40
0.7970389328
 40
0.8220704294
 40
0.8455930759
 40
0.8676180051
 40
0.8881747324
 40
0.9073226842
 40
0.9251482396
 40
0.941769161
 40
0.957342806
 40
0.9720710108
 40
0.9861969062
 40
1.0
 40
1.0
 40
1.0
 40
1.0
 10
11.3648576971
 20
9.7879385579
 30
0.0
 10
11.3673404489
 20
9.7879385579
 30
0.0
 10
11.3722871981
 20
9.7880136796
 30
0.0
 10
11.3796468312
 20
9.7883489955
 30
0.0
 10
11.3868653858
 20
9.7889053671
 30
0.0
 10
11.3938711957
 20
9.7896761419
 30
0.0
 10
11.4005982343
 20
9.7906545908
 30
0.0
 10
11.4069827745
 20
9.7918300022
 30
0.0
 10
11.4129634442
 20
9.793192306
 30
0.0
 10
11.4184835238
 20
9.7947267212
 30
0.0
 10
11.4234905107
 20
9.7964197341
 30
0.0
 10
11.4272937256
 20
9.7979873297
 30
0.0
 10
11.430031287
 20
9.7993192039
 30
0.0
 10
11.4318724003
 20
9.8003202464
 30
0.0
 10
11.4335529916
 20
9.8013478449
 30
0.0
 10
11.4350690611
 20
9.8023997389
 30
0.0
 10
11.4364168302
 20
9.8034739378
 30
0.0
 10
11.4375934098
 20
9.8045680362
 30
0.0
 10
11.4385961828
 20
9.8056799567
 30
0.0
 10
11.4394224037
 20
9.8068078776
 30
0.0
 10
11.4400688433
 20
9.8079499682
 30
0.0
 10
11.4405334332
 20
9.8091033508
 30
0.0
 10
11.4408139097
 20
9.8102642646
 30
0.0
 10
11.4408769107
 20
9.8110447292
 30
0.0
 10
11.4408769107
 20
9.8114297868
 30
0.0
  0
SPLINE
  5
3BF
100
AcDbEntity
  8
0
100
AcDbSpline
 62
7
  6
CONTINUOUS
 70
0
 71
3
 72
30
 73
26
 74
0
 42
0.0000001
 43
0.0000001
 44
0.0000000001
 40
0.0
 40
0.0
 40
0.0
 40
0.0
 40
0.0138029624
 40
0.0279287244
 40
0.0426567907
 40
0.0582302895
 40
0.0748510551
 40
0.0926764434
 40
0.1118242153
 40
0.1323807483
 40
0.1544054691
 40
0.1779278941
 40
0.2029591548
 40
0.2294985024
 40
0.2575338572
 40
0.2870362428
 40
0.3502800227
 40
0.4188709321
 40
0.4923237981
 40
0.5700866307
 40
0.6515194739
 40
0.7359491152
 40
0.8226880177
 40
0.9110020653
 40
1.0
 40
1.0
 40
1.0
 40
1.0
 10
11.4568769107
 20
9.8274133466
 30
0.0
 10
11.4568769107
 20
9.8278797974
 30
0.0
 10
11.4568005926
 20
9.8288252363
 30
0.0
 10
11.4564608289
 20
9.8302315435
 30
0.0
 10
11.4558980341
 20
9.8316287276
 30
0.0
 10
11.4551149504
 20
9.8330122329
 30
0.0
 10
11.4541140832
 20
9.8343785733
 30
0.0
 10
11.4528993443
 20
9.835725531
 30
0.0
 10
11.4514740597
 20
9.8370508992
 30
0.0
 10
11.4498413998
 20
9.8383521624
 30
0.0
 10
11.4480048638
 20
9.8396264028
 30
0.0
 10
11.4459690311
 20
9.8408712242
 30
0.0
 10
11.4437387386
 20
9.8420838265
 30
0.0
 10
11.4413190152
 20
9.8432612401
 30
0.0
 10
11.4387153344
 20
9.8444003735
 30
0.0
 10
11.4349183171
 20
9.845899848
 30
0.0
 10
11.4297497879
 20
9.84764706
 30
0.0
 10
11.423063177
 20
9.8495058678
 30
0.0
 10
11.4158182276
 20
9.8511561198
 30
0.0
 10
11.408084153
 20
9.8525799932
 30
0.0
 10
11.3999351497
 20
9.8537652646
 30
0.0
 10
11.3914484585
 20
9.8546989655
 30
0.0
 10
11.3827040503
 20
9.8553729424
 30
0.0
 10
11.3737887434
 20
9.8557791371
 30
0.0
 10
11.3677963537
 20
9.855870138
 30
0.0
 10
11.3647887994
 20
9.855870138
 30
0.0
  0
SPLINE
  5
3C0
100
AcDbEntity
  8
0
100
AcDbSpline
 62
7
  6
CONTINUOUS
 70
0
 71
3
 72
20
 73
16
 74
0
 42
0.0000001
 43
0.0000001
 44
0.0000000001
 40
0.0
 40
0.0
 40
0.0
 40
0.0
 40
0.15188166
 40
0.3009974816
 40
0.4445534369
 40
0.5134606565
 40
0.5800352152
 40
0.6439940798
 40
0.7050746045
 40
0.7630351311
 40
0.8176686938
 40
0.8687914054
 40
0.9162702247
 40
0.9600156314
 40
1.0
 40
1.0
 40
1.0
 40
1.0
 10
11.3647887994
 20
9.8680361614
 30
0.0
 10
11.3710349453
 20
9.8680361614
 30
0.0
 10
11.3834153386
 20
9.8677644776
 30
0.0
 10
11.4016629258
 20
9.8665479439
 30
0.0
 10
11.4164435682
 20
9.8648591092
 30
0.0
 10
11.4277857185
 20
9.8631071643
 30
0.0
 10
11.4358547108
 20
9.8616294604
 30
0.0
 10
11.4435611987
 20
9.8599782261
 30
0.0
 10
11.4508661956
 20
9.8581621449
 30
0.0
 10
11.4577326333
 20
9.8561898352
 30
0.0
 10
11.4641260802
 20
9.8540725493
 30
0.0
 10
11.4700141663
 20
9.8518199744
 30
0.0
 10
11.475367918
 20
9.8494441872
 30
0.0
 10
11.4801605442
 20
9.846957081
 30
0.0
 10
11.483097681
 20
9.8451513119
 30
0.0
 10
11.4844576845
 20
9.844227022
 30
0.0
  0
SPLINE
  5
3C1
100
AcDbEntity
  8
0
100
AcDbSpline
 62
7
  6
CONTINUOUS
 70
0
 71
3
 72
11
 73
7
 74
0
 42
0.0000001
 43
0.0000001
 44
0.0000000001
 40
0.0
 40
0.0
 40
0.0
 40
0.0
 40
0.2829771293
 40
0.5428762995
 40
0.7811432335
 40
1.0
 40
1.0
 40
1.0
 40
1.0
 10
11.4844576845
 20
9.844227022
 30
0.0
 10
11.4854934485
 20
9.8435230927
 30
0.0
 10
11.4874345737
 20
9.8421025543
 30
0.0
 10
11.4900420435
 20
9.8398250929
 30
0.0
 10
11.4922103897
 20
9.8375000456
 30
0.0
 10
11.4934040928
 20
9.835857817
 30
0.0
 10
11.4939132511
 20
9.8350338836
 30
0.0
  0
SPLINE
  5
3C2
100
AcDbEntity
  8
0
100
AcDbSpline
 62
7
  6
CONTINUOUS
 70
0
 71
3
 72
30
 73
26
 74
0
 42
0.0000001
 43
0.0000001
 44
0.0000000001
 40
0.0
 40
0.0
 40
0.0
 40
0.0
 40
0.0889979393
 40
0.1773119999
 40
0.2640509142
 40
0.3484805604
 40
0.4299134049
 40
0.5076762391
 40
0.581129105
 40
0.6497200126
 40
0.7129637888
 40
0.7424661717
 40
0.7705015248
 40
0.7970408706
 40
0.8220721282
 40
0.8455945501
 40
0.867619269
 40
0.8881758001
 40
0.907323569
 40
0.9251489542
 40
0.941769717
 40
0.9573432133
 40
0.9720712774
 40
0.986197038
 40
1.0
 40
1.0
 40
1.0
 40
1.0
 10
10.5105269884
 20
9.855870138
 30
0.0
 10
10.5075216841
 20
9.855870138
 30
0.0
 10
10.5015337772
 20
9.8557792051
 30
0.0
 10
10.4926251394
 20
9.8553733143
 30
0.0
 10
10.4838872726
 20
9.8546998415
 30
0.0
 10
10.4754069302
 20
9.853766839
 30
0.0
 10
10.4672640235
 20
9.8525824541
 30
0.0
 10
10.4595357353
 20
9.851159646
 30
0.0
 10
10.4522962064
 20
9.8495106284
 30
0.0
 10
10.4456145984
 20
9.8476532112
 30
0.0
 10
10.4404499365
 20
9.8459073064
 30
0.0
 10
10.4366557603
 20
9.8444089537
 30
0.0
 10
10.4340540278
 20
9.8432706726
 30
0.0
 10
10.431636115
 20
9.8420941399
 30
0.0
 10
10.4294074913
 20
9.8408824448
 30
0.0
 10
10.4273731822
 20
9.8396385548
 30
0.0
 10
10.4255380205
 20
9.8383652678
 30
0.0
 10
10.4239065823
 20
9.8370649783
 30
0.0
 10
10.4224823643
 20
9.8357406017
 30
0.0
 10
10.4212685346
 20
9.8343946518
 30
0.0
 10
10.4202684164
 20
9.833029334
 30
0.0
 10
10.4194859186
 20
9.831646864
 30
0.0
 10
10.4189235451
 20
9.8302507254
 30
0.0
 10
10.4185840358
 20
9.8288454705
 30
0.0
 10
10.4185077747
 20
9.827900739
 30
0.0
 10
10.4185077747
 20
9.8274346372
 30
0.0
  0
SPLINE
  5
3C3
100
AcDbEntity
  8
0
100
AcDbSpline
 62
7
  6
CONTINUOUS
 70
0
 71
3
 72
11
 73
7
 74
0
 42
0.0000001
 43
0.0000001
 44
0.0000000001
 40
0.0
 40
0.0
 40
0.0
 40
0.0
 40
0.2188595451
 40
0.4571275476
 40
0.7170258165
 40
1.0
 40
1.0
 40
1.0
 40
1.0
 10
10.3814702112
 20
9.8350511802
 30
0.0
 10
10.3819790536
 20
9.8358746023
 30
0.0
 10
10.3831719985
 20
9.8375158126
 30
0.0
 10
10.385338942
 20
9.8398394323
 30
0.0
 10
10.3879447002
 20
9.8421155019
 30
0.0
 10
10.3898845452
 20
9.8435351815
 30
0.0
 10
10.3909196236
 20
9.8442386858
 30
0.0
  0
SPLINE
  5
3C4
100
AcDbEntity
  8
0
100
AcDbSpline
 62
7
  6
CONTINUOUS
 70
0
 71
3
 72
20
 73
16
 74
0
 42
0.0000001
 43
0.0000001
 44
0.0000000001
 40
0.0
 40
0.0
 40
0.0
 40
0.0
 40
0.0399835484
 40
0.0837282312
 40
0.1312064435
 40
0.1823286738
 40
0.2369618863
 40
0.2949221936
 40
0.3560026262
 40
0.4199615201
 40
0.4865362209
 40
0.5554436853
 40
0.6990003871
 40
0.8481172107
 40
1.0
 40
1.0
 40
1.0
 40
1.0
 10
10.3909196236
 20
9.8442386858
 30
0.0
 10
10.3922788773
 20
9.8451625202
 30
0.0
 10
10.3952144132
 20
9.8469674001
 30
0.0
 10
10.4000044599
 20
9.8494532797
 30
0.0
 10
10.4053553662
 20
9.8518278974
 30
0.0
 10
10.4112403542
 20
9.8540793658
 30
0.0
 10
10.4176304647
 20
9.8561956133
 30
0.0
 10
10.4244933432
 20
9.8581669574
 30
0.0
 10
10.4317945748
 20
9.8599821509
 30
0.0
 10
10.439497109
 20
9.861632579
 30
0.0
 10
10.4475619778
 20
9.8631095623
 30
0.0
 10
10.4588983571
 20
9.8648606547
 30
0.0
 10
10.4736715042
 20
9.8665486678
 30
0.0
 10
10.4919098588
 20
9.8677646097
 30
0.0
 10
10.5042839965
 20
9.8680361614
 30
0.0
 10
10.5105269884
 20
9.8680361614
 30
0.0
  0
SPLINE
  5
3C5
100
AcDbEntity
  8
0
100
AcDbSpline
 62
7
  6
CONTINUOUS
 70
0
 71
3
 72
23
 73
19
 74
0
 42
0.0000001
 43
0.0000001
 44
0.0000000001
 40
0.0
 40
0.0
 40
0.0
 40
0.0
 40
0.0647649846
 40
0.1293197787
 40
0.19368442
 40
0.2578060551
 40
0.3216130803
 40
0.3850218443
 40
0.447967314
 40
0.5104179106
 40
0.572380953
 40
0.6338895255
 40
0.6950050161
 40
0.7558291016
 40
0.8165201063
 40
0.8772880767
 40
0.9383640366
 40
1.0
 40
1.0
 40
1.0
 40
1.0
 10
11.3829673692
 20
11.2247386358
 30
0.0
 10
11.3806324769
 20
11.2385332415
 30
0.0
 10
11.3745416047
 20
11.2658501448
 30
0.0
 10
11.3618323752
 20
11.3057615279
 30
0.0
 10
11.3459599132
 20
11.3443738361
 30
0.0
 10
11.3271369815
 20
11.3814529236
 30
0.0
 10
11.3055678332
 20
11.4167618787
 30
0.0
 10
11.2814573113
 20
11.4500737028
 30
0.0
 10
11.2549602293
 20
11.4811396598
 30
0.0
 10
11.2262094642
 20
11.5096946562
 30
0.0
 10
11.1953846533
 20
11.5355186749
 30
0.0
 10
11.1626845673
 20
11.5584269364
 30
0.0
 10
11.1282948937
 20
11.5782281356
 30
0.0
 10
11.0923925142
 20
11.5947223442
 30
0.0
 10
11.055164475
 20
11.6077345092
 30
0.0
 10
11.0168130065
 20
11.6171607566
 30
0.0
 10
10.977534215
 20
11.6228915858
 30
0.0
 10
10.9510072116
 20
11.6241695021
 30
0.0
 10
10.9376923427
 20
11.6241695021
 30
0.0
  0
SPLINE
  5
3C6
100
AcDbEntity
  8
0
100
AcDbSpline
 62
7
  6
CONTINUOUS
 70
0
 71
3
 72
23
 73
19
 74
0
 42
0.0000001
 43
0.0000001
 44
0.0000000001
 40
0.0
 40
0.0
 40
0.0
 40
0.0
 40
0.0616359497
 40
0.1227118945
 40
0.1834798506
 40
0.2441708441
 40
0.3049949228
 40
0.3661104112
 40
0.4276189858
 40
0.4895820341
 40
0.5520326398
 40
0.6149781205
 40
0.6783868952
 40
0.7421939286
 40
0.8063155686
 40
0.8706802118
 40
0.9352350063
 40
1.0
 40
1.0
 40
1.0
 40
1.0
 10
10.9376923427
 20
11.6241695021
 30
0.0
 10
10.9243774071
 20
11.6241695021
 30
0.0
 10
10.8978502709
 20
11.6228915729
 30
0.0
 10
10.8585712865
 20
11.6171606864
 30
0.0
 10
10.8202196366
 20
11.6077343453
 30
0.0
 10
10.7829914303
 20
11.5947220519
 30
0.0
 10
10.7470889014
 20
11.5782276823
 30
0.0
 10
10.7126990983
 20
11.5584262938
 30
0.0
 10
10.6799989055
 20
11.5355178176
 30
0.0
 10
10.6491740134
 20
11.5096935616
 30
0.0
 10
10.6204231964
 20
11.4811383078
 30
0.0
 10
10.5939260921
 20
11.4500720798
 30
0.0
 10
10.5698155785
 20
11.4167599755
 30
0.0
 10
10.5482464745
 20
11.3814507329
 30
0.0
 10
10.5294236276
 20
11.3443713541
 30
0.0
 10
10.5135512925
 20
11.305758755
 30
0.0
 10
10.5008422409
 20
11.2658470816
 30
0.0
 10
10.4947515388
 20
11.2385299863
 30
0.0
 10
10.4924167494
 20
11.2247352869
 30
0.0
  0
SPLINE
  5
3C7
100
AcDbEntity
  8
0
100
AcDbSpline
 62
7
  6
CONTINUOUS
 70
0
 71
3
 72
18
 73
14
 74
0
 42
0.0000001
 43
0.0000001
 44
0.0000000001
 40
0.0
 40
0.0
 40
0.0
 40
0.0
 40
0.0364052758
 40
0.0769312676
 40
0.1216733505
 40
0.1705994172
 40
0.2236146979
 40
0.2805498858
 40
0.4052203034
 40
0.5423913505
 40
0.6893098442
 40
0.8430159243
 40
1.0
 40
1.0
 40
1.0
 40
1.0
 10
11.5050617941
 20
9.8431405471
 30
0.0
 10
11.5037844869
 20
9.8442893275
 30
0.0
 10
11.5009253536
 20
9.8465412032
 30
0.0
 10
11.4960785997
 20
9.8496319183
 30
0.0
 10
11.4904767965
 20
9.852597319
 30
0.0
 10
11.4841529375
 20
9.8554218917
 30
0.0
 10
11.4771418347
 20
9.8580872621
 30
0.0
 10
11.4666097954
 20
9.8615122625
 30
0.0
 10
11.4520156328
 20
9.8652254195
 30
0.0
 10
11.4330332373
 20
9.8687124845
 30
0.0
 10
11.4125223151
 20
9.8712677657
 30
0.0
 10
11.390976252
 20
9.8728249844
 30
0.0
 10
11.3763127792
 20
9.8731740186
 30
0.0
 10
11.3689049437
 20
9.8731740186
 30
0.0
  0
SPLINE
  5
3C8
100
AcDbEntity
  8
0
100
AcDbSpline
 62
7
  6
CONTINUOUS
 70
0
 71
3
 72
35
 73
31
 74
0
 42
0.0000001
 43
0.0000001
 44
0.0000000001
 40
0.0
 40
0.0
 40
0.0
 40
0.0
 40
0.0033437951
 40
0.0066130825
 40
0.0098874767
 40
0.0132280792
 40
0.0166764283
 40
0.0202563242
 40
0.0278327247
 40
0.0359434606
 40
0.0445820238
 40
0.0537386029
 40
0.0633857801
 40
0.084018284
 40
0.1062707044
 40
0.1299303258
 40
0.1548501127
 40
0.1809057182
 40
0.2080187975
 40
0.2361198145
 40
0.2651355879
 40
0.3256704732
 40
0.3893300279
 40
0.4558982335
 40
0.5252611905
 40
0.5973402229
 40
0.6721032069
 40
0.7495665421
 40
0.8298988875
 40
1.0
 40
1.0
 40
1.0
 40
1.0
 10
11.7626923427
 20
9.8506535955
 30
0.0
 10
11.7626923427
 20
9.8497080429
 30
0.0
 10
11.7625454685
 20
9.84783428
 30
0.0
 10
11.7618841407
 20
9.8451066157
 30
0.0
 10
11.7608253171
 20
9.8425096596
 30
0.0
 10
11.7594082547
 20
9.8400336919
 30
0.0
 10
11.7576705064
 20
9.8376655489
 30
0.0
 10
11.7549211015
 20
9.8345773339
 30
0.0
 10
11.750839521
 20
9.830944399
 30
0.0
 10
11.7452808999
 20
9.8268811889
 30
0.0
 10
11.7390423664
 20
9.8230289134
 30
0.0
 10
11.732195661
 20
9.8193681728
 30
0.0
 10
11.7221080594
 20
9.8146058374
 30
0.0
 10
11.7083029864
 20
9.8090851943
 30
0.0
 10
11.6904579553
 20
9.803095149
 30
0.0
 10
11.6712198175
 20
9.7975036478
 30
0.0
 10
11.6507687324
 20
9.7922783802
 30
0.0
 10
11.6292372585
 20
9.7873701808
 30
0.0
 10
11.60672081
 20
9.7827631419
 30
0.0
 10
11.5832977435
 20
9.7784347622
 30
0.0
 10
11.5504864962
 20
9.7729259149
 30
0.0
 10
11.5076117251
 20
9.7666627085
 30
0.0
 10
11.4540652206
 20
9.7600995748
 30
0.0
 10
11.3979196887
 20
9.7543122373
 30
0.0
 10
11.339312188
 20
9.7492786432
 30
0.0
 10
11.2783240349
 20
9.7449693477
 30
0.0
 10
11.2149953622
 20
9.7413767807
 30
0.0
 10
11.149294297
 20
9.7384906593
 30
0.0
 10
11.056615293
 20
9.7356050339
 30
0.0
 10
10.9857932433
 20
9.7347722226
 30
0.0
 10
10.9376923427
 20
9.7347722226
 30
0.0
  0
SPLINE
  5
3C9
100
AcDbEntity
  8
0
100
AcDbSpline
 62
7
  6
CONTINUOUS
 70
0
 71
3
 72
35
 73
31
 74
0
 42
0.0000001
 43
0.0000001
 44
0.0000000001
 40
0.0
 40
0.0
 40
0.0
 40
0.0
 40
0.1701011125
 40
0.2504334579
 40
0.3278967931
 40
0.4026597771
 40
0.4747388095
 40
0.5441017665
 40
0.6106699721
 40
0.6743295268
 40
0.7348644121
 40
0.7638801855
 40
0.7919812025
 40
0.8190942818
 40
0.8451498873
 40
0.8700696742
 40
0.8937292956
 40
0.915981716
 40
0.9366142199
 40
0.9462613971
 40
0.9554179762
 40
0.9640565394
 40
0.9721672753
 40
0.9797436758
 40
0.9833235717
 40
0.9867719208
 40
0.9901125233
 40
0.9933869175
 40
0.9966562049
 40
1.0
 40
1.0
 40
1.0
 40
1.0
 10
10.9376923427
 20
9.7347722226
 30
0.0
 10
10.8895914422
 20
9.7347722226
 30
0.0
 10
10.8187693925
 20
9.7356050339
 30
0.0
 10
10.7260903884
 20
9.7384906593
 30
0.0
 10
10.6603893233
 20
9.7413767807
 30
0.0
 10
10.5970606506
 20
9.7449693477
 30
0.0
 10
10.5360724975
 20
9.7492786432
 30
0.0
 10
10.4774649968
 20
9.7543122373
 30
0.0
 10
10.4213194649
 20
9.7600995748
 30
0.0
 10
10.3677729604
 20
9.7666627085
 30
0.0
 10
10.3248981892
 20
9.7729259149
 30
0.0
 10
10.292086942
 20
9.7784347622
 30
0.0
 10
10.2686638755
 20
9.7827631419
 30
0.0
 10
10.246147427
 20
9.7873701808
 30
0.0
 10
10.2246159531
 20
9.7922783802
 30
0.0
 10
10.204164868
 20
9.7975036478
 30
0.0
 10
10.1849267302
 20
9.803095149
 30
0.0
 10
10.167081699
 20
9.8090851943
 30
0.0
 10
10.1532766261
 20
9.8146058374
 30
0.0
 10
10.1431890245
 20
9.8193681728
 30
0.0
 10
10.136342319
 20
9.8230289134
 30
0.0
 10
10.1301037856
 20
9.8268811889
 30
0.0
 10
10.1245451645
 20
9.830944399
 30
0.0
 10
10.1204635839
 20
9.8345773339
 30
0.0
 10
10.1177141791
 20
9.8376655489
 30
0.0
 10
10.1159764307
 20
9.8400336919
 30
0.0
 10
10.1145593684
 20
9.8425096596
 30
0.0
 10
10.1135005448
 20
9.8451066157
 30
0.0
 10
10.112839217
 20
9.84783428
 30
0.0
 10
10.1126923427
 20
9.8497080429
 30
0.0
 10
10.1126923427
 20
9.8506535955
 30
0.0
  0
SPLINE
  5
3CA
100
AcDbEntity
  8
0
100
AcDbSpline
 62
7
  6
CONTINUOUS
 70
0
 71
3
 72
18
 73
14
 74
0
 42
0.0000001
 43
0.0000001
 44
0.0000000001
 40
0.0
 40
0.0
 40
0.0
 40
0.0
 40
0.1569840756
 40
0.3106901557
 40
0.4576086493
 40
0.5947796965
 40
0.7194501141
 40
0.776385302
 40
0.8294005827
 40
0.8783266494
 40
0.9230687323
 40
0.9635947241
 40
1.0
 40
1.0
 40
1.0
 40
1.0
 10
10.5064797422
 20
9.8731740187
 30
0.0
 10
10.4990719066
 20
9.8731740187
 30
0.0
 10
10.4844084338
 20
9.8728249844
 30
0.0
 10
10.4628623706
 20
9.8712677657
 30
0.0
 10
10.4423514484
 20
9.8687124845
 30
0.0
 10
10.4233690528
 20
9.8652254195
 30
0.0
 10
10.4087748902
 20
9.8615122625
 30
0.0
 10
10.3982428509
 20
9.8580872622
 30
0.0
 10
10.391231748
 20
9.8554218918
 30
0.0
 10
10.384907889
 20
9.852597319
 30
0.0
 10
10.3793060858
 20
9.8496319183
 30
0.0
 10
10.3744593319
 20
9.8465412032
 30
0.0
 10
10.3716001985
 20
9.8442893275
 30
0.0
 10
10.3703228914
 20
9.8431405471
 30
0.0
  0
SPLINE
  5
3CB
100
AcDbEntity
  8
0
100
AcDbSpline
 62
9
  6
CONTINUOUS
 70
0
 71
3
 72
29
 73
25
 74
0
 42
0.0000001
 43
0.0000001
 44
0.0000000001
 40
0.0
 40
0.0
 40
0.0
 40
0.0
 40
0.0733554873
 40
0.1443787153
 40
0.2133960525
 40
0.2807239637
 40
0.3466521364
 40
0.4113641915
 40
0.5375393998
 40
0.5992034646
 40
0.6599280705
 40
0.6899364846
 40
0.7196985444
 40
0.7783934307
 40
0.8073009368
 40
0.8358935648
 40
0.8641483205
 40
0.8920456283
 40
0.9195592029
 40
0.9466859561
 40
0.9601134834
 40
0.9734612683
 40
0.986748143
 40
1.0
 40
1.0
 40
1.0
 40
1.0
 10
10.9376923427
 20
11.1884464254
 30
0.0
 10
10.92197525
 20
11.1884464254
 30
0.0
 10
10.8910319877
 20
11.1875514206
 30
0.0
 10
10.8454658747
 20
11.1834600678
 30
0.0
 10
10.8015149205
 20
11.176752177
 30
0.0
 10
10.7591384065
 20
11.1675375294
 30
0.0
 10
10.7183090263
 20
11.1559334686
 30
0.0
 10
10.6663996752
 20
11.1376021199
 30
0.0
 10
10.6171075687
 20
11.1148733478
 30
0.0
 10
10.5710421807
 20
11.0880951516
 30
0.0
 10
10.5438814456
 20
11.0699256678
 30
0.0
 10
10.5231367001
 20
11.0545508587
 30
0.0
 10
10.503242106
 20
11.0387828649
 30
0.0
 10
10.4843310474
 20
11.0221695588
 30
0.0
 10
10.4665800595
 20
11.0047066843
 30
0.0
 10
10.4539952319
 20
10.9913119827
 30
0.0
 10
10.4421435518
 20
10.977548138
 30
0.0
 10
10.431097627
 20
10.9634193916
 30
0.0
 10
10.4209947528
 20
10.9488928156
 30
0.0
 10
10.4134560482
 20
10.9363913796
 30
0.0
 10
10.4081025998
 20
10.9261544369
 30
0.0
 10
10.4044739274
 20
10.9183716996
 30
0.0
 10
10.4012476384
 20
10.910454463
 30
0.0
 10
10.3994045829
 20
10.9050698549
 30
0.0
 10
10.3985896113
 20
10.9023499958
 30
0.0
  0
SPLINE
  5
3CC
100
AcDbEntity
  8
0
100
AcDbSpline
 62
7
  6
CONTINUOUS
 70
0
 71
3
 72
22
 73
18
 74
0
 42
0.0000001
 43
0.0000001
 44
0.0000000001
 40
0.0
 40
0.0
 40
0.0
 40
0.0
 40
0.0138008259
 40
0.0279277176
 40
0.058173277
 40
0.0925881807
 40
0.1322753164
 40
0.1778083016
 40
0.2293817793
 40
0.2869162565
 40
0.3501788506
 40
0.4187807495
 40
0.492256816
 40
0.5700307341
 40
0.651472081
 40
0.8226829861
 40
1.0
 40
1.0
 40
1.0
 40
1.0
 10
10.3625112406
 20
9.8176677529
 30
0.0
 10
10.3625112406
 20
9.8169387935
 30
0.0
 10
10.3626308369
 20
9.8154610436
 30
0.0
 10
10.3633549594
 20
9.81246395
 30
0.0
 10
10.36523221
 20
9.8086884097
 30
0.0
 10
10.3687886739
 20
9.8044323206
 30
0.0
 10
10.3736332901
 20
9.8003383281
 30
0.0
 10
10.3797251044
 20
9.7964245173
 30
0.0
 10
10.3870143484
 20
9.7927151506
 30
0.0
 10
10.3954380854
 20
9.7892401506
 30
0.0
 10
10.404921216
 20
9.7860356127
 30
0.0
 10
10.4153751132
 20
9.783128055
 30
0.0
 10
10.4267017467
 20
9.7805498276
 30
0.0
 10
10.4387922956
 20
9.7783224545
 30
0.0
 10
10.4560672794
 20
9.7758110506
 30
0.0
 10
10.4787001775
 20
9.7737306121
 30
0.0
 10
10.4971138594
 20
9.7731790393
 30
0.0
 10
10.5064797418
 20
9.7731790393
 30
0.0
  0
SPLINE
  5
3CD
100
AcDbEntity
  8
0
100
AcDbSpline
 62
7
  6
CONTINUOUS
 70
0
 71
3
 72
22
 73
18
 74
0
 42
0.0000001
 43
0.0000001
 44
0.0000000001
 40
0.0
 40
0.0
 40
0.0
 40
0.0
 40
0.1773170136
 40
0.3485279186
 40
0.4299692654
 40
0.5077431835
 40
0.5812192501
 40
0.649821149
 40
0.7130837431
 40
0.7706182204
 40
0.8221916982
 40
0.8677246835
 40
0.9074118193
 40
0.941826723
 40
0.9720722825
 40
0.9861991741
 40
1.0
 40
1.0
 40
1.0
 40
1.0
 10
11.3689049433
 20
9.7731790393
 30
0.0
 10
11.3782708257
 20
9.7731790392
 30
0.0
 10
11.3966845076
 20
9.7737306121
 30
0.0
 10
11.4193174057
 20
9.7758110506
 30
0.0
 10
11.4365923896
 20
9.7783224544
 30
0.0
 10
11.4486829385
 20
9.7805498276
 30
0.0
 10
11.460009572
 20
9.783128055
 30
0.0
 10
11.4704634692
 20
9.7860356126
 30
0.0
 10
11.4799465999
 20
9.7892401505
 30
0.0
 10
11.4883703369
 20
9.7927151505
 30
0.0
 10
11.4956595809
 20
9.7964245172
 30
0.0
 10
11.5017513953
 20
9.800338328
 30
0.0
 10
11.5065960114
 20
9.8044323205
 30
0.0
 10
11.5101524754
 20
9.8086884096
 30
0.0
 10
11.512029726
 20
9.8124639499
 30
0.0
 10
11.5127538485
 20
9.8154610434
 30
0.0
 10
11.5128734448
 20
9.8169387934
 30
0.0
 10
11.5128734448
 20
9.8176677528
 30
0.0
  0
SPLINE
  5
3CE
100
AcDbEntity
  8
0
100
AcDbSpline
 62
7
  6
CONTINUOUS
 70
0
 71
3
 72
12
 73
8
 74
0
 42
0.0000001
 43
0.0000001
 44
0.0000000001
 40
0.0
 40
0.0
 40
0.0
 40
0.0
 40
0.1089038152
 40
0.2196692875
 40
0.452658546
 40
0.7102228733
 40
1.0
 40
1.0
 40
1.0
 40
1.0
 10
11.5128734449
 20
9.828685305
 30
0.0
 10
11.5128734449
 20
9.8292989977
 30
0.0
 10
11.5127891774
 20
9.830538487
 30
0.0
 10
11.5122806055
 20
9.8330444446
 30
0.0
 10
11.5109695559
 20
9.8362069194
 30
0.0
 10
11.5084469024
 20
9.8398386819
 30
0.0
 10
11.5062759298
 20
9.8420485816
 30
0.0
 10
11.5050617941
 20
9.8431405471
 30
0.0
  0
SPLINE
  5
3CF
100
AcDbEntity
  8
0
100
AcDbSpline
 62
9
  6
CONTINUOUS
 70
0
 71
3
 72
33
 73
29
 74
0
 42
0.0000001
 43
0.0000001
 44
0.0000000001
 40
0.0
 40
0.0
 40
0.0
 40
0.0
 40
0.1631004586
 40
0.2403245374
 40
0.3149546482
 40
0.3871805197
 40
0.4570584288
 40
0.5245954282
 40
0.5897568651
 40
0.6524840387
 40
0.7126446063
 40
0.741715006
 40
0.7700640631
 40
0.824381512
 40
0.8502597695
 40
0.8751982233
 40
0.8872892639
 40
0.8991135519
 40
0.910653249
 40
0.9218912884
 40
0.932814406
 40
0.943411613
 40
0.9536667333
 40
0.9635710993
 40
0.9731310655
 40
0.9823644203
 40
0.9912852337
 40
1.0
 40
1.0
 40
1.0
 40
1.0
 10
10.9376923427
 20
10.4993960917
 30
0.0
 10
10.8969413468
 20
10.4993960917
 30
0.0
 10
10.8368739055
 20
10.497779466
 30
0.0
 10
10.758373767
 20
10.4921707521
 30
0.0
 10
10.7026619761
 20
10.4865412983
 30
0.0
 10
10.64896059
 20
10.4795137902
 30
0.0
 10
10.5972450048
 20
10.4711508518
 30
0.0
 10
10.5475471467
 20
10.4615188485
 30
0.0
 10
10.499931908
 20
10.4506646647
 30
0.0
 10
10.4545006235
 20
10.4386456914
 30
0.0
 10
10.4181777546
 20
10.4275562431
 30
0.0
 10
10.3903637939
 20
10.4180921626
 30
0.0
 10
10.3641446344
 20
10.4084990515
 30
0.0
 10
10.3390252785
 20
10.3982285636
 30
0.0
 10
10.3152122421
 20
10.3871305937
 30
0.0
 10
10.301214926
 20
10.3799699776
 30
0.0
 10
10.2905401575
 20
10.3740484098
 30
0.0
 10
10.2828995658
 20
10.3695637091
 30
0.0
 10
10.2755675337
 20
10.3649804718
 30
0.0
 10
10.2685723242
 20
10.3602905846
 30
0.0
 10
10.261943479
 20
10.3554862478
 30
0.0
 10
10.2557118299
 20
10.3505628392
 30
0.0
 10
10.2499237899
 20
10.3455023109
 30
0.0
 10
10.2446296539
 20
10.3402879126
 30
0.0
 10
10.2398865755
 20
10.3349022655
 30
0.0
 10
10.2357401879
 20
10.3293430974
 30
0.0
 10
10.2323655896
 20
10.3235177415
 30
0.0
 10
10.2307846969
 20
10.3193737495
 30
0.0
 10
10.2302157452
 20
10.3172719938
 30
0.0
  0
SPLINE
  5
3D0
100
AcDbEntity
  8
0
100
AcDbSpline
 62
9
  6
CONTINUOUS
 70
0
 71
3
 72
23
 73
19
 74
0
 42
0.0000001
 43
0.0000001
 44
0.0000000001
 40
0.0
 40
0.0
 40
0.0
 40
0.0
 40
0.0627198023
 40
0.1244902602
 40
0.1856159971
 40
0.2463883019
 40
0.3070800631
 40
0.3679045801
 40
0.4290151139
 40
0.4905232673
 40
0.5525081878
 40
0.6150193821
 40
0.6780648132
 40
0.7416152227
 40
0.8056122691
 40
0.8700107912
 40
0.9347855715
 40
1.0
 40
1.0
 40
1.0
 40
1.0
 10
10.9376923427
 20
11.5982626573
 30
0.0
 10
10.9246102267
 20
11.5982626573
 30
0.0
 10
10.8986279536
 20
11.5971054953
 30
0.0
 10
10.860216102
 20
11.5918693037
 30
0.0
 10
10.8228357011
 20
11.5832397452
 30
0.0
 10
10.7866122518
 20
11.5713104401
 30
0.0
 10
10.7516777115
 20
11.5561731808
 30
0.0
 10
10.7181603098
 20
11.5379717763
 30
0.0
 10
10.6861866713
 20
11.5168718684
 30
0.0
 10
10.6558946918
 20
11.4930312683
 30
0.0
 10
10.6274354497
 20
11.4666013554
 30
0.0
 10
10.6009521503
 20
11.4377581378
 30
0.0
 10
10.5765563979
 20
11.4067158053
 30
0.0
 10
10.5543800888
 20
11.3736769352
 30
0.0
 10
10.5346297472
 20
11.3388069752
 30
0.0
 10
10.5175155023
 20
11.3022841999
 30
0.0
 10
10.5033067036
 20
11.2642637406
 30
0.0
 10
10.49613799
 20
11.2380582953
 30
0.0
 10
10.4932812806
 20
11.2247592071
 30
0.0
  0
SPLINE
  5
3D1
100
AcDbEntity
  8
0
100
AcDbSpline
 62
9
  6
CONTINUOUS
 70
0
 71
3
 72
29
 73
25
 74
0
 42
0.0000001
 43
0.0000001
 44
0.0000000001
 40
0.0
 40
0.0
 40
0.0
 40
0.0
 40
0.013251857
 40
0.0265387317
 40
0.0398865166
 40
0.0533140439
 40
0.0804407971
 40
0.1079543717
 40
0.1358516795
 40
0.1641064352
 40
0.1926990632
 40
0.2216065693
 40
0.2803014556
 40
0.3100635154
 40
0.3400719295
 40
0.4007965354
 40
0.4624606002
 40
0.5886358085
 40
0.6533478636
 40
0.7192760363
 40
0.7866039475
 40
0.8556212847
 40
0.9266445127
 40
1.0
 40
1.0
 40
1.0
 40
1.0
 10
11.4767950742
 20
10.9023499958
 30
0.0
 10
11.4759801026
 20
10.9050698549
 30
0.0
 10
11.4741370471
 20
10.910454463
 30
0.0
 10
11.470910758
 20
10.9183716996
 30
0.0
 10
11.4672820857
 20
10.9261544369
 30
0.0
 10
11.4619286373
 20
10.9363913796
 30
0.0
 10
11.4543899327
 20
10.9488928156
 30
0.0
 10
11.4442870585
 20
10.9634193916
 30
0.0
 10
11.4332411337
 20
10.977548138
 30
0.0
 10
11.4213894536
 20
10.9913119827
 30
0.0
 10
11.4088046259
 20
11.0047066843
 30
0.0
 10
11.3910536381
 20
11.0221695588
 30
0.0
 10
11.3721425794
 20
11.0387828649
 30
0.0
 10
11.3522479854
 20
11.0545508587
 30
0.0
 10
11.3315032398
 20
11.0699256678
 30
0.0
 10
11.3043425047
 20
11.0880951516
 30
0.0
 10
11.2582771167
 20
11.1148733478
 30
0.0
 10
11.2089850103
 20
11.1376021199
 30
0.0
 10
11.1570756592
 20
11.1559334686
 30
0.0
 10
11.116246279
 20
11.1675375294
 30
0.0
 10
11.073869765
 20
11.176752177
 30
0.0
 10
11.0299188108
 20
11.1834600678
 30
0.0
 10
10.9843526978
 20
11.1875514206
 30
0.0
 10
10.9534094354
 20
11.1884464254
 30
0.0
 10
10.9376923427
 20
11.1884464254
 30
0.0
  0
SPLINE
  5
3D2
100
AcDbEntity
  8
0
100
AcDbSpline
 62
9
  6
CONTINUOUS
 70
0
 71
3
 72
24
 73
20
 74
0
 42
0.0000001
 43
0.0000001
 44
0.0000000001
 40
0.0
 40
0.0
 40
0.0
 40
0.0
 40
0.0652640396
 40
0.1301764661
 40
0.1947833525
 40
0.2590403179
 40
0.3228820263
 40
0.3862306485
 40
0.449032226
 40
0.511270266
 40
0.5729707659
 40
0.6341908997
 40
0.6950209133
 40
0.7555952444
 40
0.8161101817
 40
0.8768230221
 40
0.9073490619
 40
0.9380312614
 40
1.0
 40
1.0
 40
1.0
 40
1.0
 10
11.3823476865
 20
11.2245657574
 30
0.0
 10
11.3797662528
 20
11.2382267536
 30
0.0
 10
11.3731322374
 20
11.2652085476
 30
0.0
 10
11.3596256402
 20
11.3044891116
 30
0.0
 10
11.3430814778
 20
11.342355167
 30
0.0
 10
11.3237561614
 20
11.3786182437
 30
0.0
 10
11.3018597206
 20
11.4130708778
 30
0.0
 10
11.2776009875
 20
11.4455167337
 30
0.0
 10
11.2511243734
 20
11.4757302101
 30
0.0
 10
11.222549689
 20
11.5034697129
 30
0.0
 10
11.1920340834
 20
11.5285337553
 30
0.0
 10
11.159748498
 20
11.5507512312
 30
0.0
 10
11.1258504776
 20
11.5699446411
 30
0.0
 10
11.0904864687
 20
11.5859282182
 30
0.0
 10
11.0538097531
 20
11.5985378359
 30
0.0
 10
11.0223345067
 20
11.6061357069
 30
0.0
 10
10.9967100905
 20
11.6104240611
 30
0.0
 10
10.9706471293
 20
11.6135241774
 30
0.0
 10
10.9508931229
 20
11.6144511771
 30
0.0
 10
10.9376923427
 20
11.6144511771
 30
0.0
  0
SPLINE
  5
3D3
100
AcDbEntity
  8
0
100
AcDbSpline
 62
9
  6
CONTINUOUS
 70
0
 71
3
 72
33
 73
29
 74
0
 42
0.0000001
 43
0.0000001
 44
0.0000000001
 40
0.0
 40
0.0
 40
0.0
 40
0.0
 40
0.0087147663
 40
0.0176355797
 40
0.0268689345
 40
0.0364289007
 40
0.0463332667
 40
0.056588387
 40
0.067185594
 40
0.0781087116
 40
0.089346751
 40
0.1008864481
 40
0.1127107361
 40
0.1248017767
 40
0.1497402305
 40
0.175618488
 40
0.2299359369
 40
0.258284994
 40
0.2873553937
 40
0.3475159613
 40
0.4102431349
 40
0.4754045718
 40
0.5429415712
 40
0.6128194803
 40
0.6850453518
 40
0.7596754626
 40
0.8368995414
 40
1.0
 40
1.0
 40
1.0
 40
1.0
 10
11.6451689403
 20
10.3172719938
 30
0.0
 10
11.6445999886
 20
10.3193737495
 30
0.0
 10
11.6430190959
 20
10.3235177415
 30
0.0
 10
11.6396444976
 20
10.3293430974
 30
0.0
 10
11.63549811
 20
10.3349022655
 30
0.0
 10
11.6307550316
 20
10.3402879126
 30
0.0
 10
11.6254608956
 20
10.3455023109
 30
0.0
 10
11.6196728556
 20
10.3505628392
 30
0.0
 10
11.6134412065
 20
10.3554862478
 30
0.0
 10
11.6068123613
 20
10.3602905846
 30
0.0
 10
11.5998171517
 20
10.3649804718
 30
0.0
 10
11.5924851197
 20
10.3695637091
 30
0.0
 10
11.5848445279
 20
10.3740484098
 30
0.0
 10
11.5741697595
 20
10.3799699776
 30
0.0
 10
11.5601724434
 20
10.3871305937
 30
0.0
 10
11.536359407
 20
10.3982285636
 30
0.0
 10
11.511240051
 20
10.4084990515
 30
0.0
 10
11.4850208916
 20
10.4180921626
 30
0.0
 10
11.4572069309
 20
10.4275562431
 30
0.0
 10
11.4208840619
 20
10.4386456914
 30
0.0
 10
11.3754527775
 20
10.4506646647
 30
0.0
 10
11.3278375388
 20
10.4615188485
 30
0.0
 10
11.2781396806
 20
10.4711508518
 30
0.0
 10
11.2264240955
 20
10.4795137902
 30
0.0
 10
11.1727227093
 20
10.4865412983
 30
0.0
 10
11.1170109185
 20
10.4921707521
 30
0.0
 10
11.03851078
 20
10.497779466
 30
0.0
 10
10.9784433387
 20
10.4993960917
 30
0.0
 10
10.9376923427
 20
10.4993960917
 30
0.0
  0
SPLINE
  5
3D4
100
AcDbEntity
  8
0
100
AcDbSpline
 62
9
  6
CONTINUOUS
 70
0
 71
3
 72
31
 73
27
 74
0
 42
0.0000001
 43
0.0000001
 44
0.0000000001
 40
0.0
 40
0.0
 40
0.0
 40
0.0
 40
0.0139666856
 40
0.0279359477
 40
0.0419306157
 40
0.0559667595
 40
0.0700538854
 40
0.0841963309
 40
0.112656745
 40
0.1413570159
 40
0.1702849612
 40
0.1994315621
 40
0.2287848181
 40
0.2880773766
 40
0.3180057551
 40
0.3481022613
 40
0.4087930932
 40
0.4701778743
 40
0.5323065363
 40
0.595265664
 40
0.6591655914
 40
0.7241531462
 40
0.7904286053
 40
0.8582858554
 40
0.9280374709
 40
1.0
 40
1.0
 40
1.0
 40
1.0
 10
11.4556602747
 20
10.9727656009
 30
0.0
 10
11.4548178147
 20
10.9755687798
 30
0.0
 10
11.452956791
 20
10.9811234692
 30
0.0
 10
11.4497659175
 20
10.9893141368
 30
0.0
 10
11.4462032469
 20
10.997366091
 30
0.0
 10
11.4423033318
 20
11.005287031
 30
0.0
 10
11.4380979201
 20
11.0130849142
 30
0.0
 10
11.4321146945
 20
11.02335106
 30
0.0
 10
11.4239934438
 20
11.0359057354
 30
0.0
 10
11.4133982411
 20
11.0505174453
 30
0.0
 10
11.4020437896
 20
11.0647306542
 30
0.0
 10
11.3899957598
 20
11.0785422183
 30
0.0
 10
11.3730336934
 20
11.0964849676
 30
0.0
 10
11.3549273595
 20
11.1135443667
 30
0.0
 10
11.3358451285
 20
11.1297100475
 30
0.0
 10
11.3159934784
 20
11.1453995629
 30
0.0
 10
11.2899788034
 20
11.16389139
 30
0.0
 10
11.2570653356
 20
11.1841186989
 30
0.0
 10
11.2224600394
 20
11.2023378031
 30
0.0
 10
11.1862465914
 20
11.2184480918
 30
0.0
 10
11.1484891981
 20
11.2323487278
 30
0.0
 10
11.1092306801
 20
11.2439278349
 30
0.0
 10
11.0684862204
 20
11.25308147
 30
0.0
 10
11.0262453381
 20
11.2597158848
 30
0.0
 10
10.9824820413
 20
11.2637453142
 30
0.0
 10
10.9527737339
 20
11.2646233159
 30
0.0
 10
10.9376923427
 20
11.2646233159
 30
0.0
  0
SPLINE
  5
3D5
100
AcDbEntity
  8
0
100
AcDbSpline
 62
7
  6
CONTINUOUS
 70
0
 71
3
 72
12
 73
8
 74
0
 42
0.0000001
 43
0.0000001
 44
0.0000000001
 40
0.0
 40
0.0
 40
0.0
 40
0.0
 40
0.2897771271
 40
0.547341453
 40
0.7803307112
 40
0.8910961841
 40
1.0
 40
1.0
 40
1.0
 40
1.0
 10
10.3703228914
 20
9.8431405471
 30
0.0
 10
10.3691087557
 20
9.8420485817
 30
0.0
 10
10.3669377831
 20
9.839838682
 30
0.0
 10
10.3644151296
 20
9.8362069194
 30
0.0
 10
10.3631040801
 20
9.8330444447
 30
0.0
 10
10.3625955082
 20
9.8305384871
 30
0.0
 10
10.3625112407
 20
9.8292989978
 30
0.0
 10
10.3625112407
 20
9.8286853051
 30
0.0
  0
SPLINE
  5
3D6
100
AcDbEntity
  8
0
100
AcDbSpline
 62
9
  6
CONTINUOUS
 70
0
 71
3
 72
34
 73
30
 74
0
 42
0.0000001
 43
0.0000001
 44
0.0000000001
 40
0.0
 40
0.0
 40
0.0
 40
0.0
 40
0.1641454703
 40
0.2418292082
 40
0.3168690267
 40
0.3894487844
 40
0.459617882
 40
0.5273773218
 40
0.5926868421
 40
0.6554824343
 40
0.7156243786
 40
0.7446503525
 40
0.7729292629
 40
0.8004054225
 40
0.8270272579
 40
0.8527467886
 40
0.8652470987
 40
0.8774920259
 40
0.8894711071
 40
0.9011724909
 40
0.9236640023
 40
0.9344250137
 40
0.9448448463
 40
0.9549055974
 40
0.9645978223
 40
0.9739278233
 40
0.9829119428
 40
0.9915635736
 40
1.0
 40
1.0
 40
1.0
 40
1.0
 10
10.9376923427
 20
10.4391585231
 30
0.0
 10
10.8961651353
 20
10.4391585231
 30
0.0
 10
10.83496673
 20
10.4376890969
 30
0.0
 10
10.7549587192
 20
10.4325709787
 30
0.0
 10
10.6981845803
 20
10.4274272885
 30
0.0
 10
10.6434560675
 20
10.4209969582
 30
0.0
 10
10.5907475899
 20
10.4133273802
 30
0.0
 10
10.5400916083
 20
10.4044693287
 30
0.0
 10
10.4915541574
 20
10.3944539137
 30
0.0
 10
10.4452396447
 20
10.3833226174
 30
0.0
 10
10.4081944356
 20
10.3730034755
 30
0.0
 10
10.3798255697
 20
10.364161625
 30
0.0
 10
10.3594921111
 20
10.3573289685
 30
0.0
 10
10.3399050978
 20
10.3502030423
 30
0.0
 10
10.3211258197
 20
10.3427727577
 30
0.0
 10
10.3060642222
 20
10.3362640219
 30
0.0
 10
10.2944883006
 20
10.3308774444
 30
0.0
 10
10.2861451506
 20
10.3267878343
 30
0.0
 10
10.27807378
 20
10.322607343
 30
0.0
 10
10.26783522
 20
10.3169831993
 30
0.0
 10
10.2580932701
 20
10.3110961721
 30
0.0
 10
10.2489693318
 20
10.3048605169
 30
0.0
 10
10.2426358947
 20
10.3001273096
 30
0.0
 10
10.236758878
 20
10.2952499484
 30
0.0
 10
10.2313897912
 20
10.2902108768
 30
0.0
 10
10.2265867222
 20
10.2849929755
 30
0.0
 10
10.222399851
 20
10.2795919631
 30
0.0
 10
10.2190152615
 20
10.2739061814
 30
0.0
 10
10.2174527309
 20
10.2698412446
 30
0.0
 10
10.2169015003
 20
10.2677793217
 30
0.0
  0
SPLINE
  5
3D7
100
AcDbEntity
  8
0
100
AcDbSpline
 62
9
  6
CONTINUOUS
 70
0
 71
3
 72
24
 73
20
 74
0
 42
0.0000001
 43
0.0000001
 44
0.0000000001
 40
0.0
 40
0.0
 40
0.0
 40
0.0
 40
0.061968707
 40
0.092650889
 40
0.1231769111
 40
0.183889717
 40
0.2444046255
 40
0.304978937
 40
0.3658089404
 40
0.4270290735
 40
0.4887295815
 40
0.5509676375
 40
0.6137692362
 40
0.6771178813
 40
0.7409596093
 40
0.8052165899
 40
0.8698234877
 40
0.9347359256
 40
1.0
 40
1.0
 40
1.0
 40
1.0
 10
10.9376923427
 20
11.6144511771
 30
0.0
 10
10.9244914423
 20
11.6144511771
 30
0.0
 10
10.9047372559
 20
11.6135241605
 30
0.0
 10
10.8786740613
 20
11.6104239876
 30
0.0
 10
10.8530494194
 20
11.6061355554
 30
0.0
 10
10.8215739025
 20
11.5985375467
 30
0.0
 10
10.7848968878
 20
11.5859277023
 30
0.0
 10
10.7495326103
 20
11.5699438408
 30
0.0
 10
10.7156343552
 20
11.5507500963
 30
0.0
 10
10.6833485734
 20
11.5285322401
 30
0.0
 10
10.6528328146
 20
11.5034677765
 30
0.0
 10
10.6242580258
 20
11.4757278162
 30
0.0
 10
10.5977813569
 20
11.4455138561
 30
0.0
 10
10.5735226206
 20
11.4130674981
 30
0.0
 10
10.5516262389
 20
11.3786143453
 30
0.0
 10
10.5323010521
 20
11.3423507394
 30
0.0
 10
10.5157570956
 20
11.3044841498
 30
0.0
 10
10.5022508027
 20
11.2652030434
 30
0.0
 10
10.4956170965
 20
11.2382208837
 30
0.0
 10
10.4930358558
 20
11.2245597073
 30
0.0
  0
SPLINE
  5
3D8
100
AcDbEntity
  8
0
100
AcDbSpline
 62
7
  6
CONTINUOUS
 70
0
 71
3
 72
37
 73
33
 74
0
 42
0.0000001
 43
0.0000001
 44
0.0000000001
 40
0.0
 40
0.0
 40
0.0
 40
0.0
 40
0.0032413746
 40
0.0065166108
 40
0.0098767055
 40
0.0133543682
 40
0.020712666
 40
0.0245967093
 40
0.0286088841
 40
0.0370204329
 40
0.0459461939
 40
0.0553646267
 40
0.065241944
 40
0.0755501582
 40
0.0862663125
 40
0.0973640254
 40
0.108814722
 40
0.1326948519
 40
0.1577757393
 40
0.1839471479
 40
0.211139766
 40
0.2392850811
 40
0.2683113879
 40
0.3287954303
 40
0.3923245987
 40
0.4586961094
 40
0.5278056149
 40
0.5995790857
 40
0.6739875107
 40
0.7510520631
 40
0.8309414161
 40
1.0
 40
1.0
 40
1.0
 40
1.0
 10
10.113159271
 20
9.8547155037
 30
0.0
 10
10.1133667898
 20
9.8556037584
 30
0.0
 10
10.113921783
 20
9.8573599859
 30
0.0
 10
10.1151268182
 20
9.8598730427
 30
0.0
 10
10.1166661211
 20
9.8622742267
 30
0.0
 10
10.1191636069
 20
9.8653995328
 30
0.0
 10
10.1221597888
 20
9.8682841165
 30
0.0
 10
10.1254822302
 20
9.8710027761
 30
0.0
 10
10.1291650446
 20
9.8737440243
 30
0.0
 10
10.134206698
 20
9.877023077
 30
0.0
 10
10.1407798704
 20
9.8807039532
 30
0.0
 10
10.1479087544
 20
9.8842113773
 30
0.0
 10
10.1555352766
 20
9.8875692951
 30
0.0
 10
10.1636147577
 20
9.8907900358
 30
0.0
 10
10.1721103706
 20
9.8938821258
 30
0.0
 10
10.1809873
 20
9.8968566935
 30
0.0
 10
10.1934642662
 20
9.9007373901
 30
0.0
 10
10.2098408428
 20
9.9053158483
 30
0.0
 10
10.2303683875
 20
9.9103917574
 30
0.0
 10
10.2519239791
 20
9.9151640778
 30
0.0
 10
10.2744212174
 20
9.919646618
 30
0.0
 10
10.297786501
 20
9.9238623301
 30
0.0
 10
10.3304592183
 20
9.9292330209
 30
0.0
 10
10.3730959857
 20
9.9353452632
 30
0.0
 10
10.4262915464
 20
9.9417581408
 30
0.0
 10
10.4820124917
 20
9.9474165846
 30
0.0
 10
10.5401313742
 20
9.9523398861
 30
0.0
 10
10.6005728925
 20
9.9565563336
 30
0.0
 10
10.6633011824
 20
9.9600728995
 30
0.0
 10
10.7283506771
 20
9.962897777
 30
0.0
 10
10.8200540354
 20
9.9657200518
 30
0.0
 10
10.8901166128
 20
9.9665349684
 30
0.0
 10
10.9376923427
 20
9.9665349684
 30
0.0
  0
SPLINE
  5
3D9
100
AcDbEntity
  8
0
100
AcDbSpline
 62
9
  6
CONTINUOUS
 70
0
 71
3
 72
31
 73
27
 74
0
 42
0.0000001
 43
0.0000001
 44
0.0000000001
 40
0.0
 40
0.0
 40
0.0
 40
0.0
 40
0.0719625291
 40
0.1417141446
 40
0.2095713947
 40
0.2758468538
 40
0.3408344086
 40
0.404734336
 40
0.4676934637
 40
0.5298221257
 40
0.5912069068
 40
0.6518977387
 40
0.6819942449
 40
0.7119226234
 40
0.7712151819
 40
0.8005684379
 40
0.8297150388
 40
0.8586429841
 40
0.887343255
 40
0.9158036691
 40
0.9299461146
 40
0.9440332405
 40
0.9580693843
 40
0.9720640523
 40
0.9860333144
 40
1.0
 40
1.0
 40
1.0
 40
1.0
 10
10.9376923427
 20
11.2646233159
 30
0.0
 10
10.9226109516
 20
11.2646233159
 30
0.0
 10
10.8929026441
 20
11.2637453142
 30
0.0
 10
10.8491393474
 20
11.2597158848
 30
0.0
 10
10.8068984651
 20
11.25308147
 30
0.0
 10
10.7661540054
 20
11.2439278349
 30
0.0
 10
10.7268954873
 20
11.2323487278
 30
0.0
 10
10.6891380941
 20
11.2184480918
 30
0.0
 10
10.6529246461
 20
11.2023378031
 30
0.0
 10
10.6183193499
 20
11.1841186989
 30
0.0
 10
10.585405882
 20
11.16389139
 30
0.0
 10
10.5593912071
 20
11.1453995629
 30
0.0
 10
10.539539557
 20
11.1297100475
 30
0.0
 10
10.520457326
 20
11.1135443667
 30
0.0
 10
10.5023509921
 20
11.0964849676
 30
0.0
 10
10.4853889257
 20
11.0785422183
 30
0.0
 10
10.4733408958
 20
11.0647306542
 30
0.0
 10
10.4619864444
 20
11.0505174453
 30
0.0
 10
10.4513912417
 20
11.0359057354
 30
0.0
 10
10.443269991
 20
11.02335106
 30
0.0
 10
10.4372867654
 20
11.0130849142
 30
0.0
 10
10.4330813537
 20
11.005287031
 30
0.0
 10
10.4291814386
 20
10.997366091
 30
0.0
 10
10.425618768
 20
10.9893141368
 30
0.0
 10
10.4224278945
 20
10.9811234692
 30
0.0
 10
10.4205668708
 20
10.9755687798
 30
0.0
 10
10.4197244108
 20
10.9727656009
 30
0.0
  0
SPLINE
  5
3DA
100
AcDbEntity
  8
0
100
AcDbSpline
 62
9
  6
CONTINUOUS
 70
0
 71
3
 72
34
 73
30
 74
0
 42
0.0000001
 43
0.0000001
 44
0.0000000001
 40
0.0
 40
0.0
 40
0.0
 40
0.0
 40
0.0084364265
 40
0.0170880574
 40
0.026072177
 40
0.0354021783
 40
0.0450944034
 40
0.0551551546
 40
0.0655749874
 40
0.0763359989
 40
0.0988275106
 40
0.1105288945
 40
0.1225079758
 40
0.1347529031
 40
0.1472532132
 40
0.1729727441
 40
0.1995945796
 40
0.2270707392
 40
0.2553496496
 40
0.2843756235
 40
0.3445175679
 40
0.40731316
 40
0.4726226802
 40
0.5403821198
 40
0.6105512172
 40
0.6831309746
 40
0.7581707928
 40
0.8358545305
 40
1.0
 40
1.0
 40
1.0
 40
1.0
 10
11.658483184
 20
10.267779326
 30
0.0
 10
11.6579319532
 20
10.2698412487
 30
0.0
 10
11.656369422
 20
10.2739061854
 30
0.0
 10
11.6529848319
 20
10.2795919668
 30
0.0
 10
11.6487979603
 20
10.284992979
 30
0.0
 10
11.643994891
 20
10.2902108802
 30
0.0
 10
11.6386258039
 20
10.2952499516
 30
0.0
 10
11.6327487869
 20
10.3001273126
 30
0.0
 10
11.6264153496
 20
10.3048605198
 30
0.0
 10
11.6172914112
 20
10.3110961748
 30
0.0
 10
11.6075494611
 20
10.3169832018
 30
0.0
 10
11.597310901
 20
10.3226073454
 30
0.0
 10
11.5892395303
 20
10.3267878366
 30
0.0
 10
11.5808963802
 20
10.3308774466
 30
0.0
 10
11.5693204586
 20
10.336264024
 30
0.0
 10
11.554258861
 20
10.3427727597
 30
0.0
 10
11.5354795829
 20
10.3502030441
 30
0.0
 10
11.5158925696
 20
10.3573289702
 30
0.0
 10
11.4955591111
 20
10.3641616265
 30
0.0
 10
11.4671902453
 20
10.3730034769
 30
0.0
 10
11.4301450364
 20
10.3833226186
 30
0.0
 10
11.383830524
 20
10.3944539146
 30
0.0
 10
11.3352930734
 20
10.4044693294
 30
0.0
 10
11.2846370922
 20
10.4133273807
 30
0.0
 10
11.2319286151
 20
10.4209969586
 30
0.0
 10
11.1772001028
 20
10.4274272888
 30
0.0
 10
11.1204259644
 20
10.4325709788
 30
0.0
 10
11.0404179544
 20
10.4376890969
 30
0.0
 10
10.9792195497
 20
10.4391585231
 30
0.0
 10
10.9376923427
 20
10.4391585231
 30
0.0
  0
SPLINE
  5
3DB
100
AcDbEntity
  8
0
100
AcDbSpline
 62
9
  6
CONTINUOUS
 70
0
 71
3
 72
23
 73
19
 74
0
 42
0.0000001
 43
0.0000001
 44
0.0000000001
 40
0.0
 40
0.0
 40
0.0
 40
0.0
 40
0.0652144083
 40
0.1299891793
 40
0.1943876936
 40
0.2583847315
 40
0.3219351319
 40
0.3849805534
 40
0.4474917397
 40
0.5094766551
 40
0.5709848072
 40
0.6320953435
 40
0.6929198672
 40
0.7536116388
 40
0.8143839575
 40
0.8755097104
 40
0.9372801841
 40
1.0
 40
1.0
 40
1.0
 40
1.0
 10
11.3821028785
 20
11.2247616575
 30
0.0
 10
11.3792460906
 20
11.2380606688
 30
0.0
 10
11.3720772545
 20
11.2642659597
 30
0.0
 10
11.3578683386
 20
11.3022861926
 30
0.0
 10
11.3407540176
 20
11.3388087476
 30
0.0
 10
11.3210036307
 20
11.3736784912
 30
0.0
 10
11.2988273045
 20
11.4067171509
 30
0.0
 10
11.2744315594
 20
11.4377592809
 30
0.0
 10
11.2479482875
 20
11.4666023044
 30
0.0
 10
11.2194890921
 20
11.4930320345
 30
0.0
 10
11.1891971784
 20
11.5168724669
 30
0.0
 10
11.1572236222
 20
11.5379722239
 30
0.0
 10
11.123706318
 20
11.5561734958
 30
0.0
 10
11.0887718883
 20
11.5713106429
 30
0.0
 10
11.0525485619
 20
11.5832398587
 30
0.0
 10
11.0151682941
 20
11.5918693521
 30
0.0
 10
10.9767565844
 20
11.597105504
 30
0.0
 10
10.9507744092
 20
11.5982626573
 30
0.0
 10
10.9376923427
 20
11.5982626573
 30
0.0
  0
SPLINE
  5
3DC
100
AcDbEntity
  8
0
100
AcDbSpline
 62
7
  6
CONTINUOUS
 70
0
 71
3
 72
37
 73
33
 74
0
 42
0.0000001
 43
0.0000001
 44
0.0000000001
 40
0.0
 40
0.0
 40
0.0
 40
0.0
 40
0.1690586368
 40
0.2489480124
 40
0.326012585
 40
0.4004210282
 40
0.4721945147
 40
0.5413040333
 40
0.6076755542
 40
0.6712047297
 40
0.7316887751
 40
0.7607150817
 40
0.7888603949
 40
0.8160530095
 40
0.8422244126
 40
0.8673052925
 40
0.8911854119
 40
0.9026361021
 40
0.9137338075
 40
0.924449953
 40
0.9347581573
 40
0.9446354637
 40
0.9540538839
 40
0.962979631
 40
0.971391165
 40
0.9754033323
 40
0.9792873679
 40
0.9866456486
 40
0.9901233033
 40
0.9934833917
 40
0.9967586244
 40
1.0
 40
1.0
 40
1.0
 40
1.0
 10
10.9376923427
 20
9.9665349684
 30
0.0
 10
10.9852680989
 20
9.9665349684
 30
0.0
 10
11.0553307141
 20
9.9657200509
 30
0.0
 10
11.147034121
 20
9.962897773
 30
0.0
 10
11.2120836482
 20
9.9600728924
 30
0.0
 10
11.2748119681
 20
9.9565563227
 30
0.0
 10
11.3352535138
 20
9.9523398707
 30
0.0
 10
11.3933724207
 20
9.9474165637
 30
0.0
 10
11.4490933873
 20
9.9417581135
 30
0.0
 10
11.5022889658
 20
9.9353452285
 30
0.0
 10
11.5449257452
 20
9.9292329787
 30
0.0
 10
11.5775984696
 20
9.9238622811
 30
0.0
 10
11.6009637563
 20
9.9196465635
 30
0.0
 10
11.6234609958
 20
9.9151640172
 30
0.0
 10
11.6450165865
 20
9.9103916901
 30
0.0
 10
11.6655441279
 20
9.9053157736
 30
0.0
 10
11.6819206995
 20
9.9007373081
 30
0.0
 10
11.6943976597
 20
9.8968566051
 30
0.0
 10
11.7032745831
 20
9.8938820323
 30
0.0
 10
11.7117701884
 20
9.8907899367
 30
0.0
 10
11.7198496604
 20
9.8875691899
 30
0.0
 10
11.7274761717
 20
9.8842112657
 30
0.0
 10
11.7346050424
 20
9.8807038343
 30
0.0
 10
11.741178199
 20
9.8770229499
 30
0.0
 10
11.746219837
 20
9.8737438893
 30
0.0
 10
11.7499026371
 20
9.8710026343
 30
0.0
 10
11.7532250631
 20
9.8682839685
 30
0.0
 10
11.7562212255
 20
9.8653993758
 30
0.0
 10
11.7587186855
 20
9.8622740589
 30
0.0
 10
11.7602579666
 20
9.8598728659
 30
0.0
 10
11.761462977
 20
9.8573597991
 30
0.0
 10
11.7620179512
 20
9.8556035658
 30
0.0
 10
11.7622254601
 20
9.8547153082
 30
0.0
  0
ENDSEC
  0
SECTION
  2
OBJECTS
  0
DICTIONARY
  5
C
100
AcDbDictionary
280
0
281
1
  3
ACAD_GROUP
350
D
  3
ACAD_MLINESTYLE
350
17
  3
ACAD_LAYOUT
350
1A
  3
ACAD_PLOTSETTINGS
350
19
  3
ACAD_PLOTSTYLENAME
350
E
  0
DICTIONARY
  5
D
102
{ACAD_REACTORS
330
C
102
}
100
AcDbDictionary
280
0
281
1
  0
ACDBDICTIONARYWDFLT
  5
E
102
{ACAD_REACTORS
330
C
102
}
100
AcDbDictionary
281
1
  3
Normal
350
F
100
AcDbDictionaryWithDefault
340
F
  0
DICTIONARY
  5
17
102
{ACAD_REACTORS
330
C
102
}
100
AcDbDictionary
280
0
281
1
  3
Standard
350
18
  0
DICTIONARY
  5
19
102
{ACAD_REACTORS
330
C
102
}
100
AcDbDictionary
281
1
  0
DICTIONARY
  5
1A
102
{ACAD_REACTORS
330
C
102
}
100
AcDbDictionary
281
1
  3
Model
350
3DD
  3
Layout1
350
3DE
  0
ACDBPLACEHOLDER
  5
F
102
{ACAD_REACTORS
330
E
102
}
  0
MLINESTYLE
  5
18
102
{ACAD_REACTORS
330
17
102
}
100
AcDbMlineStyle
  2
STANDARD
 70
0
  3

 62
256
 51
90.0
 52
90.0
 71
2
 49
0.5
 62
256
  6
BYLAYER
 49
-0.5
 62
256
  6
BYLAYER
  0
LAYOUT
  5
3DD
102
{ACAD_REACTORS
330
1A
102
}
100
AcDbPlotSettings
  1

  2
none_device
  4
ANSI_C_(22.00_x_17.00_Inches)
  6

 40
0.0
 41
0.0
 42
0.0
 43
0.0
 44
558.8
 45
431.8
 46
0.0
 47
0.0
 48
0.0
 49
0.0
140
0.0
141
0.0
142
1.0
143
1.0
 70
1024
 72
0
 73
0
 74
0
  7

 75
0
147
1.0
148
0.0
149
0.0
100
AcDbLayout
  1
Model
 70
0
 71
0
 10
0.0
 20
0.0
 11
22.0
 21
17.0
 12
0.0
 22
0.0
 32
0.0
 14
0.0
 24
0.0
 34
0.0
 15
0.0
 25
0.0
 35
0.0
146
0.0
 13
0.0
 23
0.0
 33
0.0
 16
1.0
 26
0.0
 36
0.0
 17
0.0
 27
1.0
 37
0.0
 76
0
330
202
345
0
346
0
  0
LAYOUT
  5
3DE
102
{ACAD_REACTORS
330
1A
102
}
100
AcDbPlotSettings
  1

  2
none_device
  4
ANSI_C_(22.00_x_17.00_Inches)
  6

 40
0.0
 41
0.0
 42
0.0
 43
0.0
 44
558.8
 45
431.8
 46
0.0
 47
0.0
 48
0.0
 49
0.0
140
0.0
141
0.0
142
1.0
143
1.0
 70
0
 72
0
 73
0
 74
0
  7

 75
0
147
1.0
148
0.0
149
0.0
100
AcDbLayout
  1
Layout1
 70
0
 71
1
 10
0.0
 20
0.0
 11
22.0
 21
17.0
 12
0.0
 22
0.0
 32
0.0
 14
0.0
 24
0.0
 34
0.0
 15
0.0
 25
0.0
 35
0.0
146
0.0
 13
0.0
 23
0.0
 33
0.0
 16
1.0
 26
0.0
 36
0.0
 17
0.0
 27
1.0
 37
0.0
 76
0
330
203
345
0
346
0
  0
ENDSEC
  0
EOF
