999
DXF file: E:\BT Custom\CADOUTPUT\_FRONT.dxf
999
Pro/ENGINEER 2018400 by Parametric Technology Corporation
  0
SECTION
  2
HEADER
  9
$ACADVER
  1
AC1018
  9
$DWGCODEPAGE
  3
ANSI_1252
  9
$EXTMAX
 10
22.0
 20
17.0
 30
0.0
  9
$EXTMIN
 10
0.0
 20
0.0
 30
0.0
  9
$LIMMIN
 10
0.0
 20
0.0
  9
$LIMMAX
 10
22.0
 20
17.0
  9
$VIEWCTR
 10
11.0
 20
8.5
  9
$VIEWSIZE
 40
17.0
  9
$CLAYER
  8
0
  9
$LTSCALE
 40
1.21
  9
$CELTYPE
  6
BYLAYER
  9
$DIMSCALE
 40
1.0
  9
$DIMASZ
 40
0.1
  9
$DIMEXO
 40
0.0625
  9
$DIMDLI
 40
0.836
  9
$DIMEXE
 40
0.125
  9
$DIMCEN
 40
0.198
  9
$DIMLFAC
 40
1.0
  9
$DIMBLK
  1
_FILLED
  9
$DIMALT
 70
1
  9
$DIMALTD
 70
2
  9
$DIMALTTD
 70
2
  9
$DIMALTF
 40
25.4
  9
$DIMTXT
 40
0.08
  9
$DIMTOL
 70
1
  9
$DIMLIM
 70
0
  9
$DIMTFAC
 40
1.0
  9
$DIMTP
 40
0.001
  9
$DIMTM
 40
0.001
  9
$DIMGAP
 40
0.09
  9
$DIMDSEP
 70
46
  9
$AUNITS
 70
0
  9
$PDMODE
 70
3
  9
$PDSIZE
 40
0.06
  9
$HANDSEED
  5
397
  9
$TILEMODE
 70
1
  9
$MEASUREMENT
 70
0
  9
$INSUNITS
 70
1
  0
ENDSEC
  0
SECTION
  2
CLASSES
  0
CLASS
  1
ACDBDICTIONARYWDFLT
  2
AcDbDictionaryWithDefault
  3
AutoCAD 2000
 90
0
 91
1
280
0
281
0
  0
CLASS
  1
ACDBPLACEHOLDER
  2
AcDbPlaceHolder
  3
AutoCAD 2000
 90
0
 91
1
280
0
281
0
  0
CLASS
  1
LAYOUT
  2
AcDbLayout
  3
AutoCAD 2000
 90
0
 91
0
280
0
281
0
  0
ENDSEC
  0
SECTION
  2
TABLES
  0
TABLE
  2
VPORT
  5
8
100
AcDbSymbolTable
 70
2
  0
VPORT
  5
1F4
100
AcDbSymbolTableRecord
100
AcDbViewportTableRecord
  2
*ACTIVE
 70
0
 10
0.0
 20
0.0
 11
1.0
 21
1.0
 12
11.0
 22
8.5
 13
0.0
 23
0.0
 14
1.0
 24
1.0
 15
0.0
 25
0.0
 16
0.0
 26
0.0
 36
1.0
 17
0.0
 27
0.0
 37
0.0
 40
17.0
 41
1.2941176471
 42
50.0
 43
0.0
 44
0.0
 50
0.0
 51
0.0
 71
0
 72
100
 73
1
 74
1
 75
0
 76
0
 77
0
 78
0
  0
ENDTAB
  0
TABLE
  2
LTYPE
  5
5
100
AcDbSymbolTable
 70
6
  0
LTYPE
  5
14
100
AcDbSymbolTableRecord
100
AcDbLinetypeTableRecord
  2
BYBLOCK
 70
0
  3

 72
65
 73
0
 40
0.0
  0
LTYPE
  5
15
100
AcDbSymbolTableRecord
100
AcDbLinetypeTableRecord
  2
BYLAYER
 70
0
  3

 72
65
 73
0
 40
0.0
  0
LTYPE
  5
16
100
AcDbSymbolTableRecord
100
AcDbLinetypeTableRecord
  2
CONTINUOUS
 70
64
  3
Solid line
 72
65
 73
0
 40
0.0
  0
LTYPE
  5
1F5
100
AcDbSymbolTableRecord
100
AcDbLinetypeTableRecord
  2
CENTER
 70
64
  3
____ _ ____ _ ____ _ ____ _ ____ _ ____ _ ____
 72
65
 73
4
 40
0.6
 49
0.375
 74
0
 49
-0.075
 74
0
 49
0.075
 74
0
 49
-0.075
 74
0
  0
LTYPE
  5
1F6
100
AcDbSymbolTableRecord
100
AcDbLinetypeTableRecord
  2
HIDDEN
 70
64
  3
- - - - - - - - - - - - - - - - - - - -
 72
65
 73
2
 40
0.2
 49
0.1
 74
0
 49
-0.1
 74
0
  0
LTYPE
  5
1F7
100
AcDbSymbolTableRecord
100
AcDbLinetypeTableRecord
  2
PHANTOM
 70
64
  3
_____ _ _ _____ _ _ _____ _ _ _____
 72
65
 73
6
 40
0.8
 49
0.45
 74
0
 49
-0.05
 74
0
 49
0.1
 74
0
 49
-0.05
 74
0
 49
0.1
 74
0
 49
-0.05
 74
0
  0
LTYPE
  5
1F8
100
AcDbSymbolTableRecord
100
AcDbLinetypeTableRecord
  2
DOT
 70
64
  3
. . . . . . . . . . . . . . . . . . . .
 72
65
 73
2
 40
0.2
 49
0.1
 74
0
 49
-0.1
 74
0
  0
LTYPE
  5
1F9
100
AcDbSymbolTableRecord
100
AcDbLinetypeTableRecord
  2
DASHED
 70
64
  3
- - - - - - - - - - - - - - - - - - - -
 72
65
 73
2
 40
0.2
 49
0.1
 74
0
 49
-0.1
 74
0
  0
ENDTAB
  0
TABLE
  2
LAYER
  5
2
100
AcDbSymbolTable
 70
36
  0
LAYER
  5
10
100
AcDbSymbolTableRecord
100
AcDbLayerTableRecord
  2
0
 70
0
 62
7
  6
CONTINUOUS
370
-3
390
F
  0
LAYER
  5
1FA
100
AcDbSymbolTableRecord
100
AcDbLayerTableRecord
  2
DEFAULT_1
 70
0
 62
7
  6
CENTER
370
-3
390
F
  0
LAYER
  5
1FB
100
AcDbSymbolTableRecord
100
AcDbLayerTableRecord
  2
DEFAULT_2
 70
0
 62
8
  6
HIDDEN
370
-3
390
F
  0
LAYER
  5
1FC
100
AcDbSymbolTableRecord
100
AcDbLayerTableRecord
  2
DEFAULT_3
 70
0
 62
7
  6
PHANTOM
370
-3
390
F
  0
LAYER
  5
1FD
100
AcDbSymbolTableRecord
100
AcDbLayerTableRecord
  2
ALL_FEATURES
 70
0
 62
7
  6
CONTINUOUS
370
-3
390
F
  0
LAYER
  5
1FE
100
AcDbSymbolTableRecord
100
AcDbLayerTableRecord
  2
AXES_FEATURES
 70
0
 62
7
  6
CONTINUOUS
370
-3
390
F
  0
LAYER
  5
1FF
100
AcDbSymbolTableRecord
100
AcDbLayerTableRecord
  2
DIMENSIONS
 70
0
 62
7
  6
CONTINUOUS
370
-3
390
F
  0
ENDTAB
  0
TABLE
  2
STYLE
  5
3
100
AcDbSymbolTable
 70
1
  0
STYLE
  5
11
100
AcDbSymbolTableRecord
100
AcDbTextStyleTableRecord
  2
STANDARD
 70
0
 40
0.0
 41
0.8
 50
0.0
 71
0
 42
0.2
  3
txt
  4

  0
STYLE
  5
200
100
AcDbSymbolTableRecord
100
AcDbTextStyleTableRecord
  2
TEXTSTYLE_1
 70
0
 40
0.0
 41
0.8
 50
0.0
 71
0
 42
0.2
  3
gdt
  4

  0
ENDTAB
  0
TABLE
  2
VIEW
  5
6
100
AcDbSymbolTable
 70
0
  0
ENDTAB
  0
TABLE
  2
UCS
  5
7
100
AcDbSymbolTable
 70
0
  0
ENDTAB
  0
TABLE
  2
APPID
  5
9
100
AcDbSymbolTable
 70
1
  0
APPID
  5
201
100
AcDbSymbolTableRecord
100
AcDbRegAppTableRecord
  2
ACAD
 70
0
  0
ENDTAB
  0
TABLE
  2
BLOCK_RECORD
  5
1
100
AcDbSymbolTable
 70
0
  0
BLOCK_RECORD
  5
202
100
AcDbSymbolTableRecord
100
AcDbBlockTableRecord
  2
*Model_Space
  0
BLOCK_RECORD
  5
203
100
AcDbSymbolTableRecord
100
AcDbBlockTableRecord
  2
*Paper_Space
  0
BLOCK_RECORD
  5
204
100
AcDbSymbolTableRecord
100
AcDbBlockTableRecord
  2
_FILLED
  0
ENDTAB
  0
TABLE
  2
DIMSTYLE
  5
A
100
AcDbSymbolTable
 70
1
100
AcDbDimStyleTable
 71
0
  0
DIMSTYLE
105
205
100
AcDbSymbolTableRecord
100
AcDbDimStyleTableRecord
  2
STANDARD
 70
0
  3

  4

 40
1.0
 41
0.1
 42
0.0625
 43
0.38
 44
0.125
 45
0.0
 46
0.0
 47
0.001
 48
0.001
140
0.08
141
0.09
142
0.0
143
25.4
144
1.0
145
0.0
146
1.0
147
0.09
 71
1.0
 72
0.0
 73
1
 74
1
 75
0
 76
0
 77
0
 78
4
 79
1
170
1
171
2
172
0
173
0
174
0
175
0
176
0
177
0
178
0
270
2
179
3
271
3
272
3
273
2
274
2
275
0
280
0
281
0
282
0
283
1
284
4
285
0
286
0
287
3
288
0
340
11
278
46
341
204
342
204
343
204
344
204
  0
ENDTAB
  0
ENDSEC
  0
SECTION
  2
BLOCKS
  0
BLOCK
  5
20
100
AcDbEntity
  8
0
100
AcDbBlockBegin
  2
*Model_Space
 70
0
 10
0.0
 20
0.0
 30
0.0
  3
*Model_Space
  1

  0
ENDBLK
  5
21
100
AcDbEntity
  8
0
100
AcDbBlockEnd
  0
BLOCK
  5
1C
100
AcDbEntity
  8
0
100
AcDbBlockBegin
  2
*Paper_Space
 70
0
 10
0.0
 20
0.0
 30
0.0
  3
*Paper_Space
  1

  0
ENDBLK
  5
1D
100
AcDbEntity
  8
0
100
AcDbBlockEnd
  0
BLOCK
  5
206
100
AcDbEntity
  8
0
100
AcDbBlockBegin
  2
_FILLED
 70
64
 10
0.0
 20
0.0
  3
_FILLED
  1

  0
SOLID
  5
207
100
AcDbEntity
  8
0
  6
BYBLOCK
 62
0
100
AcDbTrace
 10
0.0
 20
0.0
 11
-1.0
 21
0.2
 12
-1.0
 22
-0.2
 13
-1.0
 23
-0.2
  0
ENDBLK
  5
208
100
AcDbEntity
  8
0
  6
BYBLOCK
 62
0
100
AcDbBlockEnd
  0
ENDSEC
  0
SECTION
  2
ENTITIES
  0
LINE
  5
209
100
AcDbEntity
  8
0
100
AcDbLine
 62
9
  6
CONTINUOUS
 10
5.7229529973
 20
8.4319217838
 11
5.7229529973
 21
8.872416527
  0
LINE
  5
20A
100
AcDbEntity
  8
0
100
AcDbLine
 62
9
  6
CONTINUOUS
 10
5.746383458
 20
8.9649608129
 11
5.746383458
 21
8.3393774979
  0
LINE
  5
20B
100
AcDbEntity
  8
0
100
AcDbLine
 62
9
  6
CONTINUOUS
 10
5.7963054635
 20
9.0121691554
 11
5.7963054635
 21
8.2921691554
  0
LINE
  5
20C
100
AcDbEntity
  8
0
100
AcDbLine
 62
9
  6
CONTINUOUS
 10
5.8112744404
 20
8.2921691554
 11
5.8112744404
 21
9.0121691554
  0
LINE
  5
20D
100
AcDbEntity
  8
0
100
AcDbLine
 62
9
  6
CONTINUOUS
 10
5.8570621642
 20
8.9822560744
 11
5.8570621642
 21
8.3220822364
  0
LINE
  5
20E
100
AcDbEntity
  8
0
100
AcDbLine
 62
9
  6
CONTINUOUS
 10
5.8894737776
 20
8.3457896237
 11
5.8894737776
 21
8.9585486871
  0
LINE
  5
20F
100
AcDbEntity
  8
0
100
AcDbLine
 62
9
  6
CONTINUOUS
 10
6.3933311999
 20
8.8698287579
 11
6.3933311999
 21
8.4345095529
  0
LINE
  5
210
100
AcDbEntity
  8
0
100
AcDbLine
 62
7
  6
CONTINUOUS
 10
6.4236923428
 20
8.8321691554
 11
6.4236923428
 21
8.4721691554
  0
LINE
  5
211
100
AcDbEntity
  8
0
100
AcDbLine
 62
7
  6
CONTINUOUS
 10
6.4876923427
 20
7.9016695021
 11
6.4876923427
 21
7.8968303376
  0
LINE
  5
212
100
AcDbEntity
  8
0
100
AcDbLine
 62
9
  6
CONTINUOUS
 10
6.5136923427
 20
8.4721691554
 11
6.5136923427
 21
8.8321691554
  0
LINE
  5
213
100
AcDbEntity
  8
0
100
AcDbLine
 62
7
  6
CONTINUOUS
 10
6.5236923427
 20
8.4732697423
 11
6.5236923427
 21
8.8310685685
  0
LINE
  5
214
100
AcDbEntity
  8
0
100
AcDbLine
 62
7
  6
CONTINUOUS
 10
6.6131923427
 20
8.0416695021
 11
6.6131923427
 21
7.9616695021
  0
LINE
  5
215
100
AcDbEntity
  8
0
100
AcDbLine
 62
7
  6
CONTINUOUS
 10
6.6576923427
 20
9.0124411055
 11
6.6576923427
 21
9.0192971356
  0
LINE
  5
216
100
AcDbEntity
  8
0
100
AcDbLine
 62
7
  6
CONTINUOUS
 10
6.6791923427
 20
8.2916695021
 11
6.6791923427
 21
8.0416695021
  0
LINE
  5
217
100
AcDbEntity
  8
0
100
AcDbLine
 62
7
  6
CONTINUOUS
 10
8.0409151779
 20
5.8742182845
 11
7.8724153736
 21
6.0358768464
  0
LINE
  5
218
100
AcDbEntity
  8
0
100
AcDbLine
 62
7
  6
CONTINUOUS
 10
7.7537873156
 20
6.2489998037
 11
7.8536582247
 21
6.1256695021
  0
LINE
  5
219
100
AcDbEntity
  8
0
100
AcDbLine
 62
7
  6
CONTINUOUS
 10
7.1961923427
 20
8.2916695021
 11
7.1961923427
 21
8.0416695021
  0
LINE
  5
21A
100
AcDbEntity
  8
0
100
AcDbLine
 62
7
  6
CONTINUOUS
 10
7.2176923427
 20
9.0124411055
 11
7.2176923427
 21
9.0192971356
  0
LINE
  5
21B
100
AcDbEntity
  8
0
100
AcDbLine
 62
7
  6
CONTINUOUS
 10
7.2621923427
 20
8.0416695021
 11
7.2621923427
 21
7.9616695021
  0
LINE
  5
21C
100
AcDbEntity
  8
0
100
AcDbLine
 62
7
  6
CONTINUOUS
 10
7.3516923427
 20
8.8310685685
 11
7.3516923427
 21
8.4732697423
  0
LINE
  5
21D
100
AcDbEntity
  8
0
100
AcDbLine
 62
9
  6
CONTINUOUS
 10
7.3616923427
 20
8.8321691554
 11
7.3616923427
 21
8.4721691554
  0
LINE
  5
21E
100
AcDbEntity
  8
0
100
AcDbLine
 62
7
  6
CONTINUOUS
 10
7.3876923427
 20
7.9016695021
 11
7.3876923427
 21
7.8968303376
  0
LINE
  5
21F
100
AcDbEntity
  8
0
100
AcDbLine
 62
7
  6
CONTINUOUS
 10
7.4516923427
 20
8.4721691554
 11
7.4516923427
 21
8.8321691554
  0
LINE
  5
220
100
AcDbEntity
  8
0
100
AcDbLine
 62
9
  6
CONTINUOUS
 10
7.4820534856
 20
8.4345095529
 11
7.4820534856
 21
8.8698287579
  0
LINE
  5
221
100
AcDbEntity
  8
0
100
AcDbLine
 62
7
  6
CONTINUOUS
 10
5.8542664256
 20
5.8216695021
 11
8.0211182598
 21
5.8216695021
  0
LINE
  5
222
100
AcDbEntity
  8
0
100
AcDbLine
 62
7
  6
CONTINUOUS
 10
9.7884852211
 20
5.8216695021
 11
12.0868994644
 21
5.8216695021
  0
LINE
  5
223
100
AcDbEntity
  8
0
100
AcDbLine
 62
7
  6
CONTINUOUS
 10
13.8542664256
 20
5.8216695021
 11
16.0211182598
 21
5.8216695021
  0
LINE
  5
224
100
AcDbEntity
  8
0
100
AcDbLine
 62
9
  6
CONTINUOUS
 10
16.0409151785
 20
5.874218284
 11
13.834469507
 21
5.874218284
  0
LINE
  5
225
100
AcDbEntity
  8
0
100
AcDbLine
 62
9
  6
CONTINUOUS
 10
8.0409151785
 20
5.874218284
 11
5.834469507
 21
5.874218284
  0
LINE
  5
226
100
AcDbEntity
  8
0
100
AcDbLine
 62
9
  6
CONTINUOUS
 10
12.1176957956
 20
5.887207576
 11
9.7576888899
 21
5.887207576
  0
LINE
  5
227
100
AcDbEntity
  8
0
100
AcDbLine
 62
9
  6
CONTINUOUS
 10
7.9859109079
 20
8.9585486871
 11
7.9859109079
 21
8.3457896237
  0
LINE
  5
228
100
AcDbEntity
  8
0
100
AcDbLine
 62
9
  6
CONTINUOUS
 10
8.0183225213
 20
8.3220822364
 11
8.0183225213
 21
8.9822560744
  0
LINE
  5
229
100
AcDbEntity
  8
0
100
AcDbLine
 62
9
  6
CONTINUOUS
 10
9.8862591188
 20
6.0138587656
 11
11.9891255667
 21
6.0138587656
  0
LINE
  5
22A
100
AcDbEntity
  8
0
100
AcDbLine
 62
9
  6
CONTINUOUS
 10
6.0029693119
 20
6.0358768464
 11
7.8724153736
 21
6.0358768464
  0
LINE
  5
22B
100
AcDbEntity
  8
0
100
AcDbLine
 62
9
  6
CONTINUOUS
 10
14.0029693119
 20
6.0358768464
 11
15.8724153736
 21
6.0358768464
  0
LINE
  5
22C
100
AcDbEntity
  8
0
100
AcDbLine
 62
9
  6
CONTINUOUS
 10
11.9783020892
 20
6.0626750751
 11
9.8970825963
 21
6.0626750751
  0
LINE
  5
22D
100
AcDbEntity
  8
0
100
AcDbLine
 62
9
  6
CONTINUOUS
 10
6.0121801671
 20
6.0754844801
 11
7.8632045184
 21
6.0754844801
  0
LINE
  5
22E
100
AcDbEntity
  8
0
100
AcDbLine
 62
9
  6
CONTINUOUS
 10
14.0121801671
 20
6.0754844801
 11
15.8632045184
 21
6.0754844801
  0
LINE
  5
22F
100
AcDbEntity
  8
0
100
AcDbLine
 62
9
  6
CONTINUOUS
 10
11.9818343875
 20
6.0870646693
 11
9.893550298
 21
6.0870646693
  0
LINE
  5
230
100
AcDbEntity
  8
0
100
AcDbLine
 62
9
  6
CONTINUOUS
 10
11.9777721469
 20
6.100749627
 11
9.8976125386
 21
6.100749627
  0
LINE
  5
231
100
AcDbEntity
  8
0
100
AcDbLine
 62
9
  6
CONTINUOUS
 10
6.0217264608
 20
6.1256695021
 11
7.8536582247
 21
6.1256695021
  0
LINE
  5
232
100
AcDbEntity
  8
0
100
AcDbLine
 62
9
  6
CONTINUOUS
 10
14.0217264608
 20
6.1256695021
 11
15.8536582247
 21
6.1256695021
  0
LINE
  5
233
100
AcDbEntity
  8
0
100
AcDbLine
 62
9
  6
CONTINUOUS
 10
11.9378300737
 20
6.23369716
 11
9.9375546118
 21
6.23369716
  0
LINE
  5
234
100
AcDbEntity
  8
0
100
AcDbLine
 62
9
  6
CONTINUOUS
 10
15.7537873156
 20
6.2489998037
 11
14.1215973699
 21
6.2489998037
  0
LINE
  5
235
100
AcDbEntity
  8
0
100
AcDbLine
 62
9
  6
CONTINUOUS
 10
7.7537873156
 20
6.2489998037
 11
6.1215973699
 21
6.2489998037
  0
LINE
  5
236
100
AcDbEntity
  8
0
100
AcDbLine
 62
7
  6
CONTINUOUS
 10
15.6993870983
 20
6.2749473764
 11
14.1759975872
 21
6.2749473764
  0
LINE
  5
237
100
AcDbEntity
  8
0
100
AcDbLine
 62
7
  6
CONTINUOUS
 10
7.6993870983
 20
6.2749473764
 11
6.1759975872
 21
6.2749473764
  0
LINE
  5
238
100
AcDbEntity
  8
0
100
AcDbLine
 62
7
  6
CONTINUOUS
 10
11.8866923421
 20
6.2826695033
 11
10.9376923427
 21
6.2826695033
  0
LINE
  5
239
100
AcDbEntity
  8
0
100
AcDbLine
 62
7
  6
CONTINUOUS
 10
10.9376198632
 20
6.2826695033
 11
9.9886923433
 21
6.2826695033
  0
LINE
  5
23A
100
AcDbEntity
  8
0
100
AcDbLine
 62
9
  6
CONTINUOUS
 10
8.064110245
 20
9.0121691554
 11
8.064110245
 21
8.2921691554
  0
LINE
  5
23B
100
AcDbEntity
  8
0
100
AcDbLine
 62
9
  6
CONTINUOUS
 10
8.079079222
 20
8.2921691554
 11
8.079079222
 21
9.0121691554
  0
LINE
  5
23C
100
AcDbEntity
  8
0
100
AcDbLine
 62
9
  6
CONTINUOUS
 10
8.1290012275
 20
8.3393774979
 11
8.1290012275
 21
8.9649608129
  0
LINE
  5
23D
100
AcDbEntity
  8
0
100
AcDbLine
 62
9
  6
CONTINUOUS
 10
8.1524316882
 20
8.872416527
 11
8.1524316882
 21
8.4319217838
  0
LINE
  5
23E
100
AcDbEntity
  8
0
100
AcDbLine
 62
7
  6
CONTINUOUS
 10
15.4426923431
 20
6.4916695021
 11
14.4326923423
 21
6.4916695021
  0
LINE
  5
23F
100
AcDbEntity
  8
0
100
AcDbLine
 62
7
  6
CONTINUOUS
 10
7.4426923431
 20
6.4916695021
 11
6.4326923423
 21
6.4916695021
  0
LINE
  5
240
100
AcDbEntity
  8
0
100
AcDbLine
 62
9
  6
CONTINUOUS
 10
6.4619142565
 20
6.5819745725
 11
7.413470429
 21
6.5819745725
  0
LINE
  5
241
100
AcDbEntity
  8
0
100
AcDbLine
 62
9
  6
CONTINUOUS
 10
14.4619142565
 20
6.5819745725
 11
15.413470429
 21
6.5819745725
  0
LINE
  5
242
100
AcDbEntity
  8
0
100
AcDbLine
 62
9
  6
CONTINUOUS
 10
6.506481818
 20
6.6305003239
 11
7.3689028675
 21
6.6305003239
  0
LINE
  5
243
100
AcDbEntity
  8
0
100
AcDbLine
 62
9
  6
CONTINUOUS
 10
14.506481818
 20
6.6305003239
 11
15.3689028675
 21
6.6305003239
  0
LINE
  5
244
100
AcDbEntity
  8
0
100
AcDbLine
 62
7
  6
CONTINUOUS
 10
11.5726917585
 20
6.7016695021
 11
10.302692927
 21
6.7016695021
  0
LINE
  5
245
100
AcDbEntity
  8
0
100
AcDbLine
 62
9
  6
CONTINUOUS
 10
10.3330114941
 20
6.8241017493
 11
11.5423731914
 21
6.8241017493
  0
LINE
  5
246
100
AcDbEntity
  8
0
100
AcDbLine
 62
9
  6
CONTINUOUS
 10
10.3676923427
 20
6.8784978941
 11
11.5076923427
 21
6.8784978941
  0
LINE
  5
247
100
AcDbEntity
  8
0
100
AcDbLine
 62
7
  6
CONTINUOUS
 10
6.1215973699
 20
6.2489998037
 11
6.0217264608
 21
6.1256695021
  0
LINE
  5
248
100
AcDbEntity
  8
0
100
AcDbLine
 62
9
  6
CONTINUOUS
 10
11.5076923427
 20
7.2382283024
 11
10.3676923427
 21
7.2382283024
  0
LINE
  5
249
100
AcDbEntity
  8
0
100
AcDbLine
 62
9
  6
CONTINUOUS
 10
10.3409066436
 20
7.3063433973
 11
11.5344780419
 21
7.3063433973
  0
LINE
  5
24A
100
AcDbEntity
  8
0
100
AcDbLine
 62
9
  6
CONTINUOUS
 10
10.325930438
 20
7.3319277631
 11
11.5494542475
 21
7.3319277631
  0
LINE
  5
24B
100
AcDbEntity
  8
0
100
AcDbLine
 62
9
  6
CONTINUOUS
 10
10.334965673
 20
7.4196565408
 11
11.5404190124
 21
7.4196565408
  0
LINE
  5
24C
100
AcDbEntity
  8
0
100
AcDbLine
 62
9
  6
CONTINUOUS
 10
10.3499105577
 20
7.4360608655
 11
11.5254741278
 21
7.4360608655
  0
LINE
  5
24D
100
AcDbEntity
  8
0
100
AcDbLine
 62
9
  6
CONTINUOUS
 10
10.3754371801
 20
7.4804987755
 11
11.4999475054
 21
7.4804987755
  0
LINE
  5
24E
100
AcDbEntity
  8
0
100
AcDbLine
 62
9
  6
CONTINUOUS
 10
15.3339707409
 20
7.8027029793
 11
14.5414139446
 21
7.8027029792
  0
LINE
  5
24F
100
AcDbEntity
  8
0
100
AcDbLine
 62
9
  6
CONTINUOUS
 10
7.3339707409
 20
7.8027029793
 11
6.5414139446
 21
7.8027029792
  0
LINE
  5
250
100
AcDbEntity
  8
0
100
AcDbLine
 62
9
  6
CONTINUOUS
 10
15.3606753316
 20
7.8467092212
 11
14.5147093538
 21
7.8467092212
  0
LINE
  5
251
100
AcDbEntity
  8
0
100
AcDbLine
 62
9
  6
CONTINUOUS
 10
7.3606753316
 20
7.8467092212
 11
6.5147093538
 21
7.8467092212
  0
LINE
  5
252
100
AcDbEntity
  8
0
100
AcDbLine
 62
9
  6
CONTINUOUS
 10
6.4876923427
 20
7.8968303376
 11
7.3876923427
 21
7.8968303376
  0
LINE
  5
253
100
AcDbEntity
  8
0
100
AcDbLine
 62
9
  6
CONTINUOUS
 10
14.4876923427
 20
7.8968303376
 11
15.3876923427
 21
7.8968303376
  0
LINE
  5
254
100
AcDbEntity
  8
0
100
AcDbLine
 62
9
  6
CONTINUOUS
 10
15.3876923427
 20
7.9016695021
 11
14.4876923427
 21
7.9016695021
  0
LINE
  5
255
100
AcDbEntity
  8
0
100
AcDbLine
 62
9
  6
CONTINUOUS
 10
7.3876923427
 20
7.9016695021
 11
6.4876923427
 21
7.9016695021
  0
LINE
  5
256
100
AcDbEntity
  8
0
100
AcDbLine
 62
7
  6
CONTINUOUS
 10
15.3276923427
 20
7.9616695021
 11
14.5476930646
 21
7.9616695021
  0
LINE
  5
257
100
AcDbEntity
  8
0
100
AcDbLine
 62
7
  6
CONTINUOUS
 10
7.3276923427
 20
7.9616695021
 11
6.5476930646
 21
7.9616695021
  0
LINE
  5
258
100
AcDbEntity
  8
0
100
AcDbLine
 62
7
  6
CONTINUOUS
 10
15.2621870606
 20
8.0416695021
 11
14.6131976248
 21
8.0416695021
  0
LINE
  5
259
100
AcDbEntity
  8
0
100
AcDbLine
 62
7
  6
CONTINUOUS
 10
7.2621870606
 20
8.0416695021
 11
6.6131976248
 21
8.0416695021
  0
LINE
  5
25A
100
AcDbEntity
  8
0
100
AcDbLine
 62
7
  6
CONTINUOUS
 10
5.8344695076
 20
5.8742182845
 11
6.0029693119
 21
6.0358768464
  0
LINE
  5
25B
100
AcDbEntity
  8
0
100
AcDbLine
 62
7
  6
CONTINUOUS
 10
6.6666918555
 20
8.2916695021
 11
7.208691967
 21
8.2916695021
  0
LINE
  5
25C
100
AcDbEntity
  8
0
100
AcDbLine
 62
7
  6
CONTINUOUS
 10
14.6666918555
 20
8.2916695021
 11
15.208691967
 21
8.2916695021
  0
LINE
  5
25D
100
AcDbEntity
  8
0
100
AcDbLine
 62
7
  6
CONTINUOUS
 10
16.0790792218
 20
8.2921691554
 11
16.0641102454
 21
8.2921691554
  0
LINE
  5
25E
100
AcDbEntity
  8
0
100
AcDbLine
 62
7
  6
CONTINUOUS
 10
8.0790792218
 20
8.2921691554
 11
8.0641102454
 21
8.2921691554
  0
LINE
  5
25F
100
AcDbEntity
  8
0
100
AcDbLine
 62
7
  6
CONTINUOUS
 10
5.7963054636
 20
8.2921691554
 11
5.81127444
 21
8.2921691554
  0
LINE
  5
260
100
AcDbEntity
  8
0
100
AcDbLine
 62
7
  6
CONTINUOUS
 10
13.7963054636
 20
8.2921691554
 11
13.81127444
 21
8.2921691554
  0
LINE
  5
261
100
AcDbEntity
  8
0
100
AcDbLine
 62
7
  6
CONTINUOUS
 10
15.4516923427
 20
8.4721691554
 11
15.3616923427
 21
8.4721691554
  0
LINE
  5
262
100
AcDbEntity
  8
0
100
AcDbLine
 62
7
  6
CONTINUOUS
 10
7.4516923427
 20
8.4721691554
 11
7.3616923427
 21
8.4721691554
  0
LINE
  5
263
100
AcDbEntity
  8
0
100
AcDbLine
 62
7
  6
CONTINUOUS
 10
6.4236923428
 20
8.4721691554
 11
6.5136923427
 21
8.4721691554
  0
LINE
  5
264
100
AcDbEntity
  8
0
100
AcDbLine
 62
7
  6
CONTINUOUS
 10
14.4236923428
 20
8.4721691554
 11
14.5136923427
 21
8.4721691554
  0
LINE
  5
265
100
AcDbEntity
  8
0
100
AcDbLine
 62
7
  6
CONTINUOUS
 10
10.2971923427
 20
10.7099998786
 11
10.2971923427
 21
10.6729058636
  0
LINE
  5
266
100
AcDbEntity
  8
0
100
AcDbLine
 62
7
  6
CONTINUOUS
 10
10.3676923427
 20
7.2382283024
 11
10.3676923427
 21
6.8784978941
  0
LINE
  5
267
100
AcDbEntity
  8
0
100
AcDbLine
 62
7
  6
CONTINUOUS
 10
10.4326923427
 20
12.6036695021
 11
10.4326923427
 21
12.5236695021
  0
LINE
  5
268
100
AcDbEntity
  8
0
100
AcDbLine
 62
7
  6
CONTINUOUS
 10
10.4476923427
 20
10.7226695021
 11
10.4476923427
 21
10.7117084931
  0
LINE
  5
269
100
AcDbEntity
  8
0
100
AcDbLine
 62
7
  6
CONTINUOUS
 10
10.5626923427
 20
12.2025977357
 11
10.5626923427
 21
10.7926695021
  0
LINE
  5
26A
100
AcDbEntity
  8
0
100
AcDbLine
 62
7
  6
CONTINUOUS
 10
15.4516923427
 20
8.8321691554
 11
15.3616923427
 21
8.8321691554
  0
LINE
  5
26B
100
AcDbEntity
  8
0
100
AcDbLine
 62
7
  6
CONTINUOUS
 10
7.4516923427
 20
8.8321691554
 11
7.3616923427
 21
8.8321691554
  0
LINE
  5
26C
100
AcDbEntity
  8
0
100
AcDbLine
 62
7
  6
CONTINUOUS
 10
6.4236923428
 20
8.8321691554
 11
6.5136923427
 21
8.8321691554
  0
LINE
  5
26D
100
AcDbEntity
  8
0
100
AcDbLine
 62
7
  6
CONTINUOUS
 10
14.4236923428
 20
8.8321691554
 11
14.5136923427
 21
8.8321691554
  0
LINE
  5
26E
100
AcDbEntity
  8
0
100
AcDbLine
 62
7
  6
CONTINUOUS
 10
10.4933522891
 20
10.5933225281
 11
10.5245715133
 21
10.2108163654
  0
LINE
  5
26F
100
AcDbEntity
  8
0
100
AcDbLine
 62
7
  6
CONTINUOUS
 10
9.8976125362
 20
6.1007496213
 11
9.893550298
 21
6.0870646693
  0
LINE
  5
270
100
AcDbEntity
  8
0
100
AcDbLine
 62
9
  6
CONTINUOUS
 10
14.6388307332
 20
8.9899305184
 11
14.8145084198
 21
8.9899306434
  0
LINE
  5
271
100
AcDbEntity
  8
0
100
AcDbLine
 62
9
  6
CONTINUOUS
 10
15.2365542383
 20
8.9899302653
 11
15.0605043493
 21
8.9899302653
  0
LINE
  5
272
100
AcDbEntity
  8
0
100
AcDbLine
 62
9
  6
CONTINUOUS
 10
7.2365542383
 20
8.9899302653
 11
7.0605043493
 21
8.9899302653
  0
LINE
  5
273
100
AcDbEntity
  8
0
100
AcDbLine
 62
9
  6
CONTINUOUS
 10
6.6388307332
 20
8.9899305184
 11
6.8145084198
 21
8.9899306434
  0
LINE
  5
274
100
AcDbEntity
  8
0
100
AcDbLine
 62
7
  6
CONTINUOUS
 10
15.2299275887
 20
8.9924411055
 11
15.0524344751
 21
8.9924411055
  0
LINE
  5
275
100
AcDbEntity
  8
0
100
AcDbLine
 62
7
  6
CONTINUOUS
 10
14.8227522065
 20
8.9924411055
 11
14.6454615982
 21
8.9924411055
  0
LINE
  5
276
100
AcDbEntity
  8
0
100
AcDbLine
 62
7
  6
CONTINUOUS
 10
7.2299275887
 20
8.9924411055
 11
7.0524344751
 21
8.9924411055
  0
LINE
  5
277
100
AcDbEntity
  8
0
100
AcDbLine
 62
7
  6
CONTINUOUS
 10
6.8227522065
 20
8.9924411055
 11
6.6454615982
 21
8.9924411055
  0
LINE
  5
278
100
AcDbEntity
  8
0
100
AcDbLine
 62
7
  6
CONTINUOUS
 10
16.0790792218
 20
9.0121691554
 11
16.0641102454
 21
9.0121691554
  0
LINE
  5
279
100
AcDbEntity
  8
0
100
AcDbLine
 62
7
  6
CONTINUOUS
 10
8.0790792218
 20
9.0121691554
 11
8.0641102454
 21
9.0121691554
  0
LINE
  5
27A
100
AcDbEntity
  8
0
100
AcDbLine
 62
7
  6
CONTINUOUS
 10
5.7963054636
 20
9.0121691554
 11
5.81127444
 21
9.0121691554
  0
LINE
  5
27B
100
AcDbEntity
  8
0
100
AcDbLine
 62
7
  6
CONTINUOUS
 10
13.7963054636
 20
9.0121691554
 11
13.81127444
 21
9.0121691554
  0
LINE
  5
27C
100
AcDbEntity
  8
0
100
AcDbLine
 62
9
  6
CONTINUOUS
 10
6.6576954788
 20
9.0124411055
 11
7.2176923427
 21
9.0124411055
  0
LINE
  5
27D
100
AcDbEntity
  8
0
100
AcDbLine
 62
9
  6
CONTINUOUS
 10
14.6576954788
 20
9.0124411055
 11
15.2176923427
 21
9.0124411055
  0
LINE
  5
27E
100
AcDbEntity
  8
0
100
AcDbLine
 62
9
  6
CONTINUOUS
 10
15.2176923427
 20
9.0192971356
 11
14.6576957886
 21
9.0192971356
  0
LINE
  5
27F
100
AcDbEntity
  8
0
100
AcDbLine
 62
9
  6
CONTINUOUS
 10
7.2176923427
 20
9.0192971356
 11
6.6576957886
 21
9.0192971356
  0
LINE
  5
280
100
AcDbEntity
  8
0
100
AcDbLine
 62
9
  6
CONTINUOUS
 10
6.7118858909
 20
9.0950204942
 11
7.1634987945
 21
9.0950204942
  0
LINE
  5
281
100
AcDbEntity
  8
0
100
AcDbLine
 62
9
  6
CONTINUOUS
 10
14.7118858909
 20
9.0950204942
 11
15.1634987945
 21
9.0950204942
  0
LINE
  5
282
100
AcDbEntity
  8
0
100
AcDbLine
 62
7
  6
CONTINUOUS
 10
11.3126923427
 20
12.2025977357
 11
11.3126923427
 21
10.7926695021
  0
LINE
  5
283
100
AcDbEntity
  8
0
100
AcDbLine
 62
7
  6
CONTINUOUS
 10
11.3820323964
 20
10.5933225281
 11
11.3508131721
 21
10.2108163654
  0
LINE
  5
284
100
AcDbEntity
  8
0
100
AcDbLine
 62
7
  6
CONTINUOUS
 10
11.9777721493
 20
6.1007496213
 11
11.9818343875
 21
6.0870646693
  0
LINE
  5
285
100
AcDbEntity
  8
0
100
AcDbLine
 62
7
  6
CONTINUOUS
 10
11.4276923427
 20
10.7226695021
 11
11.4276923427
 21
10.7117084931
  0
LINE
  5
286
100
AcDbEntity
  8
0
100
AcDbLine
 62
7
  6
CONTINUOUS
 10
11.4426923427
 20
12.6036695021
 11
11.4426923427
 21
12.5236695021
  0
LINE
  5
287
100
AcDbEntity
  8
0
100
AcDbLine
 62
7
  6
CONTINUOUS
 10
11.5076923427
 20
7.2382283024
 11
11.5076923427
 21
6.8784978941
  0
LINE
  5
288
100
AcDbEntity
  8
0
100
AcDbLine
 62
7
  6
CONTINUOUS
 10
11.5781923427
 20
10.7099998786
 11
11.5781923427
 21
10.6729058636
  0
LINE
  5
289
100
AcDbEntity
  8
0
100
AcDbLine
 62
7
  6
CONTINUOUS
 10
10.5376923427
 20
10.0226695021
 11
11.3376923427
 21
10.0226695021
  0
LINE
  5
28A
100
AcDbEntity
  8
0
100
AcDbLine
 62
9
  6
CONTINUOUS
 10
10.5082720987
 20
10.1263707287
 11
11.3671125868
 21
10.1263707287
  0
LINE
  5
28B
100
AcDbEntity
  8
0
100
AcDbLine
 62
9
  6
CONTINUOUS
 10
10.5245715133
 20
10.2108163654
 11
11.3508131721
 21
10.2108163654
  0
LINE
  5
28C
100
AcDbEntity
  8
0
100
AcDbLine
 62
7
  6
CONTINUOUS
 10
16.0409151779
 20
5.8742182845
 11
15.8724153736
 21
6.0358768464
  0
LINE
  5
28D
100
AcDbEntity
  8
0
100
AcDbLine
 62
7
  6
CONTINUOUS
 10
10.4933865657
 20
10.5918841597
 11
10.3576923427
 21
10.5918841597
  0
LINE
  5
28E
100
AcDbEntity
  8
0
100
AcDbLine
 62
7
  6
CONTINUOUS
 10
11.3819981197
 20
10.5918841597
 11
11.5176923427
 21
10.5918841597
  0
LINE
  5
28F
100
AcDbEntity
  8
0
100
AcDbLine
 62
9
  6
CONTINUOUS
 10
11.3820323964
 20
10.5933225281
 11
10.4933586043
 21
10.5933225281
  0
LINE
  5
290
100
AcDbEntity
  8
0
100
AcDbLine
 62
7
  6
CONTINUOUS
 10
11.5361923415
 20
10.6156695011
 11
11.3855416874
 21
10.6156695011
  0
LINE
  5
291
100
AcDbEntity
  8
0
100
AcDbLine
 62
7
  6
CONTINUOUS
 10
10.489842998
 20
10.6156695011
 11
10.339192344
 21
10.6156695011
  0
LINE
  5
292
100
AcDbEntity
  8
0
100
AcDbLine
 62
9
  6
CONTINUOUS
 10
10.2971923427
 20
10.6729058636
 11
10.4638514648
 21
10.6729058636
  0
LINE
  5
293
100
AcDbEntity
  8
0
100
AcDbLine
 62
9
  6
CONTINUOUS
 10
11.4115332206
 20
10.6729058636
 11
11.5781923427
 21
10.6729058636
  0
LINE
  5
294
100
AcDbEntity
  8
0
100
AcDbLine
 62
9
  6
CONTINUOUS
 10
10.4586900124
 20
10.6804224226
 11
11.4166891898
 21
10.6804224226
  0
LINE
  5
295
100
AcDbEntity
  8
0
100
AcDbLine
 62
9
  6
CONTINUOUS
 10
11.5781923427
 20
10.7099998786
 11
11.4276923427
 21
10.7099998786
  0
LINE
  5
296
100
AcDbEntity
  8
0
100
AcDbLine
 62
9
  6
CONTINUOUS
 10
10.4476923427
 20
10.7099998786
 11
10.2971923427
 21
10.7099998786
  0
LINE
  5
297
100
AcDbEntity
  8
0
100
AcDbLine
 62
9
  6
CONTINUOUS
 10
10.4476923427
 20
10.7117084931
 11
11.4276867335
 21
10.7117084931
  0
LINE
  5
298
100
AcDbEntity
  8
0
100
AcDbLine
 62
9
  6
CONTINUOUS
 10
11.4276923427
 20
10.7226695021
 11
10.4476923427
 21
10.7226695021
  0
LINE
  5
299
100
AcDbEntity
  8
0
100
AcDbLine
 62
7
  6
CONTINUOUS
 10
11.5486914983
 20
10.7616695021
 11
11.4153387449
 21
10.7616695021
  0
LINE
  5
29A
100
AcDbEntity
  8
0
100
AcDbLine
 62
7
  6
CONTINUOUS
 10
10.4600459406
 20
10.7616695021
 11
10.3266931872
 21
10.7616695021
  0
LINE
  5
29B
100
AcDbEntity
  8
0
100
AcDbLine
 62
7
  6
CONTINUOUS
 10
11.3576923424
 20
10.7926695021
 11
10.517692343
 21
10.7926695021
  0
LINE
  5
29C
100
AcDbEntity
  8
0
100
AcDbLine
 62
9
  6
CONTINUOUS
 10
11.3126923427
 20
10.9581137383
 11
10.5626923427
 21
10.9581137383
  0
LINE
  5
29D
100
AcDbEntity
  8
0
100
AcDbLine
 62
7
  6
CONTINUOUS
 10
15.7537873156
 20
6.2489998037
 11
15.8536582247
 21
6.1256695021
  0
LINE
  5
29E
100
AcDbEntity
  8
0
100
AcDbLine
 62
9
  6
CONTINUOUS
 10
13.7229529973
 20
8.4319217838
 11
13.7229529973
 21
8.872416527
  0
LINE
  5
29F
100
AcDbEntity
  8
0
100
AcDbLine
 62
9
  6
CONTINUOUS
 10
13.746383458
 20
8.9649608129
 11
13.746383458
 21
8.3393774979
  0
LINE
  5
2A0
100
AcDbEntity
  8
0
100
AcDbLine
 62
9
  6
CONTINUOUS
 10
13.7963054635
 20
9.0121691554
 11
13.7963054635
 21
8.2921691554
  0
LINE
  5
2A1
100
AcDbEntity
  8
0
100
AcDbLine
 62
9
  6
CONTINUOUS
 10
13.8112744404
 20
8.2921691554
 11
13.8112744404
 21
9.0121691554
  0
LINE
  5
2A2
100
AcDbEntity
  8
0
100
AcDbLine
 62
9
  6
CONTINUOUS
 10
13.8570621642
 20
8.9822560744
 11
13.8570621642
 21
8.3220822364
  0
LINE
  5
2A3
100
AcDbEntity
  8
0
100
AcDbLine
 62
9
  6
CONTINUOUS
 10
13.8894737776
 20
8.3457896237
 11
13.8894737776
 21
8.9585486871
  0
LINE
  5
2A4
100
AcDbEntity
  8
0
100
AcDbLine
 62
9
  6
CONTINUOUS
 10
11.3186707904
 20
12.0194446216
 11
11.3126923427
 21
12.0194446216
  0
LINE
  5
2A5
100
AcDbEntity
  8
0
100
AcDbLine
 62
9
  6
CONTINUOUS
 10
10.5567114115
 20
12.0194433049
 11
10.5626923427
 21
12.0194437257
  0
LINE
  5
2A6
100
AcDbEntity
  8
0
100
AcDbLine
 62
7
  6
CONTINUOUS
 10
11.4226923427
 20
12.5036695021
 11
11.1668030317
 21
12.5036695021
  0
LINE
  5
2A7
100
AcDbEntity
  8
0
100
AcDbLine
 62
7
  6
CONTINUOUS
 10
10.7085816538
 20
12.5036695021
 11
10.4526923427
 21
12.5036695021
  0
LINE
  5
2A8
100
AcDbEntity
  8
0
100
AcDbLine
 62
9
  6
CONTINUOUS
 10
10.4326923427
 20
12.5236695021
 11
10.7383595368
 21
12.5236695021
  0
LINE
  5
2A9
100
AcDbEntity
  8
0
100
AcDbLine
 62
9
  6
CONTINUOUS
 10
11.1370251486
 20
12.5236695021
 11
11.4426923427
 21
12.5236695021
  0
LINE
  5
2AA
100
AcDbEntity
  8
0
100
AcDbLine
 62
9
  6
CONTINUOUS
 10
11.4426923427
 20
12.6036695021
 11
10.4326923427
 21
12.6036695021
  0
LINE
  5
2AB
100
AcDbEntity
  8
0
100
AcDbLine
 62
7
  6
CONTINUOUS
 10
11.4226923427
 20
12.6236695021
 11
10.4526927055
 21
12.6236695021
  0
LINE
  5
2AC
100
AcDbEntity
  8
0
100
AcDbLine
 62
9
  6
CONTINUOUS
 10
14.3933311999
 20
8.8698287579
 11
14.3933311999
 21
8.4345095529
  0
LINE
  5
2AD
100
AcDbEntity
  8
0
100
AcDbLine
 62
7
  6
CONTINUOUS
 10
14.4236923428
 20
8.8321691554
 11
14.4236923428
 21
8.4721691554
  0
LINE
  5
2AE
100
AcDbEntity
  8
0
100
AcDbLine
 62
7
  6
CONTINUOUS
 10
14.4876923427
 20
7.9016695021
 11
14.4876923427
 21
7.8968303376
  0
LINE
  5
2AF
100
AcDbEntity
  8
0
100
AcDbLine
 62
9
  6
CONTINUOUS
 10
14.5136923427
 20
8.4721691554
 11
14.5136923427
 21
8.8321691554
  0
LINE
  5
2B0
100
AcDbEntity
  8
0
100
AcDbLine
 62
7
  6
CONTINUOUS
 10
14.5236923427
 20
8.4732697423
 11
14.5236923427
 21
8.8310685685
  0
LINE
  5
2B1
100
AcDbEntity
  8
0
100
AcDbLine
 62
7
  6
CONTINUOUS
 10
14.6131923427
 20
8.0416695021
 11
14.6131923427
 21
7.9616695021
  0
LINE
  5
2B2
100
AcDbEntity
  8
0
100
AcDbLine
 62
7
  6
CONTINUOUS
 10
14.6576923427
 20
9.0124411055
 11
14.6576923427
 21
9.0192971356
  0
LINE
  5
2B3
100
AcDbEntity
  8
0
100
AcDbLine
 62
7
  6
CONTINUOUS
 10
14.6791923427
 20
8.2916695021
 11
14.6791923427
 21
8.0416695021
  0
LINE
  5
2B4
100
AcDbEntity
  8
0
100
AcDbLine
 62
7
  6
CONTINUOUS
 10
15.1961923427
 20
8.2916695021
 11
15.1961923427
 21
8.0416695021
  0
LINE
  5
2B5
100
AcDbEntity
  8
0
100
AcDbLine
 62
7
  6
CONTINUOUS
 10
15.2176923427
 20
9.0124411055
 11
15.2176923427
 21
9.0192971356
  0
LINE
  5
2B6
100
AcDbEntity
  8
0
100
AcDbLine
 62
7
  6
CONTINUOUS
 10
15.2621923427
 20
8.0416695021
 11
15.2621923427
 21
7.9616695021
  0
LINE
  5
2B7
100
AcDbEntity
  8
0
100
AcDbLine
 62
7
  6
CONTINUOUS
 10
15.3516923427
 20
8.8310685685
 11
15.3516923427
 21
8.4732697423
  0
LINE
  5
2B8
100
AcDbEntity
  8
0
100
AcDbLine
 62
9
  6
CONTINUOUS
 10
15.3616923427
 20
8.8321691554
 11
15.3616923427
 21
8.4721691554
  0
LINE
  5
2B9
100
AcDbEntity
  8
0
100
AcDbLine
 62
7
  6
CONTINUOUS
 10
15.3876923427
 20
7.9016695021
 11
15.3876923427
 21
7.8968303376
  0
LINE
  5
2BA
100
AcDbEntity
  8
0
100
AcDbLine
 62
7
  6
CONTINUOUS
 10
15.4516923427
 20
8.4721691554
 11
15.4516923427
 21
8.8321691554
  0
LINE
  5
2BB
100
AcDbEntity
  8
0
100
AcDbLine
 62
9
  6
CONTINUOUS
 10
15.4820534856
 20
8.4345095529
 11
15.4820534856
 21
8.8698287579
  0
LINE
  5
2BC
100
AcDbEntity
  8
0
100
AcDbLine
 62
7
  6
CONTINUOUS
 10
14.1215973699
 20
6.2489998037
 11
14.0217264608
 21
6.1256695021
  0
LINE
  5
2BD
100
AcDbEntity
  8
0
100
AcDbLine
 62
7
  6
CONTINUOUS
 10
13.8344695076
 20
5.8742182845
 11
14.0029693119
 21
6.0358768464
  0
LINE
  5
2BE
100
AcDbEntity
  8
0
100
AcDbLine
 62
9
  6
CONTINUOUS
 10
15.9859109079
 20
8.9585486871
 11
15.9859109079
 21
8.3457896237
  0
LINE
  5
2BF
100
AcDbEntity
  8
0
100
AcDbLine
 62
9
  6
CONTINUOUS
 10
16.0183225213
 20
8.3220822364
 11
16.0183225213
 21
8.9822560744
  0
LINE
  5
2C0
100
AcDbEntity
  8
0
100
AcDbLine
 62
9
  6
CONTINUOUS
 10
16.064110245
 20
9.0121691554
 11
16.064110245
 21
8.2921691554
  0
LINE
  5
2C1
100
AcDbEntity
  8
0
100
AcDbLine
 62
9
  6
CONTINUOUS
 10
16.079079222
 20
8.2921691554
 11
16.079079222
 21
9.0121691554
  0
LINE
  5
2C2
100
AcDbEntity
  8
0
100
AcDbLine
 62
9
  6
CONTINUOUS
 10
16.1290012275
 20
8.3393774979
 11
16.1290012275
 21
8.9649608129
  0
LINE
  5
2C3
100
AcDbEntity
  8
0
100
AcDbLine
 62
9
  6
CONTINUOUS
 10
16.1524316882
 20
8.872416527
 11
16.1524316882
 21
8.4319217838
  0
ARC
  5
2C4
100
AcDbEntity
  8
0
100
AcDbCircle
 62
7
  6
CONTINUOUS
 10
-7.7063076573
 20
8.9331183534
 40
18.14
100
AcDbArc
 50
355.4069360499
 51
5.246594862
  0
ARC
  5
2C5
100
AcDbEntity
  8
0
100
AcDbCircle
 62
7
  6
CONTINUOUS
 10
5.4960925777
 20
5.2493504946
 40
3.73
100
AcDbArc
 50
76.0811997271
 51
83.9460923514
  0
ARC
  5
2C6
100
AcDbEntity
  8
0
100
AcDbCircle
 62
7
  6
CONTINUOUS
 10
8.3792921078
 20
5.2493504946
 40
3.73
100
AcDbArc
 50
96.0539076486
 51
103.9188002729
  0
ARC
  5
2C7
100
AcDbEntity
  8
0
100
AcDbCircle
 62
7
  6
CONTINUOUS
 10
10.4260405649
 20
5.5152085039
 40
1.65
100
AcDbArc
 50
27.7184984338
 51
45.977526257
  0
ARC
  5
2C8
100
AcDbEntity
  8
0
100
AcDbCircle
 62
7
  6
CONTINUOUS
 10
6.9066923427
 20
5.6915295144
 40
0.93
100
AcDbArc
 50
120.6423451974
 51
141.168495232
  0
ARC
  5
2C9
100
AcDbEntity
  8
0
100
AcDbCircle
 62
7
  6
CONTINUOUS
 10
6.9686923427
 20
5.6915295144
 40
0.93
100
AcDbArc
 50
38.831504768
 51
59.3576548026
  0
ARC
  5
2CA
100
AcDbEntity
  8
0
100
AcDbCircle
 62
7
  6
CONTINUOUS
 10
10.4503844834
 20
5.312600915
 40
0.9
100
AcDbArc
 50
128.8148632695
 51
140.3235258512
  0
ARC
  5
2CB
100
AcDbEntity
  8
0
100
AcDbCircle
 62
7
  6
CONTINUOUS
 10
9.3468144704
 20
6.3387023282
 40
0.6
100
AcDbArc
 50
336.6349598569
 51
349.9208406311
  0
ARC
  5
2CC
100
AcDbEntity
  8
0
100
AcDbCircle
 62
7
  6
CONTINUOUS
 10
10.3671923427
 20
6.7506669511
 40
0.081
100
AcDbArc
 50
114.960023952
 51
217.222133896
  0
ARC
  5
2CD
100
AcDbEntity
  8
0
100
AcDbCircle
 62
7
  6
CONTINUOUS
 10
7.6993870983
 20
6.2049473764
 40
0.07
100
AcDbArc
 50
39.0
 51
90.0
  0
ARC
  5
2CE
100
AcDbEntity
  8
0
100
AcDbCircle
 62
7
  6
CONTINUOUS
 10
6.1759975872
 20
6.2049473764
 40
0.07
100
AcDbArc
 50
90.0
 51
141.0
  0
ARC
  5
2CF
100
AcDbEntity
  8
0
100
AcDbCircle
 62
7
  6
CONTINUOUS
 10
6.4472642679
 20
6.6401585723
 40
0.06
100
AcDbArc
 50
284.1325804472
 51
350.7367477834
  0
ARC
  5
2D0
100
AcDbEntity
  8
0
100
AcDbCircle
 62
7
  6
CONTINUOUS
 10
7.4281204176
 20
6.6401585723
 40
0.06
100
AcDbArc
 50
189.2632522166
 51
255.8674195528
  0
ARC
  5
2D1
100
AcDbEntity
  8
0
100
AcDbCircle
 62
7
  6
CONTINUOUS
 10
9.9966286346
 20
6.223196692
 40
0.06
100
AcDbArc
 50
97.6008745823
 51
169.9208449369
  0
ARC
  5
2D2
100
AcDbEntity
  8
0
100
AcDbCircle
 62
7
  6
CONTINUOUS
 10
10.3076923427
 20
6.8784978941
 40
0.06
100
AcDbArc
 50
294.9600265219
 51
360.0
  0
ARC
  5
2D3
100
AcDbEntity
  8
0
100
AcDbCircle
 62
7
  6
CONTINUOUS
 10
6.4755875639
 20
6.5276695021
 40
0.056
100
AcDbArc
 50
104.1325726664
 51
220.0052008848
  0
ARC
  5
2D4
100
AcDbEntity
  8
0
100
AcDbCircle
 62
7
  6
CONTINUOUS
 10
7.3997971216
 20
6.5276695021
 40
0.056
100
AcDbArc
 50
319.9947991152
 51
75.8674273336
  0
ARC
  5
2D5
100
AcDbEntity
  8
0
100
AcDbCircle
 62
7
  6
CONTINUOUS
 10
7.8116923427
 20
6.091686201
 40
0.054
100
AcDbArc
 50
342.5404827935
 51
39.0
  0
ARC
  5
2D6
100
AcDbEntity
  8
0
100
AcDbCircle
 62
7
  6
CONTINUOUS
 10
6.0636923427
 20
6.091686201
 40
0.054
100
AcDbArc
 50
141.0
 51
197.4595172065
  0
ARC
  5
2D7
100
AcDbEntity
  8
0
100
AcDbCircle
 62
7
  6
CONTINUOUS
 10
7.9013616854
 20
6.0634832049
 40
0.04
100
AcDbArc
 50
162.5404824816
 51
223.6426919198
  0
ARC
  5
2D8
100
AcDbEntity
  8
0
100
AcDbCircle
 62
7
  6
CONTINUOUS
 10
5.9740230001
 20
6.0634832049
 40
0.04
100
AcDbArc
 50
316.3573080802
 51
17.4595175184
  0
ARC
  5
2D9
100
AcDbEntity
  8
0
100
AcDbCircle
 62
7
  6
CONTINUOUS
 10
9.8611868803
 20
6.0450257812
 40
0.04
100
AcDbArc
 50
308.8148632695
 51
26.1825355743
  0
ARC
  5
2DA
100
AcDbEntity
  8
0
100
AcDbCircle
 62
7
  6
CONTINUOUS
 10
9.9329783127
 20
6.0803243682
 40
0.04
100
AcDbArc
 50
170.2993315942
 51
206.182534931
  0
ARC
  5
2DB
100
AcDbEntity
  8
0
100
AcDbCircle
 62
7
  6
CONTINUOUS
 10
9.7884753607
 20
5.8616695021
 40
0.04
100
AcDbArc
 50
140.3235258512
 51
269.9999984659
  0
ARC
  5
2DC
100
AcDbEntity
  8
0
100
AcDbCircle
 62
7
  6
CONTINUOUS
 10
5.854257191
 20
5.8516695021
 40
0.03
100
AcDbArc
 50
131.2685707348
 51
269.9999980768
  0
ARC
  5
2DD
100
AcDbEntity
  8
0
100
AcDbCircle
 62
7
  6
CONTINUOUS
 10
8.0211274945
 20
5.8516695021
 40
0.03
100
AcDbArc
 50
270.0000019232
 51
48.7314292652
  0
ARC
  5
2DE
100
AcDbEntity
  8
0
100
AcDbCircle
 62
7
  6
CONTINUOUS
 10
2.1056309176
 20
7.3482693346
 40
4.459
100
AcDbArc
 50
350.7367478167
 51
5.8493864071
  0
ARC
  5
2DF
100
AcDbEntity
  8
0
100
AcDbCircle
 62
7
  6
CONTINUOUS
 10
6.1906923427
 20
8.6521691554
 40
0.517
100
AcDbArc
 50
154.785365424
 51
205.214634576
  0
ARC
  5
2E0
100
AcDbEntity
  8
0
100
AcDbCircle
 62
7
  6
CONTINUOUS
 10
5.4967734312
 20
8.3254191833
 40
0.25
100
AcDbArc
 50
3.2006744686
 51
25.2146348188
  0
ARC
  5
2E1
100
AcDbEntity
  8
0
100
AcDbCircle
 62
7
  6
CONTINUOUS
 10
5.4967734312
 20
8.9789191275
 40
0.25
100
AcDbArc
 50
334.7853651812
 51
356.7993255314
  0
ARC
  5
2E2
100
AcDbEntity
  8
0
100
AcDbCircle
 62
7
  6
CONTINUOUS
 10
5.81127444
 20
8.9621691554
 40
0.05
100
AcDbArc
 50
23.6868993629
 51
90.0
  0
ARC
  5
2E3
100
AcDbEntity
  8
0
100
AcDbCircle
 62
7
  6
CONTINUOUS
 10
5.7963054636
 20
8.3421691554
 40
0.05
100
AcDbArc
 50
183.2006734286
 51
270.0
  0
ARC
  5
2E4
100
AcDbEntity
  8
0
100
AcDbCircle
 62
7
  6
CONTINUOUS
 10
5.7963054636
 20
8.9621691554
 40
0.05
100
AcDbArc
 50
90.0
 51
176.7993265714
  0
ARC
  5
2E5
100
AcDbEntity
  8
0
100
AcDbCircle
 62
7
  6
CONTINUOUS
 10
5.81127444
 20
8.3421691554
 40
0.05
100
AcDbArc
 50
270.0
 51
336.3131006371
  0
ARC
  5
2E6
100
AcDbEntity
  8
0
100
AcDbCircle
 62
7
  6
CONTINUOUS
 10
5.8936923427
 20
8.9983256115
 40
0.04
100
AcDbArc
 50
203.6869009309
 51
263.9460923514
  0
ARC
  5
2E7
100
AcDbEntity
  8
0
100
AcDbCircle
 62
7
  6
CONTINUOUS
 10
5.8936923427
 20
8.3060126993
 40
0.04
100
AcDbArc
 50
96.0539076486
 51
156.3130990691
  0
ARC
  5
2E8
100
AcDbEntity
  8
0
100
AcDbCircle
 62
7
  6
CONTINUOUS
 10
10.1056309176
 20
7.3482693346
 40
4.459
100
AcDbArc
 50
350.7367478167
 51
5.8493864071
  0
ARC
  5
2E9
100
AcDbEntity
  8
0
100
AcDbCircle
 62
7
  6
CONTINUOUS
 10
10.4306923427
 20
7.3654679376
 40
0.11
100
AcDbArc
 50
150.4868261983
 51
197.7527901619
  0
ARC
  5
2EA
100
AcDbEntity
  8
0
100
AcDbCircle
 62
7
  6
CONTINUOUS
 10
10.2676923427
 20
7.2382283024
 40
0.1
100
AcDbArc
 50
0.0
 51
42.9336478281
  0
ARC
  5
2EB
100
AcDbEntity
  8
0
100
AcDbCircle
 62
7
  6
CONTINUOUS
 10
10.3906923427
 20
7.3526616892
 40
0.068
100
AcDbArc
 50
197.7527901619
 51
222.9336605753
  0
ARC
  5
2EC
100
AcDbEntity
  8
0
100
AcDbCircle
 62
7
  6
CONTINUOUS
 10
7.393658335
 20
7.796588153
 40
0.06
100
AcDbArc
 50
123.3475811816
 51
174.1506135687
  0
ARC
  5
2ED
100
AcDbEntity
  8
0
100
AcDbCircle
 62
7
  6
CONTINUOUS
 10
6.4817263504
 20
7.7965881529
 40
0.06
100
AcDbArc
 50
5.849386431
 51
56.6524188194
  0
ARC
  5
2EE
100
AcDbEntity
  8
0
100
AcDbCircle
 62
7
  6
CONTINUOUS
 10
6.5476923427
 20
7.8968302991
 40
0.06
100
AcDbArc
 50
180.0
 51
236.6524271109
  0
ARC
  5
2EF
100
AcDbEntity
  8
0
100
AcDbCircle
 62
7
  6
CONTINUOUS
 10
7.3276923427
 20
7.8968302991
 40
0.06
100
AcDbArc
 50
303.3475728905
 51
360.0
  0
ARC
  5
2F0
100
AcDbEntity
  8
0
100
AcDbCircle
 62
7
  6
CONTINUOUS
 10
7.3276923427
 20
7.9016695021
 40
0.06
100
AcDbArc
 50
0.0
 51
90.0
  0
ARC
  5
2F1
100
AcDbEntity
  8
0
100
AcDbCircle
 62
7
  6
CONTINUOUS
 10
6.5476923427
 20
7.9016695021
 40
0.06
100
AcDbArc
 50
90.0
 51
180.0
  0
ARC
  5
2F2
100
AcDbEntity
  8
0
100
AcDbCircle
 62
7
  6
CONTINUOUS
 10
10.3156298652
 20
7.4853034703
 40
0.06
100
AcDbArc
 50
304.8440612791
 51
355.4069360477
  0
ARC
  5
2F3
100
AcDbEntity
  8
0
100
AcDbCircle
 62
7
  6
CONTINUOUS
 10
10.3784777956
 20
7.3950253575
 40
0.05
100
AcDbArc
 50
124.8440576116
 51
150.4868261983
  0
ARC
  5
2F4
100
AcDbEntity
  8
0
100
AcDbCircle
 62
7
  6
CONTINUOUS
 10
6.383709338
 20
8.4733350571
 40
0.04
100
AcDbArc
 50
283.9188002729
 51
358.3297322854
  0
ARC
  5
2F5
100
AcDbEntity
  8
0
100
AcDbCircle
 62
7
  6
CONTINUOUS
 10
6.5136923427
 20
8.4821691554
 40
0.01
100
AcDbArc
 50
270.0
 51
360.0
  0
ARC
  5
2F6
100
AcDbEntity
  8
0
100
AcDbCircle
 62
7
  6
CONTINUOUS
 10
6.9376923427
 20
8.4324411055
 40
0.7
100
AcDbArc
 50
71.1809366145
 51
108.8190633855
  0
ARC
  5
2F7
100
AcDbEntity
  8
0
100
AcDbCircle
 62
7
  6
CONTINUOUS
 10
7.3616923427
 20
8.4821691554
 40
0.01
100
AcDbArc
 50
180.0
 51
270.0
  0
ARC
  5
2F8
100
AcDbEntity
  8
0
100
AcDbCircle
 62
7
  6
CONTINUOUS
 10
6.9377016783
 20
8.6521758664
 40
0.4510109593
100
AcDbArc
 50
203.370652572
 51
233.0661193878
  0
ARC
  5
2F9
100
AcDbEntity
  8
0
100
AcDbCircle
 62
7
  6
CONTINUOUS
 10
6.9376923427
 20
8.6521691554
 40
0.451
100
AcDbArc
 50
23.370340497
 51
48.4965643543
  0
ARC
  5
2FA
100
AcDbEntity
  8
0
100
AcDbCircle
 62
7
  6
CONTINUOUS
 10
6.9376923427
 20
8.6521691554
 40
0.451
100
AcDbArc
 50
306.9334449091
 51
336.629659503
  0
ARC
  5
2FB
100
AcDbEntity
  8
0
100
AcDbCircle
 62
7
  6
CONTINUOUS
 10
6.937677557
 20
8.6521801837
 40
0.4509813783
100
AcDbArc
 50
131.5029572381
 51
156.6302005304
  0
CIRCLE
  5
2FC
100
AcDbEntity
  8
0
100
AcDbCircle
 62
7
  6
CONTINUOUS
 10
6.9376923427
 20
8.6521691554
 40
0.36
  0
ARC
  5
2FD
100
AcDbEntity
  8
0
100
AcDbCircle
 62
7
  6
CONTINUOUS
 10
6.9376923427
 20
8.6521691554
 40
0.36
100
AcDbArc
 50
180.0
 51
355.2179250934
  0
ARC
  5
2FE
100
AcDbEntity
  8
0
100
AcDbCircle
 62
7
  6
CONTINUOUS
 10
6.9376923427
 20
8.6521691554
 40
0.36
100
AcDbArc
 50
359.5426643135
 51
359.6540742452
  0
ARC
  5
2FF
100
AcDbEntity
  8
0
100
AcDbCircle
 62
7
  6
CONTINUOUS
 10
6.9376923427
 20
8.6521691554
 40
0.36
100
AcDbArc
 50
359.8214531592
 51
8.5523092622
  0
CIRCLE
  5
300
100
AcDbEntity
  8
0
100
AcDbCircle
 62
9
  6
CONTINUOUS
 10
6.9376923427
 20
8.6521691554
 40
0.3127916575
  0
CIRCLE
  5
301
100
AcDbEntity
  8
0
100
AcDbCircle
 62
9
  6
CONTINUOUS
 10
6.9376923427
 20
8.6521691554
 40
0.2202473716
  0
ARC
  5
302
100
AcDbEntity
  8
0
100
AcDbCircle
 62
7
  6
CONTINUOUS
 10
6.383709338
 20
8.8310032537
 40
0.04
100
AcDbArc
 50
1.6702677143
 51
76.0811997271
  0
ARC
  5
303
100
AcDbEntity
  8
0
100
AcDbCircle
 62
7
  6
CONTINUOUS
 10
6.6776923427
 20
9.0124411055
 40
0.02
100
AcDbArc
 50
180.0
 51
270.0000004217
  0
ARC
  5
304
100
AcDbEntity
  8
0
100
AcDbCircle
 62
7
  6
CONTINUOUS
 10
7.1976923427
 20
9.0124411055
 40
0.02
100
AcDbArc
 50
269.9999995783
 51
360.0
  0
ARC
  5
305
100
AcDbEntity
  8
0
100
AcDbCircle
 62
7
  6
CONTINUOUS
 10
6.5136923427
 20
8.8221691554
 40
0.01
100
AcDbArc
 50
0.0
 51
90.0
  0
ARC
  5
306
100
AcDbEntity
  8
0
100
AcDbCircle
 62
7
  6
CONTINUOUS
 10
7.3616923427
 20
8.8221691554
 40
0.01
100
AcDbArc
 50
90.0
 51
180.0
  0
ARC
  5
307
100
AcDbEntity
  8
0
100
AcDbCircle
 62
7
  6
CONTINUOUS
 10
7.2299275887
 20
8.9824411055
 40
0.01
100
AcDbArc
 50
48.4965643543
 51
90.0
  0
ARC
  5
308
100
AcDbEntity
  8
0
100
AcDbCircle
 62
7
  6
CONTINUOUS
 10
6.6454570967
 20
8.9824411055
 40
0.01
100
AcDbArc
 50
90.0
 51
131.5034356456
  0
ARC
  5
309
100
AcDbEntity
  8
0
100
AcDbCircle
 62
7
  6
CONTINUOUS
 10
7.6846923427
 20
8.6521691554
 40
0.517
100
AcDbArc
 50
334.785365424
 51
25.214634576
  0
ARC
  5
30A
100
AcDbEntity
  8
0
100
AcDbCircle
 62
7
  6
CONTINUOUS
 10
8.3786112543
 20
8.3254191833
 40
0.25
100
AcDbArc
 50
154.7853651812
 51
176.7993255314
  0
ARC
  5
30B
100
AcDbEntity
  8
0
100
AcDbCircle
 62
7
  6
CONTINUOUS
 10
8.0790792218
 20
8.3421691554
 40
0.05
100
AcDbArc
 50
270.0
 51
356.7993265714
  0
ARC
  5
30C
100
AcDbEntity
  8
0
100
AcDbCircle
 62
7
  6
CONTINUOUS
 10
8.0641102454
 20
8.3421691554
 40
0.05
100
AcDbArc
 50
203.6868993629
 51
270.0
  0
ARC
  5
30D
100
AcDbEntity
  8
0
100
AcDbCircle
 62
7
  6
CONTINUOUS
 10
7.4916753475
 20
8.4733350571
 40
0.04
100
AcDbArc
 50
181.6702677146
 51
256.0811997271
  0
ARC
  5
30E
100
AcDbEntity
  8
0
100
AcDbCircle
 62
7
  6
CONTINUOUS
 10
7.9816923427
 20
8.3060126993
 40
0.04
100
AcDbArc
 50
23.6869009309
 51
83.9460923514
  0
ARC
  5
30F
100
AcDbEntity
  8
0
100
AcDbCircle
 62
7
  6
CONTINUOUS
 10
8.3786112543
 20
8.9789191275
 40
0.25
100
AcDbArc
 50
183.2006744686
 51
205.2146348188
  0
ARC
  5
310
100
AcDbEntity
  8
0
100
AcDbCircle
 62
7
  6
CONTINUOUS
 10
8.0641102454
 20
8.9621691554
 40
0.05
100
AcDbArc
 50
90.0
 51
156.3131006371
  0
ARC
  5
311
100
AcDbEntity
  8
0
100
AcDbCircle
 62
7
  6
CONTINUOUS
 10
8.0790792218
 20
8.9621691554
 40
0.05
100
AcDbArc
 50
3.2006734286
 51
90.0
  0
ARC
  5
312
100
AcDbEntity
  8
0
100
AcDbCircle
 62
7
  6
CONTINUOUS
 10
7.4916753475
 20
8.8310032537
 40
0.04
100
AcDbArc
 50
103.9188002729
 51
178.3297322857
  0
ARC
  5
313
100
AcDbEntity
  8
0
100
AcDbCircle
 62
7
  6
CONTINUOUS
 10
7.9816923427
 20
8.9983256115
 40
0.04
100
AcDbArc
 50
276.0539076486
 51
336.3130990691
  0
ARC
  5
314
100
AcDbEntity
  8
0
100
AcDbCircle
 62
7
  6
CONTINUOUS
 10
5.4960925777
 20
12.0549878162
 40
3.73
100
AcDbArc
 50
276.0539076486
 51
283.9188002729
  0
ARC
  5
315
100
AcDbEntity
  8
0
100
AcDbCircle
 62
7
  6
CONTINUOUS
 10
8.3792921078
 20
12.0549878162
 40
3.73
100
AcDbArc
 50
256.0811997271
 51
263.9460923514
  0
ARC
  5
316
100
AcDbEntity
  8
0
100
AcDbCircle
 62
7
  6
CONTINUOUS
 10
10.9376919655
 20
11.3006696342
 40
0.8134993012
100
AcDbArc
 50
117.9252908473
 51
221.4198480602
  0
ARC
  5
317
100
AcDbEntity
  8
0
100
AcDbCircle
 62
7
  6
CONTINUOUS
 10
10.862832759
 20
12.7833657885
 40
0.6
100
AcDbArc
 50
314.2417624891
 51
332.2146479711
  0
ARC
  5
318
100
AcDbEntity
  8
0
100
AcDbCircle
 62
7
  6
CONTINUOUS
 10
10.9289390452
 20
11.3001665065
 40
0.3847536263
100
AcDbArc
 50
0.0749038716
 51
1.9535985026
  0
ARC
  5
319
100
AcDbEntity
  8
0
100
AcDbCircle
 62
7
  6
CONTINUOUS
 10
10.9323236438
 20
11.3003189938
 40
0.3813657985
100
AcDbArc
 50
1.9480370785
 51
5.6339966807
  0
ARC
  5
31A
100
AcDbEntity
  8
0
100
AcDbCircle
 62
7
  6
CONTINUOUS
 10
10.3651017798
 20
10.1978008329
 40
0.16
100
AcDbArc
 50
333.4846119516
 51
4.6660000151
  0
ARC
  5
31B
100
AcDbEntity
  8
0
100
AcDbCircle
 62
7
  6
CONTINUOUS
 10
10.3338825556
 20
10.5803069956
 40
0.16
100
AcDbArc
 50
4.6660000291
 51
38.7351572862
  0
ARC
  5
31C
100
AcDbEntity
  8
0
100
AcDbCircle
 62
7
  6
CONTINUOUS
 10
6.7376923427
 20
9.0192971355
 40
0.08
100
AcDbArc
 50
108.8190635135
 51
180.0
  0
ARC
  5
31D
100
AcDbEntity
  8
0
100
AcDbCircle
 62
7
  6
CONTINUOUS
 10
7.1376923427
 20
9.0192971355
 40
0.08
100
AcDbArc
 50
0.0
 51
71.1809364865
  0
ARC
  5
31E
100
AcDbEntity
  8
0
100
AcDbCircle
 62
7
  6
CONTINUOUS
 10
10.5798572581
 20
10.0906556765
 40
0.08
100
AcDbArc
 50
153.4846119579
 51
238.1928775105
  0
ARC
  5
31F
100
AcDbEntity
  8
0
100
AcDbCircle
 62
7
  6
CONTINUOUS
 10
10.2904481123
 20
10.5586695021
 40
0.075
100
AcDbArc
 50
26.2866374819
 51
49.4641966393
  0
ARC
  5
320
100
AcDbEntity
  8
0
100
AcDbCircle
 62
7
  6
CONTINUOUS
 10
10.5176923427
 20
10.7226695021
 40
0.07
100
AcDbArc
 50
89.9999997536
 51
180.0
  0
ARC
  5
321
100
AcDbEntity
  8
0
100
AcDbCircle
 62
7
  6
CONTINUOUS
 10
10.3571923427
 20
10.6729058536
 40
0.06
100
AcDbArc
 50
180.0
 51
252.5423981204
  0
ARC
  5
322
100
AcDbEntity
  8
0
100
AcDbCircle
 62
7
  6
CONTINUOUS
 10
10.3571923427
 20
10.7099998786
 40
0.06
100
AcDbArc
 50
120.5528775489
 51
180.0
  0
ARC
  5
323
100
AcDbEntity
  8
0
100
AcDbCircle
 62
7
  6
CONTINUOUS
 10
10.4976923427
 20
10.7117084935
 40
0.05
100
AcDbArc
 50
180.0
 51
218.7351570966
  0
ARC
  5
324
100
AcDbEntity
  8
0
100
AcDbCircle
 62
7
  6
CONTINUOUS
 10
10.4526923427
 20
12.6036695021
 40
0.02
100
AcDbArc
 50
90.0
 51
180.0
  0
ARC
  5
325
100
AcDbEntity
  8
0
100
AcDbCircle
 62
7
  6
CONTINUOUS
 10
10.4526923427
 20
12.5236695021
 40
0.02
100
AcDbArc
 50
180.0
 51
270.0
  0
ARC
  5
326
100
AcDbEntity
  8
0
100
AcDbCircle
 62
7
  6
CONTINUOUS
 10
10.5473474845
 20
12.0371157946
 40
0.02
100
AcDbArc
 50
297.9253336896
 51
320.8089222013
  0
ARC
  5
327
100
AcDbEntity
  8
0
100
AcDbCircle
 62
7
  6
CONTINUOUS
 10
13.4960925777
 20
5.2493504946
 40
3.73
100
AcDbArc
 50
76.0811997271
 51
83.9460923514
  0
ARC
  5
328
100
AcDbEntity
  8
0
100
AcDbCircle
 62
7
  6
CONTINUOUS
 10
16.3792921078
 20
5.2493504946
 40
3.73
100
AcDbArc
 50
96.0539076486
 51
103.9188002729
  0
ARC
  5
329
100
AcDbEntity
  8
0
100
AcDbCircle
 62
7
  6
CONTINUOUS
 10
11.4493441206
 20
5.5152085039
 40
1.65
100
AcDbArc
 50
134.022473743
 51
152.2815015668
  0
ARC
  5
32A
100
AcDbEntity
  8
0
100
AcDbCircle
 62
7
  6
CONTINUOUS
 10
14.9066923427
 20
5.6915295144
 40
0.93
100
AcDbArc
 50
120.6423451974
 51
141.168495232
  0
ARC
  5
32B
100
AcDbEntity
  8
0
100
AcDbCircle
 62
7
  6
CONTINUOUS
 10
14.9686923427
 20
5.6915295144
 40
0.93
100
AcDbArc
 50
38.831504768
 51
59.3576548026
  0
ARC
  5
32C
100
AcDbEntity
  8
0
100
AcDbCircle
 62
7
  6
CONTINUOUS
 10
11.4250002021
 20
5.312600915
 40
0.9
100
AcDbArc
 50
39.6764741488
 51
51.1851367289
  0
ARC
  5
32D
100
AcDbEntity
  8
0
100
AcDbCircle
 62
7
  6
CONTINUOUS
 10
12.5285702151
 20
6.3387023282
 40
0.6
100
AcDbArc
 50
190.0791593689
 51
203.3650401431
  0
ARC
  5
32E
100
AcDbEntity
  8
0
100
AcDbCircle
 62
7
  6
CONTINUOUS
 10
11.5081923427
 20
6.7506669511
 40
0.081
100
AcDbArc
 50
322.777866104
 51
65.039976048
  0
ARC
  5
32F
100
AcDbEntity
  8
0
100
AcDbCircle
 62
7
  6
CONTINUOUS
 10
15.6993870983
 20
6.2049473764
 40
0.07
100
AcDbArc
 50
39.0
 51
90.0
  0
ARC
  5
330
100
AcDbEntity
  8
0
100
AcDbCircle
 62
7
  6
CONTINUOUS
 10
14.1759975872
 20
6.2049473764
 40
0.07
100
AcDbArc
 50
90.0
 51
141.0
  0
ARC
  5
331
100
AcDbEntity
  8
0
100
AcDbCircle
 62
7
  6
CONTINUOUS
 10
14.4472642679
 20
6.6401585723
 40
0.06
100
AcDbArc
 50
284.1325804472
 51
350.7367477834
  0
ARC
  5
332
100
AcDbEntity
  8
0
100
AcDbCircle
 62
7
  6
CONTINUOUS
 10
15.4281204176
 20
6.6401585723
 40
0.06
100
AcDbArc
 50
189.2632522166
 51
255.8674195528
  0
ARC
  5
333
100
AcDbEntity
  8
0
100
AcDbCircle
 62
7
  6
CONTINUOUS
 10
11.8787560509
 20
6.223196692
 40
0.06
100
AcDbArc
 50
10.0791550618
 51
82.3991254229
  0
ARC
  5
334
100
AcDbEntity
  8
0
100
AcDbCircle
 62
7
  6
CONTINUOUS
 10
11.5676923427
 20
6.8784978941
 40
0.06
100
AcDbArc
 50
180.0
 51
245.0399734781
  0
ARC
  5
335
100
AcDbEntity
  8
0
100
AcDbCircle
 62
7
  6
CONTINUOUS
 10
14.4755875639
 20
6.5276695021
 40
0.056
100
AcDbArc
 50
104.1325726664
 51
220.0052008848
  0
ARC
  5
336
100
AcDbEntity
  8
0
100
AcDbCircle
 62
7
  6
CONTINUOUS
 10
15.3997971216
 20
6.5276695021
 40
0.056
100
AcDbArc
 50
319.9947991152
 51
75.8674273336
  0
ARC
  5
337
100
AcDbEntity
  8
0
100
AcDbCircle
 62
7
  6
CONTINUOUS
 10
15.8116923427
 20
6.091686201
 40
0.054
100
AcDbArc
 50
342.5404827935
 51
39.0
  0
ARC
  5
338
100
AcDbEntity
  8
0
100
AcDbCircle
 62
7
  6
CONTINUOUS
 10
14.0636923427
 20
6.091686201
 40
0.054
100
AcDbArc
 50
141.0
 51
197.4595172065
  0
ARC
  5
339
100
AcDbEntity
  8
0
100
AcDbCircle
 62
7
  6
CONTINUOUS
 10
15.9013616854
 20
6.0634832049
 40
0.04
100
AcDbArc
 50
162.5404824816
 51
223.6426919198
  0
ARC
  5
33A
100
AcDbEntity
  8
0
100
AcDbCircle
 62
7
  6
CONTINUOUS
 10
13.9740230001
 20
6.0634832049
 40
0.04
100
AcDbArc
 50
316.3573080802
 51
17.4595175184
  0
ARC
  5
33B
100
AcDbEntity
  8
0
100
AcDbCircle
 62
7
  6
CONTINUOUS
 10
11.9424063728
 20
6.0803243681
 40
0.04
100
AcDbArc
 50
333.8174650907
 51
9.7006682799
  0
ARC
  5
33C
100
AcDbEntity
  8
0
100
AcDbCircle
 62
7
  6
CONTINUOUS
 10
12.0141978052
 20
6.0450257812
 40
0.04
100
AcDbArc
 50
153.8174644474
 51
231.1851367289
  0
ARC
  5
33D
100
AcDbEntity
  8
0
100
AcDbCircle
 62
7
  6
CONTINUOUS
 10
12.0869093248
 20
5.8616695021
 40
0.04
100
AcDbArc
 50
270.0000015341
 51
39.6764741488
  0
ARC
  5
33E
100
AcDbEntity
  8
0
100
AcDbCircle
 62
7
  6
CONTINUOUS
 10
13.854257191
 20
5.8516695021
 40
0.03
100
AcDbArc
 50
131.2685707348
 51
269.9999980768
  0
ARC
  5
33F
100
AcDbEntity
  8
0
100
AcDbCircle
 62
7
  6
CONTINUOUS
 10
16.0211274945
 20
5.8516695021
 40
0.03
100
AcDbArc
 50
270.0000019232
 51
48.7314292652
  0
ARC
  5
340
100
AcDbEntity
  8
0
100
AcDbCircle
 62
7
  6
CONTINUOUS
 10
11.7697537679
 20
7.3482693346
 40
4.459
100
AcDbArc
 50
174.1506135926
 51
189.2632521833
  0
ARC
  5
341
100
AcDbEntity
  8
0
100
AcDbCircle
 62
7
  6
CONTINUOUS
 10
11.4446923427
 20
7.3654679376
 40
0.11
100
AcDbArc
 50
342.2472098381
 51
29.5131738017
  0
ARC
  5
342
100
AcDbEntity
  8
0
100
AcDbCircle
 62
7
  6
CONTINUOUS
 10
11.6076923427
 20
7.2382283024
 40
0.1
100
AcDbArc
 50
137.0663521719
 51
180.0
  0
ARC
  5
343
100
AcDbEntity
  8
0
100
AcDbCircle
 62
7
  6
CONTINUOUS
 10
11.4846923427
 20
7.3526616892
 40
0.068
100
AcDbArc
 50
317.0663394247
 51
342.2472098381
  0
ARC
  5
344
100
AcDbEntity
  8
0
100
AcDbCircle
 62
7
  6
CONTINUOUS
 10
15.393658335
 20
7.796588153
 40
0.06
100
AcDbArc
 50
123.3475811816
 51
174.1506135687
  0
ARC
  5
345
100
AcDbEntity
  8
0
100
AcDbCircle
 62
7
  6
CONTINUOUS
 10
14.4817263504
 20
7.7965881529
 40
0.06
100
AcDbArc
 50
5.849386431
 51
56.6524188194
  0
ARC
  5
346
100
AcDbEntity
  8
0
100
AcDbCircle
 62
7
  6
CONTINUOUS
 10
14.5476923427
 20
7.8968302991
 40
0.06
100
AcDbArc
 50
180.0
 51
236.6524271109
  0
ARC
  5
347
100
AcDbEntity
  8
0
100
AcDbCircle
 62
7
  6
CONTINUOUS
 10
15.3276923427
 20
7.8968302991
 40
0.06
100
AcDbArc
 50
303.3475728905
 51
360.0
  0
ARC
  5
348
100
AcDbEntity
  8
0
100
AcDbCircle
 62
7
  6
CONTINUOUS
 10
15.3276923427
 20
7.9016695021
 40
0.06
100
AcDbArc
 50
0.0
 51
90.0
  0
ARC
  5
349
100
AcDbEntity
  8
0
100
AcDbCircle
 62
7
  6
CONTINUOUS
 10
14.5476923427
 20
7.9016695021
 40
0.06
100
AcDbArc
 50
90.0
 51
180.0
  0
ARC
  5
34A
100
AcDbEntity
  8
0
100
AcDbCircle
 62
7
  6
CONTINUOUS
 10
11.5597548203
 20
7.4853034703
 40
0.06
100
AcDbArc
 50
184.5930639523
 51
235.1559387209
  0
ARC
  5
34B
100
AcDbEntity
  8
0
100
AcDbCircle
 62
7
  6
CONTINUOUS
 10
11.4969068898
 20
7.3950253575
 40
0.05
100
AcDbArc
 50
29.5131738017
 51
55.1559423884
  0
ARC
  5
34C
100
AcDbEntity
  8
0
100
AcDbCircle
 62
7
  6
CONTINUOUS
 10
14.1906923427
 20
8.6521691554
 40
0.517
100
AcDbArc
 50
154.785365424
 51
205.214634576
  0
ARC
  5
34D
100
AcDbEntity
  8
0
100
AcDbCircle
 62
7
  6
CONTINUOUS
 10
13.4967734312
 20
8.3254191833
 40
0.25
100
AcDbArc
 50
3.2006744686
 51
25.2146348188
  0
ARC
  5
34E
100
AcDbEntity
  8
0
100
AcDbCircle
 62
7
  6
CONTINUOUS
 10
13.7963054636
 20
8.3421691554
 40
0.05
100
AcDbArc
 50
183.2006734286
 51
270.0
  0
ARC
  5
34F
100
AcDbEntity
  8
0
100
AcDbCircle
 62
7
  6
CONTINUOUS
 10
13.81127444
 20
8.3421691554
 40
0.05
100
AcDbArc
 50
270.0
 51
336.3131006371
  0
ARC
  5
350
100
AcDbEntity
  8
0
100
AcDbCircle
 62
7
  6
CONTINUOUS
 10
14.383709338
 20
8.4733350571
 40
0.04
100
AcDbArc
 50
283.9188002729
 51
358.3297322854
  0
ARC
  5
351
100
AcDbEntity
  8
0
100
AcDbCircle
 62
7
  6
CONTINUOUS
 10
13.8936923427
 20
8.3060126993
 40
0.04
100
AcDbArc
 50
96.0539076486
 51
156.3130990691
  0
ARC
  5
352
100
AcDbEntity
  8
0
100
AcDbCircle
 62
7
  6
CONTINUOUS
 10
13.4967734312
 20
8.9789191275
 40
0.25
100
AcDbArc
 50
334.7853651812
 51
356.7993255314
  0
ARC
  5
353
100
AcDbEntity
  8
0
100
AcDbCircle
 62
7
  6
CONTINUOUS
 10
13.81127444
 20
8.9621691554
 40
0.05
100
AcDbArc
 50
23.6868993629
 51
90.0
  0
ARC
  5
354
100
AcDbEntity
  8
0
100
AcDbCircle
 62
7
  6
CONTINUOUS
 10
13.7963054636
 20
8.9621691554
 40
0.05
100
AcDbArc
 50
90.0
 51
176.7993265714
  0
ARC
  5
355
100
AcDbEntity
  8
0
100
AcDbCircle
 62
7
  6
CONTINUOUS
 10
14.383709338
 20
8.8310032537
 40
0.04
100
AcDbArc
 50
1.6702677143
 51
76.0811997271
  0
ARC
  5
356
100
AcDbEntity
  8
0
100
AcDbCircle
 62
7
  6
CONTINUOUS
 10
13.8936923427
 20
8.9983256115
 40
0.04
100
AcDbArc
 50
203.6869009309
 51
263.9460923514
  0
ARC
  5
357
100
AcDbEntity
  8
0
100
AcDbCircle
 62
7
  6
CONTINUOUS
 10
14.9376923427
 20
8.4324411055
 40
0.7
100
AcDbArc
 50
71.1809366145
 51
108.8190633855
  0
ARC
  5
358
100
AcDbEntity
  8
0
100
AcDbCircle
 62
7
  6
CONTINUOUS
 10
14.5136923427
 20
8.4821691554
 40
0.01
100
AcDbArc
 50
270.0
 51
360.0
  0
ARC
  5
359
100
AcDbEntity
  8
0
100
AcDbCircle
 62
7
  6
CONTINUOUS
 10
14.9377016783
 20
8.6521758664
 40
0.4510109593
100
AcDbArc
 50
203.370652572
 51
233.0661193878
  0
ARC
  5
35A
100
AcDbEntity
  8
0
100
AcDbCircle
 62
7
  6
CONTINUOUS
 10
14.9376923427
 20
8.6521691554
 40
0.451
100
AcDbArc
 50
23.370340497
 51
48.4965643543
  0
ARC
  5
35B
100
AcDbEntity
  8
0
100
AcDbCircle
 62
7
  6
CONTINUOUS
 10
14.9376923427
 20
8.6521691554
 40
0.451
100
AcDbArc
 50
306.9334449091
 51
336.629659503
  0
ARC
  5
35C
100
AcDbEntity
  8
0
100
AcDbCircle
 62
7
  6
CONTINUOUS
 10
14.937677557
 20
8.6521801837
 40
0.4509813783
100
AcDbArc
 50
131.5029572381
 51
156.6302005304
  0
CIRCLE
  5
35D
100
AcDbEntity
  8
0
100
AcDbCircle
 62
7
  6
CONTINUOUS
 10
14.9376923427
 20
8.6521691554
 40
0.36
  0
ARC
  5
35E
100
AcDbEntity
  8
0
100
AcDbCircle
 62
7
  6
CONTINUOUS
 10
14.9376923427
 20
8.6521691554
 40
0.36
100
AcDbArc
 50
180.0
 51
355.2179250934
  0
CIRCLE
  5
35F
100
AcDbEntity
  8
0
100
AcDbCircle
 62
9
  6
CONTINUOUS
 10
14.9376923427
 20
8.6521691554
 40
0.3127916575
  0
CIRCLE
  5
360
100
AcDbEntity
  8
0
100
AcDbCircle
 62
9
  6
CONTINUOUS
 10
14.9376923427
 20
8.6521691554
 40
0.2202473716
  0
ARC
  5
361
100
AcDbEntity
  8
0
100
AcDbCircle
 62
7
  6
CONTINUOUS
 10
15.4916753475
 20
8.4733350571
 40
0.04
100
AcDbArc
 50
181.6702677146
 51
256.0811997271
  0
ARC
  5
362
100
AcDbEntity
  8
0
100
AcDbCircle
 62
7
  6
CONTINUOUS
 10
15.3616923427
 20
8.4821691554
 40
0.01
100
AcDbArc
 50
180.0
 51
270.0
  0
ARC
  5
363
100
AcDbEntity
  8
0
100
AcDbCircle
 62
7
  6
CONTINUOUS
 10
15.4916753475
 20
8.8310032537
 40
0.04
100
AcDbArc
 50
103.9188002729
 51
178.3297322857
  0
ARC
  5
364
100
AcDbEntity
  8
0
100
AcDbCircle
 62
7
  6
CONTINUOUS
 10
14.6776923427
 20
9.0124411055
 40
0.02
100
AcDbArc
 50
180.0
 51
270.0000004217
  0
ARC
  5
365
100
AcDbEntity
  8
0
100
AcDbCircle
 62
7
  6
CONTINUOUS
 10
15.1976923427
 20
9.0124411055
 40
0.02
100
AcDbArc
 50
269.9999995783
 51
360.0
  0
ARC
  5
366
100
AcDbEntity
  8
0
100
AcDbCircle
 62
7
  6
CONTINUOUS
 10
14.5136923427
 20
8.8221691554
 40
0.01
100
AcDbArc
 50
0.0
 51
90.0
  0
ARC
  5
367
100
AcDbEntity
  8
0
100
AcDbCircle
 62
7
  6
CONTINUOUS
 10
15.3616923427
 20
8.8221691554
 40
0.01
100
AcDbArc
 50
90.0
 51
180.0
  0
ARC
  5
368
100
AcDbEntity
  8
0
100
AcDbCircle
 62
7
  6
CONTINUOUS
 10
15.2299275887
 20
8.9824411055
 40
0.01
100
AcDbArc
 50
48.4965643544
 51
90.0
  0
ARC
  5
369
100
AcDbEntity
  8
0
100
AcDbCircle
 62
7
  6
CONTINUOUS
 10
14.6454570967
 20
8.9824411055
 40
0.01
100
AcDbArc
 50
90.0
 51
131.5034356456
  0
ARC
  5
36A
100
AcDbEntity
  8
0
100
AcDbCircle
 62
7
  6
CONTINUOUS
 10
19.7697537679
 20
7.3482693346
 40
4.459
100
AcDbArc
 50
174.1506135926
 51
189.2632521833
  0
ARC
  5
36B
100
AcDbEntity
  8
0
100
AcDbCircle
 62
7
  6
CONTINUOUS
 10
15.6846923427
 20
8.6521691554
 40
0.517
100
AcDbArc
 50
334.785365424
 51
25.214634576
  0
ARC
  5
36C
100
AcDbEntity
  8
0
100
AcDbCircle
 62
7
  6
CONTINUOUS
 10
16.3786112543
 20
8.3254191833
 40
0.25
100
AcDbArc
 50
154.7853651812
 51
176.7993255314
  0
ARC
  5
36D
100
AcDbEntity
  8
0
100
AcDbCircle
 62
7
  6
CONTINUOUS
 10
16.3786112543
 20
8.9789191275
 40
0.25
100
AcDbArc
 50
183.2006744686
 51
205.2146348188
  0
ARC
  5
36E
100
AcDbEntity
  8
0
100
AcDbCircle
 62
7
  6
CONTINUOUS
 10
16.0641102454
 20
8.9621691554
 40
0.05
100
AcDbArc
 50
90.0
 51
156.3131006371
  0
ARC
  5
36F
100
AcDbEntity
  8
0
100
AcDbCircle
 62
7
  6
CONTINUOUS
 10
16.0790792218
 20
8.3421691554
 40
0.05
100
AcDbArc
 50
270.0
 51
356.7993265714
  0
ARC
  5
370
100
AcDbEntity
  8
0
100
AcDbCircle
 62
7
  6
CONTINUOUS
 10
16.0790792218
 20
8.9621691554
 40
0.05
100
AcDbArc
 50
3.2006734286
 51
90.0
  0
ARC
  5
371
100
AcDbEntity
  8
0
100
AcDbCircle
 62
7
  6
CONTINUOUS
 10
16.0641102454
 20
8.3421691554
 40
0.05
100
AcDbArc
 50
203.6868993629
 51
270.0
  0
ARC
  5
372
100
AcDbEntity
  8
0
100
AcDbCircle
 62
7
  6
CONTINUOUS
 10
15.9816923427
 20
8.9983256115
 40
0.04
100
AcDbArc
 50
276.0539076486
 51
336.3130990691
  0
ARC
  5
373
100
AcDbEntity
  8
0
100
AcDbCircle
 62
7
  6
CONTINUOUS
 10
15.9816923427
 20
8.3060126993
 40
0.04
100
AcDbArc
 50
23.6869009309
 51
83.9460923514
  0
ARC
  5
374
100
AcDbEntity
  8
0
100
AcDbCircle
 62
7
  6
CONTINUOUS
 10
29.5816923427
 20
8.9331183534
 40
18.14
100
AcDbArc
 50
174.753405138
 51
184.5930639501
  0
ARC
  5
375
100
AcDbEntity
  8
0
100
AcDbCircle
 62
7
  6
CONTINUOUS
 10
11.5102829057
 20
10.1978008329
 40
0.16
100
AcDbArc
 50
175.3339999849
 51
206.5153880484
  0
ARC
  5
376
100
AcDbEntity
  8
0
100
AcDbCircle
 62
7
  6
CONTINUOUS
 10
11.5415021299
 20
10.5803069956
 40
0.16
100
AcDbArc
 50
141.2648427138
 51
175.3339999709
  0
ARC
  5
377
100
AcDbEntity
  8
0
100
AcDbCircle
 62
7
  6
CONTINUOUS
 10
11.2955274274
 20
10.0906556765
 40
0.08
100
AcDbArc
 50
301.8071224895
 51
26.5153880421
  0
ARC
  5
378
100
AcDbEntity
  8
0
100
AcDbCircle
 62
7
  6
CONTINUOUS
 10
11.5849365732
 20
10.5586695021
 40
0.075
100
AcDbArc
 50
130.5358033328
 51
153.7133625181
  0
ARC
  5
379
100
AcDbEntity
  8
0
100
AcDbCircle
 62
7
  6
CONTINUOUS
 10
11.3576923427
 20
10.7226695021
 40
0.07
100
AcDbArc
 50
0.0
 51
90.0000002464
  0
ARC
  5
37A
100
AcDbEntity
  8
0
100
AcDbCircle
 62
7
  6
CONTINUOUS
 10
11.5181923427
 20
10.6729058536
 40
0.06
100
AcDbArc
 50
287.4576019078
 51
360.0
  0
ARC
  5
37B
100
AcDbEntity
  8
0
100
AcDbCircle
 62
7
  6
CONTINUOUS
 10
11.5181923427
 20
10.7099998786
 40
0.06
100
AcDbArc
 50
0.0
 51
59.4471224511
  0
ARC
  5
37C
100
AcDbEntity
  8
0
100
AcDbCircle
 62
7
  6
CONTINUOUS
 10
11.3776923427
 20
10.7117084935
 40
0.05
100
AcDbArc
 50
321.2648429034
 51
360.0
  0
ARC
  5
37D
100
AcDbEntity
  8
0
100
AcDbCircle
 62
7
  6
CONTINUOUS
 10
10.9376923427
 20
11.5136695021
 40
1.2
100
AcDbArc
 50
67.6683549908
 51
112.3316450092
  0
ARC
  5
37E
100
AcDbEntity
  8
0
100
AcDbCircle
 62
7
  6
CONTINUOUS
 10
10.9376923427
 20
11.3006695021
 40
0.8135
100
AcDbArc
 50
318.5038939732
 51
62.0746899883
  0
ARC
  5
37F
100
AcDbEntity
  8
0
100
AcDbCircle
 62
7
  6
CONTINUOUS
 10
10.9376923427
 20
11.3006695021
 40
0.565
100
AcDbArc
 50
131.6272955968
 51
228.3727044032
  0
ARC
  5
380
100
AcDbEntity
  8
0
100
AcDbCircle
 62
7
  6
CONTINUOUS
 10
10.9376923427
 20
11.3006695021
 40
0.565
100
AcDbArc
 50
311.6272955968
 51
48.3727044032
  0
ARC
  5
381
100
AcDbEntity
  8
0
100
AcDbCircle
 62
7
  6
CONTINUOUS
 10
10.9376923427
 20
11.3006695021
 40
0.525
100
AcDbArc
 50
135.7282996802
 51
224.2717003198
  0
ARC
  5
382
100
AcDbEntity
  8
0
100
AcDbCircle
 62
7
  6
CONTINUOUS
 10
10.9376923427
 20
11.3006695021
 40
0.525
100
AcDbArc
 50
315.7282996802
 51
44.2717003198
  0
ARC
  5
383
100
AcDbEntity
  8
0
100
AcDbCircle
 62
9
  6
CONTINUOUS
 10
10.9376923427
 20
11.3006695021
 40
0.4549999979
100
AcDbArc
 50
145.527680949
 51
214.4729154027
  0
ARC
  5
384
100
AcDbEntity
  8
0
100
AcDbCircle
 62
9
  6
CONTINUOUS
 10
10.9376923427
 20
11.3006695021
 40
0.4549999979
100
AcDbArc
 50
325.527680949
 51
34.4729154027
  0
ARC
  5
385
100
AcDbEntity
  8
0
100
AcDbCircle
 62
7
  6
CONTINUOUS
 10
10.9376923427
 20
11.3006695021
 40
0.4075
100
AcDbArc
 50
157.3743655474
 51
202.6208863535
  0
ARC
  5
386
100
AcDbEntity
  8
0
100
AcDbCircle
 62
7
  6
CONTINUOUS
 10
10.9376923427
 20
11.3006695021
 40
0.4075
100
AcDbArc
 50
337.3743655474
 51
22.6208863535
  0
ARC
  5
387
100
AcDbEntity
  8
0
100
AcDbCircle
 62
7
  6
CONTINUOUS
 10
10.9376923427
 20
11.3006695021
 40
0.3875
100
AcDbArc
 50
166.0994074297
 51
193.9005925703
  0
ARC
  5
388
100
AcDbEntity
  8
0
100
AcDbCircle
 62
7
  6
CONTINUOUS
 10
10.9376923427
 20
11.3006695021
 40
0.3875
100
AcDbArc
 50
346.0994074297
 51
13.9005925703
  0
ARC
  5
389
100
AcDbEntity
  8
0
100
AcDbCircle
 62
7
  6
CONTINUOUS
 10
10.946919983
 20
11.3002229611
 40
0.3667729033
100
AcDbArc
 50
357.9361172356
 51
359.3038569828
  0
ARC
  5
38A
100
AcDbEntity
  8
0
100
AcDbCircle
 62
7
  6
CONTINUOUS
 10
10.949331392
 20
11.3001895831
 40
0.3643612668
100
AcDbArc
 50
359.304498193
 51
0.0754672538
  0
ARC
  5
38B
100
AcDbEntity
  8
0
100
AcDbCircle
 62
7
  6
CONTINUOUS
 10
11.328037201
 20
12.0371157946
 40
0.02
100
AcDbArc
 50
219.1910777987
 51
242.0746663104
  0
ARC
  5
38C
100
AcDbEntity
  8
0
100
AcDbCircle
 62
7
  6
CONTINUOUS
 10
11.0125519265
 20
12.7833657885
 40
0.6
100
AcDbArc
 50
207.7853520289
 51
225.7582375109
  0
ARC
  5
38D
100
AcDbEntity
  8
0
100
AcDbCircle
 62
7
  6
CONTINUOUS
 10
10.9376923427
 20
12.2081137383
 40
0.375
100
AcDbArc
 50
0.0
 51
180.0
  0
ARC
  5
38E
100
AcDbEntity
  8
0
100
AcDbCircle
 62
7
  6
CONTINUOUS
 10
11.4226923427
 20
12.5236695021
 40
0.02
100
AcDbArc
 50
270.0
 51
360.0
  0
ARC
  5
38F
100
AcDbEntity
  8
0
100
AcDbCircle
 62
7
  6
CONTINUOUS
 10
11.4226923427
 20
12.6036695021
 40
0.02
100
AcDbArc
 50
0.0
 51
90.0
  0
ARC
  5
390
100
AcDbEntity
  8
0
100
AcDbCircle
 62
7
  6
CONTINUOUS
 10
13.4960925777
 20
12.0549878162
 40
3.73
100
AcDbArc
 50
276.0539076486
 51
283.9188002729
  0
ARC
  5
391
100
AcDbEntity
  8
0
100
AcDbCircle
 62
7
  6
CONTINUOUS
 10
14.7376923427
 20
9.0192971355
 40
0.08
100
AcDbArc
 50
108.8190635135
 51
180.0
  0
ARC
  5
392
100
AcDbEntity
  8
0
100
AcDbCircle
 62
7
  6
CONTINUOUS
 10
15.1376923427
 20
9.0192971355
 40
0.08
100
AcDbArc
 50
0.0
 51
71.1809364865
  0
ARC
  5
393
100
AcDbEntity
  8
0
100
AcDbCircle
 62
7
  6
CONTINUOUS
 10
16.3792921078
 20
12.0549878162
 40
3.73
100
AcDbArc
 50
256.0811997271
 51
263.9460923514
  0
LINE
  5
394
100
AcDbEntity
  8
0
100
AcDbLine
 62
7
  6
CONTINUOUS
 10
10.3276635338
 20
10.7624815392
 11
10.3283806198
 21
10.7616698458
  0
ENDSEC
  0
SECTION
  2
OBJECTS
  0
DICTIONARY
  5
C
100
AcDbDictionary
280
0
281
1
  3
ACAD_GROUP
350
D
  3
ACAD_MLINESTYLE
350
17
  3
ACAD_LAYOUT
350
1A
  3
ACAD_PLOTSETTINGS
350
19
  3
ACAD_PLOTSTYLENAME
350
E
  0
DICTIONARY
  5
D
102
{ACAD_REACTORS
330
C
102
}
100
AcDbDictionary
280
0
281
1
  0
ACDBDICTIONARYWDFLT
  5
E
102
{ACAD_REACTORS
330
C
102
}
100
AcDbDictionary
281
1
  3
Normal
350
F
100
AcDbDictionaryWithDefault
340
F
  0
DICTIONARY
  5
17
102
{ACAD_REACTORS
330
C
102
}
100
AcDbDictionary
280
0
281
1
  3
Standard
350
18
  0
DICTIONARY
  5
19
102
{ACAD_REACTORS
330
C
102
}
100
AcDbDictionary
281
1
  0
DICTIONARY
  5
1A
102
{ACAD_REACTORS
330
C
102
}
100
AcDbDictionary
281
1
  3
Model
350
395
  3
Layout1
350
396
  0
ACDBPLACEHOLDER
  5
F
102
{ACAD_REACTORS
330
E
102
}
  0
MLINESTYLE
  5
18
102
{ACAD_REACTORS
330
17
102
}
100
AcDbMlineStyle
  2
STANDARD
 70
0
  3

 62
256
 51
90.0
 52
90.0
 71
2
 49
0.5
 62
256
  6
BYLAYER
 49
-0.5
 62
256
  6
BYLAYER
  0
LAYOUT
  5
395
102
{ACAD_REACTORS
330
1A
102
}
100
AcDbPlotSettings
  1

  2
none_device
  4
ANSI_C_(22.00_x_17.00_Inches)
  6

 40
0.0
 41
0.0
 42
0.0
 43
0.0
 44
558.8
 45
431.8
 46
0.0
 47
0.0
 48
0.0
 49
0.0
140
0.0
141
0.0
142
1.0
143
1.0
 70
1024
 72
0
 73
0
 74
0
  7

 75
0
147
1.0
148
0.0
149
0.0
100
AcDbLayout
  1
Model
 70
0
 71
0
 10
0.0
 20
0.0
 11
22.0
 21
17.0
 12
0.0
 22
0.0
 32
0.0
 14
0.0
 24
0.0
 34
0.0
 15
0.0
 25
0.0
 35
0.0
146
0.0
 13
0.0
 23
0.0
 33
0.0
 16
1.0
 26
0.0
 36
0.0
 17
0.0
 27
1.0
 37
0.0
 76
0
330
202
345
0
346
0
  0
LAYOUT
  5
396
102
{ACAD_REACTORS
330
1A
102
}
100
AcDbPlotSettings
  1

  2
none_device
  4
ANSI_C_(22.00_x_17.00_Inches)
  6

 40
0.0
 41
0.0
 42
0.0
 43
0.0
 44
558.8
 45
431.8
 46
0.0
 47
0.0
 48
0.0
 49
0.0
140
0.0
141
0.0
142
1.0
143
1.0
 70
0
 72
0
 73
0
 74
0
  7

 75
0
147
1.0
148
0.0
149
0.0
100
AcDbLayout
  1
Layout1
 70
0
 71
1
 10
0.0
 20
0.0
 11
22.0
 21
17.0
 12
0.0
 22
0.0
 32
0.0
 14
0.0
 24
0.0
 34
0.0
 15
0.0
 25
0.0
 35
0.0
146
0.0
 13
0.0
 23
0.0
 33
0.0
 16
1.0
 26
0.0
 36
0.0
 17
0.0
 27
1.0
 37
0.0
 76
0
330
203
345
0
346
0
  0
ENDSEC
  0
EOF
