999
DXF file: 2470-5203_right.dxf
999
Pro/ENGINEER 2018400 by Parametric Technology Corporation
  0
SECTION
  2
HEADER
  9
$ACADVER
  1
AC1027
  9
$DWGCODEPAGE
  3
ANSI_1252
  9
$EXTMAX
 10
11.0
 20
8.5
 30
0.0
  9
$EXTMIN
 10
0.0
 20
0.0
 30
0.0
  9
$LIMMIN
 10
0.0
 20
0.0
  9
$LIMMAX
 10
11.0
 20
8.5
  9
$VIEWCTR
 10
5.5
 20
4.25
  9
$VIEWSIZE
 40
8.5
  9
$CLAYER
  8
0
  9
$LTSCALE
 40
0.605
  9
$CELTYPE
  6
BYLAYER
  9
$DIMSCALE
 40
1.0
  9
$DIMASZ
 40
0.1
  9
$DIMEXO
 40
0.0625
  9
$DIMDLI
 40
0.418
  9
$DIMEXE
 40
0.125
  9
$DIMCEN
 40
0.099
  9
$DIMLFAC
 40
1.0
  9
$DIMBLK
  1
_FILLED
  9
$DIMALT
 70
1
  9
$DIMALTD
 70
1
  9
$DIMALTTD
 70
2
  9
$DIMALTF
 40
25.4
  9
$DIMTXT
 40
0.08
  9
$DIMTOL
 70
1
  9
$DIMLIM
 70
0
  9
$DIMTFAC
 40
1.0
  9
$DIMTP
 40
0.01
  9
$DIMTM
 40
0.01
  9
$DIMGAP
 40
0.09
  9
$DIMDSEP
 70
46
  9
$AUNITS
 70
0
  9
$PDMODE
 70
3
  9
$PDSIZE
 40
0.3125
  9
$HANDSEED
  5
317
  9
$TILEMODE
 70
1
  9
$MEASUREMENT
 70
0
  9
$INSUNITS
 70
1
  0
ENDSEC
  0
SECTION
  2
CLASSES
  0
CLASS
  1
ACDBDICTIONARYWDFLT
  2
AcDbDictionaryWithDefault
  3
AutoCAD 2000
 90
0
 91
1
280
0
281
0
  0
CLASS
  1
ACDBPLACEHOLDER
  2
AcDbPlaceHolder
  3
AutoCAD 2000
 90
0
 91
1
280
0
281
0
  0
CLASS
  1
LAYOUT
  2
AcDbLayout
  3
AutoCAD 2000
 90
0
 91
0
280
0
281
0
  0
ENDSEC
  0
SECTION
  2
TABLES
  0
TABLE
  2
VPORT
  5
8
100
AcDbSymbolTable
 70
2
  0
VPORT
  5
1F4
100
AcDbSymbolTableRecord
100
AcDbViewportTableRecord
  2
*ACTIVE
 70
0
 10
0.0
 20
0.0
 11
1.0
 21
1.0
 12
5.5
 22
4.25
 13
0.0
 23
0.0
 14
1.0
 24
1.0
 15
0.0
 25
0.0
 16
0.0
 26
0.0
 36
1.0
 17
0.0
 27
0.0
 37
0.0
 40
8.5
 41
1.2941176471
 42
50.0
 43
0.0
 44
0.0
 50
0.0
 51
0.0
 71
0
 72
100
 73
1
 74
1
 75
0
 76
0
 77
0
 78
0
  0
ENDTAB
  0
TABLE
  2
LTYPE
  5
5
100
AcDbSymbolTable
 70
6
  0
LTYPE
  5
14
100
AcDbSymbolTableRecord
100
AcDbLinetypeTableRecord
  2
BYBLOCK
 70
0
  3

 72
65
 73
0
 40
0.0
  0
LTYPE
  5
15
100
AcDbSymbolTableRecord
100
AcDbLinetypeTableRecord
  2
BYLAYER
 70
0
  3

 72
65
 73
0
 40
0.0
  0
LTYPE
  5
16
100
AcDbSymbolTableRecord
100
AcDbLinetypeTableRecord
  2
CONTINUOUS
 70
64
  3
Solid line
 72
65
 73
0
 40
0.0
  0
LTYPE
  5
1F5
100
AcDbSymbolTableRecord
100
AcDbLinetypeTableRecord
  2
CENTER
 70
64
  3
____ _ ____ _ ____ _ ____ _ ____ _ ____ _ ____
 72
65
 73
4
 40
0.6
 49
0.375
 74
0
 49
-0.075
 74
0
 49
0.075
 74
0
 49
-0.075
 74
0
  0
LTYPE
  5
1F6
100
AcDbSymbolTableRecord
100
AcDbLinetypeTableRecord
  2
HIDDEN
 70
64
  3
- - - - - - - - - - - - - - - - - - - -
 72
65
 73
2
 40
0.2
 49
0.1
 74
0
 49
-0.1
 74
0
  0
LTYPE
  5
1F7
100
AcDbSymbolTableRecord
100
AcDbLinetypeTableRecord
  2
PHANTOM
 70
64
  3
_____ _ _ _____ _ _ _____ _ _ _____
 72
65
 73
6
 40
0.8
 49
0.45
 74
0
 49
-0.05
 74
0
 49
0.1
 74
0
 49
-0.05
 74
0
 49
0.1
 74
0
 49
-0.05
 74
0
  0
LTYPE
  5
1F8
100
AcDbSymbolTableRecord
100
AcDbLinetypeTableRecord
  2
DOT
 70
64
  3
. . . . . . . . . . . . . . . . . . . .
 72
65
 73
2
 40
0.2
 49
0.1
 74
0
 49
-0.1
 74
0
  0
LTYPE
  5
1F9
100
AcDbSymbolTableRecord
100
AcDbLinetypeTableRecord
  2
DASHED
 70
64
  3
- - - - - - - - - - - - - - - - - - - -
 72
65
 73
2
 40
0.2
 49
0.1
 74
0
 49
-0.1
 74
0
  0
ENDTAB
  0
TABLE
  2
LAYER
  5
2
100
AcDbSymbolTable
 70
36
  0
LAYER
  5
10
100
AcDbSymbolTableRecord
100
AcDbLayerTableRecord
  2
0
 70
0
 62
7
  6
CONTINUOUS
370
-3
390
F
  0
LAYER
  5
1FA
100
AcDbSymbolTableRecord
100
AcDbLayerTableRecord
  2
DEFAULT_1
 70
0
 62
7
  6
CENTER
370
-3
390
F
  0
LAYER
  5
1FB
100
AcDbSymbolTableRecord
100
AcDbLayerTableRecord
  2
DEFAULT_2
 70
0
 62
8
  6
HIDDEN
370
-3
390
F
  0
LAYER
  5
1FC
100
AcDbSymbolTableRecord
100
AcDbLayerTableRecord
  2
DEFAULT_3
 70
0
 62
7
  6
PHANTOM
370
-3
390
F
  0
LAYER
  5
1FD
100
AcDbSymbolTableRecord
100
AcDbLayerTableRecord
  2
DEFAULT_COORDINATE_SYSTEM
 70
0
 62
7
  6
CONTINUOUS
370
-3
390
F
  0
LAYER
  5
1FE
100
AcDbSymbolTableRecord
100
AcDbLayerTableRecord
  2
DEFAULT_DATUM_AXES
 70
0
 62
7
  6
CONTINUOUS
370
-3
390
F
  0
LAYER
  5
1FF
100
AcDbSymbolTableRecord
100
AcDbLayerTableRecord
  2
DEFAULT_DATUM_PLANES
 70
0
 62
7
  6
CONTINUOUS
370
-3
390
F
  0
ENDTAB
  0
TABLE
  2
STYLE
  5
3
100
AcDbSymbolTable
 70
1
  0
STYLE
  5
11
100
AcDbSymbolTableRecord
100
AcDbTextStyleTableRecord
  2
STANDARD
 70
0
 40
0.0
 41
0.8
 50
0.0
 71
0
 42
0.2
  3
txt
  4

  0
STYLE
  5
200
100
AcDbSymbolTableRecord
100
AcDbTextStyleTableRecord
  2
TEXTSTYLE_1
 70
0
 40
0.0
 41
0.8
 50
0.0
 71
0
 42
0.2
  3
gdt
  4

  0
ENDTAB
  0
TABLE
  2
VIEW
  5
6
100
AcDbSymbolTable
 70
0
  0
ENDTAB
  0
TABLE
  2
UCS
  5
7
100
AcDbSymbolTable
 70
0
  0
ENDTAB
  0
TABLE
  2
APPID
  5
9
100
AcDbSymbolTable
 70
1
  0
APPID
  5
201
100
AcDbSymbolTableRecord
100
AcDbRegAppTableRecord
  2
ACAD
 70
0
  0
ENDTAB
  0
TABLE
  2
BLOCK_RECORD
  5
1
100
AcDbSymbolTable
 70
0
  0
BLOCK_RECORD
  5
202
100
AcDbSymbolTableRecord
100
AcDbBlockTableRecord
  2
*Model_Space
  0
BLOCK_RECORD
  5
203
100
AcDbSymbolTableRecord
100
AcDbBlockTableRecord
  2
*Paper_Space
  0
BLOCK_RECORD
  5
204
100
AcDbSymbolTableRecord
100
AcDbBlockTableRecord
  2
_FILLED
  0
ENDTAB
  0
TABLE
  2
DIMSTYLE
  5
A
100
AcDbSymbolTable
 70
1
100
AcDbDimStyleTable
 71
0
  0
DIMSTYLE
105
205
100
AcDbSymbolTableRecord
100
AcDbDimStyleTableRecord
  2
STANDARD
 70
0
  3

  4

 40
1.0
 41
0.1
 42
0.0625
 43
0.38
 44
0.125
 45
0.0
 46
0.0
 47
0.01
 48
0.01
140
0.08
141
0.09
142
0.0
143
25.4
144
1.0
145
0.0
146
1.0
147
0.09
 71
1.0
 72
0.0
 73
1
 74
1
 75
0
 76
0
 77
0
 78
4
 79
1
170
1
171
1
172
0
173
0
174
0
175
0
176
0
177
0
178
0
270
2
179
2
271
2
272
2
273
2
274
2
275
0
280
0
281
0
282
0
283
1
284
4
285
0
286
0
287
3
288
0
340
11
278
46
341
204
342
204
343
204
344
204
  0
ENDTAB
  0
ENDSEC
  0
SECTION
  2
BLOCKS
  0
BLOCK
  5
20
100
AcDbEntity
  8
0
100
AcDbBlockBegin
  2
*Model_Space
 70
0
 10
0.0
 20
0.0
 30
0.0
  3
*Model_Space
  1

  0
ENDBLK
  5
21
100
AcDbEntity
  8
0
100
AcDbBlockEnd
  0
BLOCK
  5
1C
100
AcDbEntity
  8
0
100
AcDbBlockBegin
  2
*Paper_Space
 70
0
 10
0.0
 20
0.0
 30
0.0
  3
*Paper_Space
  1

  0
ENDBLK
  5
1D
100
AcDbEntity
  8
0
100
AcDbBlockEnd
  0
BLOCK
  5
206
100
AcDbEntity
  8
0
100
AcDbBlockBegin
  2
_FILLED
 70
64
 10
0.0
 20
0.0
  3
_FILLED
  1

  0
SOLID
  5
207
100
AcDbEntity
  8
0
  6
BYBLOCK
 62
0
100
AcDbTrace
 10
0.0
 20
0.0
 11
-1.0
 21
0.2
 12
-1.0
 22
-0.2
 13
-1.0
 23
-0.2
  0
ENDBLK
  5
208
100
AcDbEntity
  8
0
  6
BYBLOCK
 62
0
100
AcDbBlockEnd
  0
ENDSEC
  0
SECTION
  2
ENTITIES
  0
MTEXT
  5
209
100
AcDbEntity
  8
0
100
AcDbMText
 62
2
  6
CONTINUOUS
  7
STANDARD
 71
3
 72
1
 10
4.7661740047
 20
1.1146500686
 30
0.0
 11
1.0
 21
0.0
 31
0.0
 73
2
 44
0.9
  1
SCALE  .500
 40
0.08
 41
0.704
  0
LINE
  5
20A
100
AcDbEntity
  8
0
100
AcDbLine
 62
7
  6
CONTINUOUS
 10
0.0
 20
0.0
 11
0.0
 21
8.5
  0
LINE
  5
20B
100
AcDbEntity
  8
0
100
AcDbLine
 62
7
  6
CONTINUOUS
 10
0.0
 20
0.0
 11
11.0
 21
0.0
  0
LINE
  5
20C
100
AcDbEntity
  8
0
100
AcDbLine
 62
7
  6
CONTINUOUS
 10
0.0
 20
8.5
 11
11.0
 21
8.5
  0
LINE
  5
20D
100
AcDbEntity
  8
0
100
AcDbLine
 62
7
  6
CONTINUOUS
 10
11.0
 20
0.0
 11
11.0
 21
8.5
  0
LINE
  5
20E
100
AcDbEntity
  8
0
100
AcDbLine
 62
7
  6
CONTINUOUS
 10
5.9878865375
 20
1.7284777084
 11
7.2332517438
 21
1.7284777084
  0
LINE
  5
20F
100
AcDbEntity
  8
0
100
AcDbLine
 62
7
  6
CONTINUOUS
 10
5.9754586713
 20
1.7518770025
 11
7.24567961
 21
1.7518770025
  0
LINE
  5
210
100
AcDbEntity
  8
0
100
AcDbLine
 62
7
  6
CONTINUOUS
 10
6.0753191406
 20
1.8599777081
 11
7.1458191407
 21
1.8599777081
  0
LINE
  5
211
100
AcDbEntity
  8
0
100
AcDbLine
 62
7
  6
CONTINUOUS
 10
6.0558655083
 20
1.8917935859
 11
7.165272773
 21
1.8917935859
  0
LINE
  5
212
100
AcDbEntity
  8
0
100
AcDbLine
 62
7
  6
CONTINUOUS
 10
6.0745662637
 20
1.9755654984
 11
7.1465720176
 21
1.9755654984
  0
LINE
  5
213
100
AcDbEntity
  8
0
100
AcDbLine
 62
7
  6
CONTINUOUS
 10
6.1020169286
 20
2.007064086
 11
7.1191213528
 21
2.007064086
  0
LINE
  5
214
100
AcDbEntity
  8
0
100
AcDbLine
 62
7
  6
CONTINUOUS
 10
3.0448354351
 20
6.0333793893
 11
3.0448354351
 21
6.0024777084
  0
LINE
  5
215
100
AcDbEntity
  8
0
100
AcDbLine
 62
7
  6
CONTINUOUS
 10
7.0137640871
 20
2.2379442025
 11
6.2073741942
 21
2.2379442025
  0
LINE
  5
216
100
AcDbEntity
  8
0
100
AcDbLine
 62
7
  6
CONTINUOUS
 10
7.0139829227
 20
2.2609793211
 11
6.2071553586
 21
2.2609793211
  0
LINE
  5
217
100
AcDbEntity
  8
0
100
AcDbLine
 62
7
  6
CONTINUOUS
 10
3.0128453636
 20
5.707693232
 11
2.9971029932
 21
5.8876293486
  0
LINE
  5
218
100
AcDbEntity
  8
0
100
AcDbLine
 62
7
  6
CONTINUOUS
 10
3.9873836513
 20
6.3629850548
 11
4.164314091
 21
6.7603773289
  0
LINE
  5
219
100
AcDbEntity
  8
0
100
AcDbLine
 62
7
  6
CONTINUOUS
 10
7.0028640106
 20
2.3226789101
 11
6.2182742708
 21
2.3226789101
  0
LINE
  5
21A
100
AcDbEntity
  8
0
100
AcDbLine
 62
7
  6
CONTINUOUS
 10
6.99099493
 20
2.3412745335
 11
6.2301433514
 21
2.3412745335
  0
LINE
  5
21B
100
AcDbEntity
  8
0
100
AcDbLine
 62
7
  6
CONTINUOUS
 10
3.4798354351
 20
6.0333793893
 11
3.4798354351
 21
6.0024777084
  0
LINE
  5
21C
100
AcDbEntity
  8
0
100
AcDbLine
 62
7
  6
CONTINUOUS
 10
3.5118255067
 20
5.707693232
 11
3.5275678771
 21
5.8876293486
  0
LINE
  5
21D
100
AcDbEntity
  8
0
100
AcDbLine
 62
7
  6
CONTINUOUS
 10
6.982782633
 20
2.5987331824
 11
6.2383556484
 21
2.5987331824
  0
LINE
  5
21E
100
AcDbEntity
  8
0
100
AcDbLine
 62
7
  6
CONTINUOUS
 10
6.9983461053
 20
2.6374651053
 11
6.222792176
 21
2.6374651053
  0
LINE
  5
21F
100
AcDbEntity
  8
0
100
AcDbLine
 62
7
  6
CONTINUOUS
 10
6.9863007775
 20
2.6961436522
 11
6.2348375039
 21
2.6961436522
  0
LINE
  5
220
100
AcDbEntity
  8
0
100
AcDbLine
 62
7
  6
CONTINUOUS
 10
6.9731539039
 20
2.7165691436
 11
6.2479843774
 21
2.7165691436
  0
LINE
  5
221
100
AcDbEntity
  8
0
100
AcDbLine
 62
7
  6
CONTINUOUS
 10
6.5205527889
 20
2.9864015549
 11
6.7005854924
 21
2.9864015549
  0
LINE
  5
222
100
AcDbEntity
  8
0
100
AcDbLine
 62
7
  6
CONTINUOUS
 10
6.4764341197
 20
3.0042064516
 11
6.7447041616
 21
3.0042064516
  0
LINE
  5
223
100
AcDbEntity
  8
0
100
AcDbLine
 62
7
  6
CONTINUOUS
 10
6.4655637185
 20
3.0424704761
 11
6.7555745628
 21
3.0424704761
  0
LINE
  5
224
100
AcDbEntity
  8
0
100
AcDbLine
 62
7
  6
CONTINUOUS
 10
6.4746342333
 20
3.0629155618
 11
6.746504048
 21
3.0629155618
  0
LINE
  5
225
100
AcDbEntity
  8
0
100
AcDbLine
 62
7
  6
CONTINUOUS
 10
6.4980691691
 20
3.1834777084
 11
6.7230691122
 21
3.1834777084
  0
LINE
  5
226
100
AcDbEntity
  8
0
100
AcDbLine
 62
7
  6
CONTINUOUS
 10
6.4980691407
 20
3.5734777084
 11
6.7230691407
 21
3.5734777084
  0
LINE
  5
227
100
AcDbEntity
  8
0
100
AcDbLine
 62
7
  6
CONTINUOUS
 10
6.4980691407
 20
3.6050280027
 11
6.7230691407
 21
3.6050280027
  0
LINE
  5
228
100
AcDbEntity
  8
0
100
AcDbLine
 62
7
  6
CONTINUOUS
 10
6.4898332161
 20
3.6212022578
 11
6.7313050652
 21
3.6212022578
  0
LINE
  5
229
100
AcDbEntity
  8
0
100
AcDbLine
 62
7
  6
CONTINUOUS
 10
6.4764341197
 20
3.0042064516
 11
6.5205527889
 21
2.9864015549
  0
LINE
  5
22A
100
AcDbEntity
  8
0
100
AcDbLine
 62
7
  6
CONTINUOUS
 10
5.3113825138
 20
5.7735027819
 11
5.4883129536
 21
6.170895056
  0
LINE
  5
22B
100
AcDbEntity
  8
0
100
AcDbLine
 62
7
  6
CONTINUOUS
 10
6.4781063025
 20
3.6515648945
 11
6.7430319788
 21
3.6515648945
  0
LINE
  5
22C
100
AcDbEntity
  8
0
100
AcDbLine
 62
7
  6
CONTINUOUS
 10
6.4623771306
 20
3.8042075724
 11
6.7587611507
 21
3.8042075724
  0
LINE
  5
22D
100
AcDbEntity
  8
0
100
AcDbLine
 62
7
  6
CONTINUOUS
 10
6.7581642172
 20
3.8294220112
 11
6.4629740641
 21
3.8294220112
  0
LINE
  5
22E
100
AcDbEntity
  8
0
100
AcDbLine
 62
7
  6
CONTINUOUS
 10
6.756202174
 20
3.8402018828
 11
6.4649361074
 21
3.8402018828
  0
LINE
  5
22F
100
AcDbEntity
  8
0
100
AcDbLine
 62
7
  6
CONTINUOUS
 10
5.6433477337
 20
5.698731837
 11
5.6433477337
 21
6.1339874842
  0
LINE
  5
230
100
AcDbEntity
  8
0
100
AcDbLine
 62
7
  6
CONTINUOUS
 10
5.6583477337
 20
5.6724777084
 11
5.6583477337
 21
6.1594777084
  0
LINE
  5
231
100
AcDbEntity
  8
0
100
AcDbLine
 62
7
  6
CONTINUOUS
 10
5.6973477337
 20
5.6334777084
 11
5.6973477337
 21
6.1984777084
  0
LINE
  5
232
100
AcDbEntity
  8
0
100
AcDbLine
 62
7
  6
CONTINUOUS
 10
5.7055148049
 20
5.6334777084
 11
5.7055148049
 21
6.1984777084
  0
LINE
  5
233
100
AcDbEntity
  8
0
100
AcDbLine
 62
7
  6
CONTINUOUS
 10
5.7293943803
 20
5.6416432164
 11
5.7293943803
 21
6.1903122004
  0
LINE
  5
234
100
AcDbEntity
  8
0
100
AcDbLine
 62
7
  6
CONTINUOUS
 10
5.7674785258
 20
5.6561360934
 11
5.7674785258
 21
6.1758193234
  0
LINE
  5
235
100
AcDbEntity
  8
0
100
AcDbLine
 62
7
  6
CONTINUOUS
 10
6.8289129934
 20
4.8575067748
 11
6.392225288
 21
4.8575067748
  0
LINE
  5
236
100
AcDbEntity
  8
0
100
AcDbLine
 62
7
  6
CONTINUOUS
 10
6.8449280187
 20
4.9074210956
 11
6.3762102626
 21
4.9074210956
  0
LINE
  5
237
100
AcDbEntity
  8
0
100
AcDbLine
 62
7
  6
CONTINUOUS
 10
6.8348944922
 20
4.9556561318
 11
6.3862437891
 21
4.9556561318
  0
LINE
  5
238
100
AcDbEntity
  8
0
100
AcDbLine
 62
7
  6
CONTINUOUS
 10
6.8214875936
 20
4.964568528
 11
6.3996506878
 21
4.964568528
  0
LINE
  5
239
100
AcDbEntity
  8
0
100
AcDbLine
 62
7
  6
CONTINUOUS
 10
6.1147755649
 20
6.1943503657
 11
6.1147755649
 21
5.637605051
  0
LINE
  5
23A
100
AcDbEntity
  8
0
100
AcDbLine
 62
7
  6
CONTINUOUS
 10
6.161839703
 20
6.2259995622
 11
6.161839703
 21
5.6059558546
  0
LINE
  5
23B
100
AcDbEntity
  8
0
100
AcDbLine
 62
7
  6
CONTINUOUS
 10
6.1948477337
 20
5.5877277084
 11
6.1948477337
 21
6.2442277084
  0
LINE
  5
23C
100
AcDbEntity
  8
0
100
AcDbLine
 62
7
  6
CONTINUOUS
 10
6.1983477337
 20
5.5877277084
 11
6.1983477337
 21
6.2442277084
  0
LINE
  5
23D
100
AcDbEntity
  8
0
100
AcDbLine
 62
7
  6
CONTINUOUS
 10
6.2318499615
 20
5.6067627207
 11
6.2318499615
 21
6.225192696
  0
LINE
  5
23E
100
AcDbEntity
  8
0
100
AcDbLine
 62
7
  6
CONTINUOUS
 10
6.2880988351
 20
5.4148019145
 11
6.9330394463
 21
5.4148019145
  0
LINE
  5
23F
100
AcDbEntity
  8
0
100
AcDbLine
 62
7
  6
CONTINUOUS
 10
6.2560732552
 20
5.6089049691
 11
6.2560732552
 21
6.2230504477
  0
LINE
  5
240
100
AcDbEntity
  8
0
100
AcDbLine
 62
7
  6
CONTINUOUS
 10
6.3205691407
 20
6.6274777084
 11
6.3205691407
 21
6.6574777084
  0
LINE
  5
241
100
AcDbEntity
  8
0
100
AcDbLine
 62
7
  6
CONTINUOUS
 10
6.4282080296
 20
3.2088691225
 11
6.4282080128
 21
3.2466926825
  0
LINE
  5
242
100
AcDbEntity
  8
0
100
AcDbLine
 62
7
  6
CONTINUOUS
 10
6.4418191407
 20
3.2122277084
 11
6.4418191407
 21
3.2296566561
  0
LINE
  5
243
100
AcDbEntity
  8
0
100
AcDbLine
 62
7
  6
CONTINUOUS
 10
6.2885963551
 20
3.8019389099
 11
6.2886092399
 21
3.8020284416
  0
LINE
  5
244
100
AcDbEntity
  8
0
100
AcDbLine
 62
7
  6
CONTINUOUS
 10
6.2886092399
 20
3.8020284416
 11
6.2885829658
 21
3.801854888
  0
LINE
  5
245
100
AcDbEntity
  8
0
100
AcDbLine
 62
7
  6
CONTINUOUS
 10
6.2885829658
 20
3.801854888
 11
6.2885334125
 21
3.8015374597
  0
LINE
  5
246
100
AcDbEntity
  8
0
100
AcDbLine
 62
7
  6
CONTINUOUS
 10
6.2885334125
 20
3.8015374597
 11
6.288455543
 21
3.8010530833
  0
LINE
  5
247
100
AcDbEntity
  8
0
100
AcDbLine
 62
7
  6
CONTINUOUS
 10
6.288455543
 20
3.8010530833
 11
6.2883470176
 21
3.8003977645
  0
LINE
  5
248
100
AcDbEntity
  8
0
100
AcDbLine
 62
7
  6
CONTINUOUS
 10
6.2883470176
 20
3.8003977645
 11
6.2882058483
 21
3.7995703633
  0
LINE
  5
249
100
AcDbEntity
  8
0
100
AcDbLine
 62
7
  6
CONTINUOUS
 10
6.2882058483
 20
3.7995703633
 11
6.2880297961
 21
3.7985688375
  0
LINE
  5
24A
100
AcDbEntity
  8
0
100
AcDbLine
 62
7
  6
CONTINUOUS
 10
6.2880297961
 20
3.7985688375
 11
6.2878170068
 21
3.7973938587
  0
LINE
  5
24B
100
AcDbEntity
  8
0
100
AcDbLine
 62
7
  6
CONTINUOUS
 10
6.2878170068
 20
3.7973938587
 11
6.2875659179
 21
3.7960479486
  0
LINE
  5
24C
100
AcDbEntity
  8
0
100
AcDbLine
 62
7
  6
CONTINUOUS
 10
6.2875659179
 20
3.7960479486
 11
6.2872751832
 21
3.7945348355
  0
LINE
  5
24D
100
AcDbEntity
  8
0
100
AcDbLine
 62
7
  6
CONTINUOUS
 10
6.2872751832
 20
3.7945348355
 11
6.2869441341
 21
3.7928615741
  0
LINE
  5
24E
100
AcDbEntity
  8
0
100
AcDbLine
 62
7
  6
CONTINUOUS
 10
6.2869441341
 20
3.7928615741
 11
6.2865700433
 21
3.7910247451
  0
LINE
  5
24F
100
AcDbEntity
  8
0
100
AcDbLine
 62
7
  6
CONTINUOUS
 10
6.2865700433
 20
3.7910247451
 11
6.2861454127
 21
3.7889980834
  0
LINE
  5
250
100
AcDbEntity
  8
0
100
AcDbLine
 62
7
  6
CONTINUOUS
 10
6.2861454127
 20
3.7889980834
 11
6.2856694591
 21
3.7867882196
  0
LWPOLYLINE
  5
251
100
AcDbEntity
  8
0
100
AcDbPolyline
 62
7
  6
CONTINUOUS
 90
3
 70
0
 10
6.2856694591
 20
3.7867882196
 10
6.2851412204
 20
3.7844002949
 10
6.2850428775
 20
3.7839642726
  0
LINE
  5
252
100
AcDbEntity
  8
0
100
AcDbLine
 62
7
  6
CONTINUOUS
 10
6.2674957853
 20
5.4674751841
 11
6.953642496
 21
5.4674751841
  0
LINE
  5
253
100
AcDbEntity
  8
0
100
AcDbLine
 62
7
  6
CONTINUOUS
 10
6.2696134565
 20
5.5433899847
 11
6.9515248249
 21
5.5433899847
  0
LINE
  5
254
100
AcDbEntity
  8
0
100
AcDbLine
 62
7
  6
CONTINUOUS
 10
6.2977691407
 20
5.5549777084
 11
6.9233691407
 21
5.5549777084
  0
LINE
  5
255
100
AcDbEntity
  8
0
100
AcDbLine
 62
7
  6
CONTINUOUS
 10
6.9227565844
 20
5.5659777084
 11
6.298381697
 21
5.5659777084
  0
LINE
  5
256
100
AcDbEntity
  8
0
100
AcDbLine
 62
7
  6
CONTINUOUS
 10
6.1983477337
 20
5.5877277084
 11
6.1948477337
 21
5.5877277084
  0
LINE
  5
257
100
AcDbEntity
  8
0
100
AcDbLine
 62
7
  6
CONTINUOUS
 10
3.0390681912
 20
5.5924777084
 11
3.4856026791
 21
5.5924777084
  0
LINE
  5
258
100
AcDbEntity
  8
0
100
AcDbLine
 62
7
  6
CONTINUOUS
 10
3.0076370607
 20
5.6077373762
 11
3.5170338096
 21
5.6077373762
  0
LINE
  5
259
100
AcDbEntity
  8
0
100
AcDbLine
 62
7
  6
CONTINUOUS
 10
5.7055148049
 20
5.6334777084
 11
5.6973477337
 21
5.6334777084
  0
LINE
  5
25A
100
AcDbEntity
  8
0
100
AcDbLine
 62
7
  6
CONTINUOUS
 10
6.4710691407
 20
6.3574777084
 11
6.4710691407
 21
6.3484777084
  0
LINE
  5
25B
100
AcDbEntity
  8
0
100
AcDbLine
 62
7
  6
CONTINUOUS
 10
6.4980691407
 20
3.5734777084
 11
6.4980691407
 21
3.6050280027
  0
LINE
  5
25C
100
AcDbEntity
  8
0
100
AcDbLine
 62
7
  6
CONTINUOUS
 10
6.6105691407
 20
2.8584777084
 11
6.6105691407
 21
2.750699715
  0
LINE
  5
25D
100
AcDbEntity
  8
0
100
AcDbLine
 62
7
  6
CONTINUOUS
 10
6.4746342333
 20
3.0629155618
 11
6.4980691407
 21
3.1834777084
  0
LINE
  5
25E
100
AcDbEntity
  8
0
100
AcDbLine
 62
7
  6
CONTINUOUS
 10
3.5239089804
 20
5.6542173524
 11
3.0007618899
 21
5.6542173524
  0
LINE
  5
25F
100
AcDbEntity
  8
0
100
AcDbLine
 62
7
  6
CONTINUOUS
 10
3.5118255067
 20
5.707693232
 11
3.0128453636
 21
5.707693232
  0
LINE
  5
260
100
AcDbEntity
  8
0
100
AcDbLine
 62
7
  6
CONTINUOUS
 10
5.3113825138
 20
5.7735027819
 11
3.9873836513
 21
6.3629850548
  0
LINE
  5
261
100
AcDbEntity
  8
0
100
AcDbLine
 62
7
  6
CONTINUOUS
 10
6.746504048
 20
3.0629155618
 11
6.7230691407
 21
3.1834777084
  0
LINE
  5
262
100
AcDbEntity
  8
0
100
AcDbLine
 62
7
  6
CONTINUOUS
 10
6.7230691407
 20
3.5734777084
 11
6.7230691407
 21
3.6050280027
  0
LINE
  5
263
100
AcDbEntity
  8
0
100
AcDbLine
 62
7
  6
CONTINUOUS
 10
6.7500691407
 20
6.3574777084
 11
6.7500691407
 21
6.3484777084
  0
LINE
  5
264
100
AcDbEntity
  8
0
100
AcDbLine
 62
7
  6
CONTINUOUS
 10
6.7793191407
 20
3.2296566561
 11
6.7793191407
 21
3.2122277084
  0
LINE
  5
265
100
AcDbEntity
  8
0
100
AcDbLine
 62
7
  6
CONTINUOUS
 10
6.7929302686
 20
3.2466926825
 11
6.7929302518
 21
3.2088691225
  0
LINE
  5
266
100
AcDbEntity
  8
0
100
AcDbLine
 62
7
  6
CONTINUOUS
 10
6.9005691407
 20
6.6274777084
 11
6.9005691407
 21
6.6574777084
  0
LINE
  5
267
100
AcDbEntity
  8
0
100
AcDbLine
 62
7
  6
CONTINUOUS
 10
6.7447041616
 20
3.0042064516
 11
6.7005854924
 21
2.9864015549
  0
LINE
  5
268
100
AcDbEntity
  8
0
100
AcDbLine
 62
7
  6
CONTINUOUS
 10
3.5275678771
 20
5.8876293486
 11
2.9971029932
 21
5.8876293486
  0
LINE
  5
269
100
AcDbEntity
  8
0
100
AcDbLine
 62
7
  6
CONTINUOUS
 10
3.5477804475
 20
5.9370339002
 11
2.9768904228
 21
5.9370339002
  0
LINE
  5
26A
100
AcDbEntity
  8
0
100
AcDbLine
 62
7
  6
CONTINUOUS
 10
3.5169160242
 20
6.0024777084
 11
3.0077548461
 21
6.0024777084
  0
LINE
  5
26B
100
AcDbEntity
  8
0
100
AcDbLine
 62
7
  6
CONTINUOUS
 10
3.4798354351
 20
6.0333793893
 11
3.0448354351
 21
6.0333793893
  0
LINE
  5
26C
100
AcDbEntity
  8
0
100
AcDbLine
 62
7
  6
CONTINUOUS
 10
6.9360368863
 20
3.7840115834
 11
6.9357670708
 21
3.7852232443
  0
LINE
  5
26D
100
AcDbEntity
  8
0
100
AcDbLine
 62
7
  6
CONTINUOUS
 10
6.9357670708
 20
3.7852232443
 11
6.9352714683
 21
3.7874930152
  0
LINE
  5
26E
100
AcDbEntity
  8
0
100
AcDbLine
 62
7
  6
CONTINUOUS
 10
6.9352714683
 20
3.7874930152
 11
6.9348285154
 21
3.7895768543
  0
LINE
  5
26F
100
AcDbEntity
  8
0
100
AcDbLine
 62
7
  6
CONTINUOUS
 10
6.9348285154
 20
3.7895768543
 11
6.9344374475
 21
3.7914678602
  0
LINE
  5
270
100
AcDbEntity
  8
0
100
AcDbLine
 62
7
  6
CONTINUOUS
 10
6.9344374475
 20
3.7914678602
 11
6.9340901454
 21
3.793195286
  0
LINE
  5
271
100
AcDbEntity
  8
0
100
AcDbLine
 62
7
  6
CONTINUOUS
 10
6.9340901454
 20
3.793195286
 11
6.9337830049
 21
3.7947672886
  0
LINE
  5
272
100
AcDbEntity
  8
0
100
AcDbLine
 62
7
  6
CONTINUOUS
 10
6.9337830049
 20
3.7947672886
 11
6.9335127479
 21
3.7961911136
  0
LINE
  5
273
100
AcDbEntity
  8
0
100
AcDbLine
 62
7
  6
CONTINUOUS
 10
6.9335127479
 20
3.7961911136
 11
6.9332792297
 21
3.7974579784
  0
LINE
  5
274
100
AcDbEntity
  8
0
100
AcDbLine
 62
7
  6
CONTINUOUS
 10
6.9332792297
 20
3.7974579784
 11
6.9330815016
 21
3.7985629415
  0
LINE
  5
275
100
AcDbEntity
  8
0
100
AcDbLine
 62
7
  6
CONTINUOUS
 10
6.9330815016
 20
3.7985629415
 11
6.9329187166
 21
3.7995002302
  0
LINE
  5
276
100
AcDbEntity
  8
0
100
AcDbLine
 62
7
  6
CONTINUOUS
 10
6.9329187166
 20
3.7995002302
 11
6.9327893715
 21
3.8002677029
  0
LINE
  5
277
100
AcDbEntity
  8
0
100
AcDbLine
 62
7
  6
CONTINUOUS
 10
6.9327893715
 20
3.8002677029
 11
6.932691907
 21
3.8008637061
  0
LINE
  5
278
100
AcDbEntity
  8
0
100
AcDbLine
 62
7
  6
CONTINUOUS
 10
6.932691907
 20
3.8008637061
 11
6.9326245515
 21
3.8012881569
  0
LINE
  5
279
100
AcDbEntity
  8
0
100
AcDbLine
 62
7
  6
CONTINUOUS
 10
6.9326245515
 20
3.8012881569
 11
6.9325849918
 21
3.8015449586
  0
LINE
  5
27A
100
AcDbEntity
  8
0
100
AcDbLine
 62
7
  6
CONTINUOUS
 10
5.7055148049
 20
6.1984777084
 11
5.6973477337
 21
6.1984777084
  0
LINE
  5
27B
100
AcDbEntity
  8
0
100
AcDbLine
 62
7
  6
CONTINUOUS
 10
6.1983477337
 20
6.2442277084
 11
6.1948477337
 21
6.2442277084
  0
LINE
  5
27C
100
AcDbEntity
  8
0
100
AcDbLine
 62
7
  6
CONTINUOUS
 10
5.4883129536
 20
6.170895056
 11
4.164314091
 21
6.7603773289
  0
LINE
  5
27D
100
AcDbEntity
  8
0
100
AcDbLine
 62
7
  6
CONTINUOUS
 10
6.7919658055
 20
6.3484777084
 11
6.4291724759
 21
6.3484777084
  0
LINE
  5
27E
100
AcDbEntity
  8
0
100
AcDbLine
 62
7
  6
CONTINUOUS
 10
6.7895691407
 20
6.3574777084
 11
6.4315691407
 21
6.3574777084
  0
LINE
  5
27F
100
AcDbEntity
  8
0
100
AcDbLine
 62
7
  6
CONTINUOUS
 10
6.7625440159
 20
6.4086117528
 11
6.4585942654
 21
6.4086117528
  0
LINE
  5
280
100
AcDbEntity
  8
0
100
AcDbLine
 62
7
  6
CONTINUOUS
 10
6.7650334518
 20
6.4894964853
 11
6.4561048296
 21
6.4894964853
  0
LINE
  5
281
100
AcDbEntity
  8
0
100
AcDbLine
 62
7
  6
CONTINUOUS
 10
6.8688811037
 20
6.5924339609
 11
6.3522571776
 21
6.5924339609
  0
LINE
  5
282
100
AcDbEntity
  8
0
100
AcDbLine
 62
7
  6
CONTINUOUS
 10
6.8889716762
 20
6.6093283999
 11
6.3321666051
 21
6.6093283999
  0
LINE
  5
283
100
AcDbEntity
  8
0
100
AcDbLine
 62
7
  6
CONTINUOUS
 10
6.9005691407
 20
6.6274777084
 11
6.3205691407
 21
6.6274777084
  0
LINE
  5
284
100
AcDbEntity
  8
0
100
AcDbLine
 62
7
  6
CONTINUOUS
 10
6.9005691407
 20
6.6574777084
 11
6.3205691407
 21
6.6574777084
  0
LINE
  5
285
100
AcDbEntity
  8
0
100
AcDbLine
 62
7
  6
CONTINUOUS
 10
6.8850841961
 20
6.6769614009
 11
6.3360540852
 21
6.6769614009
  0
LINE
  5
286
100
AcDbEntity
  8
0
100
AcDbLine
 62
7
  6
CONTINUOUS
 10
6.8619730373
 20
6.6837346197
 11
6.359165244
 21
6.6837346197
  0
LINE
  5
287
100
AcDbEntity
  8
0
100
AcDbLine
 62
7
  6
CONTINUOUS
 10
6.6353040492
 20
6.7229310574
 11
6.5858342321
 21
6.7229310574
  0
ARC
  5
288
100
AcDbEntity
  8
0
100
AcDbCircle
 62
7
  6
CONTINUOUS
 10
-44.7949471101
 20
4.824634384
 40
51.0864549636
100
AcDbArc
 50
358.8289155288
 51
0.6619144132
  0
ARC
  5
289
100
AcDbEntity
  8
0
100
AcDbCircle
 62
7
  6
CONTINUOUS
 10
-44.7801555699
 20
4.8247683756
 40
51.0716709192
100
AcDbArc
 50
357.6342021586
 51
357.947479116
  0
ARC
  5
28A
100
AcDbEntity
  8
0
100
AcDbCircle
 62
7
  6
CONTINUOUS
 10
4.04470078
 20
2.5398476383
 40
2.1944449815
100
AcDbArc
 50
354.8082621311
 51
1.5376544274
  0
ARC
  5
28B
100
AcDbEntity
  8
0
100
AcDbCircle
 62
7
  6
CONTINUOUS
 10
5.8653049961
 20
4.225861828
 40
1.4336158804
100
AcDbArc
 50
79.9786617007
 51
93.9127655787
  0
ARC
  5
28C
100
AcDbEntity
  8
0
100
AcDbCircle
 62
7
  6
CONTINUOUS
 10
5.7237673375
 20
2.0099102354
 40
0.3524763478
100
AcDbArc
 50
340.4211613791
 51
354.4083150439
  0
ARC
  5
28D
100
AcDbEntity
  8
0
100
AcDbCircle
 62
7
  6
CONTINUOUS
 10
6.229904226
 20
3.703120488
 40
0.2535
100
AcDbArc
 50
348.2656032343
 51
23.5010340151
  0
ARC
  5
28E
100
AcDbEntity
  8
0
100
AcDbCircle
 62
7
  6
CONTINUOUS
 10
6.2923277539
 20
4.8529809933
 40
0.1
100
AcDbArc
 50
2.5939678411
 51
32.9837411235
  0
ARC
  5
28F
100
AcDbEntity
  8
0
100
AcDbCircle
 62
7
  6
CONTINUOUS
 10
6.1783771996
 20
2.5971251763
 40
0.06
100
AcDbArc
 50
1.5357166436
 51
42.2473174355
  0
ARC
  5
290
100
AcDbEntity
  8
0
100
AcDbCircle
 62
7
  6
CONTINUOUS
 10
6.4255528742
 20
3.0724560115
 40
0.05
100
AcDbArc
 50
323.1508184991
 51
349.0
  0
ARC
  5
291
100
AcDbEntity
  8
0
100
AcDbCircle
 62
7
  6
CONTINUOUS
 10
6.1103944401
 20
1.9720524122
 40
0.036
100
AcDbArc
 50
103.4565941831
 51
174.3998372614
  0
ARC
  5
292
100
AcDbEntity
  8
0
100
AcDbCircle
 62
7
  6
CONTINUOUS
 10
6.4055691407
 20
4.9264751314
 40
0.035
100
AcDbArc
 50
123.5148367581
 51
212.9837411234
  0
ARC
  5
293
100
AcDbEntity
  8
0
100
AcDbCircle
 62
7
  6
CONTINUOUS
 10
6.5074793293
 20
3.6454636405
 40
0.03
100
AcDbArc
 50
168.2656025308
 51
233.97035423
  0
ARC
  5
294
100
AcDbEntity
  8
0
100
AcDbCircle
 62
7
  6
CONTINUOUS
 10
6.489888717
 20
3.816170541
 40
0.03
100
AcDbArc
 50
153.7866008351
 51
203.5010340151
  0
ARC
  5
295
100
AcDbEntity
  8
0
100
AcDbCircle
 62
7
  6
CONTINUOUS
 10
6.4855691407
 20
3.0274777084
 40
0.025
100
AcDbArc
 50
143.1508184991
 51
248.5677469906
  0
ARC
  5
296
100
AcDbEntity
  8
0
100
AcDbCircle
 62
7
  6
CONTINUOUS
 10
6.2062416664
 20
2.3434446615
 40
0.024
100
AcDbArc
 50
300.0899195195
 51
354.8121150555
  0
ARC
  5
297
100
AcDbEntity
  8
0
100
AcDbCircle
 62
7
  6
CONTINUOUS
 10
6.2240048338
 20
2.7175598437
 40
0.024
100
AcDbArc
 50
296.8310541572
 51
357.6342055119
  0
ARC
  5
298
100
AcDbEntity
  8
0
100
AcDbCircle
 62
7
  6
CONTINUOUS
 10
6.0784839097
 20
1.8837681313
 40
0.024
100
AcDbArc
 50
160.4643120694
 51
262.4226014222
  0
ARC
  5
299
100
AcDbEntity
  8
0
100
AcDbCircle
 62
7
  6
CONTINUOUS
 10
6.1909151669
 20
2.2493064391
 40
0.02
100
AcDbArc
 50
325.3813374075
 51
35.7072595788
  0
ARC
  5
29A
100
AcDbEntity
  8
0
100
AcDbCircle
 62
7
  6
CONTINUOUS
 10
6.4780691407
 20
3.6050280027
 40
0.02
100
AcDbArc
 50
0.0
 51
53.9703542418
  0
ARC
  5
29B
100
AcDbEntity
  8
0
100
AcDbCircle
 62
7
  6
CONTINUOUS
 10
6.4450309622
 20
3.8382563247
 40
0.02
100
AcDbArc
 50
333.786600835
 51
5.5824415985
  0
ARC
  5
29C
100
AcDbEntity
  8
0
100
AcDbCircle
 62
7
  6
CONTINUOUS
 10
5.9878865375
 20
1.7434777084
 40
0.015
100
AcDbArc
 50
145.9474567362
 51
270.0
  0
ARC
  5
29D
100
AcDbEntity
  8
0
100
AcDbCircle
 62
7
  6
CONTINUOUS
 10
-12.7070487579
 20
5.7425686093
 40
19.556
100
AcDbArc
 50
354.4175584015
 51
357.4060321589
  0
ARC
  5
29E
100
AcDbEntity
  8
0
100
AcDbCircle
 62
7
  6
CONTINUOUS
 10
3.8406337542
 20
6.0333793893
 40
0.795798319
100
AcDbArc
 50
66.0
 51
180.0
  0
ARC
  5
29F
100
AcDbEntity
  8
0
100
AcDbCircle
 62
7
  6
CONTINUOUS
 10
3.8406337542
 20
6.0333793893
 40
0.360798319
100
AcDbArc
 50
66.0
 51
180.0
  0
ARC
  5
2A0
100
AcDbEntity
  8
0
100
AcDbCircle
 62
7
  6
CONTINUOUS
 10
2.9074454704
 20
5.8797853317
 40
0.09
100
AcDbArc
 50
5.0
 51
39.5012611871
  0
ARC
  5
2A1
100
AcDbEntity
  8
0
100
AcDbCircle
 62
7
  6
CONTINUOUS
 10
3.6172253999
 20
5.8797853317
 40
0.09
100
AcDbArc
 50
140.4987388129
 51
175.0
  0
ARC
  5
2A2
100
AcDbEntity
  8
0
100
AcDbCircle
 62
7
  6
CONTINUOUS
 10
2.9231878408
 20
5.6998492151
 40
0.09
100
AcDbArc
 50
329.5344171503
 51
5.0
  0
ARC
  5
2A3
100
AcDbEntity
  8
0
100
AcDbCircle
 62
7
  6
CONTINUOUS
 10
3.6014830295
 20
5.6998492151
 40
0.09
100
AcDbArc
 50
175.0
 51
210.4655828497
  0
ARC
  5
2A4
100
AcDbEntity
  8
0
100
AcDbCircle
 62
7
  6
CONTINUOUS
 10
3.4856026791
 20
5.6324777084
 40
0.04
100
AcDbArc
 50
270.0
 51
321.7927154688
  0
ARC
  5
2A5
100
AcDbEntity
  8
0
100
AcDbCircle
 62
7
  6
CONTINUOUS
 10
3.0390681912
 20
5.6324777084
 40
0.04
100
AcDbArc
 50
218.2072845312
 51
270.0
  0
ARC
  5
2A6
100
AcDbEntity
  8
0
100
AcDbCircle
 62
7
  6
CONTINUOUS
 10
3.0077548461
 20
5.9624777084
 40
0.04
100
AcDbArc
 50
90.0
 51
219.5012611871
  0
ARC
  5
2A7
100
AcDbEntity
  8
0
100
AcDbCircle
 62
7
  6
CONTINUOUS
 10
3.5169160242
 20
5.9624777084
 40
0.04
100
AcDbArc
 50
320.4987388129
 51
90.0
  0
ARC
  5
2A8
100
AcDbEntity
  8
0
100
AcDbCircle
 62
7
  6
CONTINUOUS
 10
6.5858342321
 20
6.0479310574
 40
0.675
100
AcDbArc
 50
90.0
 51
109.6215522579
  0
ARC
  5
2A9
100
AcDbEntity
  8
0
100
AcDbCircle
 62
7
  6
CONTINUOUS
 10
6.2081041679
 20
5.4138782085
 40
0.08
100
AcDbArc
 50
0.6615703295
 51
42.0641469949
  0
ARC
  5
2AA
100
AcDbEntity
  8
0
100
AcDbCircle
 62
7
  6
CONTINUOUS
 10
5.772255156
 20
5.5862992563
 40
0.07
100
AcDbArc
 50
93.9127655791
 51
127.7557621284
  0
ARC
  5
2AB
100
AcDbEntity
  8
0
100
AcDbCircle
 62
7
  6
CONTINUOUS
 10
6.1025945197
 20
5.56867304
 40
0.07
100
AcDbArc
 50
32.1820829817
 51
79.9786617007
  0
ARC
  5
2AC
100
AcDbEntity
  8
0
100
AcDbCircle
 62
7
  6
CONTINUOUS
 10
6.3083275223
 20
5.5043231047
 40
0.055
100
AcDbArc
 50
134.7401082816
 51
222.0641469981
  0
ARC
  5
2AD
100
AcDbEntity
  8
0
100
AcDbCircle
 62
7
  6
CONTINUOUS
 10
6.2977691407
 20
5.5149777084
 40
0.04
100
AcDbArc
 50
90.0
 51
134.740108284
  0
ARC
  5
2AE
100
AcDbEntity
  8
0
100
AcDbCircle
 62
7
  6
CONTINUOUS
 10
6.1983477337
 20
5.6267277084
 40
0.039
100
AcDbArc
 50
270.0
 51
329.208011109
  0
ARC
  5
2AF
100
AcDbEntity
  8
0
100
AcDbCircle
 62
7
  6
CONTINUOUS
 10
6.1948477337
 20
5.6267277084
 40
0.039
100
AcDbArc
 50
212.1820829817
 51
270.0
  0
ARC
  5
2B0
100
AcDbEntity
  8
0
100
AcDbCircle
 62
7
  6
CONTINUOUS
 10
5.7055148053
 20
5.6724777084
 40
0.039
100
AcDbArc
 50
269.9999993932
 51
307.7557621323
  0
ARC
  5
2B1
100
AcDbEntity
  8
0
100
AcDbCircle
 62
7
  6
CONTINUOUS
 10
5.6973477337
 20
5.6724777084
 40
0.039
100
AcDbArc
 50
180.0
 51
270.0
  0
ARC
  5
2B2
100
AcDbEntity
  8
0
100
AcDbCircle
 62
7
  6
CONTINUOUS
 10
6.2447354337
 20
5.5990838793
 40
0.015
100
AcDbArc
 50
40.8998864831
 51
149.208011109
  0
ARC
  5
2B3
100
AcDbEntity
  8
0
100
AcDbCircle
 62
7
  6
CONTINUOUS
 10
5.6583477337
 20
6.1322277084
 40
0.015
100
AcDbArc
 50
180.0000000049
 51
270.0
  0
ARC
  5
2B4
100
AcDbEntity
  8
0
100
AcDbCircle
 62
7
  6
CONTINUOUS
 10
5.6583477337
 20
5.6997277084
 40
0.015
100
AcDbArc
 50
90.0
 51
179.9999999937
  0
ARC
  5
2B5
100
AcDbEntity
  8
0
100
AcDbCircle
 62
7
  6
CONTINUOUS
 10
5.6643477337
 20
6.5662756456
 40
0.8677979373
100
AcDbArc
 50
246.0
 51
268.6133536592
  0
ARC
  5
2B6
100
AcDbEntity
  8
0
100
AcDbCircle
 62
7
  6
CONTINUOUS
 10
5.6643477337
 20
6.5662756456
 40
0.4327979373
100
AcDbArc
 50
246.0
 51
267.218831482
  0
ARC
  5
2B7
100
AcDbEntity
  8
0
100
AcDbCircle
 62
7
  6
CONTINUOUS
 10
6.5401058126
 20
6.8202646173
 40
0.4
100
AcDbArc
 50
304.2163310183
 51
325.2792910921
  0
ARC
  5
2B8
100
AcDbEntity
  8
0
100
AcDbCircle
 62
7
  6
CONTINUOUS
 10
6.2886460033
 20
6.8815401724
 40
0.21
100
AcDbArc
 50
283.0471477631
 51
289.6215522579
  0
ARC
  5
2B9
100
AcDbEntity
  8
0
100
AcDbCircle
 62
7
  6
CONTINUOUS
 10
5.772255156
 20
6.2456561604
 40
0.07
100
AcDbArc
 50
232.2442378682
 51
266.0872344213
  0
ARC
  5
2BA
100
AcDbEntity
  8
0
100
AcDbCircle
 62
7
  6
CONTINUOUS
 10
6.1025945197
 20
6.2632823767
 40
0.07
100
AcDbArc
 50
280.0213382993
 51
327.8179170183
  0
ARC
  5
2BB
100
AcDbEntity
  8
0
100
AcDbCircle
 62
7
  6
CONTINUOUS
 10
6.5014418125
 20
6.3532575505
 40
0.07
100
AcDbArc
 50
127.742068257
 51
176.5436578978
  0
ARC
  5
2BC
100
AcDbEntity
  8
0
100
AcDbCircle
 62
7
  6
CONTINUOUS
 10
6.4279888747
 20
6.4481504688
 40
0.05
100
AcDbArc
 50
307.742068257
 51
55.7836689817
  0
ARC
  5
2BD
100
AcDbEntity
  8
0
100
AcDbCircle
 62
7
  6
CONTINUOUS
 10
6.3111602662
 20
6.5639551289
 40
0.05
100
AcDbArc
 50
34.7207089079
 51
65.1574082513
  0
ARC
  5
2BE
100
AcDbEntity
  8
0
100
AcDbCircle
 62
7
  6
CONTINUOUS
 10
6.1983477337
 20
6.2052277084
 40
0.039
100
AcDbArc
 50
30.791988891
 51
90.0
  0
ARC
  5
2BF
100
AcDbEntity
  8
0
100
AcDbCircle
 62
7
  6
CONTINUOUS
 10
6.1948477337
 20
6.2052277084
 40
0.039
100
AcDbArc
 50
90.0
 51
147.8179170183
  0
ARC
  5
2C0
100
AcDbEntity
  8
0
100
AcDbCircle
 62
7
  6
CONTINUOUS
 10
5.7055148053
 20
6.1594777084
 40
0.039
100
AcDbArc
 50
52.2442378722
 51
90.00000062
  0
ARC
  5
2C1
100
AcDbEntity
  8
0
100
AcDbCircle
 62
7
  6
CONTINUOUS
 10
5.6973477337
 20
6.1594777084
 40
0.039
100
AcDbArc
 50
90.0
 51
180.0
  0
ARC
  5
2C2
100
AcDbEntity
  8
0
100
AcDbCircle
 62
7
  6
CONTINUOUS
 10
6.3405691407
 20
6.6274777084
 40
0.02
100
AcDbArc
 50
180.0
 51
245.1574082513
  0
ARC
  5
2C3
100
AcDbEntity
  8
0
100
AcDbCircle
 62
7
  6
CONTINUOUS
 10
6.3405691407
 20
6.6574777084
 40
0.02
100
AcDbArc
 50
103.0471477631
 51
180.0
  0
ARC
  5
2C4
100
AcDbEntity
  8
0
100
AcDbCircle
 62
7
  6
CONTINUOUS
 10
6.2447354337
 20
6.2328715374
 40
0.015
100
AcDbArc
 50
210.791988891
 51
319.1001135169
  0
ARC
  5
2C5
100
AcDbEntity
  8
0
100
AcDbCircle
 62
7
  6
CONTINUOUS
 10
3.829773917
 20
8.8158885329
 40
4.6300034987
100
AcDbArc
 50
303.5148368333
 51
303.714059479
  0
ARC
  5
2C6
100
AcDbEntity
  8
0
100
AcDbCircle
 62
7
  6
CONTINUOUS
 10
5.8653049961
 20
7.6060935888
 40
1.4336158804
100
AcDbArc
 50
266.0872344213
 51
280.0213382993
  0
ARC
  5
2C7
100
AcDbEntity
  8
0
100
AcDbCircle
 62
7
  6
CONTINUOUS
 10
9.1764375013
 20
2.5398476383
 40
2.1944449815
100
AcDbArc
 50
178.4623455726
 51
185.1917378689
  0
ARC
  5
2C8
100
AcDbEntity
  8
0
100
AcDbCircle
 62
7
  6
CONTINUOUS
 10
7.4973709441
 20
2.0099102355
 40
0.3524763478
100
AcDbArc
 50
185.5916849615
 51
199.5788386163
  0
ARC
  5
2C9
100
AcDbEntity
  8
0
100
AcDbCircle
 62
7
  6
CONTINUOUS
 10
6.6105691407
 20
3.2034777084
 40
0.235
100
AcDbArc
 50
247.4773700075
 51
292.5226299925
  0
ARC
  5
2CA
100
AcDbEntity
  8
0
100
AcDbCircle
 62
7
  6
CONTINUOUS
 10
6.6105693256
 20
3.2088692237
 40
0.182361296
100
AcDbArc
 50
180.0000317765
 51
223.616752197
  0
ARC
  5
2CB
100
AcDbEntity
  8
0
100
AcDbCircle
 62
7
  6
CONTINUOUS
 10
6.6105691984
 20
3.208868848
 40
0.1823608945
100
AcDbArc
 50
316.383263271
 51
0.0000862432
  0
ARC
  5
2CC
100
AcDbEntity
  8
0
100
AcDbCircle
 62
7
  6
CONTINUOUS
 10
6.6105691407
 20
3.2122277084
 40
0.16875
100
AcDbArc
 50
319.4575115806
 51
360.0
  0
ARC
  5
2CD
100
AcDbEntity
  8
0
100
AcDbCircle
 62
7
  6
CONTINUOUS
 10
6.6105691407
 20
3.2122277084
 40
0.16875
100
AcDbArc
 50
180.0
 51
220.5424416124
  0
ARC
  5
2CE
100
AcDbEntity
  8
0
100
AcDbCircle
 62
7
  6
CONTINUOUS
 10
7.0427610817
 20
2.5971251763
 40
0.06
100
AcDbArc
 50
137.7526825645
 51
178.4642833564
  0
ARC
  5
2CF
100
AcDbEntity
  8
0
100
AcDbCircle
 62
7
  6
CONTINUOUS
 10
6.7955854072
 20
3.0724560115
 40
0.05
100
AcDbArc
 50
191.0
 51
216.8491815009
  0
ARC
  5
2D0
100
AcDbEntity
  8
0
100
AcDbCircle
 62
7
  6
CONTINUOUS
 10
7.1107438412
 20
1.9720524122
 40
0.036
100
AcDbArc
 50
5.6001627386
 51
76.5434058169
  0
ARC
  5
2D1
100
AcDbEntity
  8
0
100
AcDbCircle
 62
7
  6
CONTINUOUS
 10
6.7355691407
 20
3.0274777084
 40
0.025
100
AcDbArc
 50
291.4322530094
 51
36.8491815009
  0
ARC
  5
2D2
100
AcDbEntity
  8
0
100
AcDbCircle
 62
7
  6
CONTINUOUS
 10
7.014896615
 20
2.3434446615
 40
0.024
100
AcDbArc
 50
185.1878849445
 51
239.9100804805
  0
ARC
  5
2D3
100
AcDbEntity
  8
0
100
AcDbCircle
 62
7
  6
CONTINUOUS
 10
6.9971334476
 20
2.7175598437
 40
0.024
100
AcDbArc
 50
182.3657944881
 51
243.1689458428
  0
ARC
  5
2D4
100
AcDbEntity
  8
0
100
AcDbCircle
 62
7
  6
CONTINUOUS
 10
7.1426543717
 20
1.8837681313
 40
0.024
100
AcDbArc
 50
277.5773985749
 51
19.5356879447
  0
ARC
  5
2D5
100
AcDbEntity
  8
0
100
AcDbCircle
 62
7
  6
CONTINUOUS
 10
7.0302231144
 20
2.2493064391
 40
0.02
100
AcDbArc
 50
144.2927404212
 51
214.6186625925
  0
ARC
  5
2D6
100
AcDbEntity
  8
0
100
AcDbCircle
 62
7
  6
CONTINUOUS
 10
7.2332517438
 20
1.7434777084
 40
0.015
100
AcDbArc
 50
270.0
 51
34.0525432638
  0
ARC
  5
2D7
100
AcDbEntity
  8
0
100
AcDbCircle
 62
7
  6
CONTINUOUS
 10
6.6105691407
 20
3.3784777084
 40
0.52
100
AcDbArc
 50
106.6661191572
 51
73.3338808428
  0
ARC
  5
2D8
100
AcDbEntity
  8
0
100
AcDbCircle
 62
7
  6
CONTINUOUS
 10
6.6105691407
 20
3.3784777084
 40
0.5160526316
100
AcDbArc
 50
106.7527672331
 51
73.2472327669
  0
ARC
  5
2D9
100
AcDbEntity
  8
0
100
AcDbCircle
 62
7
  6
CONTINUOUS
 10
6.6105691407
 20
3.3784777084
 40
0.505
100
AcDbArc
 50
107.0024445621
 51
72.9975554379
  0
ARC
  5
2DA
100
AcDbEntity
  8
0
100
AcDbCircle
 62
7
  6
CONTINUOUS
 10
6.6105691407
 20
3.3784777084
 40
0.4495390131
100
AcDbArc
 50
109.1819819429
 51
70.8180180571
  0
ARC
  5
2DB
100
AcDbEntity
  8
0
100
AcDbCircle
 62
7
  6
CONTINUOUS
 10
6.6105691407
 20
3.3784777084
 40
0.445
100
AcDbArc
 50
109.1455350162
 51
70.8544649837
  0
ARC
  5
2DC
100
AcDbEntity
  8
0
100
AcDbCircle
 62
7
  6
CONTINUOUS
 10
6.6105691407
 20
3.3784777084
 40
0.4074399772
100
AcDbArc
 50
277.4297369071
 51
70.7423855003
  0
ARC
  5
2DD
100
AcDbEntity
  8
0
100
AcDbCircle
 62
7
  6
CONTINUOUS
 10
6.6105691407
 20
3.3784777084
 40
0.4074399772
100
AcDbArc
 50
109.2576144997
 51
262.5702630932
  0
ARC
  5
2DE
100
AcDbEntity
  8
0
100
AcDbCircle
 62
7
  6
CONTINUOUS
 10
6.6105691407
 20
3.3784777084
 40
0.3786377351
100
AcDbArc
 50
293.3036437032
 51
70.0631399433
  0
ARC
  5
2DF
100
AcDbEntity
  8
0
100
AcDbCircle
 62
7
  6
CONTINUOUS
 10
6.6105691407
 20
3.3784777084
 40
0.3786377351
100
AcDbArc
 50
109.9368600567
 51
246.6963562968
  0
ARC
  5
2E0
100
AcDbEntity
  8
0
100
AcDbCircle
 62
7
  6
CONTINUOUS
 10
6.6105691407
 20
3.3784777084
 40
0.2839477468
100
AcDbArc
 50
237.6834608172
 51
244.0549877317
  0
ARC
  5
2E1
100
AcDbEntity
  8
0
100
AcDbCircle
 62
7
  6
CONTINUOUS
 10
6.6105691407
 20
3.3784777084
 40
0.2839477468
100
AcDbArc
 50
295.9450122683
 51
302.3165391828
  0
ARC
  5
2E2
100
AcDbEntity
  8
0
100
AcDbCircle
 62
7
  6
CONTINUOUS
 10
6.6105691407
 20
3.3784777084
 40
0.225
100
AcDbArc
 50
119.9264348666
 51
240.0735651334
  0
ARC
  5
2E3
100
AcDbEntity
  8
0
100
AcDbCircle
 62
7
  6
CONTINUOUS
 10
6.6105691407
 20
3.3784777084
 40
0.225
100
AcDbArc
 50
299.9264348666
 51
60.0735651334
  0
CIRCLE
  5
2E4
100
AcDbEntity
  8
0
100
AcDbCircle
 62
7
  6
CONTINUOUS
 10
6.6105691407
 20
3.3784777084
 40
0.1414213562
  0
CIRCLE
  5
2E5
100
AcDbEntity
  8
0
100
AcDbCircle
 62
7
  6
CONTINUOUS
 10
6.6105691407
 20
3.3784777084
 40
0.14
  0
CIRCLE
  5
2E6
100
AcDbEntity
  8
0
100
AcDbCircle
 62
7
  6
CONTINUOUS
 10
6.6105691407
 20
3.3784777084
 40
0.1101250471
  0
CIRCLE
  5
2E7
100
AcDbEntity
  8
0
100
AcDbCircle
 62
7
  6
CONTINUOUS
 10
6.6105691407
 20
3.3784777084
 40
0.1018291547
  0
ARC
  5
2E8
100
AcDbEntity
  8
0
100
AcDbCircle
 62
7
  6
CONTINUOUS
 10
6.7136589521
 20
3.6454636405
 40
0.03
100
AcDbArc
 50
306.0296457654
 51
11.7343974534
  0
ARC
  5
2E9
100
AcDbEntity
  8
0
100
AcDbCircle
 62
7
  6
CONTINUOUS
 10
6.7312495644
 20
3.816170541
 40
0.03
100
AcDbArc
 50
336.4989659849
 51
26.2133991649
  0
ARC
  5
2EA
100
AcDbEntity
  8
0
100
AcDbCircle
 62
7
  6
CONTINUOUS
 10
6.7430691407
 20
3.6050280027
 40
0.02
100
AcDbArc
 50
126.029645771
 51
180.0
  0
ARC
  5
2EB
100
AcDbEntity
  8
0
100
AcDbCircle
 62
7
  6
CONTINUOUS
 10
6.7761073191
 20
3.8382563247
 40
0.02
100
AcDbArc
 50
174.4175584015
 51
206.213399165
  0
ARC
  5
2EC
100
AcDbEntity
  8
0
100
AcDbCircle
 62
7
  6
CONTINUOUS
 10
6.6105691407
 20
4.6484777084
 40
0.38
100
AcDbArc
 50
56.2859404457
 51
123.7140595543
  0
ARC
  5
2ED
100
AcDbEntity
  8
0
100
AcDbCircle
 62
7
  6
CONTINUOUS
 10
6.9912340553
 20
3.703120488
 40
0.2535
100
AcDbArc
 50
156.4989659849
 51
191.7343967657
  0
ARC
  5
2EE
100
AcDbEntity
  8
0
100
AcDbCircle
 62
7
  6
CONTINUOUS
 10
6.9288105274
 20
4.8529809933
 40
0.1
100
AcDbArc
 50
147.0162588765
 51
177.4060321589
  0
ARC
  5
2EF
100
AcDbEntity
  8
0
100
AcDbCircle
 62
7
  6
CONTINUOUS
 10
6.8155691407
 20
4.9264751314
 40
0.035
100
AcDbArc
 50
327.0162588766
 51
56.4851632419
  0
ARC
  5
2F0
100
AcDbEntity
  8
0
100
AcDbCircle
 62
7
  6
CONTINUOUS
 10
58.0160853914
 20
4.824634384
 40
51.0864549636
100
AcDbArc
 50
179.3380855868
 51
181.1710844712
  0
ARC
  5
2F1
100
AcDbEntity
  8
0
100
AcDbCircle
 62
7
  6
CONTINUOUS
 10
58.0012938511
 20
4.8247683756
 40
51.0716709191
100
AcDbArc
 50
182.052520884
 51
182.3657978414
  0
ARC
  5
2F2
100
AcDbEntity
  8
0
100
AcDbCircle
 62
7
  6
CONTINUOUS
 10
25.9281870393
 20
5.7425686093
 40
19.556
100
AcDbArc
 50
182.5939678411
 51
185.5824415985
  0
ARC
  5
2F3
100
AcDbEntity
  8
0
100
AcDbCircle
 62
7
  6
CONTINUOUS
 10
9.3913643642
 20
8.8158885328
 40
4.6300034984
100
AcDbArc
 50
236.285940521
 51
236.4851631667
  0
ARC
  5
2F4
100
AcDbEntity
  8
0
100
AcDbCircle
 62
7
  6
CONTINUOUS
 10
6.6353040492
 20
6.0479310574
 40
0.675
100
AcDbArc
 50
70.3784477421
 51
90.0
  0
ARC
  5
2F5
100
AcDbEntity
  8
0
100
AcDbCircle
 62
7
  6
CONTINUOUS
 10
6.6105691407
 20
5.9159777084
 40
0.469
100
AcDbArc
 50
220.8998864832
 51
228.2681829602
  0
ARC
  5
2F6
100
AcDbEntity
  8
0
100
AcDbCircle
 62
7
  6
CONTINUOUS
 10
6.6105691407
 20
5.9159777084
 40
0.469
100
AcDbArc
 50
311.7318170398
 51
67.2461286101
  0
ARC
  5
2F7
100
AcDbEntity
  8
0
100
AcDbCircle
 62
7
  6
CONTINUOUS
 10
6.6105691407
 20
5.9159777084
 40
0.469
100
AcDbArc
 50
112.7538713899
 51
139.1001135168
  0
ARC
  5
2F8
100
AcDbEntity
  8
0
100
AcDbCircle
 62
7
  6
CONTINUOUS
 10
6.6810324687
 20
6.8202646173
 40
0.4
100
AcDbArc
 50
214.7207089079
 51
235.7836689817
  0
ARC
  5
2F9
100
AcDbEntity
  8
0
100
AcDbCircle
 62
7
  6
CONTINUOUS
 10
6.9324922781
 20
6.8815401724
 40
0.21
100
AcDbArc
 50
250.3784477421
 51
256.9528522369
  0
ARC
  5
2FA
100
AcDbEntity
  8
0
100
AcDbCircle
 62
7
  6
CONTINUOUS
 10
7.0130341134
 20
5.4138782085
 40
0.08
100
AcDbArc
 50
137.9358529956
 51
179.3384296706
  0
ARC
  5
2FB
100
AcDbEntity
  8
0
100
AcDbCircle
 62
7
  6
CONTINUOUS
 10
6.7196964688
 20
6.3532575505
 40
0.07
100
AcDbArc
 50
3.4563421022
 51
52.257931743
  0
ARC
  5
2FC
100
AcDbEntity
  8
0
100
AcDbCircle
 62
7
  6
CONTINUOUS
 10
6.9128107591
 20
5.5043231047
 40
0.055
100
AcDbArc
 50
317.9358530022
 51
45.2598917642
  0
ARC
  5
2FD
100
AcDbEntity
  8
0
100
AcDbCircle
 62
7
  6
CONTINUOUS
 10
6.7931494067
 20
6.4481504688
 40
0.05
100
AcDbArc
 50
124.2163310183
 51
232.257931743
  0
ARC
  5
2FE
100
AcDbEntity
  8
0
100
AcDbCircle
 62
7
  6
CONTINUOUS
 10
6.9099780151
 20
6.5639551289
 40
0.05
100
AcDbArc
 50
114.8425917487
 51
145.2792910921
  0
ARC
  5
2FF
100
AcDbEntity
  8
0
100
AcDbCircle
 62
7
  6
CONTINUOUS
 10
6.9233691407
 20
5.5149777084
 40
0.04
100
AcDbArc
 50
45.2598917617
 51
90.0
  0
ARC
  5
300
100
AcDbEntity
  8
0
100
AcDbCircle
 62
7
  6
CONTINUOUS
 10
6.8805691407
 20
6.6274777084
 40
0.02
100
AcDbArc
 50
294.8425917487
 51
360.0
  0
ARC
  5
301
100
AcDbEntity
  8
0
100
AcDbCircle
 62
7
  6
CONTINUOUS
 10
6.8805691407
 20
6.6574777084
 40
0.02
100
AcDbArc
 50
0.0
 51
76.9528522369
  0
SPLINE
  5
302
100
AcDbEntity
  8
0
100
AcDbSpline
 62
7
  6
CONTINUOUS
 70
0
 71
3
 72
15
 73
11
 74
0
 42
0.0000001
 43
0.0000001
 44
0.0000000001
 40
0.0
 40
0.0
 40
0.0
 40
0.0
 40
0.1254799552
 40
0.2504633409
 40
0.3751289415
 40
0.4996569101
 40
0.6242279972
 40
0.7490227656
 40
0.8742208107
 40
1.0
 40
1.0
 40
1.0
 40
1.0
 10
7.24567961
 20
1.7518770025
 30
0.0
 10
7.2422197438
 20
1.756996332
 30
0.0
 10
7.2351225715
 20
1.7670871028
 30
0.0
 10
7.2239311139
 20
1.7817881709
 30
0.0
 10
7.2122194059
 20
1.7960179623
 30
0.0
 10
7.1999876916
 20
1.8097761033
 30
0.0
 10
7.1872360135
 20
1.8230625644
 30
0.0
 10
7.1739644031
 20
1.8358773045
 30
0.0
 10
7.1601732138
 20
1.8482200583
 30
0.0
 10
7.1506585852
 20
1.8561124412
 30
0.0
 10
7.1458191407
 20
1.8599777084
 30
0.0
  0
SPLINE
  5
303
100
AcDbEntity
  8
0
100
AcDbSpline
 62
7
  6
CONTINUOUS
 70
0
 71
3
 72
15
 73
11
 74
0
 42
0.0000001
 43
0.0000001
 44
0.0000000001
 40
0.0
 40
0.0
 40
0.0
 40
0.0
 40
0.1254799552
 40
0.2504633409
 40
0.3751289415
 40
0.4996569101
 40
0.6242279972
 40
0.7490227656
 40
0.8742208107
 40
1.0
 40
1.0
 40
1.0
 40
1.0
 10
5.9754586713
 20
1.7518770025
 30
0.0
 10
5.9789185375
 20
1.756996332
 30
0.0
 10
5.9860157099
 20
1.7670871028
 30
0.0
 10
5.9972071675
 20
1.7817881709
 30
0.0
 10
6.0089188754
 20
1.7960179623
 30
0.0
 10
6.0211505898
 20
1.8097761033
 30
0.0
 10
6.0339022678
 20
1.8230625644
 30
0.0
 10
6.0471738783
 20
1.8358773045
 30
0.0
 10
6.0609650675
 20
1.8482200583
 30
0.0
 10
6.0704796961
 20
1.8561124412
 30
0.0
 10
6.0753191407
 20
1.8599777084
 30
0.0
  0
SPLINE
  5
304
100
AcDbEntity
  8
0
100
AcDbSpline
 62
7
  6
CONTINUOUS
 70
0
 71
3
 72
15
 73
11
 74
0
 42
0.0000001
 43
0.0000001
 44
0.0000000001
 40
0.0
 40
0.0
 40
0.0
 40
0.0
 40
0.126084725
 40
0.251375264
 40
0.3761111423
 40
0.5005350887
 40
0.6248916587
 40
0.7494258044
 40
0.8743814339
 40
1.0
 40
1.0
 40
1.0
 40
1.0
 10
6.1020169286
 20
2.007064086
 30
0.0
 10
6.1046978516
 20
2.0174444488
 30
0.0
 10
6.1104855981
 20
2.0380285034
 30
0.0
 10
6.1204761528
 20
2.0684189072
 30
0.0
 10
6.1317435475
 20
2.0982092662
 30
0.0
 10
6.1442875511
 20
2.1273984896
 30
0.0
 10
6.1581080742
 20
2.1559863773
 30
0.0
 10
6.1732050496
 20
2.1839727203
 30
0.0
 10
6.1895778167
 20
2.2113566011
 30
0.0
 10
6.2013060006
 20
2.2291539821
 30
0.0
 10
6.2073741942
 20
2.2379442025
 30
0.0
  0
SPLINE
  5
305
100
AcDbEntity
  8
0
100
AcDbSpline
 62
7
  6
CONTINUOUS
 70
0
 71
3
 72
15
 73
11
 74
0
 42
0.0000001
 43
0.0000001
 44
0.0000000001
 40
0.0
 40
0.0
 40
0.0
 40
0.0
 40
0.126084725
 40
0.251375264
 40
0.3761111423
 40
0.5005350887
 40
0.6248916587
 40
0.7494258044
 40
0.8743814339
 40
1.0
 40
1.0
 40
1.0
 40
1.0
 10
7.1191213528
 20
2.007064086
 30
0.0
 10
7.1164404297
 20
2.0174444488
 30
0.0
 10
7.1106526832
 20
2.0380285034
 30
0.0
 10
7.1006621285
 20
2.0684189072
 30
0.0
 10
7.0893947339
 20
2.0982092662
 30
0.0
 10
7.0768507302
 20
2.1273984896
 30
0.0
 10
7.0630302072
 20
2.1559863773
 30
0.0
 10
7.0479332317
 20
2.1839727203
 30
0.0
 10
7.0315604647
 20
2.2113566011
 30
0.0
 10
7.0198322807
 20
2.2291539821
 30
0.0
 10
7.0137640871
 20
2.2379442025
 30
0.0
  0
SPLINE
  5
306
100
AcDbEntity
  8
0
100
AcDbSpline
 62
7
  6
CONTINUOUS
 70
0
 71
3
 72
27
 73
23
 74
0
 42
0.0000001
 43
0.0000001
 44
0.0000000001
 40
0.0
 40
0.0
 40
0.0
 40
0.0
 40
0.0639920289
 40
0.128751132
 40
0.1611623091
 40
0.1934678095
 40
0.2095589067
 40
0.2255987805
 40
0.2575326521
 40
0.2893051677
 40
0.3209456463
 40
0.3838976015
 40
0.4465412316
 40
0.5089390704
 40
0.5711056575
 40
0.633026755
 40
0.6946789694
 40
0.7560497532
 40
0.81715786
 40
0.8780742041
 40
0.9389426967
 40
1.0
 40
1.0
 40
1.0
 40
1.0
 10
7.0139829227
 20
2.2609793211
 30
0.0
 10
7.0148611677
 20
2.2622012015
 30
0.0
 10
7.0165229304
 20
2.2647370782
 30
0.0
 10
7.0183138508
 20
2.2680834379
 30
0.0
 10
7.0195526267
 20
2.2708658086
 30
0.0
 10
7.0202358152
 20
2.2726399957
 30
0.0
 10
7.0207219483
 20
2.2740752883
 30
0.0
 10
7.0211646661
 20
2.2755154255
 30
0.0
 10
7.0216396901
 20
2.2773305732
 30
0.0
 10
7.0220861902
 20
2.2795289096
 30
0.0
 10
7.0225177892
 20
2.2824700809
 30
0.0
 10
7.0227587718
 20
2.2861672051
 30
0.0
 10
7.022584192
 20
2.2905920187
 30
0.0
 10
7.0219629576
 20
2.2949577372
 30
0.0
 10
7.0209120266
 20
2.299222599
 30
0.0
 10
7.0194481473
 20
2.3033452925
 30
0.0
 10
7.0175877742
 20
2.3072843441
 30
0.0
 10
7.0153470843
 20
2.3109982073
 30
0.0
 10
7.0127420676
 20
2.3144450981
 30
0.0
 10
7.0097882509
 20
2.3175830769
 30
0.0
 10
7.0065019479
 20
2.320369268
 30
0.0
 10
7.0041062797
 20
2.3219590839
 30
0.0
 10
7.0028640106
 20
2.3226789101
 30
0.0
  0
SPLINE
  5
307
100
AcDbEntity
  8
0
100
AcDbSpline
 62
7
  6
CONTINUOUS
 70
0
 71
3
 72
27
 73
23
 74
0
 42
0.0000001
 43
0.0000001
 44
0.0000000001
 40
0.0
 40
0.0
 40
0.0
 40
0.0
 40
0.0639920289
 40
0.128751132
 40
0.1611623091
 40
0.1934678095
 40
0.2095589067
 40
0.2255987805
 40
0.2575326521
 40
0.2893051677
 40
0.3209456463
 40
0.3838976015
 40
0.4465412316
 40
0.5089390704
 40
0.5711056575
 40
0.633026755
 40
0.6946789694
 40
0.7560497532
 40
0.81715786
 40
0.8780742041
 40
0.9389426967
 40
1.0
 40
1.0
 40
1.0
 40
1.0
 10
6.2071553586
 20
2.2609793211
 30
0.0
 10
6.2062771137
 20
2.2622012015
 30
0.0
 10
6.2046153509
 20
2.2647370782
 30
0.0
 10
6.2028244305
 20
2.2680834379
 30
0.0
 10
6.2015856547
 20
2.2708658086
 30
0.0
 10
6.2009024662
 20
2.2726399957
 30
0.0
 10
6.2004163331
 20
2.2740752883
 30
0.0
 10
6.1999736153
 20
2.2755154255
 30
0.0
 10
6.1994985912
 20
2.2773305732
 30
0.0
 10
6.1990520911
 20
2.2795289096
 30
0.0
 10
6.1986204921
 20
2.2824700809
 30
0.0
 10
6.1983795095
 20
2.2861672051
 30
0.0
 10
6.1985540893
 20
2.2905920187
 30
0.0
 10
6.1991753237
 20
2.2949577372
 30
0.0
 10
6.2002262547
 20
2.299222599
 30
0.0
 10
6.2016901341
 20
2.3033452925
 30
0.0
 10
6.2035505072
 20
2.3072843441
 30
0.0
 10
6.205791197
 20
2.3109982073
 30
0.0
 10
6.2083962138
 20
2.3144450981
 30
0.0
 10
6.2113500305
 20
2.3175830769
 30
0.0
 10
6.2146363334
 20
2.320369268
 30
0.0
 10
6.2170320017
 20
2.3219590839
 30
0.0
 10
6.2182742708
 20
2.3226789101
 30
0.0
  0
SPLINE
  5
308
100
AcDbEntity
  8
0
100
AcDbSpline
 62
7
  6
CONTINUOUS
 70
0
 71
3
 72
30
 73
26
 74
0
 42
0.0000001
 43
0.0000001
 44
0.0000000001
 40
0.0
 40
0.0
 40
0.0
 40
0.0
 40
0.0354309514
 40
0.0699956638
 40
0.1038122687
 40
0.1369917501
 40
0.1696369912
 40
0.2018419944
 40
0.2336913097
 40
0.2652596894
 40
0.2966119715
 40
0.3278031795
 40
0.3588788158
 40
0.3898753165
 40
0.4517103919
 40
0.5134695621
 40
0.5443451528
 40
0.5752078228
 40
0.6368433206
 40
0.6983093486
 40
0.759496601
 40
0.8203002479
 40
0.8806467305
 40
0.9405218114
 40
1.0
 40
1.0
 40
1.0
 40
1.0
 10
6.9983461053
 20
2.6374651053
 30
0.0
 10
6.9988931137
 20
2.6380673711
 30
0.0
 10
6.9999360602
 20
2.6392921285
 30
0.0
 10
7.0013599936
 20
2.6412060156
 30
0.0
 10
7.0026259894
 20
2.6431666809
 30
0.0
 10
7.003737411
 20
2.6451685908
 30
0.0
 10
7.0046977504
 20
2.6472063319
 30
0.0
 10
7.0055104908
 20
2.6492744653
 30
0.0
 10
7.0061791394
 20
2.6513675716
 30
0.0
 10
7.006707214
 20
2.6534802411
 30
0.0
 10
7.0070982394
 20
2.655607088
 30
0.0
 10
7.0073557474
 20
2.6577427154
 30
0.0
 10
7.0074832543
 20
2.6598818398
 30
0.0
 10
7.0074846818
 20
2.662728489
 30
0.0
 10
7.0071793849
 20
2.6662733247
 30
0.0
 10
7.0064868923
 20
2.6697595078
 30
0.0
 10
7.0057153367
 20
2.6724895579
 30
0.0
 10
7.0048036724
 20
2.6751730509
 30
0.0
 10
7.0034096258
 20
2.6784293122
 30
0.0
 10
7.0013568595
 20
2.6821378845
 30
0.0
 10
6.9989516783
 20
2.6856053651
 30
0.0
 10
6.996221223
 20
2.6887894137
 30
0.0
 10
6.9931919474
 20
2.6916479084
 30
0.0
 10
6.9898909933
 20
2.6941378001
 30
0.0
 10
6.9875195313
 20
2.695527186
 30
0.0
 10
6.9863007775
 20
2.6961436522
 30
0.0
  0
SPLINE
  5
309
100
AcDbEntity
  8
0
100
AcDbSpline
 62
7
  6
CONTINUOUS
 70
0
 71
3
 72
30
 73
26
 74
0
 42
0.0000001
 43
0.0000001
 44
0.0000000001
 40
0.0
 40
0.0
 40
0.0
 40
0.0
 40
0.0354309514
 40
0.0699956638
 40
0.1038122687
 40
0.1369917501
 40
0.1696369912
 40
0.2018419944
 40
0.2336913097
 40
0.2652596894
 40
0.2966119715
 40
0.3278031795
 40
0.3588788158
 40
0.3898753165
 40
0.4517103919
 40
0.5134695621
 40
0.5443451528
 40
0.5752078228
 40
0.6368433206
 40
0.6983093486
 40
0.759496601
 40
0.8203002479
 40
0.8806467305
 40
0.9405218114
 40
1.0
 40
1.0
 40
1.0
 40
1.0
 10
6.222792176
 20
2.6374651053
 30
0.0
 10
6.2222451677
 20
2.6380673711
 30
0.0
 10
6.2212022212
 20
2.6392921285
 30
0.0
 10
6.2197782878
 20
2.6412060156
 30
0.0
 10
6.2185122919
 20
2.6431666809
 30
0.0
 10
6.2174008703
 20
2.6451685908
 30
0.0
 10
6.216440531
 20
2.6472063319
 30
0.0
 10
6.2156277906
 20
2.6492744653
 30
0.0
 10
6.214959142
 20
2.6513675716
 30
0.0
 10
6.2144310674
 20
2.6534802411
 30
0.0
 10
6.2140400419
 20
2.655607088
 30
0.0
 10
6.2137825339
 20
2.6577427154
 30
0.0
 10
6.2136550271
 20
2.6598818398
 30
0.0
 10
6.2136535995
 20
2.662728489
 30
0.0
 10
6.2139588965
 20
2.6662733247
 30
0.0
 10
6.2146513891
 20
2.6697595078
 30
0.0
 10
6.2154229446
 20
2.6724895579
 30
0.0
 10
6.216334609
 20
2.6751730509
 30
0.0
 10
6.2177286555
 20
2.6784293122
 30
0.0
 10
6.2197814219
 20
2.6821378845
 30
0.0
 10
6.222186603
 20
2.6856053651
 30
0.0
 10
6.2249170584
 20
2.6887894137
 30
0.0
 10
6.2279463339
 20
2.6916479084
 30
0.0
 10
6.2312472881
 20
2.6941378001
 30
0.0
 10
6.2336187501
 20
2.695527186
 30
0.0
 10
6.2348375039
 20
2.6961436522
 30
0.0
  0
SPLINE
  5
30A
100
AcDbEntity
  8
0
100
AcDbSpline
 62
7
  6
CONTINUOUS
 70
0
 71
3
 72
22
 73
18
 74
0
 42
0.0000001
 43
0.0000001
 44
0.0000000001
 40
0.0
 40
0.0
 40
0.0
 40
0.0
 40
0.0769232296
 40
0.1505256827
 40
0.2210114596
 40
0.2886128965
 40
0.4161706004
 40
0.4768319372
 40
0.5358628667
 40
0.5936581028
 40
0.6506380452
 40
0.7072412624
 40
0.7639150693
 40
0.8211051245
 40
0.8792452164
 40
0.938748359
 40
1.0
 40
1.0
 40
1.0
 40
1.0
 10
3.0076370607
 20
5.6077373762
 30
0.0
 10
3.0068390707
 20
5.6087511754
 30
0.0
 10
3.0053218619
 20
5.6107705541
 30
0.0
 10
3.0032461333
 20
5.6138436519
 30
0.0
 10
3.0014221721
 20
5.6168924737
 30
0.0
 10
2.9993664918
 20
5.6208472246
 30
0.0
 10
2.9977536164
 20
5.6248415033
 30
0.0
 10
2.9966501801
 20
5.6288427081
 30
0.0
 10
2.996089509
 20
5.6317698175
 30
0.0
 10
2.9957826218
 20
5.6346723094
 30
0.0
 10
2.9957297744
 20
5.637549969
 30
0.0
 10
2.9959311755
 20
5.6404022712
 30
0.0
 10
2.9963868337
 20
5.6432286957
 30
0.0
 10
2.9970965681
 20
5.6460287258
 30
0.0
 10
2.9980600789
 20
5.648802013
 30
0.0
 10
2.9992768508
 20
5.6515481287
 30
0.0
 10
3.0002410098
 20
5.6533318575
 30
0.0
 10
3.0007618899
 20
5.6542173524
 30
0.0
  0
SPLINE
  5
30B
100
AcDbEntity
  8
0
100
AcDbSpline
 62
7
  6
CONTINUOUS
 70
0
 71
3
 72
22
 73
18
 74
0
 42
0.0000001
 43
0.0000001
 44
0.0000000001
 40
0.0
 40
0.0
 40
0.0
 40
0.0
 40
0.0769232296
 40
0.1505256827
 40
0.2210114596
 40
0.2886128965
 40
0.4161706004
 40
0.4768319372
 40
0.5358628667
 40
0.5936581028
 40
0.6506380452
 40
0.7072412624
 40
0.7639150693
 40
0.8211051245
 40
0.8792452164
 40
0.938748359
 40
1.0
 40
1.0
 40
1.0
 40
1.0
 10
3.5170338096
 20
5.6077373762
 30
0.0
 10
3.5178317996
 20
5.6087511754
 30
0.0
 10
3.5193490084
 20
5.6107705541
 30
0.0
 10
3.521424737
 20
5.6138436519
 30
0.0
 10
3.5232486982
 20
5.6168924737
 30
0.0
 10
3.5253043785
 20
5.6208472246
 30
0.0
 10
3.5269172539
 20
5.6248415033
 30
0.0
 10
3.5280206902
 20
5.6288427081
 30
0.0
 10
3.5285813613
 20
5.6317698175
 30
0.0
 10
3.5288882484
 20
5.6346723094
 30
0.0
 10
3.5289410959
 20
5.637549969
 30
0.0
 10
3.5287396948
 20
5.6404022712
 30
0.0
 10
3.5282840366
 20
5.6432286957
 30
0.0
 10
3.5275743022
 20
5.6460287258
 30
0.0
 10
3.5266107914
 20
5.648802013
 30
0.0
 10
3.5253940194
 20
5.6515481287
 30
0.0
 10
3.5244298605
 20
5.6533318575
 30
0.0
 10
3.5239089804
 20
5.6542173524
 30
0.0
  0
SPLINE
  5
30C
100
AcDbEntity
  8
0
100
AcDbSpline
 62
7
  6
CONTINUOUS
 70
0
 71
3
 72
38
 73
34
 74
0
 42
0.0000001
 43
0.0000001
 44
0.0000000001
 40
0.0
 40
0.0
 40
0.0
 40
0.0
 40
0.0678193479
 40
0.1015992088
 40
0.1352817171
 40
0.168857232
 40
0.2023162236
 40
0.2356483404
 40
0.2688418299
 40
0.3018852448
 40
0.3347658948
 40
0.3674708418
 40
0.3999855833
 40
0.432292311
 40
0.4643734964
 40
0.4962103729
 40
0.527785484
 40
0.5590818074
 40
0.5900837832
 40
0.6207771771
 40
0.6511506971
 40
0.6811977692
 40
0.7109176922
 40
0.7403197582
 40
0.7694275814
 40
0.7982812535
 40
0.8269372574
 40
0.8554697941
 40
0.8839749776
 40
0.9125661172
 40
0.9413613179
 40
0.9704717054
 40
1.0
 40
1.0
 40
1.0
 40
1.0
 10
6.9379138173
 20
3.7825047157
 30
0.0
 10
6.9374273709
 20
3.7940562175
 30
0.0
 10
6.9366480724
 20
3.8113593374
 30
0.0
 10
6.935475869
 20
3.8343922051
 30
0.0
 10
6.934524485
 20
3.851590763
 30
0.0
 10
6.9334886634
 20
3.8687296586
 30
0.0
 10
6.9323579875
 20
3.8858027157
 30
0.0
 10
6.9311207721
 20
3.9028031165
 30
0.0
 10
6.929762427
 20
3.919723232
 30
0.0
 10
6.9282694196
 20
3.9365547773
 30
0.0
 10
6.9266249582
 20
3.9532885782
 30
0.0
 10
6.9248115027
 20
3.9699143212
 30
0.0
 10
6.9228100792
 20
3.9864200331
 30
0.0
 10
6.9205965964
 20
4.0027914743
 30
0.0
 10
6.9181474463
 20
4.0190126219
 30
0.0
 10
6.9154338876
 20
4.035065364
 30
0.0
 10
6.9124270514
 20
4.0509298577
 30
0.0
 10
6.9090939051
 20
4.0665838469
 30
0.0
 10
6.9053997126
 20
4.0820024684
 30
0.0
 10
6.9013057392
 20
4.0971574192
 30
0.0
 10
6.8967703157
 20
4.1120166959
 30
0.0
 10
6.8917491411
 20
4.1265442971
 30
0.0
 10
6.8861941441
 20
4.140699555
 30
0.0
 10
6.8800556875
 20
4.1544377943
 30
0.0
 10
6.873284698
 20
4.1677114453
 30
0.0
 10
6.8658343204
 20
4.1804705872
 30
0.0
 10
6.857659888
 20
4.1926623895
 30
0.0
 10
6.8487195891
 20
4.2042311328
 30
0.0
 10
6.8389846178
 20
4.2151262934
 30
0.0
 10
6.8284421407
 20
4.225307421
 30
0.0
 10
6.8170920149
 20
4.2347426603
 30
0.0
 10
6.8049388529
 20
4.2433954939
 30
0.0
 10
6.7963824665
 20
4.2485843648
 30
0.0
 10
6.7919899313
 20
4.2510432619
 30
0.0
  0
SPLINE
  5
30D
100
AcDbEntity
  8
0
100
AcDbSpline
 62
7
  6
CONTINUOUS
 70
0
 71
3
 72
16
 73
12
 74
0
 42
0.0000001
 43
0.0000001
 44
0.0000000001
 40
0.0
 40
0.0
 40
0.0
 40
0.0
 40
0.1278455023
 40
0.2546411593
 40
0.3804937449
 40
0.5055197102
 40
0.6298436567
 40
0.7536023281
 40
0.8153209044
 40
0.8769535349
 40
1.0
 40
1.0
 40
1.0
 40
1.0
 10
6.4291510676
 20
4.2510453555
 30
0.0
 10
6.426834154
 20
4.2497491088
 30
0.0
 10
6.4222664547
 20
4.2470819227
 30
0.0
 10
6.4155972801
 20
4.242841209
 30
0.0
 10
6.4091439969
 20
4.238380629
 30
0.0
 10
6.4029095359
 20
4.2337040478
 30
0.0
 10
6.3968956292
 20
4.2288157756
 30
0.0
 10
6.3920644435
 20
4.2245647227
 30
0.0
 10
6.3883136637
 20
4.2210622276
 30
0.0
 10
6.3846430193
 20
4.2174971183
 30
0.0
 10
6.3819695623
 20
4.2147457741
 30
0.0
 10
6.3802234998
 20
4.2128801958
 30
0.0
  0
SPLINE
  5
30E
100
AcDbEntity
  8
0
100
AcDbSpline
 62
7
  6
CONTINUOUS
 70
0
 71
3
 72
26
 73
22
 74
0
 42
0.0000001
 43
0.0000001
 44
0.0000000001
 40
0.0
 40
0.0
 40
0.0
 40
0.0
 40
0.0779924696
 40
0.1580899803
 40
0.2392653795
 40
0.3204923344
 40
0.4007298186
 40
0.4789628089
 40
0.5542166805
 40
0.6255828204
 40
0.6922437811
 40
0.7535043374
 40
0.8088314396
 40
0.8579115704
 40
0.9007411995
 40
0.919952656
 40
0.9378216354
 40
0.9545132086
 40
0.9702495784
 40
0.98530607
 40
1.0
 40
1.0
 40
1.0
 40
1.0
 10
6.7929302518
 20
3.2088691225
 30
0.0
 10
6.7925465857
 20
3.2088156129
 30
0.0
 10
6.7917660845
 20
3.2087265555
 30
0.0
 10
6.79058004
 20
3.2086460048
 30
0.0
 10
6.7893755219
 20
3.2086173967
 30
0.0
 10
6.7881702117
 20
3.2086411268
 30
0.0
 10
6.7869816769
 20
3.208716864
 30
0.0
 10
6.7858272907
 20
3.2088434624
 30
0.0
 10
6.7847238759
 20
3.2090190371
 30
0.0
 10
6.7836874737
 20
3.2092409644
 30
0.0
 10
6.7827330543
 20
3.2095059518
 30
0.0
 10
6.7818742924
 20
3.2098100795
 30
0.0
 10
6.7811231528
 20
3.2101490326
 30
0.0
 10
6.7804900718
 20
3.2105180637
 30
0.0
 10
6.7800525623
 20
3.2108587877
 30
0.0
 10
6.7797759234
 20
3.2111442383
 30
0.0
 10
6.7796108616
 20
3.2113549309
 30
0.0
 10
6.7794813385
 20
3.2115693604
 30
0.0
 10
6.7793880706
 20
3.2117869192
 30
0.0
 10
6.7793317839
 20
3.212006674
 30
0.0
 10
6.7793191407
 20
3.2121547253
 30
0.0
 10
6.7793191407
 20
3.2122277084
 30
0.0
  0
SPLINE
  5
30F
100
AcDbEntity
  8
0
100
AcDbSpline
 62
7
  6
CONTINUOUS
 70
0
 71
3
 72
26
 73
22
 74
0
 42
0.0000001
 43
0.0000001
 44
0.0000000001
 40
0.0
 40
0.0
 40
0.0
 40
0.0
 40
0.0779924704
 40
0.1580899821
 40
0.2392653826
 40
0.320492339
 40
0.4007298248
 40
0.4789628166
 40
0.5542166898
 40
0.625582831
 40
0.6922437928
 40
0.7535043497
 40
0.808831452
 40
0.8579115821
 40
0.9007412099
 40
0.9199526653
 40
0.9378216434
 40
0.9545132149
 40
0.9702495828
 40
0.9853060723
 40
1.0
 40
1.0
 40
1.0
 40
1.0
 10
6.4282080296
 20
3.2088691225
 30
0.0
 10
6.4285916957
 20
3.2088156129
 30
0.0
 10
6.4293721969
 20
3.2087265555
 30
0.0
 10
6.4305582413
 20
3.208646005
 30
0.0
 10
6.4317627595
 20
3.2086173969
 30
0.0
 10
6.4329680696
 20
3.2086411271
 30
0.0
 10
6.4341566045
 20
3.2087168643
 30
0.0
 10
6.4353109907
 20
3.2088434627
 30
0.0
 10
6.4364144055
 20
3.2090190374
 30
0.0
 10
6.4374508077
 20
3.2092409648
 30
0.0
 10
6.438405227
 20
3.2095059521
 30
0.0
 10
6.4392639889
 20
3.2098100798
 30
0.0
 10
6.4400151285
 20
3.2101490329
 30
0.0
 10
6.4406482095
 20
3.2105180639
 30
0.0
 10
6.441085719
 20
3.2108587879
 30
0.0
 10
6.4413623579
 20
3.2111442385
 30
0.0
 10
6.4415274198
 20
3.211354931
 30
0.0
 10
6.4416569428
 20
3.2115693605
 30
0.0
 10
6.4417502107
 20
3.2117869192
 30
0.0
 10
6.4418064974
 20
3.212006674
 30
0.0
 10
6.4418191407
 20
3.2121547253
 30
0.0
 10
6.4418191407
 20
3.2122277084
 30
0.0
  0
SPLINE
  5
310
100
AcDbEntity
  8
0
100
AcDbSpline
 62
7
  6
CONTINUOUS
 70
0
 71
3
 72
38
 73
34
 74
0
 42
0.0000001
 43
0.0000001
 44
0.0000000001
 40
0.0
 40
0.0
 40
0.0
 40
0.0
 40
0.0141035462
 40
0.0282129848
 40
0.0423302413
 40
0.0564617102
 40
0.0706168243
 40
0.0848037473
 40
0.0990286708
 40
0.1132966986
 40
0.1419803941
 40
0.1708933393
 40
0.2000639024
 40
0.2295126735
 40
0.2592512184
 40
0.2892792311
 40
0.3195898413
 40
0.3501720954
 40
0.3810127094
 40
0.4120963742
 40
0.4434105872
 40
0.4749428529
 40
0.5066811535
 40
0.5386130416
 40
0.6030079541
 40
0.6680346924
 40
0.7007585064
 40
0.7336087418
 40
0.7996539057
 40
0.8661039638
 40
0.8994631764
 40
0.9329026877
 40
1.0
 40
1.0
 40
1.0
 40
1.0
 10
6.3802234998
 20
4.2128801958
 30
0.0
 10
6.3787825463
 20
4.2113366322
 30
0.0
 10
6.3759527378
 20
4.20819923
 30
0.0
 10
6.3718621894
 20
4.2033569733
 30
0.0
 10
6.3679185755
 20
4.1983890081
 30
0.0
 10
6.3641191452
 20
4.1933014607
 30
0.0
 10
6.3604623766
 20
4.1880977082
 30
0.0
 10
6.3569455856
 20
4.182781646
 30
0.0
 10
6.3535649501
 20
4.1773580759
 30
0.0
 10
6.3492267188
 20
4.1699771643
 30
0.0
 10
6.344125329
 20
4.1604983667
 30
0.0
 10
6.3385032
 20
4.148782341
 30
0.0
 10
6.3333407155
 20
4.1367324089
 30
0.0
 10
6.3286093335
 20
4.1243749745
 30
0.0
 10
6.324280375
 20
4.1117356528
 30
0.0
 10
6.3203214331
 20
4.0988410552
 30
0.0
 10
6.316702123
 20
4.0857163604
 30
0.0
 10
6.3133929931
 20
4.0723849887
 30
0.0
 10
6.3103673199
 20
4.0588680806
 30
0.0
 10
6.3075985033
 20
4.045184613
 30
0.0
 10
6.3050653135
 20
4.0313504424
 30
0.0
 10
6.3027467504
 20
4.0173794628
 30
0.0
 10
6.3006246353
 20
4.0032838651
 30
0.0
 10
6.2980263386
 20
3.9842860089
 30
0.0
 10
6.2951898166
 20
3.9602926772
 30
0.0
 10
6.2928108489
 20
3.9361314512
 30
0.0
 10
6.2911259181
 20
3.9166501552
 30
0.0
 10
6.2895669394
 20
3.8970054021
 30
0.0
 10
6.287846073
 20
3.8723087353
 30
0.0
 10
6.2863720742
 20
3.8475200292
 30
0.0
 10
6.2853109555
 20
3.8275978792
 30
0.0
 10
6.2843174564
 20
3.8075752182
 30
0.0
 10
6.2836449757
 20
3.7925375023
 30
0.0
 10
6.2832219426
 20
3.782500431
 30
0.0
  0
SPLINE
  5
311
100
AcDbEntity
  8
0
100
AcDbSpline
 62
7
  6
CONTINUOUS
 70
0
 71
3
 72
42
 73
38
 74
0
 42
0.0000001
 43
0.0000001
 44
0.0000000001
 40
0.0
 40
0.0
 40
0.0
 40
0.0
 40
0.0315862941
 40
0.0626875567
 40
0.0932865523
 40
0.1233726225
 40
0.152949988
 40
0.1820503839
 40
0.2107260085
 40
0.2390418267
 40
0.2670727706
 40
0.2949044423
 40
0.3226331383
 40
0.3364938783
 40
0.3503697741
 40
0.3642754782
 40
0.3782255572
 40
0.3922340501
 40
0.4063145849
 40
0.4347391962
 40
0.4635962531
 40
0.4929626733
 40
0.5228985331
 40
0.5534473938
 40
0.5846363737
 40
0.6164755084
 40
0.648959048
 40
0.6820669617
 40
0.7157666871
 40
0.7500149626
 40
0.7847596781
 40
0.8199415993
 40
0.8554957585
 40
0.8913528341
 40
0.9274394798
 40
0.9636812933
 40
1.0
 40
1.0
 40
1.0
 40
1.0
 10
6.2777217689
 20
2.9789796938
 30
0.0
 10
6.2784520623
 20
2.9742888523
 30
0.0
 10
6.2800224326
 20
2.9649974081
 30
0.0
 10
6.2827689259
 20
2.9512459881
 30
0.0
 10
6.2859252103
 20
2.9378135956
 30
0.0
 10
6.289529865
 20
2.9247311831
 30
0.0
 10
6.2936225287
 20
2.9120287152
 30
0.0
 10
6.2982341689
 20
2.8997306637
 30
0.0
 10
6.3033918389
 20
2.8878570288
 30
0.0
 10
6.3091209729
 20
2.8764269719
 30
0.0
 10
6.3154462292
 20
2.8654608773
 30
0.0
 10
6.3223890902
 20
2.8549801197
 30
0.0
 10
6.3287064523
 20
2.8466658471
 30
0.0
 10
6.3340745786
 20
2.8402862975
 30
0.0
 10
6.3382624798
 20
2.8356334926
 30
0.0
 10
6.3426121165
 20
2.8311129598
 30
0.0
 10
6.3471235051
 20
2.8267252199
 30
0.0
 10
6.351795988
 20
2.822470265
 30
0.0
 10
6.3582594097
 20
2.816957452
 30
0.0
 10
6.3667512851
 20
2.810392993
 30
0.0
 10
6.3775307254
 20
2.8030717566
 30
0.0
 10
6.3889151712
 20
2.7962781362
 30
0.0
 10
6.4008838528
 20
2.7900094376
 30
0.0
 10
6.4134117499
 20
2.7842600587
 30
0.0
 10
6.426468238
 20
2.7790180373
 30
0.0
 10
6.4400202726
 20
2.7742703045
 30
0.0
 10
6.4540321215
 20
2.7700024108
 30
0.0
 10
6.4684655751
 20
2.7661976147
 30
0.0
 10
6.4832810577
 20
2.7628394968
 30
0.0
 10
6.4984377093
 20
2.7599112508
 30
0.0
 10
6.5138945239
 20
2.7574003256
 30
0.0
 10
6.5296101362
 20
2.7552987951
 30
0.0
 10
6.5455421618
 20
2.75359843
 30
0.0
 10
6.5616474648
 20
2.7522904379
 30
0.0
 10
6.5778828161
 20
2.7513670226
 30
0.0
 10
6.5942043955
 20
2.7508193698
 30
0.0
 10
6.60511049
 20
2.750698278
 30
0.0
 10
6.6105691097
 20
2.7506994706
 30
0.0
  0
SPLINE
  5
312
100
AcDbEntity
  8
0
100
AcDbSpline
 62
7
  6
CONTINUOUS
 70
0
 71
3
 72
33
 73
29
 74
0
 42
0.0000001
 43
0.0000001
 44
0.0000000001
 40
0.0
 40
0.0
 40
0.0
 40
0.0
 40
0.0212870264
 40
0.0434924122
 40
0.0904841446
 40
0.115183619
 40
0.1406274424
 40
0.1667723786
 40
0.193592123
 40
0.2492603546
 40
0.2781144346
 40
0.3076519932
 40
0.337875584
 40
0.3687857647
 40
0.4003750964
 40
0.4326340637
 40
0.499123154
 40
0.5333349604
 40
0.5681749379
 40
0.6394169606
 40
0.7120202274
 40
0.785130484
 40
0.8216212054
 40
0.8579494654
 40
0.8940314357
 40
0.9297856921
 40
0.9651336359
 40
1.0
 40
1.0
 40
1.0
 40
1.0
 10
6.4372766042
 20
3.8687283268
 30
0.0
 10
6.4368415573
 20
3.871167434
 30
0.0
 10
6.4359672256
 20
3.8761534778
 30
0.0
 10
6.4342034422
 20
3.8865362358
 30
0.0
 10
6.4324560544
 20
3.8973244908
 30
0.0
 10
6.4307250505
 20
3.9084967796
 30
0.0
 10
6.4294054047
 20
3.917277405
 30
0.0
 10
6.42808945
 20
3.9263080394
 30
0.0
 10
6.426319712
 20
3.938827412
 30
0.0
 10
6.4245783071
 20
3.9516691159
 30
0.0
 10
6.4228498489
 20
3.9648315718
 30
0.0
 10
6.4215321165
 20
3.9750610034
 30
0.0
 10
6.4202056146
 20
3.9855305654
 30
0.0
 10
6.4188676685
 20
3.9962393724
 30
0.0
 10
6.4175064965
 20
4.0071840141
 30
0.0
 10
6.4156263297
 20
4.0222370408
 30
0.0
 10
6.4136716084
 20
4.0375883972
 30
0.0
 10
6.4115983309
 20
4.0532272437
 30
0.0
 10
6.4093830295
 20
4.0694051313
 30
0.0
 10
6.4063968542
 20
4.0899874439
 30
0.0
 10
6.4023996954
 20
4.1149217166
 30
0.0
 10
6.398636448
 20
4.1357939093
 30
0.0
 10
6.3953144313
 20
4.152451046
 30
0.0
 10
6.3926653692
 20
4.1648465924
 30
0.0
 10
6.3898477156
 20
4.177117056
 30
0.0
 10
6.3868517323
 20
4.1892278344
 30
0.0
 10
6.383667724
 20
4.2011442246
 30
0.0
 10
6.3813960374
 20
4.2089951981
 30
0.0
 10
6.3802234379
 20
4.2128801968
 30
0.0
  0
LINE
  5
313
100
AcDbEntity
  8
0
100
AcDbLine
 62
7
  6
CONTINUOUS
 10
6.6105691097
 20
2.7506994706
 11
6.6114570558
 21
2.7506930843
  0
SPLINE
  5
314
100
AcDbEntity
  8
0
100
AcDbSpline
 62
7
  6
CONTINUOUS
 70
0
 71
3
 72
49
 73
45
 74
0
 42
0.0000001
 43
0.0000001
 44
0.0000000001
 40
0.0
 40
0.0
 40
0.0
 40
0.0
 40
0.0363259148
 40
0.054464086
 40
0.0725715946
 40
0.0906394704
 40
0.1086585849
 40
0.126619461
 40
0.1445127869
 40
0.1800603824
 40
0.215233169
 40
0.2499666865
 40
0.2842023956
 40
0.3178888555
 40
0.3509833259
 40
0.3834534629
 40
0.4152790551
 40
0.4464539768
 40
0.4769882069
 40
0.5069095347
 40
0.5362644828
 40
0.5651163809
 40
0.5935414813
 40
0.62162958
 40
0.635580626
 40
0.6494864405
 40
0.663361153
 40
0.6772190183
 40
0.6910745027
 40
0.7049419597
 40
0.718835993
 40
0.732771202
 40
0.7608153731
 40
0.7891709051
 40
0.8179019549
 40
0.8470547304
 40
0.8766638217
 40
0.9067522754
 40
0.9219804374
 40
0.937332621
 40
0.9528115023
 40
0.9684189508
 40
0.984151184
 40
1.0
 40
1.0
 40
1.0
 40
1.0
 10
6.6114570558
 20
2.7506930843
 30
0.0
 10
6.6169058665
 20
2.7507024995
 30
0.0
 10
6.6250755733
 20
2.750807578
 30
0.0
 10
6.635956678
 20
2.7511253718
 30
0.0
 10
6.6440971779
 20
2.7514537481
 30
0.0
 10
6.6522155052
 20
2.7518751367
 30
0.0
 10
6.6603063182
 20
2.7523914465
 30
0.0
 10
6.6683642071
 20
2.7530036201
 30
0.0
 10
6.6790329273
 20
2.7539470802
 30
0.0
 10
6.692250082
 20
2.7553700077
 30
0.0
 10
6.7079278004
 20
2.7574859765
 30
0.0
 10
6.7233449653
 20
2.7600158749
 30
0.0
 10
6.7384599271
 20
2.7629685156
 30
0.0
 10
6.7532324503
 20
2.7663523879
 30
0.0
 10
6.7676227166
 20
2.7701804312
 30
0.0
 10
6.7815921755
 20
2.7744661245
 30
0.0
 10
6.7951041851
 20
2.7792225067
 30
0.0
 10
6.8081237442
 20
2.7844639157
 30
0.0
 10
6.8206177696
 20
2.7902054362
 30
0.0
 10
6.8325554355
 20
2.7964622301
 30
0.0
 10
6.8439083019
 20
2.803248304
 30
0.0
 10
6.854652826
 20
2.8105712069
 30
0.0
 10
6.8647746874
 20
2.8184271473
 30
0.0
 10
6.8727002662
 20
2.8254321295
 30
0.0
 10
6.8787090327
 20
2.8312917566
 30
0.0
 10
6.8830455457
 20
2.8358075867
 30
0.0
 10
6.8872216371
 20
2.8404533117
 30
0.0
 10
6.8912374228
 20
2.8452284396
 30
0.0
 10
6.8950935859
 20
2.8501319729
 30
0.0
 10
6.898790902
 20
2.8551630596
 30
0.0
 10
6.9023304096
 20
2.8603209452
 30
0.0
 10
6.9068497488
 20
2.8673803414
 30
0.0
 10
6.9121150471
 20
2.8765310927
 30
0.0
 10
6.917813284
 20
2.8879663012
 30
0.0
 10
6.9229380232
 20
2.8998501924
 30
0.0
 10
6.9275222259
 20
2.9121526933
 30
0.0
 10
6.9315987944
 20
2.9248456889
 30
0.0
 10
6.9345882839
 20
2.9356827428
 30
0.0
 10
6.9367626821
 20
2.9445197427
 30
0.0
 10
6.9382941039
 20
2.9512570541
 30
0.0
 10
6.9397227943
 20
2.9580749732
 30
0.0
 10
6.941051701
 20
2.9649710871
 30
0.0
 10
6.9422858731
 20
2.9719410874
 30
0.0
 10
6.9430469381
 20
2.9766168151
 30
0.0
 10
6.9434139102
 20
2.978965613
 30
0.0
  0
ENDSEC
  0
SECTION
  2
OBJECTS
  0
DICTIONARY
  5
C
100
AcDbDictionary
280
0
281
1
  3
ACAD_GROUP
350
D
  3
ACAD_MLINESTYLE
350
17
  3
ACAD_LAYOUT
350
1A
  3
ACAD_PLOTSETTINGS
350
19
  3
ACAD_PLOTSTYLENAME
350
E
  0
DICTIONARY
  5
D
102
{ACAD_REACTORS
330
C
102
}
100
AcDbDictionary
280
0
281
1
  0
ACDBDICTIONARYWDFLT
  5
E
102
{ACAD_REACTORS
330
C
102
}
100
AcDbDictionary
281
1
  3
Normal
350
F
100
AcDbDictionaryWithDefault
340
F
  0
DICTIONARY
  5
17
102
{ACAD_REACTORS
330
C
102
}
100
AcDbDictionary
280
0
281
1
  3
Standard
350
18
  0
DICTIONARY
  5
19
102
{ACAD_REACTORS
330
C
102
}
100
AcDbDictionary
281
1
  0
DICTIONARY
  5
1A
102
{ACAD_REACTORS
330
C
102
}
100
AcDbDictionary
281
1
  3
Model
350
315
  3
Layout1
350
316
  0
ACDBPLACEHOLDER
  5
F
102
{ACAD_REACTORS
330
E
102
}
  0
MLINESTYLE
  5
18
102
{ACAD_REACTORS
330
17
102
}
100
AcDbMlineStyle
  2
STANDARD
 70
0
  3

 62
256
 51
90.0
 52
90.0
 71
2
 49
0.5
 62
256
  6
BYLAYER
 49
-0.5
 62
256
  6
BYLAYER
  0
LAYOUT
  5
315
102
{ACAD_REACTORS
330
1A
102
}
100
AcDbPlotSettings
  1

  2
none_device
  4
ANSI_A_(11.00_x_8.50_Inches)
  6

 40
0.0
 41
0.0
 42
0.0
 43
0.0
 44
279.4
 45
215.9
 46
0.0
 47
0.0
 48
0.0
 49
0.0
140
0.0
141
0.0
142
1.0
143
1.0
 70
1024
 72
0
 73
0
 74
0
  7

 75
0
147
1.0
148
0.0
149
0.0
100
AcDbLayout
  1
Model
 70
0
 71
0
 10
0.0
 20
0.0
 11
11.0
 21
8.5
 12
0.0
 22
0.0
 32
0.0
 14
0.0
 24
0.0
 34
0.0
 15
0.0
 25
0.0
 35
0.0
146
0.0
 13
0.0
 23
0.0
 33
0.0
 16
1.0
 26
0.0
 36
0.0
 17
0.0
 27
1.0
 37
0.0
 76
0
330
202
345
0
346
0
  0
LAYOUT
  5
316
102
{ACAD_REACTORS
330
1A
102
}
100
AcDbPlotSettings
  1

  2
none_device
  4
ANSI_A_(11.00_x_8.50_Inches)
  6

 40
0.0
 41
0.0
 42
0.0
 43
0.0
 44
279.4
 45
215.9
 46
0.0
 47
0.0
 48
0.0
 49
0.0
140
0.0
141
0.0
142
1.0
143
1.0
 70
0
 72
0
 73
0
 74
0
  7

 75
0
147
1.0
148
0.0
149
0.0
100
AcDbLayout
  1
Layout1
 70
0
 71
1
 10
0.0
 20
0.0
 11
11.0
 21
8.5
 12
0.0
 22
0.0
 32
0.0
 14
0.0
 24
0.0
 34
0.0
 15
0.0
 25
0.0
 35
0.0
146
0.0
 13
0.0
 23
0.0
 33
0.0
 16
1.0
 26
0.0
 36
0.0
 17
0.0
 27
1.0
 37
0.0
 76
0
330
203
345
0
346
0
  0
ENDSEC
  0
EOF
