999
DXF file: 2470-5203_top.dxf
999
Pro/ENGINEER 2018400 by Parametric Technology Corporation
  0
SECTION
  2
HEADER
  9
$ACADVER
  1
AC1027
  9
$DWGCODEPAGE
  3
ANSI_1252
  9
$EXTMAX
 10
11.0
 20
8.5
 30
0.0
  9
$EXTMIN
 10
0.0
 20
0.0
 30
0.0
  9
$LIMMIN
 10
0.0
 20
0.0
  9
$LIMMAX
 10
11.0
 20
8.5
  9
$VIEWCTR
 10
5.5
 20
4.25
  9
$VIEWSIZE
 40
8.5
  9
$CLAYER
  8
0
  9
$LTSCALE
 40
0.605
  9
$CELTYPE
  6
BYLAYER
  9
$DIMSCALE
 40
1.0
  9
$DIMASZ
 40
0.1
  9
$DIMEXO
 40
0.0625
  9
$DIMDLI
 40
0.418
  9
$DIMEXE
 40
0.125
  9
$DIMCEN
 40
0.099
  9
$DIMLFAC
 40
1.0
  9
$DIMBLK
  1
_FILLED
  9
$DIMALT
 70
1
  9
$DIMALTD
 70
1
  9
$DIMALTTD
 70
2
  9
$DIMALTF
 40
25.4
  9
$DIMTXT
 40
0.08
  9
$DIMTOL
 70
1
  9
$DIMLIM
 70
0
  9
$DIMTFAC
 40
1.0
  9
$DIMTP
 40
0.01
  9
$DIMTM
 40
0.01
  9
$DIMGAP
 40
0.09
  9
$DIMDSEP
 70
46
  9
$AUNITS
 70
0
  9
$PDMODE
 70
3
  9
$PDSIZE
 40
0.3125
  9
$HANDSEED
  5
2B2
  9
$TILEMODE
 70
1
  9
$MEASUREMENT
 70
0
  9
$INSUNITS
 70
1
  0
ENDSEC
  0
SECTION
  2
CLASSES
  0
CLASS
  1
ACDBDICTIONARYWDFLT
  2
AcDbDictionaryWithDefault
  3
AutoCAD 2000
 90
0
 91
1
280
0
281
0
  0
CLASS
  1
ACDBPLACEHOLDER
  2
AcDbPlaceHolder
  3
AutoCAD 2000
 90
0
 91
1
280
0
281
0
  0
CLASS
  1
LAYOUT
  2
AcDbLayout
  3
AutoCAD 2000
 90
0
 91
0
280
0
281
0
  0
ENDSEC
  0
SECTION
  2
TABLES
  0
TABLE
  2
VPORT
  5
8
100
AcDbSymbolTable
 70
2
  0
VPORT
  5
1F4
100
AcDbSymbolTableRecord
100
AcDbViewportTableRecord
  2
*ACTIVE
 70
0
 10
0.0
 20
0.0
 11
1.0
 21
1.0
 12
5.5
 22
4.25
 13
0.0
 23
0.0
 14
1.0
 24
1.0
 15
0.0
 25
0.0
 16
0.0
 26
0.0
 36
1.0
 17
0.0
 27
0.0
 37
0.0
 40
8.5
 41
1.2941176471
 42
50.0
 43
0.0
 44
0.0
 50
0.0
 51
0.0
 71
0
 72
100
 73
1
 74
1
 75
0
 76
0
 77
0
 78
0
  0
ENDTAB
  0
TABLE
  2
LTYPE
  5
5
100
AcDbSymbolTable
 70
6
  0
LTYPE
  5
14
100
AcDbSymbolTableRecord
100
AcDbLinetypeTableRecord
  2
BYBLOCK
 70
0
  3

 72
65
 73
0
 40
0.0
  0
LTYPE
  5
15
100
AcDbSymbolTableRecord
100
AcDbLinetypeTableRecord
  2
BYLAYER
 70
0
  3

 72
65
 73
0
 40
0.0
  0
LTYPE
  5
16
100
AcDbSymbolTableRecord
100
AcDbLinetypeTableRecord
  2
CONTINUOUS
 70
64
  3
Solid line
 72
65
 73
0
 40
0.0
  0
LTYPE
  5
1F5
100
AcDbSymbolTableRecord
100
AcDbLinetypeTableRecord
  2
CENTER
 70
64
  3
____ _ ____ _ ____ _ ____ _ ____ _ ____ _ ____
 72
65
 73
4
 40
0.6
 49
0.375
 74
0
 49
-0.075
 74
0
 49
0.075
 74
0
 49
-0.075
 74
0
  0
LTYPE
  5
1F6
100
AcDbSymbolTableRecord
100
AcDbLinetypeTableRecord
  2
HIDDEN
 70
64
  3
- - - - - - - - - - - - - - - - - - - -
 72
65
 73
2
 40
0.2
 49
0.1
 74
0
 49
-0.1
 74
0
  0
LTYPE
  5
1F7
100
AcDbSymbolTableRecord
100
AcDbLinetypeTableRecord
  2
PHANTOM
 70
64
  3
_____ _ _ _____ _ _ _____ _ _ _____
 72
65
 73
6
 40
0.8
 49
0.45
 74
0
 49
-0.05
 74
0
 49
0.1
 74
0
 49
-0.05
 74
0
 49
0.1
 74
0
 49
-0.05
 74
0
  0
LTYPE
  5
1F8
100
AcDbSymbolTableRecord
100
AcDbLinetypeTableRecord
  2
DOT
 70
64
  3
. . . . . . . . . . . . . . . . . . . .
 72
65
 73
2
 40
0.2
 49
0.1
 74
0
 49
-0.1
 74
0
  0
LTYPE
  5
1F9
100
AcDbSymbolTableRecord
100
AcDbLinetypeTableRecord
  2
DASHED
 70
64
  3
- - - - - - - - - - - - - - - - - - - -
 72
65
 73
2
 40
0.2
 49
0.1
 74
0
 49
-0.1
 74
0
  0
ENDTAB
  0
TABLE
  2
LAYER
  5
2
100
AcDbSymbolTable
 70
36
  0
LAYER
  5
10
100
AcDbSymbolTableRecord
100
AcDbLayerTableRecord
  2
0
 70
0
 62
7
  6
CONTINUOUS
370
-3
390
F
  0
LAYER
  5
1FA
100
AcDbSymbolTableRecord
100
AcDbLayerTableRecord
  2
DEFAULT_1
 70
0
 62
7
  6
CENTER
370
-3
390
F
  0
LAYER
  5
1FB
100
AcDbSymbolTableRecord
100
AcDbLayerTableRecord
  2
DEFAULT_2
 70
0
 62
8
  6
HIDDEN
370
-3
390
F
  0
LAYER
  5
1FC
100
AcDbSymbolTableRecord
100
AcDbLayerTableRecord
  2
DEFAULT_3
 70
0
 62
7
  6
PHANTOM
370
-3
390
F
  0
LAYER
  5
1FD
100
AcDbSymbolTableRecord
100
AcDbLayerTableRecord
  2
DEFAULT_COORDINATE_SYSTEM
 70
0
 62
7
  6
CONTINUOUS
370
-3
390
F
  0
LAYER
  5
1FE
100
AcDbSymbolTableRecord
100
AcDbLayerTableRecord
  2
DEFAULT_DATUM_AXES
 70
0
 62
7
  6
CONTINUOUS
370
-3
390
F
  0
LAYER
  5
1FF
100
AcDbSymbolTableRecord
100
AcDbLayerTableRecord
  2
DEFAULT_DATUM_PLANES
 70
0
 62
7
  6
CONTINUOUS
370
-3
390
F
  0
ENDTAB
  0
TABLE
  2
STYLE
  5
3
100
AcDbSymbolTable
 70
1
  0
STYLE
  5
11
100
AcDbSymbolTableRecord
100
AcDbTextStyleTableRecord
  2
STANDARD
 70
0
 40
0.0
 41
0.8
 50
0.0
 71
0
 42
0.2
  3
txt
  4

  0
STYLE
  5
200
100
AcDbSymbolTableRecord
100
AcDbTextStyleTableRecord
  2
TEXTSTYLE_1
 70
0
 40
0.0
 41
0.8
 50
0.0
 71
0
 42
0.2
  3
gdt
  4

  0
ENDTAB
  0
TABLE
  2
VIEW
  5
6
100
AcDbSymbolTable
 70
0
  0
ENDTAB
  0
TABLE
  2
UCS
  5
7
100
AcDbSymbolTable
 70
0
  0
ENDTAB
  0
TABLE
  2
APPID
  5
9
100
AcDbSymbolTable
 70
1
  0
APPID
  5
201
100
AcDbSymbolTableRecord
100
AcDbRegAppTableRecord
  2
ACAD
 70
0
  0
ENDTAB
  0
TABLE
  2
BLOCK_RECORD
  5
1
100
AcDbSymbolTable
 70
0
  0
BLOCK_RECORD
  5
202
100
AcDbSymbolTableRecord
100
AcDbBlockTableRecord
  2
*Model_Space
  0
BLOCK_RECORD
  5
203
100
AcDbSymbolTableRecord
100
AcDbBlockTableRecord
  2
*Paper_Space
  0
BLOCK_RECORD
  5
204
100
AcDbSymbolTableRecord
100
AcDbBlockTableRecord
  2
_FILLED
  0
ENDTAB
  0
TABLE
  2
DIMSTYLE
  5
A
100
AcDbSymbolTable
 70
1
100
AcDbDimStyleTable
 71
0
  0
DIMSTYLE
105
205
100
AcDbSymbolTableRecord
100
AcDbDimStyleTableRecord
  2
STANDARD
 70
0
  3

  4

 40
1.0
 41
0.1
 42
0.0625
 43
0.38
 44
0.125
 45
0.0
 46
0.0
 47
0.01
 48
0.01
140
0.08
141
0.09
142
0.0
143
25.4
144
1.0
145
0.0
146
1.0
147
0.09
 71
1.0
 72
0.0
 73
1
 74
1
 75
0
 76
0
 77
0
 78
4
 79
1
170
1
171
1
172
0
173
0
174
0
175
0
176
0
177
0
178
0
270
2
179
2
271
2
272
2
273
2
274
2
275
0
280
0
281
0
282
0
283
1
284
4
285
0
286
0
287
3
288
0
340
11
278
46
341
204
342
204
343
204
344
204
  0
ENDTAB
  0
ENDSEC
  0
SECTION
  2
BLOCKS
  0
BLOCK
  5
20
100
AcDbEntity
  8
0
100
AcDbBlockBegin
  2
*Model_Space
 70
0
 10
0.0
 20
0.0
 30
0.0
  3
*Model_Space
  1

  0
ENDBLK
  5
21
100
AcDbEntity
  8
0
100
AcDbBlockEnd
  0
BLOCK
  5
1C
100
AcDbEntity
  8
0
100
AcDbBlockBegin
  2
*Paper_Space
 70
0
 10
0.0
 20
0.0
 30
0.0
  3
*Paper_Space
  1

  0
ENDBLK
  5
1D
100
AcDbEntity
  8
0
100
AcDbBlockEnd
  0
BLOCK
  5
206
100
AcDbEntity
  8
0
100
AcDbBlockBegin
  2
_FILLED
 70
64
 10
0.0
 20
0.0
  3
_FILLED
  1

  0
SOLID
  5
207
100
AcDbEntity
  8
0
  6
BYBLOCK
 62
0
100
AcDbTrace
 10
0.0
 20
0.0
 11
-1.0
 21
0.2
 12
-1.0
 22
-0.2
 13
-1.0
 23
-0.2
  0
ENDBLK
  5
208
100
AcDbEntity
  8
0
  6
BYBLOCK
 62
0
100
AcDbBlockEnd
  0
ENDSEC
  0
SECTION
  2
ENTITIES
  0
MTEXT
  5
209
100
AcDbEntity
  8
0
100
AcDbMText
 62
2
  6
CONTINUOUS
  7
STANDARD
 71
3
 72
1
 10
4.9119953416
 20
1.524754796
 30
0.0
 11
1.0
 21
0.0
 31
0.0
 73
2
 44
0.9
  1
SCALE  .500
 40
0.08
 41
0.704
  0
LINE
  5
20A
100
AcDbEntity
  8
0
100
AcDbLine
 62
7
  6
CONTINUOUS
 10
0.0
 20
0.0
 11
0.0
 21
8.5
  0
LINE
  5
20B
100
AcDbEntity
  8
0
100
AcDbLine
 62
7
  6
CONTINUOUS
 10
0.0
 20
0.0
 11
11.0
 21
0.0
  0
LINE
  5
20C
100
AcDbEntity
  8
0
100
AcDbLine
 62
7
  6
CONTINUOUS
 10
0.0
 20
8.5
 11
11.0
 21
8.5
  0
LINE
  5
20D
100
AcDbEntity
  8
0
100
AcDbLine
 62
7
  6
CONTINUOUS
 10
11.0
 20
0.0
 11
11.0
 21
8.5
  0
LINE
  5
20E
100
AcDbEntity
  8
0
100
AcDbLine
 62
7
  6
CONTINUOUS
 10
4.190213196
 20
5.365674597
 11
4.190213196
 21
5.369174597
  0
LINE
  5
20F
100
AcDbEntity
  8
0
100
AcDbLine
 62
7
  6
CONTINUOUS
 10
4.235963196
 20
4.868174597
 11
4.235963196
 21
4.8763416687
  0
LINE
  5
210
100
AcDbEntity
  8
0
100
AcDbLine
 62
7
  6
CONTINUOUS
 10
4.300963196
 20
4.814174597
 11
4.300963196
 21
2.4331622985
  0
LINE
  5
211
100
AcDbEntity
  8
0
100
AcDbLine
 62
7
  6
CONTINUOUS
 10
4.735963196
 20
4.814174597
 11
4.735963196
 21
2.4331622985
  0
LINE
  5
212
100
AcDbEntity
  8
0
100
AcDbLine
 62
7
  6
CONTINUOUS
 10
4.800963196
 20
4.868174597
 11
4.800963196
 21
4.8763416687
  0
LINE
  5
213
100
AcDbEntity
  8
0
100
AcDbLine
 62
7
  6
CONTINUOUS
 10
4.846713196
 20
5.365674597
 11
4.846713196
 21
5.369174597
  0
LINE
  5
214
100
AcDbEntity
  8
0
100
AcDbLine
 62
7
  6
CONTINUOUS
 10
5.320713196
 20
6.2763959103
 11
5.320713196
 21
5.2863960977
  0
LINE
  5
215
100
AcDbEntity
  8
0
100
AcDbLine
 62
7
  6
CONTINUOUS
 10
5.3591960259
 20
5.2653433724
 11
5.3591960259
 21
6.2974486356
  0
LINE
  5
216
100
AcDbEntity
  8
0
100
AcDbLine
 62
7
  6
CONTINUOUS
 10
5.3969479498
 20
5.276396004
 11
5.3969479498
 21
6.286396004
  0
LINE
  5
217
100
AcDbEntity
  8
0
100
AcDbLine
 62
7
  6
CONTINUOUS
 10
5.420713196
 20
5.276396004
 11
5.420713196
 21
6.286396004
  0
LINE
  5
218
100
AcDbEntity
  8
0
100
AcDbLine
 62
7
  6
CONTINUOUS
 10
5.6507994314
 20
6.2309350171
 11
5.6507994314
 21
5.331856991
  0
LINE
  5
219
100
AcDbEntity
  8
0
100
AcDbLine
 62
7
  6
CONTINUOUS
 10
5.6997063216
 20
6.2253464545
 11
5.6997063216
 21
5.3374455535
  0
LINE
  5
21A
100
AcDbEntity
  8
0
100
AcDbLine
 62
7
  6
CONTINUOUS
 10
5.743213196
 20
5.371396004
 11
5.743213196
 21
6.191396004
  0
LINE
  5
21B
100
AcDbEntity
  8
0
100
AcDbLine
 62
7
  6
CONTINUOUS
 10
5.7548665523
 20
5.4027582689
 11
5.7548665523
 21
6.1600337391
  0
LINE
  5
21C
100
AcDbEntity
  8
0
100
AcDbLine
 62
7
  6
CONTINUOUS
 10
5.8917296319
 20
5.9553441895
 11
5.8917648812
 21
5.9558951584
  0
LINE
  5
21D
100
AcDbEntity
  8
0
100
AcDbLine
 62
7
  6
CONTINUOUS
 10
5.8917648812
 20
5.9558951584
 11
5.8917982697
 21
5.9563760712
  0
LINE
  5
21E
100
AcDbEntity
  8
0
100
AcDbLine
 62
7
  6
CONTINUOUS
 10
5.8917982697
 20
5.9563760712
 11
5.8918219406
 21
5.9566924377
  0
LINE
  5
21F
100
AcDbEntity
  8
0
100
AcDbLine
 62
7
  6
CONTINUOUS
 10
5.8918219406
 20
5.9566924377
 11
5.8918442962
 21
5.9569720295
  0
LINE
  5
220
100
AcDbEntity
  8
0
100
AcDbLine
 62
7
  6
CONTINUOUS
 10
5.8918442962
 20
5.9569720295
 11
5.8918651728
 21
5.9572157388
  0
LINE
  5
221
100
AcDbEntity
  8
0
100
AcDbLine
 62
7
  6
CONTINUOUS
 10
5.8918651728
 20
5.9572157388
 11
5.8918781691
 21
5.9573586337
  0
LINE
  5
222
100
AcDbEntity
  8
0
100
AcDbLine
 62
7
  6
CONTINUOUS
 10
5.8918781691
 20
5.9573586337
 11
5.8918903325
 21
5.9574859529
  0
LINE
  5
223
100
AcDbEntity
  8
0
100
AcDbLine
 62
7
  6
CONTINUOUS
 10
5.8918903325
 20
5.9574859529
 11
5.8919015781
 21
5.9575978529
  0
LINE
  5
224
100
AcDbEntity
  8
0
100
AcDbLine
 62
7
  6
CONTINUOUS
 10
5.8919015781
 20
5.9575978529
 11
5.8919117902
 21
5.9576942997
  0
LINE
  5
225
100
AcDbEntity
  8
0
100
AcDbLine
 62
7
  6
CONTINUOUS
 10
5.8919117902
 20
5.9576942997
 11
5.8919208098
 21
5.9577750188
  0
LINE
  5
226
100
AcDbEntity
  8
0
100
AcDbLine
 62
7
  6
CONTINUOUS
 10
5.8919208098
 20
5.9577750188
 11
5.8919284815
 21
5.9578399652
  0
LWPOLYLINE
  5
227
100
AcDbEntity
  8
0
100
AcDbPolyline
 62
7
  6
CONTINUOUS
 90
3
 70
0
 10
5.8919284815
 20
5.9578399652
 10
5.8919345897
 20
5.9578887972
 10
5.8919369705
 20
5.957906985
  0
LINE
  5
228
100
AcDbEntity
  8
0
100
AcDbLine
 62
7
  6
CONTINUOUS
 10
4.735963196
 20
4.814174597
 11
4.300963196
 21
4.814174597
  0
LINE
  5
229
100
AcDbEntity
  8
0
100
AcDbLine
 62
7
  6
CONTINUOUS
 10
4.761963196
 20
4.829174597
 11
4.274963196
 21
4.829174597
  0
LINE
  5
22A
100
AcDbEntity
  8
0
100
AcDbLine
 62
7
  6
CONTINUOUS
 10
4.800963196
 20
4.868174597
 11
4.235963196
 21
4.868174597
  0
LINE
  5
22B
100
AcDbEntity
  8
0
100
AcDbLine
 62
7
  6
CONTINUOUS
 10
4.800963196
 20
4.8763416687
 11
4.235963196
 21
4.8763416687
  0
LINE
  5
22C
100
AcDbEntity
  8
0
100
AcDbLine
 62
7
  6
CONTINUOUS
 10
4.792797688
 20
4.9002212437
 11
4.244128704
 21
4.9002212437
  0
LINE
  5
22D
100
AcDbEntity
  8
0
100
AcDbLine
 62
7
  6
CONTINUOUS
 10
4.778304811
 20
4.9383053891
 11
4.258621581
 21
4.9383053891
  0
LINE
  5
22E
100
AcDbEntity
  8
0
100
AcDbLine
 62
7
  6
CONTINUOUS
 10
5.891578175
 20
5.6103135007
 11
5.8915085966
 21
5.6119023594
  0
LINE
  5
22F
100
AcDbEntity
  8
0
100
AcDbLine
 62
7
  6
CONTINUOUS
 10
5.8915085966
 20
5.6119023594
 11
5.8914278369
 21
5.613967372
  0
LINE
  5
230
100
AcDbEntity
  8
0
100
AcDbLine
 62
7
  6
CONTINUOUS
 10
5.8914278369
 20
5.613967372
 11
5.8913251472
 21
5.6169473218
  0
LINE
  5
231
100
AcDbEntity
  8
0
100
AcDbLine
 62
7
  6
CONTINUOUS
 10
5.8913251472
 20
5.6169473218
 11
5.8911972812
 21
5.6212388475
  0
LINE
  5
232
100
AcDbEntity
  8
0
100
AcDbLine
 62
7
  6
CONTINUOUS
 10
5.8911972812
 20
5.6212388475
 11
5.8910409413
 21
5.6274339412
  0
LINE
  5
233
100
AcDbEntity
  8
0
100
AcDbLine
 62
7
  6
CONTINUOUS
 10
5.8910409413
 20
5.6274339412
 11
5.890888389
 21
5.6346008831
  0
LINE
  5
234
100
AcDbEntity
  8
0
100
AcDbLine
 62
7
  6
CONTINUOUS
 10
5.890888389
 20
5.6346008831
 11
5.8907329728
 21
5.6432172912
  0
LINE
  5
235
100
AcDbEntity
  8
0
100
AcDbLine
 62
7
  6
CONTINUOUS
 10
5.8907329728
 20
5.6432172912
 11
5.8906555259
 21
5.6480857922
  0
LINE
  5
236
100
AcDbEntity
  8
0
100
AcDbLine
 62
7
  6
CONTINUOUS
 10
5.8906555308
 20
5.9147062233
 11
5.8908067719
 21
5.9238467938
  0
LINE
  5
237
100
AcDbEntity
  8
0
100
AcDbLine
 62
7
  6
CONTINUOUS
 10
5.8908067719
 20
5.9238467938
 11
5.8909583128
 21
5.9316225831
  0
LINE
  5
238
100
AcDbEntity
  8
0
100
AcDbLine
 62
7
  6
CONTINUOUS
 10
5.8909583128
 20
5.9316225831
 11
5.8911190414
 21
5.9385898792
  0
LINE
  5
239
100
AcDbEntity
  8
0
100
AcDbLine
 62
7
  6
CONTINUOUS
 10
5.8911190414
 20
5.9385898792
 11
5.8912626854
 21
5.9438311678
  0
LINE
  5
23A
100
AcDbEntity
  8
0
100
AcDbLine
 62
7
  6
CONTINUOUS
 10
5.8912626854
 20
5.9438311678
 11
5.8913781698
 21
5.947433598
  0
LINE
  5
23B
100
AcDbEntity
  8
0
100
AcDbLine
 62
7
  6
CONTINUOUS
 10
5.8913781698
 20
5.947433598
 11
5.8914673475
 21
5.9498648621
  0
LINE
  5
23C
100
AcDbEntity
  8
0
100
AcDbLine
 62
7
  6
CONTINUOUS
 10
5.8914673475
 20
5.9498648621
 11
5.8915425829
 21
5.9516874589
  0
LINE
  5
23D
100
AcDbEntity
  8
0
100
AcDbLine
 62
7
  6
CONTINUOUS
 10
5.8915425829
 20
5.9516874589
 11
5.8916046435
 21
5.9530376028
  0
LINE
  5
23E
100
AcDbEntity
  8
0
100
AcDbLine
 62
7
  6
CONTINUOUS
 10
5.8916046435
 20
5.9530376028
 11
5.8916543983
 21
5.9540215892
  0
LINE
  5
23F
100
AcDbEntity
  8
0
100
AcDbLine
 62
7
  6
CONTINUOUS
 10
5.8916543983
 20
5.9540215892
 11
5.8917021092
 21
5.9548834373
  0
LINE
  5
240
100
AcDbEntity
  8
0
100
AcDbLine
 62
7
  6
CONTINUOUS
 10
5.8917021092
 20
5.9548834373
 11
5.8917296319
 21
5.9553441895
  0
LINE
  5
241
100
AcDbEntity
  8
0
100
AcDbLine
 62
7
  6
CONTINUOUS
 10
5.8919147981
 20
5.6050703069
 11
5.8919056052
 21
5.6051555157
  0
LINE
  5
242
100
AcDbEntity
  8
0
100
AcDbLine
 62
7
  6
CONTINUOUS
 10
5.8919056052
 20
5.6051555157
 11
5.8918955189
 21
5.6052537377
  0
LINE
  5
243
100
AcDbEntity
  8
0
100
AcDbLine
 62
7
  6
CONTINUOUS
 10
5.8918955189
 20
5.6052537377
 11
5.891884659
 21
5.6053646591
  0
LINE
  5
244
100
AcDbEntity
  8
0
100
AcDbLine
 62
7
  6
CONTINUOUS
 10
5.891884659
 20
5.6053646591
 11
5.8918671125
 21
5.6055545219
  0
LINE
  5
245
100
AcDbEntity
  8
0
100
AcDbLine
 62
7
  6
CONTINUOUS
 10
5.8918671125
 20
5.6055545219
 11
5.8918482987
 21
5.6057719618
  0
LINE
  5
246
100
AcDbEntity
  8
0
100
AcDbLine
 62
7
  6
CONTINUOUS
 10
5.8918482987
 20
5.6057719618
 11
5.8918284283
 21
5.6060165272
  0
LINE
  5
247
100
AcDbEntity
  8
0
100
AcDbLine
 62
7
  6
CONTINUOUS
 10
5.8918284283
 20
5.6060165272
 11
5.8918076708
 21
5.6062878681
  0
LINE
  5
248
100
AcDbEntity
  8
0
100
AcDbLine
 62
7
  6
CONTINUOUS
 10
5.8918076708
 20
5.6062878681
 11
5.8917788411
 21
5.6066909441
  0
LINE
  5
249
100
AcDbEntity
  8
0
100
AcDbLine
 62
7
  6
CONTINUOUS
 10
5.8917788411
 20
5.6066909441
 11
5.8917488959
 21
5.6071412937
  0
LINE
  5
24A
100
AcDbEntity
  8
0
100
AcDbLine
 62
7
  6
CONTINUOUS
 10
5.8917488959
 20
5.6071412937
 11
5.8917101262
 21
5.6077716447
  0
LINE
  5
24B
100
AcDbEntity
  8
0
100
AcDbLine
 62
7
  6
CONTINUOUS
 10
5.8917101262
 20
5.6077716447
 11
5.8916700741
 21
5.6084784559
  0
LINE
  5
24C
100
AcDbEntity
  8
0
100
AcDbLine
 62
7
  6
CONTINUOUS
 10
5.8916700741
 20
5.6084784559
 11
5.8916205401
 21
5.6094305766
  0
LINE
  5
24D
100
AcDbEntity
  8
0
100
AcDbLine
 62
7
  6
CONTINUOUS
 10
5.8916205401
 20
5.6094305766
 11
5.891578175
 21
5.6103135007
  0
LINE
  5
24E
100
AcDbEntity
  8
0
100
AcDbLine
 62
7
  6
CONTINUOUS
 10
5.420713196
 20
5.276396004
 11
5.3969479498
 21
5.276396004
  0
LINE
  5
24F
100
AcDbEntity
  8
0
100
AcDbLine
 62
7
  6
CONTINUOUS
 10
4.2400905386
 20
5.2856024283
 11
4.7968358533
 21
5.2856024283
  0
LINE
  5
250
100
AcDbEntity
  8
0
100
AcDbLine
 62
7
  6
CONTINUOUS
 10
5.8919411063
 20
5.6048551011
 11
5.8919404717
 21
5.604859496
  0
LINE
  5
251
100
AcDbEntity
  8
0
100
AcDbLine
 62
7
  6
CONTINUOUS
 10
5.8919392626
 20
5.6048681211
 11
5.8919354271
 21
5.6048967748
  0
LINE
  5
252
100
AcDbEntity
  8
0
100
AcDbLine
 62
7
  6
CONTINUOUS
 10
5.8919354271
 20
5.6048967748
 11
5.8919298924
 21
5.6049405311
  0
LINE
  5
253
100
AcDbEntity
  8
0
100
AcDbLine
 62
7
  6
CONTINUOUS
 10
5.8919298924
 20
5.6049405311
 11
5.8919229447
 21
5.6049985611
  0
LINE
  5
254
100
AcDbEntity
  8
0
100
AcDbLine
 62
7
  6
CONTINUOUS
 10
5.8919229447
 20
5.6049985611
 11
5.8919147981
 21
5.6050703069
  0
LINE
  5
255
100
AcDbEntity
  8
0
100
AcDbLine
 62
7
  6
CONTINUOUS
 10
4.2084413422
 20
5.3326665664
 11
4.8284850498
 21
5.3326665664
  0
LINE
  5
256
100
AcDbEntity
  8
0
100
AcDbLine
 62
7
  6
CONTINUOUS
 10
4.846713196
 20
5.365674597
 11
4.190213196
 21
5.365674597
  0
LINE
  5
257
100
AcDbEntity
  8
0
100
AcDbLine
 62
7
  6
CONTINUOUS
 10
4.846713196
 20
5.369174597
 11
4.190213196
 21
5.369174597
  0
LINE
  5
258
100
AcDbEntity
  8
0
100
AcDbLine
 62
7
  6
CONTINUOUS
 10
4.8276781836
 20
5.4026768249
 11
4.2092482083
 21
5.4026768249
  0
LINE
  5
259
100
AcDbEntity
  8
0
100
AcDbLine
 62
7
  6
CONTINUOUS
 10
4.8255360024
 20
5.4269001767
 11
4.2113903895
 21
5.4269001768
  0
LWPOLYLINE
  5
25A
100
AcDbEntity
  8
0
100
AcDbPolyline
 62
7
  6
CONTINUOUS
 90
8
 70
0
 10
5.1433956761
 20
5.3384074193
 10
5.1671818917
 20
5.3371854154
 10
5.191741382
 20
5.3360715351
 10
5.2170642712
 20
5.3350702767
 10
5.24315488
 20
5.334185536
 10
5.2700193882
 20
5.3334209698
 10
5.2976595159
 20
5.3327786568
 10
5.320713196
 20
5.3323471875
  0
LWPOLYLINE
  5
25B
100
AcDbEntity
  8
0
100
AcDbPolyline
 62
7
  6
CONTINUOUS
 90
47
 70
0
 10
4.8466128775
 20
5.3719140681
 10
4.8472642437
 20
5.3717754973
 10
4.852097802
 20
5.3707723091
 10
4.8569912576
 20
5.3697817042
 10
4.861943704
 20
5.3688040547
 10
4.8669576727
 20
5.3678390244
 10
4.8720335803
 20
5.3668866793
 10
4.8771709168
 20
5.3659472199
 10
4.8823708299
 20
5.3650205029
 10
4.8876332682
 20
5.3641065676
 10
4.8929581783
 20
5.3632054065
 10
4.898346704
 20
5.3623167687
 10
4.9037988144
 20
5.3614406204
 10
4.9093144223
 20
5.360577176
 10
4.9148945812
 20
5.3597265333
 10
4.9205396647
 20
5.3588888821
 10
4.9262491769
 20
5.3580645166
 10
4.9320228685
 20
5.3572536626
 10
4.9378616105
 20
5.3564563636
 10
4.9437644148
 20
5.3556728918
 10
4.9497282524
 20
5.3549037341
 10
4.9557532163
 20
5.3541489176
 10
4.9618391016
 20
5.3534084768
 10
4.9679824421
 20
5.3526827915
 10
4.9741832188
 20
5.3519717731
 10
4.9804413548
 20
5.3512752694
 10
4.9867533151
 20
5.3505933864
 10
4.9931191005
 20
5.3499257732
 10
4.9995386602
 20
5.3492720457
 10
5.0060083936
 20
5.3486321262
 10
5.0125271949
 20
5.3480056229
 10
5.0190961455
 20
5.3473919598
 10
5.0257149346
 20
5.3467907384
 10
5.0323776205
 20
5.3462020187
 10
5.0390901598
 20
5.3456247626
 10
5.0458700958
 20
5.345056996
 10
5.052715306
 20
5.3444985292
 10
5.0596272483
 20
5.3439493236
 10
5.0666288063
 20
5.3434078785
 10
5.0737189449
 20
5.3428746631
 10
5.0808969705
 20
5.3423501147
 10
5.0881861904
 20
5.3418329897
 10
5.0955853131
 20
5.3413239118
 10
5.1030934822
 20
5.3408234679
 10
5.1107344865
 20
5.3403306771
 10
5.1185070659
 20
5.3398463023
 10
5.1433956761
 20
5.3384074193
  0
LINE
  5
25C
100
AcDbEntity
  8
0
100
AcDbLine
 62
7
  6
CONTINUOUS
 10
6.3144254469
 20
5.6712709569
 11
6.3144254469
 21
5.6958149273
  0
LINE
  5
25D
100
AcDbEntity
  8
0
100
AcDbLine
 62
7
  6
CONTINUOUS
 10
6.3144254469
 20
5.8669770807
 11
6.3144254469
 21
5.8915210512
  0
LINE
  5
25E
100
AcDbEntity
  8
0
100
AcDbLine
 62
7
  6
CONTINUOUS
 10
6.3174025353
 20
5.6795668493
 11
6.3174025353
 21
5.7040596592
  0
LINE
  5
25F
100
AcDbEntity
  8
0
100
AcDbLine
 62
7
  6
CONTINUOUS
 10
6.3174025353
 20
5.8587323488
 11
6.3174025353
 21
5.8832251588
  0
LINE
  5
260
100
AcDbEntity
  8
0
100
AcDbLine
 62
7
  6
CONTINUOUS
 10
5.8916374118
 20
5.599035419
 11
5.8915940391
 21
5.5990348929
  0
LINE
  5
261
100
AcDbEntity
  8
0
100
AcDbLine
 62
7
  6
CONTINUOUS
 10
5.8909275964
 20
5.632646004
 11
5.9018824378
 21
5.632646004
  0
LINE
  5
262
100
AcDbEntity
  8
0
100
AcDbLine
 62
7
  6
CONTINUOUS
 10
5.320713196
 20
5.781396004
 11
4.9874479796
 21
5.781396004
  0
LINE
  5
263
100
AcDbEntity
  8
0
100
AcDbLine
 62
7
  6
CONTINUOUS
 10
5.8909275995
 20
5.930146004
 11
5.9018824378
 21
5.930146004
  0
LINE
  5
264
100
AcDbEntity
  8
0
100
AcDbLine
 62
7
  6
CONTINUOUS
 10
5.8915940391
 20
5.9637571151
 11
5.8916374118
 21
5.963756589
  0
LWPOLYLINE
  5
265
100
AcDbEntity
  8
0
100
AcDbPolyline
 62
7
  6
CONTINUOUS
 90
64
 70
0
 10
5.1124444035
 20
6.2225709912
 10
5.1055278593
 20
6.222128745
 10
5.098657605
 20
6.2216759835
 10
5.0918336408
 20
6.2212128468
 10
5.0850566972
 20
6.220739525
 10
5.0783275523
 20
6.2202562155
 10
5.0716462618
 20
6.2197630662
 10
5.0650134896
 20
6.2192602701
 10
5.0584299596
 20
6.2187480285
 10
5.0518958111
 20
6.2182264993
 10
5.0454116487
 20
6.2176958776
 10
5.0389779896
 20
6.2171561921
 10
5.0325945169
 20
6.216607029
 10
5.0262610615
 20
6.2160479586
 10
5.0199777968
 20
6.2154786122
 10
5.0137448658
 20
6.2148986504
 10
5.0075617638
 20
6.2143077013
 10
5.0014290269
 20
6.2137054755
 10
4.9953483682
 20
6.2130917703
 10
4.9893200221
 20
6.2124662741
 10
4.9833438098
 20
6.2118286672
 10
4.9774208327
 20
6.2111788035
 10
4.9715511768
 20
6.2105164668
 10
4.9657348334
 20
6.2098414885
 10
4.9599727785
 20
6.2091539109
 10
4.9542650859
 20
6.2084537115
 10
4.9486117914
 20
6.2077408885
 10
4.9430138244
 20
6.207015582
 10
4.9374714213
 20
6.2062778748
 10
4.9319844597
 20
6.2055278266
 10
4.926553339
 20
6.2047655913
 10
4.9211785683
 20
6.2039913664
 10
4.9158597546
 20
6.203205243
 10
4.9105959509
 20
6.2024072413
 10
4.9053872998
 20
6.2015975582
 10
4.9002337768
 20
6.2007763843
 10
4.8951341845
 20
6.1999437173
 10
4.8900885961
 20
6.1990995733
 10
4.8850970533
 20
6.1982438699
 10
4.8801583106
 20
6.1973763314
 10
4.8752724434
 20
6.1964969371
 10
4.8704394796
 20
6.1956056927
 10
4.8656581036
 20
6.194702381
 10
4.8609283113
 20
6.1937870492
 10
4.8562502011
 20
6.1928597954
 10
4.8516226146
 20
6.1919204914
 10
4.8470453873
 20
6.1909692238
 10
4.8425187669
 20
6.190006192
 10
4.8380422145
 20
6.1890314536
 10
4.8336158975
 20
6.18804524
 10
4.8292397151
 20
6.1870477487
 10
4.824912731
 20
6.1860390023
 10
4.820634913
 20
6.1850193773
 10
4.8164062591
 20
6.183989897
 10
4.8122258826
 20
6.1829515215
 10
4.8080936249
 20
6.1819053433
 10
4.8040094948
 20
6.1808524596
 10
4.7999728547
 20
6.1797937624
 10
4.7959840506
 20
6.1787303632
 10
4.7920425687
 20
6.1776631118
 10
4.788146482
 20
6.1765924262
 10
4.7842964348
 20
6.1755193854
 10
4.7804916065
 20
6.1744446323
 10
4.7762065089
 20
6.1732168265
  0
LINE
  5
266
100
AcDbEntity
  8
0
100
AcDbLine
 62
7
  6
CONTINUOUS
 10
5.1211500972
 20
6.2231084881
 11
5.1124444035
 21
6.2225709912
  0
LWPOLYLINE
  5
267
100
AcDbEntity
  8
0
100
AcDbPolyline
 62
7
  6
CONTINUOUS
 90
9
 70
0
 10
5.320713196
 20
6.2304466951
 10
5.2945883874
 20
6.2299512801
 10
5.2673611213
 20
6.2293045995
 10
5.2408775835
 20
6.2285381558
 10
5.2151352404
 20
6.2276538235
 10
5.1901287452
 20
6.2266550023
 10
5.1658565536
 20
6.2255452663
 10
5.142328586
 20
6.2243288314
 10
5.1211500972
 20
6.2231084881
  0
LINE
  5
268
100
AcDbEntity
  8
0
100
AcDbLine
 62
7
  6
CONTINUOUS
 10
5.420713196
 20
6.286396004
 11
5.3969479498
 21
6.286396004
  0
ARC
  5
269
100
AcDbEntity
  8
0
100
AcDbCircle
 62
7
  6
CONTINUOUS
 10
4.518463196
 20
2.4331622985
 40
0.2945805891
100
AcDbArc
 50
137.5900561725
 51
42.4099438276
  0
ARC
  5
26A
100
AcDbEntity
  8
0
100
AcDbCircle
 62
7
  6
CONTINUOUS
 10
4.518463196
 20
2.4331622985
 40
0.2545805891
100
AcDbArc
 50
148.690329654
 51
31.309670346
  0
ARC
  5
26B
100
AcDbEntity
  8
0
100
AcDbCircle
 62
7
  6
CONTINUOUS
 10
4.518463196
 20
2.4331622985
 40
0.2175
100
AcDbArc
 50
180.0
 51
360.0
  0
ARC
  5
26C
100
AcDbEntity
  8
0
100
AcDbCircle
 62
7
  6
CONTINUOUS
 10
2.8283473156
 20
5.0361318594
 40
1.4336158804
100
AcDbArc
 50
356.0872344213
 51
10.0213382993
  0
ARC
  5
26D
100
AcDbEntity
  8
0
100
AcDbCircle
 62
7
  6
CONTINUOUS
 10
4.1711585276
 20
5.2734213831
 40
0.07
100
AcDbArc
 50
10.0213382993
 51
57.8179170183
  0
ARC
  5
26E
100
AcDbEntity
  8
0
100
AcDbCircle
 62
7
  6
CONTINUOUS
 10
4.188784744
 20
4.9430820193
 40
0.07
100
AcDbArc
 50
322.2442378696
 51
356.0872344213
  0
ARC
  5
26F
100
AcDbEntity
  8
0
100
AcDbCircle
 62
7
  6
CONTINUOUS
 10
4.229213196
 20
5.365674597
 40
0.039
100
AcDbArc
 50
180.0
 51
237.8179170183
  0
ARC
  5
270
100
AcDbEntity
  8
0
100
AcDbCircle
 62
7
  6
CONTINUOUS
 10
4.229213196
 20
5.369174597
 40
0.039
100
AcDbArc
 50
120.791988891
 51
180.0
  0
ARC
  5
271
100
AcDbEntity
  8
0
100
AcDbCircle
 62
7
  6
CONTINUOUS
 10
4.2015693669
 20
5.4155622971
 40
0.015
100
AcDbArc
 50
300.791988891
 51
49.1001135168
  0
ARC
  5
272
100
AcDbEntity
  8
0
100
AcDbCircle
 62
7
  6
CONTINUOUS
 10
4.8657678643
 20
5.2734213831
 40
0.07
100
AcDbArc
 50
122.1820829817
 51
169.9786617007
  0
ARC
  5
273
100
AcDbEntity
  8
0
100
AcDbCircle
 62
7
  6
CONTINUOUS
 10
4.848141648
 20
4.9430820193
 40
0.07
100
AcDbArc
 50
183.9127655791
 51
217.7557621298
  0
ARC
  5
274
100
AcDbEntity
  8
0
100
AcDbCircle
 62
7
  6
CONTINUOUS
 10
5.682692573
 20
5.2695446525
 40
0.07
100
AcDbArc
 50
75.9331661451
 51
117.1045955712
  0
ARC
  5
275
100
AcDbEntity
  8
0
100
AcDbCircle
 62
7
  6
CONTINUOUS
 10
5.3969479498
 20
5.206396004
 40
0.07
100
AcDbArc
 50
90.0
 51
122.6368975036
  0
ARC
  5
276
100
AcDbEntity
  8
0
100
AcDbCircle
 62
7
  6
CONTINUOUS
 10
4.274963196
 20
4.868174597
 40
0.039
100
AcDbArc
 50
180.0
 51
270.0
  0
ARC
  5
277
100
AcDbEntity
  8
0
100
AcDbCircle
 62
7
  6
CONTINUOUS
 10
4.761963196
 20
4.868174597
 40
0.039
100
AcDbArc
 50
270.0
 51
360.0
  0
ARC
  5
278
100
AcDbEntity
  8
0
100
AcDbCircle
 62
7
  6
CONTINUOUS
 10
4.761963196
 20
4.8763416687
 40
0.039
100
AcDbArc
 50
0.0
 51
37.7557621298
  0
ARC
  5
279
100
AcDbEntity
  8
0
100
AcDbCircle
 62
7
  6
CONTINUOUS
 10
4.274963196
 20
4.8763416687
 40
0.039
100
AcDbArc
 50
142.2442378696
 51
180.0
  0
ARC
  5
27A
100
AcDbEntity
  8
0
100
AcDbCircle
 62
7
  6
CONTINUOUS
 10
4.807713196
 20
5.365674597
 40
0.039
100
AcDbArc
 50
302.1820829817
 51
360.0
  0
ARC
  5
27B
100
AcDbEntity
  8
0
100
AcDbCircle
 62
7
  6
CONTINUOUS
 10
4.807713196
 20
5.369174597
 40
0.039
100
AcDbArc
 50
0.0
 51
59.208011109
  0
ARC
  5
27C
100
AcDbEntity
  8
0
100
AcDbCircle
 62
7
  6
CONTINUOUS
 10
5.708213196
 20
5.371396004
 40
0.035
100
AcDbArc
 50
255.9331661451
 51
360.0
  0
ARC
  5
27D
100
AcDbEntity
  8
0
100
AcDbCircle
 62
7
  6
CONTINUOUS
 10
5.345713196
 20
5.286396004
 40
0.025
100
AcDbArc
 50
180.0
 51
302.6368975036
  0
ARC
  5
27E
100
AcDbEntity
  8
0
100
AcDbCircle
 62
7
  6
CONTINUOUS
 10
4.302213196
 20
4.829174597
 40
0.015
100
AcDbArc
 50
270.0
 51
360.0
  0
ARC
  5
27F
100
AcDbEntity
  8
0
100
AcDbCircle
 62
7
  6
CONTINUOUS
 10
4.734713196
 20
4.829174597
 40
0.015
100
AcDbArc
 50
180.0
 51
270.0
  0
ARC
  5
280
100
AcDbEntity
  8
0
100
AcDbCircle
 62
7
  6
CONTINUOUS
 10
4.835357025
 20
5.4155622971
 40
0.015
100
AcDbArc
 50
130.8998864832
 51
239.208011109
  0
ARC
  5
281
100
AcDbEntity
  8
0
100
AcDbCircle
 62
7
  6
CONTINUOUS
 10
4.518463196
 20
5.781396004
 40
0.6376826031
100
AcDbArc
 50
294.6667391304
 51
317.4786919276
  0
ARC
  5
282
100
AcDbEntity
  8
0
100
AcDbCircle
 62
7
  6
CONTINUOUS
 10
4.518463196
 20
5.781396004
 40
0.6376826031
100
AcDbArc
 50
42.5209626183
 51
245.3332608696
  0
ARC
  5
283
100
AcDbEntity
  8
0
100
AcDbCircle
 62
7
  6
CONTINUOUS
 10
4.518463196
 20
5.781396004
 40
0.6351104694
100
AcDbArc
 50
294.808803626
 51
317.3071737518
  0
ARC
  5
284
100
AcDbEntity
  8
0
100
AcDbCircle
 62
7
  6
CONTINUOUS
 10
4.518463196
 20
5.781396004
 40
0.6351104694
100
AcDbArc
 50
42.6923552499
 51
245.1911963867
  0
ARC
  5
285
100
AcDbEntity
  8
0
100
AcDbCircle
 62
7
  6
CONTINUOUS
 10
4.518463196
 20
5.781396004
 40
0.556085231
100
AcDbArc
 50
48.5889721874
 51
239.2857262254
  0
ARC
  5
286
100
AcDbEntity
  8
0
100
AcDbCircle
 62
7
  6
CONTINUOUS
 10
4.518463196
 20
5.781396004
 40
0.556085231
100
AcDbArc
 50
300.7142737894
 51
311.4105348045
  0
ARC
  5
287
100
AcDbEntity
  8
0
100
AcDbCircle
 62
7
  6
CONTINUOUS
 10
4.518463196
 20
5.781396004
 40
0.5547036324
100
AcDbArc
 50
300.9332937931
 51
311.294853492
  0
ARC
  5
288
100
AcDbEntity
  8
0
100
AcDbCircle
 62
7
  6
CONTINUOUS
 10
4.518463196
 20
5.781396004
 40
0.5547036324
100
AcDbArc
 50
48.7048537555
 51
239.0667062069
  0
ARC
  5
289
100
AcDbEntity
  8
0
100
AcDbCircle
 62
7
  6
CONTINUOUS
 10
4.518463196
 20
5.781396004
 40
0.536002877
100
AcDbArc
 50
307.6302589519
 51
309.7019442904
  0
ARC
  5
28A
100
AcDbEntity
  8
0
100
AcDbCircle
 62
7
  6
CONTINUOUS
 10
4.518463196
 20
5.781396004
 40
0.536002877
100
AcDbArc
 50
50.2979848587
 51
232.3697410472
  0
ARC
  5
28B
100
AcDbEntity
  8
0
100
AcDbCircle
 62
7
  6
CONTINUOUS
 10
4.518463196
 20
5.781396004
 40
0.5085522121
100
AcDbArc
 50
52.7738015289
 51
230.5626631611
  0
ARC
  5
28C
100
AcDbEntity
  8
0
100
AcDbCircle
 62
7
  6
CONTINUOUS
 10
5.420713196
 20
5.781396004
 40
0.505
100
AcDbArc
 50
270.0
 51
297.1045955712
  0
ARC
  5
28D
100
AcDbEntity
  8
0
100
AcDbCircle
 62
7
  6
CONTINUOUS
 10
5.420713196
 20
5.781396004
 40
0.505
100
AcDbArc
 50
62.8954044288
 51
90.0
  0
ARC
  5
28E
100
AcDbEntity
  8
0
100
AcDbCircle
 62
7
  6
CONTINUOUS
 10
5.420713196
 20
5.781396004
 40
0.505
100
AcDbArc
 50
311.4288753314
 51
338.8315511542
  0
ARC
  5
28F
100
AcDbEntity
  8
0
100
AcDbCircle
 62
7
  6
CONTINUOUS
 10
5.420713196
 20
5.781396004
 40
0.505
100
AcDbArc
 50
21.1684488458
 51
48.5711246686
  0
ARC
  5
290
100
AcDbEntity
  8
0
100
AcDbCircle
 62
7
  6
CONTINUOUS
 10
4.518463196
 20
5.781396004
 40
0.469
100
AcDbArc
 50
310.8998864831
 51
229.1001135168
  0
CIRCLE
  5
291
100
AcDbEntity
  8
0
100
AcDbCircle
 62
7
  6
CONTINUOUS
 10
4.518463196
 20
5.781396004
 40
0.29
  0
CIRCLE
  5
292
100
AcDbEntity
  8
0
100
AcDbCircle
 62
7
  6
CONTINUOUS
 10
4.518463196
 20
5.781396004
 40
0.2745150554
  0
CIRCLE
  5
293
100
AcDbEntity
  8
0
100
AcDbCircle
 62
7
  6
CONTINUOUS
 10
4.518463196
 20
5.781396004
 40
0.2514038967
  0
ARC
  5
294
100
AcDbEntity
  8
0
100
AcDbCircle
 62
7
  6
CONTINUOUS
 10
5.682692573
 20
6.2932473555
 40
0.07
100
AcDbArc
 50
242.8954044288
 51
284.0668338549
  0
ARC
  5
295
100
AcDbEntity
  8
0
100
AcDbCircle
 62
7
  6
CONTINUOUS
 10
5.3969479498
 20
6.356396004
 40
0.07
100
AcDbArc
 50
237.3631024964
 51
270.0
  0
ARC
  5
296
100
AcDbEntity
  8
0
100
AcDbCircle
 62
7
  6
CONTINUOUS
 10
5.708213196
 20
6.191396004
 40
0.035
100
AcDbArc
 50
0.0
 51
104.0668338549
  0
ARC
  5
297
100
AcDbEntity
  8
0
100
AcDbCircle
 62
7
  6
CONTINUOUS
 10
5.345713196
 20
6.276396004
 40
0.025
100
AcDbArc
 50
57.3631024964
 51
180.0
  0
ARC
  5
298
100
AcDbEntity
  8
0
100
AcDbCircle
 62
7
  6
CONTINUOUS
 10
8.6689821915
 20
4.8309899038
 40
2.5000019423
100
AcDbArc
 50
160.1578182568
 51
160.3598179824
  0
ARC
  5
299
100
AcDbEntity
  8
0
100
AcDbCircle
 62
7
  6
CONTINUOUS
 10
8.6689821907
 20
6.7318021057
 40
2.5000019421
100
AcDbArc
 50
199.6401820536
 51
199.8421817754
  0
ARC
  5
29A
100
AcDbEntity
  8
0
100
AcDbCircle
 62
7
  6
CONTINUOUS
 10
6.2085790764
 20
5.0361318594
 40
1.4336158804
100
AcDbArc
 50
169.9786617007
 51
183.9127655791
  0
ARC
  5
29B
100
AcDbEntity
  8
0
100
AcDbCircle
 62
7
  6
CONTINUOUS
 10
6.035213196
 20
5.781396004
 40
0.3
100
AcDbArc
 50
340.1578181461
 51
19.8421818539
  0
CIRCLE
  5
29C
100
AcDbEntity
  8
0
100
AcDbCircle
 62
7
  6
CONTINUOUS
 10
6.090213196
 20
5.781396004
 40
0.24
  0
CIRCLE
  5
29D
100
AcDbEntity
  8
0
100
AcDbCircle
 62
7
  6
CONTINUOUS
 10
6.090213196
 20
5.781396004
 40
0.2243253516
  0
CIRCLE
  5
29E
100
AcDbEntity
  8
0
100
AcDbCircle
 62
7
  6
CONTINUOUS
 10
6.090213196
 20
5.781396004
 40
0.2109184529
  0
ARC
  5
29F
100
AcDbEntity
  8
0
100
AcDbCircle
 62
7
  6
CONTINUOUS
 10
6.2720434584
 20
5.876396004
 40
0.045
100
AcDbArc
 50
19.6401819571
 51
70.6725032579
  0
ARC
  5
2A0
100
AcDbEntity
  8
0
100
AcDbCircle
 62
7
  6
CONTINUOUS
 10
6.2720434584
 20
5.686396004
 40
0.045
100
AcDbArc
 50
289.3274967316
 51
340.3598180429
  0
ARC
  5
2A1
100
AcDbEntity
  8
0
100
AcDbCircle
 62
7
  6
CONTINUOUS
 10
5.7780256958
 20
5.3765160496
 40
0.035
100
AcDbArc
 50
131.4288753314
 51
174.1182516541
  0
ARC
  5
2A2
100
AcDbEntity
  8
0
100
AcDbCircle
 62
7
  6
CONTINUOUS
 10
5.7780256958
 20
6.1862759584
 40
0.035
100
AcDbArc
 50
185.8817483459
 51
228.5711246686
  0
ARC
  5
2A3
100
AcDbEntity
  8
0
100
AcDbCircle
 62
7
  6
CONTINUOUS
 10
5.8822677367
 20
5.9601460128
 40
0.0100010034
100
AcDbArc
 50
344.1138937776
 51
21.166179184
  0
ARC
  5
2A4
100
AcDbEntity
  8
0
100
AcDbCircle
 62
7
  6
CONTINUOUS
 10
5.8822678907
 20
5.6026460058
 40
0.010000859
100
AcDbArc
 50
338.8334459173
 51
15.8848420102
  0
ARC
  5
2A5
100
AcDbEntity
  8
0
100
AcDbCircle
 62
7
  6
CONTINUOUS
 10
5.8823119801
 20
5.602646004
 40
0.01
100
AcDbArc
 50
338.8315511542
 51
17.199363908
  0
ARC
  5
2A6
100
AcDbEntity
  8
0
100
AcDbCircle
 62
7
  6
CONTINUOUS
 10
5.8823119801
 20
5.960146004
 40
0.01
100
AcDbArc
 50
342.8006921995
 51
21.1684488458
  0
SPLINE
  5
2A7
100
AcDbEntity
  8
0
100
AcDbSpline
 62
7
  6
CONTINUOUS
 70
0
 71
3
 72
13
 73
9
 74
0
 42
0.0000001
 43
0.0000001
 44
0.0000000001
 40
0.0
 40
0.0
 40
0.0
 40
0.0
 40
0.2470090329
 40
0.3711249543
 40
0.4957350099
 40
0.6209081879
 40
0.7466869435
 40
1.0
 40
1.0
 40
1.0
 40
1.0
 10
5.320713196
 20
6.2304464664
 30
0.0
 10
5.3042718466
 20
6.2301712887
 30
0.0
 10
5.2795706088
 20
6.2296563513
 30
0.0
 10
5.2465817562
 20
6.2287354103
 30
0.0
 10
5.2217043175
 20
6.2279145777
 30
0.0
 10
5.1967210251
 20
6.226955281
 30
0.0
 10
5.1631841269
 20
6.2254748139
 30
0.0
 10
5.1379826138
 20
6.2241272438
 30
0.0
 10
5.1211500972
 20
6.2231084881
 30
0.0
  0
SPLINE
  5
2A8
100
AcDbEntity
  8
0
100
AcDbSpline
 62
7
  6
CONTINUOUS
 70
0
 71
3
 72
13
 73
9
 74
0
 42
0.0000001
 43
0.0000001
 44
0.0000000001
 40
0.0
 40
0.0
 40
0.0
 40
0.0
 40
0.2470148203
 40
0.3711341238
 40
0.4957469496
 40
0.6209215796
 40
0.7466996194
 40
1.0
 40
1.0
 40
1.0
 40
1.0
 10
5.320713196
 20
5.3323474057
 30
0.0
 10
5.3042722996
 20
5.3326229224
 30
0.0
 10
5.2795717129
 20
5.3331383353
 30
0.0
 10
5.2465837478
 20
5.3340596671
 30
0.0
 10
5.2217070682
 20
5.3348806347
 30
0.0
 10
5.1967248069
 20
5.3358398645
 30
0.0
 10
5.1631903865
 20
5.3373198952
 30
0.0
 10
5.1379910102
 20
5.3386667475
 30
0.0
 10
5.1211601539
 20
5.3396848366
 30
0.0
  0
SPLINE
  5
2A9
100
AcDbEntity
  8
0
100
AcDbSpline
 62
7
  6
CONTINUOUS
 70
0
 71
3
 72
22
 73
18
 74
0
 42
0.0000001
 43
0.0000001
 44
0.0000000001
 40
0.0
 40
0.0
 40
0.0
 40
0.0
 40
0.1148443563
 40
0.1746132845
 40
0.23579653
 40
0.2982712268
 40
0.3619084101
 40
0.4265522933
 40
0.492039803
 40
0.5582078652
 40
0.6247849127
 40
0.6911959668
 40
0.7568138339
 40
0.8210163976
 40
0.8832278142
 40
0.942963228
 40
1.0
 40
1.0
 40
1.0
 40
1.0
 10
5.320713196
 20
5.6291115647
 30
0.0
 10
5.3067682325
 20
5.6293886346
 30
0.0
 10
5.2855619933
 20
5.6296362071
 30
0.0
 10
5.2569246359
 20
5.6296562631
 30
0.0
 10
5.2346479126
 20
5.6295112955
 30
0.0
 10
5.2119030451
 20
5.6292029317
 30
0.0
 10
5.1887406572
 20
5.6287280708
 30
0.0
 10
5.1652163168
 20
5.6280839846
 30
0.0
 10
5.1413897532
 20
5.6272679818
 30
0.0
 10
5.1173348048
 20
5.626277842
 30
0.0
 10
5.0931753051
 20
5.6251145718
 30
0.0
 10
5.069091461
 20
5.6237819923
 30
0.0
 10
5.045306145
 20
5.6222856423
 30
0.0
 10
5.0220426879
 20
5.6206295667
 30
0.0
 10
4.9995068318
 20
5.6188254287
 30
0.0
 10
4.9778560572
 20
5.6168835862
 30
0.0
 10
4.963743928
 20
5.6154761309
 30
0.0
 10
4.9568548581
 20
5.614751736
 30
0.0
  0
SPLINE
  5
2AA
100
AcDbEntity
  8
0
100
AcDbSpline
 62
7
  6
CONTINUOUS
 70
0
 71
3
 72
41
 73
37
 74
0
 42
0.0000001
 43
0.0000001
 44
0.0000000001
 40
0.0
 40
0.0
 40
0.0
 40
0.0
 40
0.0849207805
 40
0.169159464
 40
0.2108148797
 40
0.2520493702
 40
0.2927821391
 40
0.3329343435
 40
0.3724293884
 40
0.4111932822
 40
0.4491550169
 40
0.4862469636
 40
0.5224053034
 40
0.5575705001
 40
0.5916878256
 40
0.6247079287
 40
0.6565874868
 40
0.6872899558
 40
0.7167864392
 40
0.7450567076
 40
0.7720904094
 40
0.7978884744
 40
0.8224647627
 40
0.8458479816
 40
0.8680838534
 40
0.8787931086
 40
0.8892417613
 40
0.9093999074
 40
0.928673139
 40
0.9471969302
 40
0.9562303593
 40
0.9651384141
 40
0.9739445256
 40
0.9826731758
 40
0.9913496943
 40
1.0
 40
1.0
 40
1.0
 40
1.0
 10
4.518463196
 20
4.6591398169
 30
0.0
 10
4.5113555179
 20
4.6591398169
 30
0.0
 10
4.4971957327
 20
4.6588580145
 30
0.0
 10
4.4795776947
 20
4.6577994434
 30
0.0
 10
4.4656463974
 20
4.6565284092
 30
0.0
 10
4.4553634539
 20
4.6553721957
 30
0.0
 10
4.4452323814
 20
4.6540123992
 30
0.0
 10
4.4352775123
 20
4.6524522797
 30
0.0
 10
4.4255227971
 20
4.6506956088
 30
0.0
 10
4.415991686
 20
4.6487466226
 30
0.0
 10
4.406707088
 20
4.646610021
 30
0.0
 10
4.3976913107
 20
4.6442909533
 30
0.0
 10
4.3889660058
 20
4.6417950044
 30
0.0
 10
4.3805521143
 20
4.6391281802
 30
0.0
 10
4.3724698124
 20
4.6362968941
 30
0.0
 10
4.3647384625
 20
4.6333079435
 30
0.0
 10
4.3573765655
 20
4.630168489
 30
0.0
 10
4.3504017154
 20
4.6268860311
 30
0.0
 10
4.3438305558
 20
4.6234683824
 30
0.0
 10
4.3376787424
 20
4.6199236372
 30
0.0
 10
4.3319609
 20
4.6162601343
 30
0.0
 10
4.3266906256
 20
4.6124864393
 30
0.0
 10
4.3218803898
 20
4.6086112111
 30
0.0
 10
4.3175418556
 20
4.6046434714
 30
0.0
 10
4.3142881353
 20
4.6012252873
 30
0.0
 10
4.3119407169
 20
4.5984526958
 30
0.0
 10
4.309813954
 20
4.5957250168
 30
0.0
 10
4.3074549752
 20
4.5922733538
 30
0.0
 10
4.3050980741
 20
4.5880254213
 30
0.0
 10
4.3035500559
 20
4.5844157041
 30
0.0
 10
4.3025817844
 20
4.581519891
 30
0.0
 10
4.3019917696
 20
4.5793590296
 30
0.0
 10
4.3015324487
 20
4.5771927499
 30
0.0
 10
4.3012041158
 20
4.575022313
 30
0.0
 10
4.3010070376
 20
4.5728492031
 30
0.0
 10
4.300963196
 20
4.5713986082
 30
0.0
 10
4.300963196
 20
4.570674597
 30
0.0
  0
SPLINE
  5
2AB
100
AcDbEntity
  8
0
100
AcDbSpline
 62
7
  6
CONTINUOUS
 70
0
 71
3
 72
37
 73
33
 74
0
 42
0.0000001
 43
0.0000001
 44
0.0000000001
 40
0.0
 40
0.0
 40
0.0
 40
0.0
 40
0.1157306364
 40
0.2252682497
 40
0.3283703403
 40
0.4248018768
 40
0.5143419651
 40
0.5967924426
 40
0.6719732418
 40
0.7397057832
 40
0.7998418357
 40
0.8522545563
 40
0.8755251337
 40
0.8968203682
 40
0.9161302011
 40
0.93344494
 40
0.9487559501
 40
0.9620556382
 40
0.9733376828
 40
0.9782215296
 40
0.9826008601
 40
0.9864762572
 40
0.9898487816
 40
0.9927203175
 40
0.9950943499
 40
0.996977487
 40
0.9977391668
 40
0.9983846357
 40
0.9989191777
 40
0.9993521931
 40
0.9997014246
 40
1.0
 40
1.0
 40
1.0
 40
1.0
 10
5.8898896727
 20
5.9135712149
 30
0.0
 10
5.8899173736
 20
5.9155102427
 30
0.0
 10
5.8899738672
 20
5.9192845002
 30
0.0
 10
5.8900644911
 20
5.9247860518
 30
0.0
 10
5.8901583664
 20
5.9299641165
 30
0.0
 10
5.8902553759
 20
5.9348069752
 30
0.0
 10
5.8903554228
 20
5.9393036475
 30
0.0
 10
5.8904582046
 20
5.9434440726
 30
0.0
 10
5.890563142
 20
5.9472189011
 30
0.0
 10
5.8906703962
 20
5.9506195918
 30
0.0
 10
5.8907795924
 20
5.9536384898
 30
0.0
 10
5.8908749863
 20
5.9559123501
 30
0.0
 10
5.8909532017
 20
5.9575354802
 30
0.0
 10
5.891009856
 20
5.9586043087
 30
0.0
 10
5.8910667749
 20
5.9595731705
 30
0.0
 10
5.8911238904
 20
5.9604415545
 30
0.0
 10
5.8911811327
 20
5.96120898
 30
0.0
 10
5.8912384615
 20
5.9618749905
 30
0.0
 10
5.8912883059
 20
5.962366238
 30
0.0
 10
5.8913289789
 20
5.962708099
 30
0.0
 10
5.8913579981
 20
5.9629263413
 30
0.0
 10
5.8913869931
 20
5.9631190152
 30
0.0
 10
5.8914159445
 20
5.9632861066
 30
0.0
 10
5.8914447972
 20
5.9634276385
 30
0.0
 10
5.8914735344
 20
5.9635436129
 30
0.0
 10
5.8914987228
 20
5.9636239722
 30
0.0
 10
5.8915195635
 20
5.9636750529
 30
0.0
 10
5.8915340532
 20
5.9637042271
 30
0.0
 10
5.8915485385
 20
5.9637271282
 30
0.0
 10
5.8915631295
 20
5.9637438423
 30
0.0
 10
5.8915781166
 20
5.9637544699
 30
0.0
 10
5.8915890361
 20
5.9637571104
 30
0.0
 10
5.8915940391
 20
5.9637571151
 30
0.0
  0
SPLINE
  5
2AC
100
AcDbEntity
  8
0
100
AcDbSpline
 62
7
  6
CONTINUOUS
 70
0
 71
3
 72
41
 73
37
 74
0
 42
0.0000001
 43
0.0000001
 44
0.0000000001
 40
0.0
 40
0.0
 40
0.0
 40
0.0
 40
0.0849207805
 40
0.169159464
 40
0.2108148797
 40
0.2520493702
 40
0.2927821391
 40
0.3329343435
 40
0.3724293884
 40
0.4111932822
 40
0.4491550169
 40
0.4862469636
 40
0.5224053034
 40
0.5575705001
 40
0.5916878256
 40
0.6247079287
 40
0.6565874868
 40
0.6872899558
 40
0.7167864392
 40
0.7450567076
 40
0.7720904094
 40
0.7978884744
 40
0.8224647627
 40
0.8458479816
 40
0.8680838534
 40
0.8787931086
 40
0.8892417613
 40
0.9093999074
 40
0.928673139
 40
0.9471969302
 40
0.9562303593
 40
0.9651384141
 40
0.9739445256
 40
0.9826731758
 40
0.9913496943
 40
1.0
 40
1.0
 40
1.0
 40
1.0
 10
4.518463196
 20
3.3351409544
 30
0.0
 10
4.5113555179
 20
3.3351409544
 30
0.0
 10
4.4971957327
 20
3.334859152
 30
0.0
 10
4.4795776947
 20
3.3338005808
 30
0.0
 10
4.4656463974
 20
3.3325295467
 30
0.0
 10
4.4553634539
 20
3.3313733332
 30
0.0
 10
4.4452323814
 20
3.3300135366
 30
0.0
 10
4.4352775123
 20
3.3284534172
 30
0.0
 10
4.4255227971
 20
3.3266967463
 30
0.0
 10
4.415991686
 20
3.32474776
 30
0.0
 10
4.406707088
 20
3.3226111585
 30
0.0
 10
4.3976913107
 20
3.3202920908
 30
0.0
 10
4.3889660058
 20
3.3177961418
 30
0.0
 10
4.3805521143
 20
3.3151293176
 30
0.0
 10
4.3724698124
 20
3.3122980316
 30
0.0
 10
4.3647384625
 20
3.3093090809
 30
0.0
 10
4.3573765655
 20
3.3061696265
 30
0.0
 10
4.3504017154
 20
3.3028871686
 30
0.0
 10
4.3438305558
 20
3.2994695198
 30
0.0
 10
4.3376787424
 20
3.2959247747
 30
0.0
 10
4.3319609
 20
3.2922612718
 30
0.0
 10
4.3266906256
 20
3.2884875768
 30
0.0
 10
4.3218803898
 20
3.2846123486
 30
0.0
 10
4.3175418556
 20
3.2806446088
 30
0.0
 10
4.3142881353
 20
3.2772264247
 30
0.0
 10
4.3119407169
 20
3.2744538333
 30
0.0
 10
4.309813954
 20
3.2717261542
 30
0.0
 10
4.3074549752
 20
3.2682744912
 30
0.0
 10
4.3050980741
 20
3.2640265588
 30
0.0
 10
4.3035500559
 20
3.2604168415
 30
0.0
 10
4.3025817844
 20
3.2575210284
 30
0.0
 10
4.3019917696
 20
3.2553601671
 30
0.0
 10
4.3015324487
 20
3.2531938873
 30
0.0
 10
4.3012041158
 20
3.2510234505
 30
0.0
 10
4.3010070376
 20
3.2488503406
 30
0.0
 10
4.300963196
 20
3.2473997456
 30
0.0
 10
4.300963196
 20
3.2466757345
 30
0.0
  0
SPLINE
  5
2AD
100
AcDbEntity
  8
0
100
AcDbSpline
 62
7
  6
CONTINUOUS
 70
0
 71
3
 72
37
 73
33
 74
0
 42
0.0000001
 43
0.0000001
 44
0.0000000001
 40
0.0
 40
0.0
 40
0.0
 40
0.0
 40
0.0002985662
 40
0.0006478202
 40
0.0010809161
 40
0.0016155939
 40
0.0022612409
 40
0.0030231258
 40
0.0049066918
 40
0.0072810711
 40
0.0101527472
 40
0.0135251405
 40
0.0174001904
 40
0.0217790318
 40
0.0266623247
 40
0.0379433814
 40
0.0512425193
 40
0.0665533445
 40
0.0838681406
 40
0.1031781971
 40
0.1244738266
 40
0.1477449727
 40
0.2001588096
 40
0.2602949224
 40
0.3280265106
 40
0.4032065193
 40
0.4856579446
 40
0.5751983411
 40
0.6716290295
 40
0.7747312402
 40
0.8842696399
 40
1.0
 40
1.0
 40
1.0
 40
1.0
 10
5.8915940391
 20
5.5990348929
 30
0.0
 10
5.8915890362
 20
5.5990348974
 30
0.0
 10
5.8915781164
 20
5.5990375397
 30
0.0
 10
5.891563132
 20
5.5990481739
 30
0.0
 10
5.8915485449
 20
5.5990648967
 30
0.0
 10
5.8915340643
 20
5.5990878084
 30
0.0
 10
5.8915195797
 20
5.5991169947
 30
0.0
 10
5.8914987468
 20
5.5991680931
 30
0.0
 10
5.8914735678
 20
5.5992484721
 30
0.0
 10
5.8914448382
 20
5.5993644636
 30
0.0
 10
5.8914159879
 20
5.5995060016
 30
0.0
 10
5.8913870323
 20
5.5996730859
 30
0.0
 10
5.8913580291
 20
5.5998657416
 30
0.0
 10
5.891328999
 20
5.6000839582
 30
0.0
 10
5.8912883089
 20
5.6004257818
 30
0.0
 10
5.8912384456
 20
5.6009169908
 30
0.0
 10
5.8911811075
 20
5.6015829695
 30
0.0
 10
5.8911238622
 20
5.602350381
 30
0.0
 10
5.8910667483
 20
5.6032187641
 30
0.0
 10
5.8910098338
 20
5.6041876346
 30
0.0
 10
5.8909531876
 20
5.6052564802
 30
0.0
 10
5.8908749893
 20
5.606879641
 30
0.0
 10
5.8907796201
 20
5.6091535246
 30
0.0
 10
5.8906704212
 20
5.6121724169
 30
0.0
 10
5.8905631397
 20
5.6155730681
 30
0.0
 10
5.8904581722
 20
5.6193478709
 30
0.0
 10
5.8903554305
 20
5.6234882922
 30
0.0
 10
5.890255388
 20
5.6279849576
 30
0.0
 10
5.8901583415
 20
5.6328277937
 30
0.0
 10
5.890064471
 20
5.6380058437
 30
0.0
 10
5.8899738743
 20
5.6435073894
 30
0.0
 10
5.8899173794
 20
5.6472816439
 30
0.0
 10
5.8898896626
 20
5.6492206609
 30
0.0
  0
SPLINE
  5
2AE
100
AcDbEntity
  8
0
100
AcDbSpline
 62
7
  6
CONTINUOUS
 70
0
 71
3
 72
41
 73
37
 74
0
 42
0.0000001
 43
0.0000001
 44
0.0000000001
 40
0.0
 40
0.0
 40
0.0
 40
0.0
 40
0.0086503057
 40
0.0173268242
 40
0.0260554744
 40
0.0348615859
 40
0.0437696407
 40
0.0528030698
 40
0.071326861
 40
0.0906000926
 40
0.1107582387
 40
0.1212068914
 40
0.1319161466
 40
0.1541520184
 40
0.1775352373
 40
0.2021115256
 40
0.2279095906
 40
0.2549432924
 40
0.2832135608
 40
0.3127100442
 40
0.3434125132
 40
0.3752920713
 40
0.4083121744
 40
0.4424294999
 40
0.4775946966
 40
0.5137530364
 40
0.5508449831
 40
0.5888067178
 40
0.6275706116
 40
0.6670656565
 40
0.7072178609
 40
0.7479506298
 40
0.7891851203
 40
0.830840536
 40
0.9150792195
 40
1.0
 40
1.0
 40
1.0
 40
1.0
 10
4.735963196
 20
3.2466757345
 30
0.0
 10
4.735963196
 20
3.2473997456
 30
0.0
 10
4.7359193543
 20
3.2488503406
 30
0.0
 10
4.7357222762
 20
3.2510234505
 30
0.0
 10
4.7353939432
 20
3.2531938873
 30
0.0
 10
4.7349346223
 20
3.2553601671
 30
0.0
 10
4.7343446076
 20
3.2575210284
 30
0.0
 10
4.733376336
 20
3.2604168415
 30
0.0
 10
4.7318283179
 20
3.2640265588
 30
0.0
 10
4.7294714167
 20
3.2682744912
 30
0.0
 10
4.727112438
 20
3.2717261542
 30
0.0
 10
4.724985675
 20
3.2744538333
 30
0.0
 10
4.7226382567
 20
3.2772264247
 30
0.0
 10
4.7193845364
 20
3.2806446088
 30
0.0
 10
4.7150460021
 20
3.2846123486
 30
0.0
 10
4.7102357664
 20
3.2884875768
 30
0.0
 10
4.7049654919
 20
3.2922612718
 30
0.0
 10
4.6992476496
 20
3.2959247747
 30
0.0
 10
4.6930958362
 20
3.2994695198
 30
0.0
 10
4.6865246765
 20
3.3028871686
 30
0.0
 10
4.6795498265
 20
3.3061696265
 30
0.0
 10
4.6721879295
 20
3.3093090809
 30
0.0
 10
4.6644565795
 20
3.3122980316
 30
0.0
 10
4.6563742776
 20
3.3151293176
 30
0.0
 10
4.6479603861
 20
3.3177961418
 30
0.0
 10
4.6392350812
 20
3.3202920908
 30
0.0
 10
4.6302193039
 20
3.3226111585
 30
0.0
 10
4.620934706
 20
3.32474776
 30
0.0
 10
4.6114035949
 20
3.3266967463
 30
0.0
 10
4.6016488797
 20
3.3284534172
 30
0.0
 10
4.5916940106
 20
3.3300135366
 30
0.0
 10
4.5815629381
 20
3.3313733332
 30
0.0
 10
4.5712799945
 20
3.3325295467
 30
0.0
 10
4.5573486972
 20
3.3338005808
 30
0.0
 10
4.5397306592
 20
3.334859152
 30
0.0
 10
4.525570874
 20
3.3351409544
 30
0.0
 10
4.518463196
 20
3.3351409544
 30
0.0
  0
SPLINE
  5
2AF
100
AcDbEntity
  8
0
100
AcDbSpline
 62
7
  6
CONTINUOUS
 70
0
 71
3
 72
41
 73
37
 74
0
 42
0.0000001
 43
0.0000001
 44
0.0000000001
 40
0.0
 40
0.0
 40
0.0
 40
0.0
 40
0.0086503057
 40
0.0173268242
 40
0.0260554744
 40
0.0348615859
 40
0.0437696407
 40
0.0528030698
 40
0.071326861
 40
0.0906000926
 40
0.1107582387
 40
0.1212068914
 40
0.1319161466
 40
0.1541520184
 40
0.1775352373
 40
0.2021115256
 40
0.2279095906
 40
0.2549432924
 40
0.2832135608
 40
0.3127100442
 40
0.3434125132
 40
0.3752920713
 40
0.4083121744
 40
0.4424294999
 40
0.4775946966
 40
0.5137530364
 40
0.5508449831
 40
0.5888067178
 40
0.6275706116
 40
0.6670656565
 40
0.7072178609
 40
0.7479506298
 40
0.7891851203
 40
0.830840536
 40
0.9150792195
 40
1.0
 40
1.0
 40
1.0
 40
1.0
 10
4.735963196
 20
4.570674597
 30
0.0
 10
4.735963196
 20
4.5713986082
 30
0.0
 10
4.7359193543
 20
4.5728492031
 30
0.0
 10
4.7357222762
 20
4.575022313
 30
0.0
 10
4.7353939432
 20
4.5771927499
 30
0.0
 10
4.7349346223
 20
4.5793590296
 30
0.0
 10
4.7343446076
 20
4.581519891
 30
0.0
 10
4.733376336
 20
4.5844157041
 30
0.0
 10
4.7318283179
 20
4.5880254213
 30
0.0
 10
4.7294714167
 20
4.5922733538
 30
0.0
 10
4.727112438
 20
4.5957250168
 30
0.0
 10
4.724985675
 20
4.5984526958
 30
0.0
 10
4.7226382567
 20
4.6012252873
 30
0.0
 10
4.7193845364
 20
4.6046434714
 30
0.0
 10
4.7150460021
 20
4.6086112111
 30
0.0
 10
4.7102357664
 20
4.6124864393
 30
0.0
 10
4.7049654919
 20
4.6162601343
 30
0.0
 10
4.6992476496
 20
4.6199236372
 30
0.0
 10
4.6930958362
 20
4.6234683824
 30
0.0
 10
4.6865246765
 20
4.6268860311
 30
0.0
 10
4.6795498265
 20
4.630168489
 30
0.0
 10
4.6721879295
 20
4.6333079435
 30
0.0
 10
4.6644565795
 20
4.6362968941
 30
0.0
 10
4.6563742776
 20
4.6391281802
 30
0.0
 10
4.6479603861
 20
4.6417950044
 30
0.0
 10
4.6392350812
 20
4.6442909533
 30
0.0
 10
4.6302193039
 20
4.646610021
 30
0.0
 10
4.620934706
 20
4.6487466226
 30
0.0
 10
4.6114035949
 20
4.6506956088
 30
0.0
 10
4.6016488797
 20
4.6524522797
 30
0.0
 10
4.5916940106
 20
4.6540123992
 30
0.0
 10
4.5815629381
 20
4.6553721957
 30
0.0
 10
4.5712799945
 20
4.6565284092
 30
0.0
 10
4.5573486972
 20
4.6577994434
 30
0.0
 10
4.5397306592
 20
4.6588580145
 30
0.0
 10
4.525570874
 20
4.6591398169
 30
0.0
 10
4.518463196
 20
4.6591398169
 30
0.0
  0
ENDSEC
  0
SECTION
  2
OBJECTS
  0
DICTIONARY
  5
C
100
AcDbDictionary
280
0
281
1
  3
ACAD_GROUP
350
D
  3
ACAD_MLINESTYLE
350
17
  3
ACAD_LAYOUT
350
1A
  3
ACAD_PLOTSETTINGS
350
19
  3
ACAD_PLOTSTYLENAME
350
E
  0
DICTIONARY
  5
D
102
{ACAD_REACTORS
330
C
102
}
100
AcDbDictionary
280
0
281
1
  0
ACDBDICTIONARYWDFLT
  5
E
102
{ACAD_REACTORS
330
C
102
}
100
AcDbDictionary
281
1
  3
Normal
350
F
100
AcDbDictionaryWithDefault
340
F
  0
DICTIONARY
  5
17
102
{ACAD_REACTORS
330
C
102
}
100
AcDbDictionary
280
0
281
1
  3
Standard
350
18
  0
DICTIONARY
  5
19
102
{ACAD_REACTORS
330
C
102
}
100
AcDbDictionary
281
1
  0
DICTIONARY
  5
1A
102
{ACAD_REACTORS
330
C
102
}
100
AcDbDictionary
281
1
  3
Model
350
2B0
  3
Layout1
350
2B1
  0
ACDBPLACEHOLDER
  5
F
102
{ACAD_REACTORS
330
E
102
}
  0
MLINESTYLE
  5
18
102
{ACAD_REACTORS
330
17
102
}
100
AcDbMlineStyle
  2
STANDARD
 70
0
  3

 62
256
 51
90.0
 52
90.0
 71
2
 49
0.5
 62
256
  6
BYLAYER
 49
-0.5
 62
256
  6
BYLAYER
  0
LAYOUT
  5
2B0
102
{ACAD_REACTORS
330
1A
102
}
100
AcDbPlotSettings
  1

  2
none_device
  4
ANSI_A_(11.00_x_8.50_Inches)
  6

 40
0.0
 41
0.0
 42
0.0
 43
0.0
 44
279.4
 45
215.9
 46
0.0
 47
0.0
 48
0.0
 49
0.0
140
0.0
141
0.0
142
1.0
143
1.0
 70
1024
 72
0
 73
0
 74
0
  7

 75
0
147
1.0
148
0.0
149
0.0
100
AcDbLayout
  1
Model
 70
0
 71
0
 10
0.0
 20
0.0
 11
11.0
 21
8.5
 12
0.0
 22
0.0
 32
0.0
 14
0.0
 24
0.0
 34
0.0
 15
0.0
 25
0.0
 35
0.0
146
0.0
 13
0.0
 23
0.0
 33
0.0
 16
1.0
 26
0.0
 36
0.0
 17
0.0
 27
1.0
 37
0.0
 76
0
330
202
345
0
346
0
  0
LAYOUT
  5
2B1
102
{ACAD_REACTORS
330
1A
102
}
100
AcDbPlotSettings
  1

  2
none_device
  4
ANSI_A_(11.00_x_8.50_Inches)
  6

 40
0.0
 41
0.0
 42
0.0
 43
0.0
 44
279.4
 45
215.9
 46
0.0
 47
0.0
 48
0.0
 49
0.0
140
0.0
141
0.0
142
1.0
143
1.0
 70
0
 72
0
 73
0
 74
0
  7

 75
0
147
1.0
148
0.0
149
0.0
100
AcDbLayout
  1
Layout1
 70
0
 71
1
 10
0.0
 20
0.0
 11
11.0
 21
8.5
 12
0.0
 22
0.0
 32
0.0
 14
0.0
 24
0.0
 34
0.0
 15
0.0
 25
0.0
 35
0.0
146
0.0
 13
0.0
 23
0.0
 33
0.0
 16
1.0
 26
0.0
 36
0.0
 17
0.0
 27
1.0
 37
0.0
 76
0
330
203
345
0
346
0
  0
ENDSEC
  0
EOF
