999
DXF file: E:\BT Custom\CADOUTPUT\_TOP.dxf
999
Pro/ENGINEER 2018400 by Parametric Technology Corporation
  0
SECTION
  2
HEADER
  9
$ACADVER
  1
AC1018
  9
$DWGCODEPAGE
  3
ANSI_1252
  9
$EXTMAX
 10
22.0
 20
17.0
 30
0.0
  9
$EXTMIN
 10
0.0
 20
0.0
 30
0.0
  9
$LIMMIN
 10
0.0
 20
0.0
  9
$LIMMAX
 10
22.0
 20
17.0
  9
$VIEWCTR
 10
11.0
 20
8.5
  9
$VIEWSIZE
 40
17.0
  9
$CLAYER
  8
0
  9
$LTSCALE
 40
1.21
  9
$CELTYPE
  6
BYLAYER
  9
$DIMSCALE
 40
1.0
  9
$DIMASZ
 40
0.1
  9
$DIMEXO
 40
0.0625
  9
$DIMDLI
 40
0.836
  9
$DIMEXE
 40
0.125
  9
$DIMCEN
 40
0.198
  9
$DIMLFAC
 40
1.0
  9
$DIMBLK
  1
_FILLED
  9
$DIMALT
 70
1
  9
$DIMALTD
 70
2
  9
$DIMALTTD
 70
2
  9
$DIMALTF
 40
25.4
  9
$DIMTXT
 40
0.08
  9
$DIMTOL
 70
1
  9
$DIMLIM
 70
0
  9
$DIMTFAC
 40
1.0
  9
$DIMTP
 40
0.001
  9
$DIMTM
 40
0.001
  9
$DIMGAP
 40
0.09
  9
$DIMDSEP
 70
46
  9
$AUNITS
 70
0
  9
$PDMODE
 70
3
  9
$PDSIZE
 40
0.06
  9
$HANDSEED
  5
27E
  9
$TILEMODE
 70
1
  9
$MEASUREMENT
 70
0
  9
$INSUNITS
 70
1
  0
ENDSEC
  0
SECTION
  2
CLASSES
  0
CLASS
  1
ACDBDICTIONARYWDFLT
  2
AcDbDictionaryWithDefault
  3
AutoCAD 2000
 90
0
 91
1
280
0
281
0
  0
CLASS
  1
ACDBPLACEHOLDER
  2
AcDbPlaceHolder
  3
AutoCAD 2000
 90
0
 91
1
280
0
281
0
  0
CLASS
  1
LAYOUT
  2
AcDbLayout
  3
AutoCAD 2000
 90
0
 91
0
280
0
281
0
  0
ENDSEC
  0
SECTION
  2
TABLES
  0
TABLE
  2
VPORT
  5
8
100
AcDbSymbolTable
 70
2
  0
VPORT
  5
1F4
100
AcDbSymbolTableRecord
100
AcDbViewportTableRecord
  2
*ACTIVE
 70
0
 10
0.0
 20
0.0
 11
1.0
 21
1.0
 12
11.0
 22
8.5
 13
0.0
 23
0.0
 14
1.0
 24
1.0
 15
0.0
 25
0.0
 16
0.0
 26
0.0
 36
1.0
 17
0.0
 27
0.0
 37
0.0
 40
17.0
 41
1.2941176471
 42
50.0
 43
0.0
 44
0.0
 50
0.0
 51
0.0
 71
0
 72
100
 73
1
 74
1
 75
0
 76
0
 77
0
 78
0
  0
ENDTAB
  0
TABLE
  2
LTYPE
  5
5
100
AcDbSymbolTable
 70
6
  0
LTYPE
  5
14
100
AcDbSymbolTableRecord
100
AcDbLinetypeTableRecord
  2
BYBLOCK
 70
0
  3

 72
65
 73
0
 40
0.0
  0
LTYPE
  5
15
100
AcDbSymbolTableRecord
100
AcDbLinetypeTableRecord
  2
BYLAYER
 70
0
  3

 72
65
 73
0
 40
0.0
  0
LTYPE
  5
16
100
AcDbSymbolTableRecord
100
AcDbLinetypeTableRecord
  2
CONTINUOUS
 70
64
  3
Solid line
 72
65
 73
0
 40
0.0
  0
LTYPE
  5
1F5
100
AcDbSymbolTableRecord
100
AcDbLinetypeTableRecord
  2
CENTER
 70
64
  3
____ _ ____ _ ____ _ ____ _ ____ _ ____ _ ____
 72
65
 73
4
 40
0.6
 49
0.375
 74
0
 49
-0.075
 74
0
 49
0.075
 74
0
 49
-0.075
 74
0
  0
LTYPE
  5
1F6
100
AcDbSymbolTableRecord
100
AcDbLinetypeTableRecord
  2
HIDDEN
 70
64
  3
- - - - - - - - - - - - - - - - - - - -
 72
65
 73
2
 40
0.2
 49
0.1
 74
0
 49
-0.1
 74
0
  0
LTYPE
  5
1F7
100
AcDbSymbolTableRecord
100
AcDbLinetypeTableRecord
  2
PHANTOM
 70
64
  3
_____ _ _ _____ _ _ _____ _ _ _____
 72
65
 73
6
 40
0.8
 49
0.45
 74
0
 49
-0.05
 74
0
 49
0.1
 74
0
 49
-0.05
 74
0
 49
0.1
 74
0
 49
-0.05
 74
0
  0
LTYPE
  5
1F8
100
AcDbSymbolTableRecord
100
AcDbLinetypeTableRecord
  2
DOT
 70
64
  3
. . . . . . . . . . . . . . . . . . . .
 72
65
 73
2
 40
0.2
 49
0.1
 74
0
 49
-0.1
 74
0
  0
LTYPE
  5
1F9
100
AcDbSymbolTableRecord
100
AcDbLinetypeTableRecord
  2
DASHED
 70
64
  3
- - - - - - - - - - - - - - - - - - - -
 72
65
 73
2
 40
0.2
 49
0.1
 74
0
 49
-0.1
 74
0
  0
ENDTAB
  0
TABLE
  2
LAYER
  5
2
100
AcDbSymbolTable
 70
36
  0
LAYER
  5
10
100
AcDbSymbolTableRecord
100
AcDbLayerTableRecord
  2
0
 70
0
 62
7
  6
CONTINUOUS
370
-3
390
F
  0
LAYER
  5
1FA
100
AcDbSymbolTableRecord
100
AcDbLayerTableRecord
  2
DEFAULT_1
 70
0
 62
7
  6
CENTER
370
-3
390
F
  0
LAYER
  5
1FB
100
AcDbSymbolTableRecord
100
AcDbLayerTableRecord
  2
DEFAULT_2
 70
0
 62
8
  6
HIDDEN
370
-3
390
F
  0
LAYER
  5
1FC
100
AcDbSymbolTableRecord
100
AcDbLayerTableRecord
  2
DEFAULT_3
 70
0
 62
7
  6
PHANTOM
370
-3
390
F
  0
LAYER
  5
1FD
100
AcDbSymbolTableRecord
100
AcDbLayerTableRecord
  2
ALL_FEATURES
 70
0
 62
7
  6
CONTINUOUS
370
-3
390
F
  0
LAYER
  5
1FE
100
AcDbSymbolTableRecord
100
AcDbLayerTableRecord
  2
AXES_FEATURES
 70
0
 62
7
  6
CONTINUOUS
370
-3
390
F
  0
LAYER
  5
1FF
100
AcDbSymbolTableRecord
100
AcDbLayerTableRecord
  2
DEFAULT_COORDINATE_SYSTEM
 70
0
 62
7
  6
CONTINUOUS
370
-3
390
F
  0
LAYER
  5
200
100
AcDbSymbolTableRecord
100
AcDbLayerTableRecord
  2
DEFAULT_DATUM_AXES
 70
0
 62
7
  6
CONTINUOUS
370
-3
390
F
  0
LAYER
  5
201
100
AcDbSymbolTableRecord
100
AcDbLayerTableRecord
  2
DEFAULT_DATUM_PLANES
 70
0
 62
7
  6
CONTINUOUS
370
-3
390
F
  0
LAYER
  5
202
100
AcDbSymbolTableRecord
100
AcDbLayerTableRecord
  2
DIMENSIONS
 70
0
 62
7
  6
CONTINUOUS
370
-3
390
F
  0
ENDTAB
  0
TABLE
  2
STYLE
  5
3
100
AcDbSymbolTable
 70
1
  0
STYLE
  5
11
100
AcDbSymbolTableRecord
100
AcDbTextStyleTableRecord
  2
STANDARD
 70
0
 40
0.0
 41
0.8
 50
0.0
 71
0
 42
0.2
  3
txt
  4

  0
STYLE
  5
203
100
AcDbSymbolTableRecord
100
AcDbTextStyleTableRecord
  2
TEXTSTYLE_1
 70
0
 40
0.0
 41
0.8
 50
0.0
 71
0
 42
0.2
  3
gdt
  4

  0
ENDTAB
  0
TABLE
  2
VIEW
  5
6
100
AcDbSymbolTable
 70
0
  0
ENDTAB
  0
TABLE
  2
UCS
  5
7
100
AcDbSymbolTable
 70
0
  0
ENDTAB
  0
TABLE
  2
APPID
  5
9
100
AcDbSymbolTable
 70
1
  0
APPID
  5
204
100
AcDbSymbolTableRecord
100
AcDbRegAppTableRecord
  2
ACAD
 70
0
  0
ENDTAB
  0
TABLE
  2
BLOCK_RECORD
  5
1
100
AcDbSymbolTable
 70
0
  0
BLOCK_RECORD
  5
205
100
AcDbSymbolTableRecord
100
AcDbBlockTableRecord
  2
*Model_Space
  0
BLOCK_RECORD
  5
206
100
AcDbSymbolTableRecord
100
AcDbBlockTableRecord
  2
*Paper_Space
  0
BLOCK_RECORD
  5
207
100
AcDbSymbolTableRecord
100
AcDbBlockTableRecord
  2
_FILLED
  0
ENDTAB
  0
TABLE
  2
DIMSTYLE
  5
A
100
AcDbSymbolTable
 70
1
100
AcDbDimStyleTable
 71
0
  0
DIMSTYLE
105
208
100
AcDbSymbolTableRecord
100
AcDbDimStyleTableRecord
  2
STANDARD
 70
0
  3

  4

 40
1.0
 41
0.1
 42
0.0625
 43
0.38
 44
0.125
 45
0.0
 46
0.0
 47
0.001
 48
0.001
140
0.08
141
0.09
142
0.0
143
25.4
144
1.0
145
0.0
146
1.0
147
0.09
 71
1.0
 72
0.0
 73
1
 74
1
 75
0
 76
0
 77
0
 78
4
 79
1
170
1
171
2
172
0
173
0
174
0
175
0
176
0
177
0
178
0
270
2
179
3
271
3
272
3
273
2
274
2
275
0
280
0
281
0
282
0
283
1
284
4
285
0
286
0
287
3
288
0
340
11
278
46
341
207
342
207
343
207
344
207
  0
ENDTAB
  0
ENDSEC
  0
SECTION
  2
BLOCKS
  0
BLOCK
  5
20
100
AcDbEntity
  8
0
100
AcDbBlockBegin
  2
*Model_Space
 70
0
 10
0.0
 20
0.0
 30
0.0
  3
*Model_Space
  1

  0
ENDBLK
  5
21
100
AcDbEntity
  8
0
100
AcDbBlockEnd
  0
BLOCK
  5
1C
100
AcDbEntity
  8
0
100
AcDbBlockBegin
  2
*Paper_Space
 70
0
 10
0.0
 20
0.0
 30
0.0
  3
*Paper_Space
  1

  0
ENDBLK
  5
1D
100
AcDbEntity
  8
0
100
AcDbBlockEnd
  0
BLOCK
  5
209
100
AcDbEntity
  8
0
100
AcDbBlockBegin
  2
_FILLED
 70
64
 10
0.0
 20
0.0
  3
_FILLED
  1

  0
SOLID
  5
20A
100
AcDbEntity
  8
0
  6
BYBLOCK
 62
0
100
AcDbTrace
 10
0.0
 20
0.0
 11
-1.0
 21
0.2
 12
-1.0
 22
-0.2
 13
-1.0
 23
-0.2
  0
ENDBLK
  5
20B
100
AcDbEntity
  8
0
  6
BYBLOCK
 62
0
100
AcDbBlockEnd
  0
ENDSEC
  0
SECTION
  2
ENTITIES
  0
LWPOLYLINE
  5
20C
100
AcDbEntity
  8
0
100
AcDbPolyline
 62
7
  6
CONTINUOUS
 90
3
 70
0
 10
10.2913962697
 20
11.2813091872
 10
10.249648505
 20
11.2678793257
 10
10.230065297
 20
11.2616282202
  0
LINE
  5
20D
100
AcDbEntity
  8
0
100
AcDbLine
 62
7
  6
CONTINUOUS
 10
9.2985059695
 20
10.5263461232
 11
9.2985058781
 21
4.4457280486
  0
LINE
  5
20E
100
AcDbEntity
  8
0
100
AcDbLine
 62
7
  6
CONTINUOUS
 10
10.4379960047
 20
4.4457280486
 11
10.4379959491
 21
10.5262745233
  0
LINE
  5
20F
100
AcDbEntity
  8
0
100
AcDbLine
 62
7
  6
CONTINUOUS
 10
11.4757509414
 20
11.5160203792
 11
11.4757509414
 21
9.5360203792
  0
LINE
  5
210
100
AcDbEntity
  8
0
100
AcDbLine
 62
9
  6
CONTINUOUS
 10
11.5527166013
 20
9.493915116
 11
11.5527166013
 21
11.5581256423
  0
LINE
  5
211
100
AcDbEntity
  8
0
100
AcDbLine
 62
9
  6
CONTINUOUS
 10
11.6282204491
 20
9.5160203792
 11
11.6282204491
 21
11.5360203792
  0
LINE
  5
212
100
AcDbEntity
  8
0
100
AcDbLine
 62
9
  6
CONTINUOUS
 10
11.6757509414
 20
9.5160203792
 11
11.6757509414
 21
11.5360203792
  0
LINE
  5
213
100
AcDbEntity
  8
0
100
AcDbLine
 62
9
  6
CONTINUOUS
 10
12.1359234123
 20
11.4250984053
 11
12.1359234123
 21
9.6269423531
  0
LINE
  5
214
100
AcDbEntity
  8
0
100
AcDbLine
 62
9
  6
CONTINUOUS
 10
12.2337371928
 20
11.4139212802
 11
12.2337371928
 21
9.6381194782
  0
LINE
  5
215
100
AcDbEntity
  8
0
100
AcDbLine
 62
7
  6
CONTINUOUS
 10
12.3207509414
 20
9.7060203792
 11
12.3207509414
 21
11.3460203792
  0
LINE
  5
216
100
AcDbEntity
  8
0
100
AcDbLine
 62
9
  6
CONTINUOUS
 10
12.3440576541
 20
9.7687449089
 11
12.3440576541
 21
11.2832958494
  0
LWPOLYLINE
  5
217
100
AcDbEntity
  8
0
100
AcDbPolyline
 62
7
  6
CONTINUOUS
 90
12
 70
0
 10
12.6177460916
 20
10.8732910162
 10
12.6178543868
 20
10.8750198129
 10
12.6179054272
 20
10.8757621595
 10
12.6179541125
 20
10.8764262417
 10
12.6180001939
 20
10.8770143954
 10
12.6180433566
 20
10.8775285879
 10
12.618083194
 20
10.8779703222
 10
12.618119173
 20
10.8783405321
 10
12.6181505825
 20
10.8786394312
 10
12.6181764362
 20
10.8788661482
 10
12.6181954071
 20
10.8790189101
 10
12.6181985888
 20
10.8790430807
  0
LINE
  5
218
100
AcDbEntity
  8
0
100
AcDbLine
 62
7
  6
CONTINUOUS
 10
12.6175224651
 20
10.1829732465
 11
12.6173653943
 21
10.1864684174
  0
LINE
  5
219
100
AcDbEntity
  8
0
100
AcDbLine
 62
7
  6
CONTINUOUS
 10
12.6173653943
 20
10.1864684174
 11
12.6172026546
 21
10.190560685
  0
LINE
  5
21A
100
AcDbEntity
  8
0
100
AcDbLine
 62
7
  6
CONTINUOUS
 10
12.6172026546
 20
10.190560685
 11
12.6169760658
 21
10.1970851456
  0
LINE
  5
21B
100
AcDbEntity
  8
0
100
AcDbLine
 62
7
  6
CONTINUOUS
 10
12.6169760658
 20
10.1970851456
 11
12.6166750802
 21
10.2073201876
  0
LINE
  5
21C
100
AcDbEntity
  8
0
100
AcDbLine
 62
7
  6
CONTINUOUS
 10
12.6166750802
 20
10.2073201876
 11
12.6163553634
 21
10.2203336061
  0
LINE
  5
21D
100
AcDbEntity
  8
0
100
AcDbLine
 62
7
  6
CONTINUOUS
 10
12.6163553634
 20
10.2203336061
 11
12.6160226175
 21
10.2365249284
  0
LINE
  5
21E
100
AcDbEntity
  8
0
100
AcDbLine
 62
7
  6
CONTINUOUS
 10
12.6160226175
 20
10.2365249284
 11
12.615706825
 21
10.2548365901
  0
LINE
  5
21F
100
AcDbEntity
  8
0
100
AcDbLine
 62
7
  6
CONTINUOUS
 10
12.615706586
 20
10.7972038392
 11
12.6160162466
 21
10.8151772853
  0
LINE
  5
220
100
AcDbEntity
  8
0
100
AcDbLine
 62
7
  6
CONTINUOUS
 10
12.6160162466
 20
10.8151772853
 11
12.6163215325
 21
10.8301900492
  0
LINE
  5
221
100
AcDbEntity
  8
0
100
AcDbLine
 62
7
  6
CONTINUOUS
 10
12.6163215325
 20
10.8301900492
 11
12.6166928021
 21
10.8453756387
  0
LINE
  5
222
100
AcDbEntity
  8
0
100
AcDbLine
 62
7
  6
CONTINUOUS
 10
12.6166928021
 20
10.8453756387
 11
12.6169784499
 21
10.8550291292
  0
LINE
  5
223
100
AcDbEntity
  8
0
100
AcDbLine
 62
7
  6
CONTINUOUS
 10
12.6169784499
 20
10.8550291292
 11
12.6171847196
 21
10.8609988551
  0
LINE
  5
224
100
AcDbEntity
  8
0
100
AcDbLine
 62
7
  6
CONTINUOUS
 10
12.6171847196
 20
10.8609988551
 11
12.6173827515
 21
10.8659802794
  0
LINE
  5
225
100
AcDbEntity
  8
0
100
AcDbLine
 62
7
  6
CONTINUOUS
 10
12.6173827515
 20
10.8659802794
 11
12.6175092937
 21
10.8687913618
  0
LINE
  5
226
100
AcDbEntity
  8
0
100
AcDbLine
 62
7
  6
CONTINUOUS
 10
12.6175092937
 20
10.8687913618
 11
12.6176306901
 21
10.871221284
  0
LINE
  5
227
100
AcDbEntity
  8
0
100
AcDbLine
 62
7
  6
CONTINUOUS
 10
12.6176306901
 20
10.871221284
 11
12.6177460916
 21
10.8732910162
  0
LINE
  5
228
100
AcDbEntity
  8
0
100
AcDbLine
 62
7
  6
CONTINUOUS
 10
12.6179490444
 20
10.1756817129
 11
12.6178616709
 21
10.1769122508
  0
LINE
  5
229
100
AcDbEntity
  8
0
100
AcDbLine
 62
7
  6
CONTINUOUS
 10
12.6178616709
 20
10.1769122508
 11
12.6177694037
 21
10.1783601636
  0
LINE
  5
22A
100
AcDbEntity
  8
0
100
AcDbLine
 62
7
  6
CONTINUOUS
 10
12.6177694037
 20
10.1783601636
 11
12.6176731384
 21
10.1800310114
  0
LWPOLYLINE
  5
22B
100
AcDbEntity
  8
0
100
AcDbPolyline
 62
7
  6
CONTINUOUS
 90
3
 70
0
 10
12.6176731384
 20
10.1800310114
 10
12.617573457
 20
10.1819327895
 10
12.6175224651
 20
10.1829732465
  0
LWPOLYLINE
  5
22C
100
AcDbEntity
  8
0
100
AcDbPolyline
 62
7
  6
CONTINUOUS
 90
20
 70
0
 10
10.4379960047
 20
9.727503298
 10
10.4567244539
 20
9.7226759606
 10
10.483835675
 20
9.7161049788
 10
10.5119131429
 20
9.7097618314
 10
10.5410955402
 20
9.7036382592
 10
10.5715087324
 20
9.6977245082
 10
10.6030944999
 20
9.6920435294
 10
10.6356746188
 20
9.6866267362
 10
10.6690651761
 20
9.6814968235
 10
10.7030805067
 20
9.6766777979
 10
10.7376301135
 20
9.6721723831
 10
10.7727644894
 20
9.6679609213
 10
10.8085455809
 20
9.6640215063
 10
10.8450370826
 20
9.6603276152
 10
10.8823044309
 20
9.6568501772
 10
10.9204149313
 20
9.6535619328
 10
10.9594335517
 20
9.6504388217
 10
10.9994027233
 20
9.6474789512
 10
11.0403553646
 20
9.6446893872
 10
11.0738311382
 20
9.6425867787
  0
LWPOLYLINE
  5
22D
100
AcDbEntity
  8
0
100
AcDbPolyline
 62
7
  6
CONTINUOUS
 90
11
 70
0
 10
12.6182069198
 20
10.1729375047
 10
12.6182065836
 20
10.1729397918
 10
12.6181987877
 20
10.1729962363
 10
12.618182792
 20
10.173121997
 10
12.6181604616
 20
10.1733124776
 10
12.6181331392
 20
10.1735643783
 10
12.6181018126
 20
10.1738753341
 10
12.6180672277
 20
10.174243614
 10
12.6180299562
 20
10.1746679783
 10
12.6179904438
 20
10.1751475512
 10
12.6179490444
 20
10.1756817129
  0
LINE
  5
22E
100
AcDbEntity
  8
0
100
AcDbLine
 62
7
  6
CONTINUOUS
 10
11.6757509414
 20
9.5160203792
 11
11.6282204491
 21
9.5160203792
  0
LWPOLYLINE
  5
22F
100
AcDbEntity
  8
0
100
AcDbPolyline
 62
7
  6
CONTINUOUS
 90
4
 70
0
 10
11.0738311382
 20
9.6425867787
 10
11.1630168437
 20
9.6377288129
 10
11.317799476
 20
9.6315942971
 10
11.4757509414
 20
9.6278728642
  0
LINE
  5
230
100
AcDbEntity
  8
0
100
AcDbLine
 62
9
  6
CONTINUOUS
 10
13.4601754432
 20
10.3057702849
 11
13.4601754433
 21
10.3550390766
  0
LINE
  5
231
100
AcDbEntity
  8
0
100
AcDbLine
 62
9
  6
CONTINUOUS
 10
13.4601754433
 20
10.6970016818
 11
13.4601754432
 21
10.7462704735
  0
LINE
  5
232
100
AcDbEntity
  8
0
100
AcDbLine
 62
9
  6
CONTINUOUS
 10
13.4661296201
 20
10.3223620697
 11
13.4661296201
 21
10.3717268256
  0
LINE
  5
233
100
AcDbEntity
  8
0
100
AcDbLine
 62
9
  6
CONTINUOUS
 10
13.4661296201
 20
10.6803139328
 11
13.4661296201
 21
10.7296786886
  0
LINE
  5
234
100
AcDbEntity
  8
0
100
AcDbLine
 62
9
  6
CONTINUOUS
 10
12.6175993103
 20
10.1612990471
 11
12.6175126277
 21
10.161298157
  0
LINE
  5
235
100
AcDbEntity
  8
0
100
AcDbLine
 62
7
  6
CONTINUOUS
 10
12.6161799788
 20
10.2285203792
 11
12.6352267454
 21
10.2285203792
  0
LINE
  5
236
100
AcDbEntity
  8
0
100
AcDbLine
 62
9
  6
CONTINUOUS
 10
11.4757509414
 20
10.5260203792
 11
10.6882509414
 21
10.5260203792
  0
LINE
  5
237
100
AcDbEntity
  8
0
100
AcDbLine
 62
7
  6
CONTINUOUS
 10
12.6161798871
 20
10.8235203792
 11
12.6352267454
 21
10.8235203792
  0
LINE
  5
238
100
AcDbEntity
  8
0
100
AcDbLine
 62
9
  6
CONTINUOUS
 10
12.6175126277
 20
10.8907426014
 11
12.6175993103
 21
10.8907417113
  0
LWPOLYLINE
  5
239
100
AcDbEntity
  8
0
100
AcDbPolyline
 62
7
  6
CONTINUOUS
 90
25
 70
0
 10
11.0590511464
 20
11.4085484616
 10
11.0140566827
 20
11.4055896106
 10
10.9710230034
 20
11.4024846712
 10
10.929584704
 20
11.3992319162
 10
10.8893735021
 20
11.3958157307
 10
10.8500692277
 20
11.3921931685
 10
10.8116541847
 20
11.3883383344
 10
10.7741944582
 20
11.3842346976
 10
10.737755619
 20
11.3798740547
 10
10.7024026932
 20
11.3752603589
 10
10.668196068
 20
11.3704053449
 10
10.6351471314
 20
11.3653201719
 10
10.603231541
 20
11.360012728
 10
10.5724226594
 20
11.354480651
 10
10.5426939869
 20
11.3487207781
 10
10.5140078025
 20
11.3427324821
 10
10.4862823828
 20
11.3365083326
 10
10.4594333362
 20
11.3300447887
 10
10.4333732358
 20
11.3233708616
 10
10.4080197629
 20
11.3165245199
 10
10.3833353082
 20
11.3095475366
 10
10.3593247452
 20
11.3024884265
 10
10.3359925241
 20
11.2953918763
 10
10.3133461677
 20
11.2883065618
 10
10.2913962697
 20
11.2813091872
  0
LINE
  5
23A
100
AcDbEntity
  8
0
100
AcDbLine
 62
7
  6
CONTINUOUS
 10
11.0737253023
 20
11.4094514328
 11
11.0590511464
 21
11.4085484616
  0
LWPOLYLINE
  5
23B
100
AcDbEntity
  8
0
100
AcDbPolyline
 62
7
  6
CONTINUOUS
 90
4
 70
0
 10
11.4757509414
 20
11.4241715791
 10
11.3128910764
 20
11.4202987149
 10
11.1599291964
 20
11.4141669274
 10
11.0737253023
 20
11.4094514328
  0
LINE
  5
23C
100
AcDbEntity
  8
0
100
AcDbLine
 62
7
  6
CONTINUOUS
 10
11.6757509414
 20
11.5360203792
 11
11.6282204491
 21
11.5360203792
  0
ARC
  5
23D
100
AcDbEntity
  8
0
100
AcDbCircle
 62
7
  6
CONTINUOUS
 10
12.1997096954
 20
9.5023176762
 40
0.14
100
AcDbArc
 50
75.9331661451
 51
117.1045955712
  0
ARC
  5
23E
100
AcDbEntity
  8
0
100
AcDbCircle
 62
7
  6
CONTINUOUS
 10
11.6282204491
 20
9.3760203792
 40
0.14
100
AcDbArc
 50
90.0
 51
122.6368975036
  0
ARC
  5
23F
100
AcDbEntity
  8
0
100
AcDbCircle
 62
7
  6
CONTINUOUS
 10
13.3754114663
 20
10.3360203792
 40
0.09
100
AcDbArc
 50
289.2594572745
 51
340.3598180429
  0
ARC
  5
240
100
AcDbEntity
  8
0
100
AcDbCircle
 62
7
  6
CONTINUOUS
 10
12.3903759411
 20
9.7162604704
 40
0.07
100
AcDbArc
 50
131.4288753314
 51
174.3433271195
  0
ARC
  5
241
100
AcDbEntity
  8
0
100
AcDbCircle
 62
7
  6
CONTINUOUS
 10
12.2507509414
 20
9.7060203792
 40
0.07
100
AcDbArc
 50
255.9331661451
 51
360.0
  0
ARC
  5
242
100
AcDbEntity
  8
0
100
AcDbCircle
 62
7
  6
CONTINUOUS
 10
11.5257509414
 20
9.5360203792
 40
0.05
100
AcDbArc
 50
180.0
 51
302.6368975036
  0
ARC
  5
243
100
AcDbEntity
  8
0
100
AcDbCircle
 62
7
  6
CONTINUOUS
 10
12.5989485097
 20
10.1685203792
 40
0.02
100
AcDbArc
 50
338.8315511542
 51
16.7561304302
  0
ARC
  5
244
100
AcDbEntity
  8
0
100
AcDbCircle
 62
9
  6
CONTINUOUS
 10
12.5988773498
 20
10.1685245171
 40
0.0199842043
100
AcDbArc
 50
338.8337731527
 51
15.5386295408
  0
ARC
  5
245
100
AcDbEntity
  8
0
100
AcDbCircle
 62
7
  6
CONTINUOUS
 10
9.8682509414
 20
10.5260203792
 40
1.2753652063
100
AcDbArc
 50
42.5300830087
 51
243.4595131121
  0
ARC
  5
246
100
AcDbEntity
  8
0
100
AcDbCircle
 62
7
  6
CONTINUOUS
 10
9.8682509414
 20
10.5260203792
 40
1.2753652063
100
AcDbArc
 50
296.5404868878
 51
317.4687510502
  0
ARC
  5
247
100
AcDbEntity
  8
0
100
AcDbCircle
 62
9
  6
CONTINUOUS
 10
9.8682509414
 20
10.5260203792
 40
1.2702209387
100
AcDbArc
 50
296.6524655344
 51
317.2877772284
  0
ARC
  5
248
100
AcDbEntity
  8
0
100
AcDbCircle
 62
9
  6
CONTINUOUS
 10
9.8682509414
 20
10.5260203792
 40
1.2702209387
100
AcDbArc
 50
42.711261835
 51
243.3475345624
  0
ARC
  5
249
100
AcDbEntity
  8
0
100
AcDbCircle
 62
7
  6
CONTINUOUS
 10
9.8682509414
 20
10.5260203792
 40
1.1114846728
100
AcDbArc
 50
48.6285908923
 51
239.1547365963
  0
ARC
  5
24A
100
AcDbEntity
  8
0
100
AcDbCircle
 62
7
  6
CONTINUOUS
 10
9.8682509414
 20
10.5260203792
 40
1.1114846728
100
AcDbArc
 50
300.8452634237
 51
311.3708241265
  0
ARC
  5
24B
100
AcDbEntity
  8
0
100
AcDbCircle
 62
9
  6
CONTINUOUS
 10
9.8682509414
 20
10.5260203792
 40
1.1086581737
100
AcDbArc
 50
300.9309937098
 51
311.2397220423
  0
ARC
  5
24C
100
AcDbEntity
  8
0
100
AcDbCircle
 62
9
  6
CONTINUOUS
 10
9.8682509414
 20
10.5260203792
 40
1.1086581737
100
AcDbArc
 50
48.7597698589
 51
239.0690062911
  0
ARC
  5
24D
100
AcDbEntity
  8
0
100
AcDbCircle
 62
9
  6
CONTINUOUS
 10
9.8682509414
 20
10.5260203792
 40
1.0706246757
100
AcDbArc
 50
302.1549857357
 51
309.6366870703
  0
ARC
  5
24E
100
AcDbEntity
  8
0
100
AcDbCircle
 62
9
  6
CONTINUOUS
 10
9.8682509414
 20
10.5260203792
 40
1.0706246757
100
AcDbArc
 50
50.3634245095
 51
237.8450141582
  0
ARC
  5
24F
100
AcDbEntity
  8
0
100
AcDbCircle
 62
9
  6
CONTINUOUS
 10
9.8682509414
 20
10.5260203792
 40
1.026990639
100
AcDbArc
 50
303.717907648
 51
307.6616022206
  0
ARC
  5
250
100
AcDbEntity
  8
0
100
AcDbCircle
 62
9
  6
CONTINUOUS
 10
9.8682509414
 20
10.5260203792
 40
1.026990639
100
AcDbArc
 50
52.3388825703
 51
236.2820924472
  0
ARC
  5
251
100
AcDbEntity
  8
0
100
AcDbCircle
 62
7
  6
CONTINUOUS
 10
9.8682509414
 20
10.5260203792
 40
1.0171044242
100
AcDbArc
 50
304.0825363412
 51
307.2103128851
  0
ARC
  5
252
100
AcDbEntity
  8
0
100
AcDbCircle
 62
7
  6
CONTINUOUS
 10
9.8682509414
 20
10.5260203792
 40
1.0171044242
100
AcDbArc
 50
52.7886125265
 51
235.9174638809
  0
ARC
  5
253
100
AcDbEntity
  8
0
100
AcDbCircle
 62
7
  6
CONTINUOUS
 10
9.8682509414
 20
10.5260203792
 40
0.8242317226
100
AcDbArc
 50
63.5034588313
 51
226.2561959811
  0
ARC
  5
254
100
AcDbEntity
  8
0
100
AcDbCircle
 62
7
  6
CONTINUOUS
 10
9.8682509414
 20
10.5260203792
 40
0.82
100
AcDbArc
 50
314.0179266469
 51
225.9820733531
  0
ARC
  5
255
100
AcDbEntity
  8
0
100
AcDbCircle
 62
7
  6
CONTINUOUS
 10
9.8682509414
 20
10.5260203792
 40
0.65
100
AcDbArc
 50
331.2626665353
 51
208.7373334647
  0
ARC
  5
256
100
AcDbEntity
  8
0
100
AcDbCircle
 62
9
  6
CONTINUOUS
 10
9.8682509414
 20
10.5260203792
 40
0.5910756507
100
AcDbArc
 50
344.6405886256
 51
195.3594113743
  0
ARC
  5
257
100
AcDbEntity
  8
0
100
AcDbCircle
 62
7
  6
CONTINUOUS
 10
11.5257509414
 20
11.5160203792
 40
0.05
100
AcDbArc
 50
57.3631024964
 51
180.0
  0
ARC
  5
258
100
AcDbEntity
  8
0
100
AcDbCircle
 62
7
  6
CONTINUOUS
 10
11.6757509414
 20
10.5260203792
 40
1.01
100
AcDbArc
 50
270.0
 51
297.1045955712
  0
ARC
  5
259
100
AcDbEntity
  8
0
100
AcDbCircle
 62
7
  6
CONTINUOUS
 10
11.6757509414
 20
10.5260203792
 40
1.01
100
AcDbArc
 50
62.8954044288
 51
90.0
  0
ARC
  5
25A
100
AcDbEntity
  8
0
100
AcDbCircle
 62
7
  6
CONTINUOUS
 10
11.6757509414
 20
10.5260203792
 40
1.01
100
AcDbArc
 50
311.4288753314
 51
338.8315511542
  0
ARC
  5
25B
100
AcDbEntity
  8
0
100
AcDbCircle
 62
7
  6
CONTINUOUS
 10
11.6757509414
 20
10.5260203792
 40
1.01
100
AcDbArc
 50
21.1684488458
 51
48.5711246686
  0
ARC
  5
25C
100
AcDbEntity
  8
0
100
AcDbCircle
 62
7
  6
CONTINUOUS
 10
12.9017509414
 20
10.5260203792
 40
0.6
100
AcDbArc
 50
340.1578181461
 51
19.8421818539
  0
CIRCLE
  5
25D
100
AcDbEntity
  8
0
100
AcDbCircle
 62
7
  6
CONTINUOUS
 10
13.0117509414
 20
10.5260203792
 40
0.48
  0
CIRCLE
  5
25E
100
AcDbEntity
  8
0
100
AcDbCircle
 62
9
  6
CONTINUOUS
 10
13.0117509414
 20
10.5260203792
 40
0.4486507031
  0
CIRCLE
  5
25F
100
AcDbEntity
  8
0
100
AcDbCircle
 62
9
  6
CONTINUOUS
 10
13.0117509414
 20
10.5260203792
 40
0.4218369058
  0
ARC
  5
260
100
AcDbEntity
  8
0
100
AcDbCircle
 62
7
  6
CONTINUOUS
 10
13.3754114663
 20
10.7160203792
 40
0.09
100
AcDbArc
 50
19.6401819571
 51
70.740542715
  0
ARC
  5
261
100
AcDbEntity
  8
0
100
AcDbCircle
 62
7
  6
CONTINUOUS
 10
12.5989485097
 20
10.8835203792
 40
0.02
100
AcDbArc
 50
343.2476487444
 51
21.1684488458
  0
ARC
  5
262
100
AcDbEntity
  8
0
100
AcDbCircle
 62
9
  6
CONTINUOUS
 10
12.5988790213
 20
10.8835158447
 40
0.0199824864
100
AcDbArc
 50
344.4660187458
 51
21.1662238417
  0
ARC
  5
263
100
AcDbEntity
  8
0
100
AcDbCircle
 62
7
  6
CONTINUOUS
 10
12.1997096954
 20
11.5497230822
 40
0.14
100
AcDbArc
 50
242.8954044288
 51
284.0668338549
  0
ARC
  5
264
100
AcDbEntity
  8
0
100
AcDbCircle
 62
7
  6
CONTINUOUS
 10
11.6282204491
 20
11.6760203792
 40
0.14
100
AcDbArc
 50
237.3631024964
 51
270.0
  0
ARC
  5
265
100
AcDbEntity
  8
0
100
AcDbCircle
 62
7
  6
CONTINUOUS
 10
12.3903759411
 20
11.3357802879
 40
0.07
100
AcDbArc
 50
185.6566728805
 51
228.5711246686
  0
ARC
  5
266
100
AcDbEntity
  8
0
100
AcDbCircle
 62
7
  6
CONTINUOUS
 10
12.2507509414
 20
11.3460203792
 40
0.07
100
AcDbArc
 50
0.0
 51
104.0668338549
  0
ARC
  5
267
100
AcDbEntity
  8
0
100
AcDbCircle
 62
7
  6
CONTINUOUS
 10
18.1692889324
 20
8.6252081786
 40
5.0000038847
100
AcDbArc
 50
160.1578182568
 51
160.3598179824
  0
ARC
  5
268
100
AcDbEntity
  8
0
100
AcDbCircle
 62
7
  6
CONTINUOUS
 10
18.1692889302
 20
12.4268325823
 40
5.0000038835
100
AcDbArc
 50
199.6401820536
 51
199.8421817754
  0
SPLINE
  5
269
100
AcDbEntity
  8
0
100
AcDbSpline
 62
7
  6
CONTINUOUS
 70
0
 71
3
 72
37
 73
33
 74
0
 42
0.0000001
 43
0.0000001
 44
0.0000000001
 40
0.0
 40
0.0
 40
0.0
 40
0.0
 40
0.0312321274
 40
0.0624700619
 40
0.0937167709
 40
0.1249727463
 40
0.1562365684
 40
0.1875054694
 40
0.2187758953
 40
0.2500440668
 40
0.2813065393
 40
0.3125607643
 40
0.343805651
 40
0.3750421307
 40
0.3906594374
 40
0.4062762122
 40
0.437509105
 40
0.4687486058
 40
0.4999971541
 40
0.531254824
 40
0.5625198883
 40
0.6250414863
 40
0.6875514926
 40
0.7188039238
 40
0.7500470221
 40
0.7812821793
 40
0.7968991807
 40
0.8125159863
 40
0.8437498477
 40
0.8749910062
 40
0.9374820857
 40
1.0
 40
1.0
 40
1.0
 40
1.0
 10
9.8682509414
 20
11.0960203792
 30
0.0
 10
9.8589368378
 20
11.0960203792
 30
0.0
 10
9.8403035532
 20
11.0955475407
 30
0.0
 10
9.8124236932
 20
11.093441148
 30
0.0
 10
9.7846744058
 20
11.0899589256
 30
0.0
 10
9.7571214706
 20
11.0851221371
 30
0.0
 10
9.7298294626
 20
11.0789519951
 30
0.0
 10
9.7028632808
 20
11.0714696608
 30
0.0
 10
9.6762877478
 20
11.0626962489
 30
0.0
 10
9.6501677136
 20
11.0526528209
 30
0.0
 10
9.6245680723
 20
11.0413604183
 30
0.0
 10
9.5995536223
 20
11.0288399458
 30
0.0
 10
9.5751896398
 20
11.0151126146
 30
0.0
 10
9.5554802612
 20
11.0026832921
 30
0.0
 10
9.5401054764
 20
10.9921590387
 30
0.0
 10
9.5250025434
 20
10.9812500371
 30
0.0
 10
9.506647318
 20
10.9669004889
 30
0.0
 10
9.4855054249
 20
10.9486021574
 30
0.0
 10
9.4652861233
 20
10.9292785993
 30
0.0
 10
9.4460292056
 20
10.9089848663
 30
0.0
 10
9.42169438
 20
10.8807122618
 30
0.0
 10
9.3938762792
 20
10.8432167101
 30
0.0
 10
9.3697990666
 20
10.8032195477
 30
0.0
 10
9.3529479161
 20
10.7699520172
 30
0.0
 10
9.3415515686
 20
10.7444154908
 30
0.0
 10
9.3331238634
 20
10.7226929053
 30
0.0
 10
9.327044682
 20
10.7050812271
 30
0.0
 10
9.3214141486
 20
10.6873215071
 30
0.0
 10
9.3152183476
 20
10.6648606941
 30
0.0
 10
9.3071053375
 20
10.6284738579
 30
0.0
 10
9.3003342913
 20
10.5822930211
 30
0.0
 10
9.2985164331
 20
10.54499033
 30
0.0
 10
9.2985059695
 20
10.5263461232
 30
0.0
  0
SPLINE
  5
26A
100
AcDbEntity
  8
0
100
AcDbSpline
 62
7
  6
CONTINUOUS
 70
0
 71
3
 72
49
 73
45
 74
0
 42
0.0000001
 43
0.0000001
 44
0.0000000001
 40
0.0
 40
0.0
 40
0.0
 40
0.0
 40
0.0158111278
 40
0.0315459136
 40
0.062798651
 40
0.093799111
 40
0.1245813294
 40
0.1551773831
 40
0.185617248
 40
0.2159284848
 40
0.2461368195
 40
0.2762660387
 40
0.30633844
 40
0.3363754026
 40
0.3663975299
 40
0.3964251423
 40
0.4264786626
 40
0.456579047
 40
0.4867481549
 40
0.5170089922
 40
0.5473863915
 40
0.5779070489
 40
0.6085996932
 40
0.6394956509
 40
0.6706279965
 40
0.7020313934
 40
0.7178487827
 40
0.7337470511
 40
0.7497302349
 40
0.7658020642
 40
0.7819659213
 40
0.7982244612
 40
0.8145795322
 40
0.8310320197
 40
0.8475815373
 40
0.8642263237
 40
0.8809628855
 40
0.8977858691
 40
0.9146880931
 40
0.9316602531
 40
0.9486911239
 40
0.9657678423
 40
0.9828759176
 40
1.0
 40
1.0
 40
1.0
 40
1.0
 10
10.4381385174
 20
4.8783845769
 30
0.0
 10
10.446784373
 20
4.8706018361
 30
0.0
 10
10.4637336158
 20
4.8547356043
 30
0.0
 10
10.4962247768
 20
4.8218742248
 30
0.0
 10
10.5342065617
 20
4.7787860444
 30
0.0
 10
10.5755327444
 20
4.7241431861
 30
0.0
 10
10.6124673992
 20
4.6670161286
 30
0.0
 10
10.6449744448
 20
4.6077317174
 30
0.0
 10
10.6730284275
 20
4.5465977822
 30
0.0
 10
10.6966090433
 20
4.4839093707
 30
0.0
 10
10.7157005193
 20
4.4199509908
 30
0.0
 10
10.7302905816
 20
4.3549991776
 30
0.0
 10
10.7403701087
 20
4.2893245911
 30
0.0
 10
10.7459328933
 20
4.2231937806
 30
0.0
 10
10.7469755106
 20
4.1568707397
 30
0.0
 10
10.7434973277
 20
4.0906184957
 30
0.0
 10
10.7355004635
 20
4.0247004313
 30
0.0
 10
10.7229898048
 20
3.9593817217
 30
0.0
 10
10.7059731229
 20
3.8949309485
 30
0.0
 10
10.6844611654
 20
3.8316216823
 30
0.0
 10
10.6584680327
 20
3.7697345045
 30
0.0
 10
10.6280117263
 20
3.7095592356
 30
0.0
 10
10.5931154233
 20
3.6513977191
 30
0.0
 10
10.5538085731
 20
3.5955663396
 30
0.0
 10
10.5101331066
 20
3.5424023819
 30
0.0
 10
10.4702296149
 20
3.5007129043
 30
0.0
 10
10.4362241638
 20
3.4690728113
 30
0.0
 10
10.4096092142
 20
3.4461844701
 30
0.0
 10
10.3819629482
 20
3.4242510546
 30
0.0
 10
10.3533026154
 20
3.4033265377
 30
0.0
 10
10.3236495453
 20
3.3834674704
 30
0.0
 10
10.29302914
 20
3.3647319966
 30
0.0
 10
10.2614717992
 20
3.3471799408
 30
0.0
 10
10.2290136665
 20
3.3308722791
 30
0.0
 10
10.1956973661
 20
3.3158706692
 30
0.0
 10
10.1615728955
 20
3.3022367213
 30
0.0
 10
10.1266983071
 20
3.2900311025
 30
0.0
 10
10.0911402287
 20
3.2793123688
 30
0.0
 10
10.0549742002
 20
3.270135693
 30
0.0
 10
10.0182845911
 20
3.2625513836
 30
0.0
 10
9.9811642828
 20
3.256603359
 30
0.0
 10
9.9437133575
 20
3.2523277061
 30
0.0
 10
9.9060392711
 20
3.2497512343
 30
0.0
 10
9.8808497205
 20
3.249177536
 30
0.0
 10
9.8682509414
 20
3.249177536
 30
0.0
  0
SPLINE
  5
26B
100
AcDbEntity
  8
0
100
AcDbSpline
 62
7
  6
CONTINUOUS
 70
0
 71
3
 72
48
 73
44
 74
0
 42
0.0000001
 43
0.0000001
 44
0.0000000001
 40
0.0
 40
0.0
 40
0.0
 40
0.0
 40
0.0171242068
 40
0.034232383
 40
0.0513091867
 40
0.0683401237
 40
0.0853123377
 40
0.1022146042
 40
0.1190376196
 40
0.1357742132
 40
0.1524190338
 40
0.1689685625
 40
0.1854210822
 40
0.2017761815
 40
0.2180346912
 40
0.2341985634
 40
0.2502704465
 40
0.2662536003
 40
0.2821518261
 40
0.2979692012
 40
0.3293726036
 40
0.3605050051
 40
0.3914009328
 40
0.4220937211
 40
0.4526144222
 40
0.4829919161
 40
0.5132528827
 40
0.5434221298
 40
0.5735226752
 40
0.6035763789
 40
0.6336042002
 40
0.6636265663
 40
0.6936637952
 40
0.7237364902
 40
0.753866016
 40
0.7840746749
 40
0.8143862627
 40
0.8448265029
 40
0.8754229325
 40
0.9062054877
 40
0.9372064322
 40
0.9684595229
 40
1.0
 40
1.0
 40
1.0
 40
1.0
 10
9.8682509414
 20
3.249177536
 30
0.0
 10
9.8556522827
 20
3.249177536
 30
0.0
 10
9.8304629897
 20
3.2497512226
 30
0.0
 10
9.7927893072
 20
3.2523276421
 30
0.0
 10
9.7553388221
 20
3.256603199
 30
0.0
 10
9.7182189786
 20
3.2625510839
 30
0.0
 10
9.681529852
 20
3.2701352054
 30
0.0
 10
9.645364313
 20
3.2793116424
 30
0.0
 10
9.60980672
 20
3.2900300923
 30
0.0
 10
9.5749325986
 20
3.3022353816
 30
0.0
 10
9.5408085809
 20
3.3158689504
 30
0.0
 10
9.5074927065
 20
3.3308701481
 30
0.0
 10
9.4750349691
 20
3.3471773534
 30
0.0
 10
9.4434780253
 20
3.3647289192
 30
0.0
 10
9.4128579861
 20
3.383463853
 30
0.0
 10
9.3832052402
 20
3.4033223771
 30
0.0
 10
9.3545451838
 20
3.4242463086
 30
0.0
 10
9.3268991919
 20
3.4461790923
 30
0.0
 10
9.3002845118
 20
3.4690667433
 30
0.0
 10
9.2662793292
 20
3.5007059225
 30
0.0
 10
9.2263760087
 20
3.5423942664
 30
0.0
 10
9.182700603
 20
3.595556805
 30
0.0
 10
9.1433935843
 20
3.6513868125
 30
0.0
 10
9.108496968
 20
3.7095469456
 30
0.0
 10
9.0780401563
 20
3.769720919
 30
0.0
 10
9.0520463787
 20
3.8316068143
 30
0.0
 10
9.030533617
 20
3.894914901
 30
0.0
 10
9.0135159936
 20
3.9593645925
 30
0.0
 10
9.0010042657
 20
4.0246823202
 30
0.0
 10
8.9930062167
 20
4.0905995258
 30
0.0
 10
8.9895267486
 20
4.1568510497
 30
0.0
 10
8.9905679927
 20
4.2231735217
 30
0.0
 10
8.9961293332
 20
4.2893039235
 30
0.0
 10
9.0062073625
 20
4.3549782543
 30
0.0
 10
9.0207958829
 20
4.4199299643
 30
0.0
 10
9.0398857817
 20
4.4838883943
 30
0.0
 10
9.0634648199
 20
4.5465770345
 30
0.0
 10
9.0915171752
 20
4.6077113138
 30
0.0
 10
9.1240227484
 20
4.6669963509
 30
0.0
 10
9.160955319
 20
4.7241236302
 30
0.0
 10
9.2022818686
 20
4.7787691273
 30
0.0
 10
9.2479523405
 20
4.8305838414
 30
0.0
 10
9.2810991595
 20
4.8628430185
 30
0.0
 10
9.2983454474
 20
4.8783684462
 30
0.0
  0
SPLINE
  5
26C
100
AcDbEntity
  8
0
100
AcDbSpline
 62
7
  6
CONTINUOUS
 70
0
 71
3
 72
39
 73
35
 74
0
 42
0.0000001
 43
0.0000001
 44
0.0000000001
 40
0.0
 40
0.0
 40
0.0
 40
0.0
 40
0.0310770123
 40
0.06215869
 40
0.0932463261
 40
0.1243411639
 40
0.1554443875
 40
0.1865571128
 40
0.2176803777
 40
0.2488151316
 40
0.2799622285
 40
0.3111224212
 40
0.3422963563
 40
0.373484564
 40
0.4046874557
 40
0.4359053215
 40
0.4671383297
 40
0.4983865213
 40
0.5296498089
 40
0.5609279802
 40
0.5922207002
 40
0.6235275137
 40
0.6548478441
 40
0.6861810029
 40
0.7175261949
 40
0.7488825262
 40
0.7802490074
 40
0.811624562
 40
0.8430080455
 40
0.8743982238
 40
0.9057938796
 40
0.9371935453
 40
0.9685961999
 40
1.0
 40
1.0
 40
1.0
 40
1.0
 10
10.7080326942
 20
3.9050415121
 30
0.0
 10
10.706605538
 20
3.8924215236
 30
0.0
 10
10.7031667764
 20
3.8672417825
 30
0.0
 10
10.6962688757
 20
3.8297506297
 30
0.0
 10
10.6876450387
 20
3.792610142
 30
0.0
 10
10.677313681
 20
3.7558990698
 30
0.0
 10
10.6652966552
 20
3.719693871
 30
0.0
 10
10.6516194111
 20
3.6840702516
 30
0.0
 10
10.6363108767
 20
3.6491025457
 30
0.0
 10
10.6194034042
 20
3.6148636796
 30
0.0
 10
10.6009326886
 20
3.5814249846
 30
0.0
 10
10.5809376842
 20
3.5488560538
 30
0.0
 10
10.559460515
 20
3.5172245947
 30
0.0
 10
10.5365463752
 20
3.4865962929
 30
0.0
 10
10.5122434255
 20
3.4570346779
 30
0.0
 10
10.4866026834
 20
3.4286009938
 30
0.0
 10
10.4596779082
 20
3.4013540783
 30
0.0
 10
10.4315254829
 20
3.3753502466
 30
0.0
 10
10.4022042905
 20
3.3506431831
 30
0.0
 10
10.3717755865
 20
3.3272838365
 30
0.0
 10
10.3403028649
 20
3.3053203217
 30
0.0
 10
10.3078517262
 20
3.2847978304
 30
0.0
 10
10.2744897377
 20
3.2657585468
 30
0.0
 10
10.2402862952
 20
3.248241567
 30
0.0
 10
10.2053124766
 20
3.2322828255
 30
0.0
 10
10.1696408958
 20
3.2179150327
 30
0.0
 10
10.1333455563
 20
3.2051676164
 30
0.0
 10
10.0965016985
 20
3.194066663
 30
0.0
 10
10.0591856609
 20
3.1846348879
 30
0.0
 10
10.0214746743
 20
3.1768915499
 30
0.0
 10
9.9834468952
 20
3.1708525194
 30
0.0
 10
9.9451806332
 20
3.1665300488
 30
0.0
 10
9.9067561577
 20
3.1639330789
 30
0.0
 10
9.8810849202
 20
3.1633555669
 30
0.0
 10
9.8682509414
 20
3.1633555669
 30
0.0
  0
SPLINE
  5
26D
100
AcDbEntity
  8
0
100
AcDbSpline
 62
7
  6
CONTINUOUS
 70
0
 71
3
 72
43
 73
39
 74
0
 42
0.0000001
 43
0.0000001
 44
0.0000000001
 40
0.0
 40
0.0
 40
0.0
 40
0.0
 40
0.0312011856
 40
0.0467978846
 40
0.062390816
 40
0.0935619306
 40
0.1247207372
 40
0.1402983412
 40
0.1558736749
 40
0.1870143642
 40
0.2181495536
 40
0.2492817541
 40
0.2804135269
 40
0.3115474407
 40
0.3426860276
 40
0.3738317421
 40
0.4049869145
 40
0.436153715
 40
0.4673341193
 40
0.498529864
 40
0.5297424265
 40
0.5453575388
 40
0.5609772755
 40
0.5922267324
 40
0.6234956257
 40
0.639139566
 40
0.6547884167
 40
0.6860964958
 40
0.7174236379
 40
0.7487690512
 40
0.7801316143
 40
0.8115099108
 40
0.8429022502
 40
0.8743066897
 40
0.9057210697
 40
0.9371431152
 40
0.9685701208
 40
1.0
 40
1.0
 40
1.0
 40
1.0
 10
10.43818438
 20
4.7596505212
 30
0.0
 10
10.4456700879
 20
4.7472785851
 30
0.0
 10
10.4562867334
 20
4.728341964
 30
0.0
 10
10.4691549982
 20
4.7024437151
 30
0.0
 10
10.4811505331
 20
4.6761439898
 30
0.0
 10
10.4944906294
 20
4.6425541497
 30
0.0
 10
10.5055632669
 20
4.6081574482
 30
0.0
 10
10.5130287252
 20
4.5802555958
 30
0.0
 10
10.51955803
 20
4.5521286775
 30
0.0
 10
10.5259539054
 20
4.5165900456
 30
0.0
 10
10.5307654792
 20
4.473536294
 30
0.0
 10
10.5326930395
 20
4.4302605966
 30
0.0
 10
10.5317277368
 20
4.3869535876
 30
0.0
 10
10.5278739526
 20
4.3438045624
 30
0.0
 10
10.521148796
 20
4.301002473
 30
0.0
 10
10.5115821548
 20
4.258734556
 30
0.0
 10
10.4992165451
 20
4.2171855491
 30
0.0
 10
10.4841068978
 20
4.1765369264
 30
0.0
 10
10.4663199739
 20
4.1369656717
 30
0.0
 10
10.4459351445
 20
4.0986450333
 30
0.0
 10
10.4268579241
 20
4.0678926627
 30
0.0
 10
10.4103962162
 20
4.0440833139
 30
0.0
 10
10.3931454843
 20
4.0208178474
 30
0.0
 10
10.3701427413
 20
3.9928122256
 30
0.0
 10
10.3453343396
 20
3.9663776093
 30
0.0
 10
10.3244692453
 20
3.9462382621
 30
0.0
 10
10.3029391875
 20
3.9267844645
 30
0.0
 10
10.2748302612
 20
3.9038003983
 30
0.0
 10
10.2393497966
 20
3.87848446
 30
0.0
 10
10.2022646553
 20
3.8555339117
 30
0.0
 10
10.1637368492
 20
3.8350477299
 30
0.0
 10
10.1239332766
 20
3.8171131511
 30
0.0
 10
10.0830263941
 20
3.801806694
 30
0.0
 10
10.0411930509
 20
3.7891935331
 30
0.0
 10
9.9986141159
 20
3.7793273081
 30
0.0
 10
9.9554727813
 20
3.7722499732
 30
0.0
 10
9.9119574022
 20
3.7679914473
 30
0.0
 10
9.8828172425
 20
3.7670438055
 30
0.0
 10
9.8682509414
 20
3.7670438055
 30
0.0
  0
SPLINE
  5
26E
100
AcDbEntity
  8
0
100
AcDbSpline
 62
7
  6
CONTINUOUS
 70
0
 71
3
 72
39
 73
35
 74
0
 42
0.0000001
 43
0.0000001
 44
0.0000000001
 40
0.0
 40
0.0
 40
0.0
 40
0.0
 40
0.0314037865
 40
0.0628064276
 40
0.0942060798
 40
0.1256017226
 40
0.1569918886
 40
0.1883753606
 40
0.2197509048
 40
0.2511173769
 40
0.2824737005
 40
0.3138188864
 40
0.3451520407
 40
0.3764723683
 40
0.4077791808
 40
0.4390719016
 40
0.4703500753
 40
0.501613367
 40
0.5328615643
 40
0.5640945795
 40
0.5953124536
 40
0.6265153545
 40
0.6577035723
 40
0.6888775179
 40
0.7200377214
 40
0.7511848289
 40
0.782319593
 40
0.8134428674
 40
0.8445556009
 40
0.8756588313
 40
0.9067536741
 40
0.9378413128
 40
0.9689229905
 40
1.0
 40
1.0
 40
1.0
 40
1.0
 10
9.8682509414
 20
3.1633555669
 30
0.0
 10
9.8554181176
 20
3.1633555669
 30
0.0
 10
9.8297491911
 20
3.163932975
 30
0.0
 10
9.7913281599
 20
3.1665294776
 30
0.0
 10
9.7530653
 20
3.1708511715
 30
0.0
 10
9.7150408592
 20
3.1768891189
 30
0.0
 10
9.6773331258
 20
3.1846310719
 30
0.0
 10
9.6400202357
 20
3.1940611656
 30
0.0
 10
9.6031793992
 20
3.2051601483
 30
0.0
 10
9.5668869347
 20
3.2179053125
 30
0.0
 10
9.5312180631
 20
3.2322705812
 30
0.0
 10
9.4962467688
 20
3.2482265369
 30
0.0
 10
9.4620456473
 20
3.265740481
 30
0.0
 10
9.4286857587
 20
3.2847764915
 30
0.0
 10
9.3962364818
 20
3.3052954862
 30
0.0
 10
9.364765368
 20
3.3272552957
 30
0.0
 10
9.3343380022
 20
3.3506107443
 30
0.0
 10
9.3050178643
 20
3.3753137336
 30
0.0
 10
9.2768661962
 20
3.4013133328
 30
0.0
 10
9.2499418687
 20
3.428555876
 30
0.0
 10
9.2243012536
 20
3.4569850672
 30
0.0
 10
9.1999981
 20
3.4865420887
 30
0.0
 10
9.1770834165
 20
3.5171657173
 30
0.0
 10
9.1556053562
 20
3.5487924445
 30
0.0
 10
9.1356091067
 20
3.5813566068
 30
0.0
 10
9.1171367872
 20
3.6147905189
 30
0.0
 10
9.1002273483
 20
3.6490246105
 30
0.0
 10
9.0849164827
 20
3.6839875733
 30
0.0
 10
9.0712365416
 20
3.7196065042
 30
0.0
 10
9.0592164534
 20
3.7558070924
 30
0.0
 10
9.0488816699
 20
3.7925136554
 30
0.0
 10
9.0402540469
 20
3.8296497587
 30
0.0
 10
9.0333520046
 20
3.8671366752
 30
0.0
 10
9.0299102489
 20
3.8923137069
 30
0.0
 10
9.0284815386
 20
3.9049323736
 30
0.0
  0
SPLINE
  5
26F
100
AcDbEntity
  8
0
100
AcDbSpline
 62
7
  6
CONTINUOUS
 70
0
 71
3
 72
43
 73
39
 74
0
 42
0.0000001
 43
0.0000001
 44
0.0000000001
 40
0.0
 40
0.0
 40
0.0
 40
0.0
 40
0.0314298808
 40
0.0628568874
 40
0.0942789331
 40
0.1256933126
 40
0.1570977511
 40
0.1884900886
 40
0.2198683829
 40
0.2512309433
 40
0.2825763533
 40
0.3139034919
 40
0.3452115672
 40
0.3608604159
 40
0.3765043542
 40
0.4077732435
 40
0.4390226964
 40
0.4546424312
 40
0.4702575416
 40
0.5014701005
 40
0.5326658421
 40
0.5638462437
 40
0.595013042
 40
0.6261682129
 40
0.6573139266
 40
0.6884525134
 40
0.719586428
 40
0.7507182025
 40
0.7818504056
 40
0.8129855984
 40
0.844126292
 40
0.8597016281
 40
0.8752792348
 40
0.9064380474
 40
0.9376091687
 40
0.9532021037
 40
0.9687988064
 40
1.0
 40
1.0
 40
1.0
 40
1.0
 10
9.8682509414
 20
3.7670438055
 30
0.0
 10
9.8536846013
 20
3.7670438055
 30
0.0
 10
9.8245443636
 20
3.7679914524
 30
0.0
 10
9.7810288697
 20
3.772250001
 30
0.0
 10
9.7378874241
 20
3.7793273733
 30
0.0
 10
9.6953083835
 20
3.7891936499
 30
0.0
 10
9.6534749413
 20
3.8018068762
 30
0.0
 10
9.6125679677
 20
3.8171134115
 30
0.0
 10
9.5727643131
 20
3.8350480805
 30
0.0
 10
9.5342364351
 20
3.8555343639
 30
0.0
 10
9.4971512334
 20
3.8784850246
 30
0.0
 10
9.4616707204
 20
3.9038010844
 30
0.0
 10
9.433561764
 20
3.9267852581
 30
0.0
 10
9.4120316903
 20
3.9462391467
 30
0.0
 10
9.3911665831
 20
3.9663785851
 30
0.0
 10
9.3663581763
 20
3.9928133214
 30
0.0
 10
9.3433554404
 20
4.0208190667
 30
0.0
 10
9.3261047208
 20
4.0440846327
 30
0.0
 10
9.3096430319
 20
4.0678940832
 30
0.0
 10
9.2905658439
 20
4.0986465815
 30
0.0
 10
9.2701810718
 20
4.1369673749
 30
0.0
 10
9.2523942214
 20
4.1765387838
 30
0.0
 10
9.2372846634
 20
4.2171875585
 30
0.0
 10
9.22491916
 20
4.258736714
 30
0.0
 10
9.2153526432
 20
4.3010047753
 30
0.0
 10
9.2086276282
 20
4.3438070025
 30
0.0
 10
9.2047740003
 20
4.3869561574
 30
0.0
 10
9.20380887
 20
4.4302632868
 30
0.0
 10
9.2057366191
 20
4.4735390936
 30
0.0
 10
9.2105483978
 20
4.516592942
 30
0.0
 10
9.2169444533
 20
4.5521316429
 30
0.0
 10
9.22347391
 20
4.5802586086
 30
0.0
 10
9.2309395225
 20
4.6081605037
 30
0.0
 10
9.2420123622
 20
4.6425572478
 30
0.0
 10
9.2553526713
 20
4.6761471139
 30
0.0
 10
9.267348377
 20
4.7024468521
 30
0.0
 10
9.2802168198
 20
4.7283451055
 30
0.0
 10
9.2908335996
 20
4.7472817231
 30
0.0
 10
9.2983193978
 20
4.7596536534
 30
0.0
  0
SPLINE
  5
270
100
AcDbEntity
  8
0
100
AcDbSpline
 62
7
  6
CONTINUOUS
 70
0
 71
3
 72
37
 73
33
 74
0
 42
0.0000001
 43
0.0000001
 44
0.0000000001
 40
0.0
 40
0.0
 40
0.0
 40
0.0
 40
0.0625179275
 40
0.125009043
 40
0.1562502194
 40
0.1874840912
 40
0.2031008975
 40
0.2187178959
 40
0.2499530395
 40
0.2811961197
 40
0.3124485331
 40
0.3749585128
 40
0.4374801078
 40
0.4687451794
 40
0.5000028594
 40
0.5312514183
 40
0.5624909275
 40
0.593723824
 40
0.6093405982
 40
0.6249579027
 40
0.6561943746
 40
0.6874392524
 40
0.7186934694
 40
0.7499559359
 40
0.7812241037
 40
0.8124945283
 40
0.8437634296
 40
0.8750272529
 40
0.9062832296
 40
0.9375299394
 40
0.9687678736
 40
1.0
 40
1.0
 40
1.0
 40
1.0
 10
10.4379959491
 20
10.5262745233
 30
0.0
 10
10.4379877848
 20
10.5449202266
 30
0.0
 10
10.4361742385
 20
10.5822261432
 30
0.0
 10
10.4294078662
 20
10.628411468
 30
0.0
 10
10.421298164
 20
10.6648021179
 30
0.0
 10
10.4151042484
 20
10.6872653943
 30
0.0
 10
10.4094751196
 20
10.7050271257
 30
0.0
 10
10.4033972497
 20
10.7226408285
 30
0.0
 10
10.3949709991
 20
10.7443659687
 30
0.0
 10
10.3835761143
 20
10.7699055834
 30
0.0
 10
10.3667265494
 20
10.8031772426
 30
0.0
 10
10.3426506581
 20
10.8431795587
 30
0.0
 10
10.3148330716
 20
10.8806801486
 30
0.0
 10
10.2904982099
 20
10.9089566668
 30
0.0
 10
10.2712410483
 20
10.929253267
 30
0.0
 10
10.2510212976
 20
10.9485796079
 30
0.0
 10
10.2298787598
 20
10.9668806248
 30
0.0
 10
10.2115228409
 20
10.9812323195
 30
0.0
 10
10.1964192644
 20
10.9921429762
 30
0.0
 10
10.1810437709
 20
11.0026688278
 30
0.0
 10
10.1613333886
 20
11.0151000458
 30
0.0
 10
10.1369680296
 20
11.0288294799
 30
0.0
 10
10.1119520473
 20
11.0413518791
 30
0.0
 10
10.0863507335
 20
11.052646027
 30
0.0
 10
10.0602289021
 20
11.062691014
 30
0.0
 10
10.0336514627
 20
11.0714657934
 30
0.0
 10
10.006683281
 20
11.078949299
 30
0.0
 10
9.979389195
 20
11.0851204109
 30
0.0
 10
9.9518341192
 20
11.0899579629
 30
0.0
 10
9.9240826441
 20
11.0934407371
 30
0.0
 10
9.896200565
 20
11.095547465
 30
0.0
 10
9.8775657898
 20
11.0960203792
 30
0.0
 10
9.8682509414
 20
11.0960203792
 30
0.0
  0
SPLINE
  5
271
100
AcDbEntity
  8
0
100
AcDbSpline
 62
9
  6
CONTINUOUS
 70
0
 71
3
 72
33
 73
29
 74
0
 42
0.0000001
 43
0.0000001
 44
0.0000000001
 40
0.0
 40
0.0
 40
0.0
 40
0.0
 40
0.031459715
 40
0.0629183623
 40
0.0943728231
 40
0.1258222741
 40
0.1886840598
 40
0.2515050136
 40
0.2829036569
 40
0.3142878137
 40
0.3456562637
 40
0.3770079017
 40
0.4083417476
 40
0.439656954
 40
0.502214189
 40
0.5646901985
 40
0.5959045131
 40
0.6270981683
 40
0.6582713651
 40
0.6894244576
 40
0.7205579518
 40
0.7516725024
 40
0.8138332568
 40
0.8759295221
 40
0.9069639782
 40
0.9379861946
 40
0.9689976737
 40
1.0
 40
1.0
 40
1.0
 40
1.0
 10
9.8682509414
 20
3.7517550728
 30
0.0
 10
9.858724104
 20
3.7517550728
 30
0.0
 10
9.8396682261
 20
3.75216181
 30
0.0
 10
9.8111400436
 20
3.7539907642
 30
0.0
 10
9.7827179909
 20
3.7570354932
 30
0.0
 10
9.7450476034
 20
3.7627061633
 30
0.0
 10
9.6984835266
 20
3.7728000892
 30
0.0
 10
9.6529669043
 20
3.786831763
 30
0.0
 10
9.6174040095
 20
3.8003509867
 30
0.0
 10
9.5912034556
 20
3.8116184887
 30
0.0
 10
9.5655236121
 20
3.8239932468
 30
0.0
 10
9.5404122433
 20
3.8374520872
 30
0.0
 10
9.5159161694
 20
3.8519700875
 30
0.0
 10
9.4841524705
 20
3.8726924275
 30
0.0
 10
9.446201806
 20
3.9011066599
 30
0.0
 10
9.4108690698
 20
3.9326718479
 30
0.0
 10
9.3843554924
 20
3.9596532281
 30
0.0
 10
9.3653818832
 20
3.9807155082
 30
0.0
 10
9.3473530522
 20
4.0025673532
 30
0.0
 10
9.330302466
 20
4.0251679783
 30
0.0
 10
9.3142620057
 20
4.0484754182
 30
0.0
 10
9.2942711916
 20
4.0804202157
 30
0.0
 10
9.2719440133
 20
4.1219084264
 30
0.0
 10
9.2533397606
 20
4.1651681595
 30
0.0
 10
9.2407849765
 20
4.2006174449
 30
0.0
 10
9.2325475227
 20
4.2275802692
 30
0.0
 10
9.2255043738
 20
4.2548682794
 30
0.0
 10
9.2216129299
 20
4.273247431
 30
0.0
 10
9.2198706204
 20
4.2824726714
 30
0.0
  0
SPLINE
  5
272
100
AcDbEntity
  8
0
100
AcDbSpline
 62
9
  6
CONTINUOUS
 70
0
 71
3
 72
31
 73
27
 74
0
 42
0.0000001
 43
0.0000001
 44
0.0000000001
 40
0.0
 40
0.0
 40
0.0
 40
0.0
 40
0.0314092284
 40
0.0628184691
 40
0.0942243826
 40
0.1256270044
 40
0.1884074492
 40
0.251160178
 40
0.2825283094
 40
0.3138864313
 40
0.3452336059
 40
0.376568952
 40
0.4391912802
 40
0.5017572387
 40
0.5642621382
 40
0.6267025012
 40
0.6579026273
 40
0.6890859085
 40
0.7202522816
 40
0.751401766
 40
0.8136407363
 40
0.8758144747
 40
0.9068827655
 40
0.937936044
 40
0.9689749006
 40
1.0
 40
1.0
 40
1.0
 40
1.0
 10
9.8682509414
 20
3.2106302897
 30
0.0
 10
9.8586285628
 20
3.2106302897
 30
0.0
 10
9.8393820951
 20
3.210966297
 30
0.0
 10
9.8105500366
 20
3.2124774086
 30
0.0
 10
9.7817896307
 20
3.2149940526
 30
0.0
 10
9.7435952556
 20
3.2196846994
 30
0.0
 10
9.6962069106
 20
3.2280429334
 30
0.0
 10
9.6495285637
 20
3.2396892242
 30
0.0
 10
9.6127641087
 20
3.2509409466
 30
0.0
 10
9.5855123188
 20
3.2603364559
 30
0.0
 10
9.5586157558
 20
3.2706773474
 30
0.0
 10
9.5232838287
 20
3.2857030823
 30
0.0
 10
9.4801661546
 20
3.306783005
 30
0.0
 10
9.4303698728
 20
3.3356280188
 30
0.0
 10
9.3827727502
 20
3.3678742244
 30
0.0
 10
9.3451263193
 20
3.3974575904
 30
0.0
 10
9.3163491025
 20
3.4226508944
 30
0.0
 10
9.2954625879
 20
3.4422843816
 30
0.0
 10
9.2752957951
 20
3.4626345859
 30
0.0
 10
9.2494100197
 20
3.490678691
 30
0.0
 10
9.2189682683
 20
3.5274018886
 30
0.0
 10
9.1912305275
 20
3.566177692
 30
0.0
 10
9.1707606266
 20
3.5982941664
 30
0.0
 10
9.1562863749
 20
3.6228991222
 30
0.0
 10
9.142707082
 20
3.6479932436
 30
0.0
 10
9.1342596926
 20
3.6650326751
 30
0.0
 10
9.1301911249
 20
3.673622556
 30
0.0
  0
SPLINE
  5
273
100
AcDbEntity
  8
0
100
AcDbSpline
 62
7
  6
CONTINUOUS
 70
0
 71
3
 72
35
 73
31
 74
0
 42
0.0000001
 43
0.0000001
 44
0.0000000001
 40
0.0
 40
0.0
 40
0.0
 40
0.0
 40
0.0314911839
 40
0.062980565
 40
0.0944652531
 40
0.1259434582
 40
0.1888530501
 40
0.2517101585
 40
0.2831232273
 40
0.3145179469
 40
0.3458930539
 40
0.3772476946
 40
0.3929183378
 40
0.4085837278
 40
0.4242437434
 40
0.4398982683
 40
0.4711881729
 40
0.5024551042
 40
0.5336985818
 40
0.5649183223
 40
0.6272687443
 40
0.6895284423
 40
0.720636502
 40
0.7517262484
 40
0.7828000066
 40
0.8138604547
 40
0.8449100035
 40
0.8759496881
 40
0.9379856752
 40
1.0
 40
1.0
 40
1.0
 40
1.0
 10
9.8682509414
 20
3.8843562048
 30
0.0
 10
9.8775743557
 20
3.8843562048
 30
0.0
 10
9.8962239385
 20
3.8848237217
 30
0.0
 10
9.9241247435
 20
3.8869047046
 30
0.0
 10
9.9518882228
 20
3.8903424845
 30
0.0
 10
9.9886201239
 20
3.8967017688
 30
0.0
 10
10.0338780833
 20
3.9079285436
 30
0.0
 10
10.0778484197
 20
3.9233920369
 30
0.0
 10
10.1119832935
 20
3.9382211341
 30
0.0
 10
10.1370044314
 20
3.9505543173
 30
0.0
 10
10.1613805077
 20
3.9640808256
 30
0.0
 10
10.181107088
 20
3.9763333096
 30
0.0
 10
10.1964963053
 20
3.9867122896
 30
0.0
 10
10.2078331752
 20
3.9947815537
 30
0.0
 10
10.2189596215
 20
4.0031306209
 30
0.0
 10
10.2335017403
 20
4.0146254051
 30
0.0
 10
10.2511260363
 20
4.0296602477
 30
0.0
 10
10.2713484363
 20
4.0487095026
 30
0.0
 10
10.2906023782
 20
4.0687094
 30
0.0
 10
10.3149167698
 20
4.0965520763
 30
0.0
 10
10.3427123137
 20
4.1334705198
 30
0.0
 10
10.366788407
 20
4.1728784478
 30
0.0
 10
10.3836385371
 20
4.2056615879
 30
0.0
 10
10.3950335839
 20
4.230828345
 30
0.0
 10
10.4051446073
 20
4.2565224915
 30
0.0
 10
10.4139280694
 20
4.282688021
 30
0.0
 10
10.4213544235
 20
4.3092604496
 30
0.0
 10
10.4294516968
 20
4.3451198569
 30
0.0
 10
10.4361983622
 20
4.3906173115
 30
0.0
 10
10.4379960073
 20
4.4273678221
 30
0.0
 10
10.4379960074
 20
4.4457280476
 30
0.0
  0
SPLINE
  5
274
100
AcDbEntity
  8
0
100
AcDbSpline
 62
9
  6
CONTINUOUS
 70
0
 71
3
 72
33
 73
29
 74
0
 42
0.0000001
 43
0.0000001
 44
0.0000000001
 40
0.0
 40
0.0
 40
0.0
 40
0.0
 40
0.0314597072
 40
0.062918347
 40
0.0943728004
 40
0.1258222442
 40
0.1886840178
 40
0.2515049619
 40
0.282903601
 40
0.3142877543
 40
0.3456562016
 40
0.3770078378
 40
0.4083416827
 40
0.439656889
 40
0.5022141272
 40
0.5646901428
 40
0.5959044612
 40
0.6270981206
 40
0.658271322
 40
0.6894244195
 40
0.7205579189
 40
0.7516724747
 40
0.8138332402
 40
0.8759295149
 40
0.9069639743
 40
0.9379861931
 40
0.9689976736
 40
1.0
 40
1.0
 40
1.0
 40
1.0
 10
9.8682509414
 20
3.7517550728
 30
0.0
 10
9.8777774969
 20
3.7517550728
 30
0.0
 10
9.8968328108
 20
3.752161786
 30
0.0
 10
9.9253601521
 20
3.7539906319
 30
0.0
 10
9.9537813731
 20
3.757035181
 30
0.0
 10
9.9914506716
 20
3.7627055167
 30
0.0
 10
10.0380134335
 20
3.7727988494
 30
0.0
 10
10.0835288333
 20
3.7868297045
 30
0.0
 10
10.1190908247
 20
3.8003481459
 30
0.0
 10
10.1452907422
 20
3.8116149998
 30
0.0
 10
10.1709699944
 20
3.8239890509
 30
0.0
 10
10.1960808212
 20
3.837447128
 30
0.0
 10
10.2205764061
 20
3.8519643115
 30
0.0
 10
10.2523395295
 20
3.8726854967
 30
0.0
 10
10.2902896237
 20
3.9010981677
 30
0.0
 10
10.3256220103
 20
3.9326616602
 30
0.0
 10
10.3521354527
 20
3.9596416216
 30
0.0
 10
10.3711090349
 20
3.9807028106
 30
0.0
 10
10.3891379155
 20
4.0025535416
 30
0.0
 10
10.4061886296
 20
4.0251530343
 30
0.0
 10
10.422229298
 20
4.048459328
 30
0.0
 10
10.442220498
 20
4.0804025863
 30
0.0
 10
10.4645483648
 20
4.1218888607
 30
0.0
 10
10.483153587
 20
4.1651466759
 30
0.0
 10
10.4957093156
 20
4.2005944602
 30
0.0
 10
10.5039475616
 20
4.227556179
 30
0.0
 10
10.5109915861
 20
4.2548431097
 30
0.0
 10
10.5148836688
 20
4.2732215624
 30
0.0
 10
10.5166263114
 20
4.2824464595
 30
0.0
  0
SPLINE
  5
275
100
AcDbEntity
  8
0
100
AcDbSpline
 62
9
  6
CONTINUOUS
 70
0
 71
3
 72
31
 73
27
 74
0
 42
0.0000001
 43
0.0000001
 44
0.0000000001
 40
0.0
 40
0.0
 40
0.0
 40
0.0
 40
0.0314096459
 40
0.0628192937
 40
0.0942256092
 40
0.1256286226
 40
0.1884097614
 40
0.2511630916
 40
0.2825314975
 40
0.3138898614
 40
0.3452372432
 40
0.3765727597
 40
0.4391952781
 40
0.501761265
 40
0.5642660299
 40
0.6267061019
 40
0.6579060452
 40
0.6890891104
 40
0.7202552371
 40
0.7514044485
 40
0.8136427728
 40
0.8758158089
 40
0.9068837574
 40
0.9379366955
 40
0.9689752196
 40
1.0
 40
1.0
 40
1.0
 40
1.0
 10
9.8682509414
 20
3.2106302897
 30
0.0
 10
9.877889962
 20
3.2106302897
 30
0.0
 10
9.8971697192
 20
3.2109674601
 30
0.0
 10
9.9260515168
 20
3.2124838019
 30
0.0
 10
9.9548612886
 20
3.2150091492
 30
0.0
 10
9.9931206939
 20
3.2197159915
 30
0.0
 10
10.0405884875
 20
3.2281030259
 30
0.0
 10
10.0873426091
 20
3.2397892502
 30
0.0
 10
10.1241647035
 20
3.251079341
 30
0.0
 10
10.1514580721
 20
3.2605067617
 30
0.0
 10
10.1783943936
 20
3.2708826224
 30
0.0
 10
10.213776628
 20
3.2859589108
 30
0.0
 10
10.2569518599
 20
3.3071092191
 30
0.0
 10
10.3068073719
 20
3.3360493486
 30
0.0
 10
10.3544527167
 20
3.3684003098
 30
0.0
 10
10.3921293048
 20
3.3980781811
 30
0.0
 10
10.4209240872
 20
3.4233507381
 30
0.0
 10
10.4418203955
 20
3.443045341
 30
0.0
 10
10.4619935064
 20
3.4634581816
 30
0.0
 10
10.4878829277
 20
3.4915875478
 30
0.0
 10
10.5183201126
 20
3.5284203397
 30
0.0
 10
10.5460405859
 20
3.5673085628
 30
0.0
 10
10.5664887784
 20
3.5995158365
 30
0.0
 10
10.5809427853
 20
3.6241891509
 30
0.0
 10
10.5944978209
 20
3.6493516952
 30
0.0
 10
10.6029263299
 20
3.6664366723
 30
0.0
 10
10.6069847837
 20
3.6750492637
 30
0.0
  0
SPLINE
  5
276
100
AcDbEntity
  8
0
100
AcDbSpline
 62
9
  6
CONTINUOUS
 70
0
 71
3
 72
13
 73
9
 74
0
 42
0.0000001
 43
0.0000001
 44
0.0000000001
 40
0.0
 40
0.0
 40
0.0
 40
0.0
 40
0.2469985489
 40
0.3711095321
 40
0.4957156593
 40
0.6208869772
 40
0.7466681343
 40
1.0
 40
1.0
 40
1.0
 40
1.0
 10
11.4757509414
 20
11.4241711399
 30
0.0
 10
11.4426307983
 20
11.423625078
 30
0.0
 10
11.3928715012
 20
11.4225995679
 30
0.0
 10
11.3264170351
 20
11.4207582575
 30
0.0
 10
11.2763020917
 20
11.4191139794
 30
0.0
 10
11.2259729255
 20
11.4171892542
 30
0.0
 10
11.1584092458
 20
11.4142149805
 30
0.0
 10
11.1076372744
 20
11.4115034133
 30
0.0
 10
11.0737253023
 20
11.4094514328
 30
0.0
  0
SPLINE
  5
277
100
AcDbEntity
  8
0
100
AcDbSpline
 62
7
  6
CONTINUOUS
 70
0
 71
3
 72
35
 73
31
 74
0
 42
0.0000001
 43
0.0000001
 44
0.0000000001
 40
0.0
 40
0.0
 40
0.0
 40
0.0
 40
0.0620143248
 40
0.1240503119
 40
0.1550899966
 40
0.1861395453
 40
0.2171999934
 40
0.2482737516
 40
0.2793634981
 40
0.3104715577
 40
0.3727312557
 40
0.4350816763
 40
0.4663014184
 40
0.4975449025
 40
0.5288118285
 40
0.5601017264
 40
0.575756252
 40
0.5914162704
 40
0.6070816635
 40
0.622752308
 40
0.6541069478
 40
0.6854820534
 40
0.7168767729
 40
0.7482898413
 40
0.8111469506
 40
0.8740565409
 40
0.9055347464
 40
0.937019435
 40
0.9685088161
 40
1.0
 40
1.0
 40
1.0
 40
1.0
 10
9.2985058755
 20
4.4457280476
 30
0.0
 10
9.2985058755
 20
4.4273678221
 30
0.0
 10
9.3003035206
 20
4.3906173115
 30
0.0
 10
9.307050186
 20
4.3451198568
 30
0.0
 10
9.3151474594
 20
4.3092604495
 30
0.0
 10
9.3225738134
 20
4.282688021
 30
0.0
 10
9.3313572755
 20
4.2565224915
 30
0.0
 10
9.3414682989
 20
4.230828345
 30
0.0
 10
9.3528633458
 20
4.2056615879
 30
0.0
 10
9.3697134759
 20
4.1728784478
 30
0.0
 10
9.3937895689
 20
4.1334705201
 30
0.0
 10
9.4215851129
 20
4.0965520766
 30
0.0
 10
9.4458995056
 20
4.0687093987
 30
0.0
 10
9.4651534483
 20
4.0487095009
 30
0.0
 10
9.4853758472
 20
4.0296602472
 30
0.0
 10
9.5030001403
 20
4.0146254064
 30
0.0
 10
9.5175422588
 20
4.0031306233
 30
0.0
 10
9.5286687073
 20
3.9947815558
 30
0.0
 10
9.5400055785
 20
3.9867122898
 30
0.0
 10
9.5553947958
 20
3.976333308
 30
0.0
 10
9.5751213766
 20
3.9640808251
 30
0.0
 10
9.599497452
 20
3.950554317
 30
0.0
 10
9.6245185894
 20
3.9382211341
 30
0.0
 10
9.6586534633
 20
3.9233920368
 30
0.0
 10
9.7026237995
 20
3.9079285437
 30
0.0
 10
9.7478817587
 20
3.8967017689
 30
0.0
 10
9.7846136597
 20
3.8903424845
 30
0.0
 10
9.8123771393
 20
3.8869047046
 30
0.0
 10
9.8402779443
 20
3.8848237217
 30
0.0
 10
9.8589275272
 20
3.8843562048
 30
0.0
 10
9.8682509414
 20
3.8843562048
 30
0.0
  0
SPLINE
  5
278
100
AcDbEntity
  8
0
100
AcDbSpline
 62
9
  6
CONTINUOUS
 70
0
 71
3
 72
13
 73
9
 74
0
 42
0.0000001
 43
0.0000001
 44
0.0000000001
 40
0.0
 40
0.0
 40
0.0
 40
0.0
 40
0.2470049729
 40
0.371119553
 40
0.4957285427
 40
0.6209012449
 40
0.746681497
 40
1.0
 40
1.0
 40
1.0
 40
1.0
 10
11.4757509414
 20
9.627873283
 30
0.0
 10
11.4426386829
 20
9.6284199153
 30
0.0
 10
11.3928911859
 20
9.629446133
 30
0.0
 10
11.3264525377
 20
9.631287687
 30
0.0
 10
11.2763497645
 20
9.6329317067
 30
0.0
 10
11.2260334123
 20
9.6348556342
 30
0.0
 10
11.1584892277
 20
9.6378279373
 30
0.0
 10
11.107732472
 20
9.6405369867
 30
0.0
 10
11.0738311382
 20
9.6425867787
 30
0.0
  0
SPLINE
  5
279
100
AcDbEntity
  8
0
100
AcDbSpline
 62
9
  6
CONTINUOUS
 70
0
 71
3
 72
28
 73
24
 74
0
 42
0.0000001
 43
0.0000001
 44
0.0000000001
 40
0.0
 40
0.0
 40
0.0
 40
0.0
 40
0.0589603982
 40
0.119992864
 40
0.1829430006
 40
0.2476144502
 40
0.3138034923
 40
0.3812643387
 40
0.4497364264
 40
0.5189011838
 40
0.5879775357
 40
0.6559644221
 40
0.6892393956
 40
0.7218826886
 40
0.7537850494
 40
0.7848634692
 40
0.8150819861
 40
0.8444095732
 40
0.9002711091
 40
0.9267462484
 40
0.9522115462
 40
0.976637615
 40
1.0
 40
1.0
 40
1.0
 40
1.0
 10
11.4757509414
 20
10.2213909559
 30
0.0
 10
11.4586856845
 20
10.2217400936
 30
0.0
 10
11.4239516502
 20
10.2222755006
 30
0.0
 10
11.3709905107
 20
10.2225895718
 30
0.0
 10
11.3163753599
 20
10.2224179341
 30
0.0
 10
11.2602711581
 20
10.2217481857
 30
0.0
 10
11.2028692493
 20
10.2205684578
 30
0.0
 10
11.1443796452
 20
10.2188683734
 30
0.0
 10
11.0850457676
 20
10.2166380391
 30
0.0
 10
11.0252660312
 20
10.2138761643
 30
0.0
 10
10.9656531499
 20
10.2105959988
 30
0.0
 10
10.9164420518
 20
10.2074240402
 30
0.0
 10
10.8777780628
 20
10.2046241619
 30
0.0
 10
10.8495447198
 20
10.2024247947
 30
0.0
 10
10.8219580926
 20
10.2001169564
 30
0.0
 10
10.7950849804
 20
10.1977061809
 30
0.0
 10
10.768969091
 20
10.1952020718
 30
0.0
 10
10.7357321323
 20
10.1918036415
 30
0.0
 10
10.7036051797
 20
10.1882073046
 30
0.0
 10
10.6726298742
 20
10.1843991105
 30
0.0
 10
10.6507079558
 20
10.1815362145
 30
0.0
 10
10.6297022104
 20
10.1786220092
 30
0.0
 10
10.6160154512
 20
10.1766035229
 30
0.0
 10
10.6093290214
 20
10.1755865339
 30
0.0
  0
SPLINE
  5
27A
100
AcDbEntity
  8
0
100
AcDbSpline
 62
9
  6
CONTINUOUS
 70
0
 71
3
 72
35
 73
31
 74
0
 42
0.0000001
 43
0.0000001
 44
0.0000000001
 40
0.0
 40
0.0
 40
0.0
 40
0.0
 40
0.1159724719
 40
0.2256766576
 40
0.3288822427
 40
0.4253607777
 40
0.5149037299
 40
0.5973267193
 40
0.672452851
 40
0.7401128528
 40
0.8001698433
 40
0.852499377
 40
0.8969873527
 40
0.9162600123
 40
0.9335401947
 40
0.9488204358
 40
0.9620938091
 40
0.9733543303
 40
0.9782287807
 40
0.9825997312
 40
0.9864679766
 40
0.9898348093
 40
0.9927023657
 40
0.9950743289
 40
0.9969575596
 40
0.9983664741
 40
0.9989037416
 40
0.9993406341
 40
0.9996950851
 40
1.0
 40
1.0
 40
1.0
 40
1.0
 10
12.6141705016
 20
10.7949458069
 30
0.0
 10
12.6142254965
 20
10.7986550746
 30
0.0
 10
12.6143375144
 20
10.805873052
 30
0.0
 10
12.6145167923
 20
10.816391666
 30
0.0
 10
12.6147019519
 20
10.8262865132
 30
0.0
 10
12.6148931651
 20
10.8355362096
 30
0.0
 10
12.6150901069
 20
10.8441208406
 30
0.0
 10
12.6152918163
 20
10.8520221466
 30
0.0
 10
12.6154977106
 20
10.8592231062
 30
0.0
 10
12.6157080617
 20
10.8657081687
 30
0.0
 10
12.6159216369
 20
10.871463483
 30
0.0
 10
12.6161377718
 20
10.8764768894
 30
0.0
 10
12.6163273271
 20
10.8801855582
 30
0.0
 10
12.6164832088
 20
10.8827731824
 30
0.0
 10
12.6165948436
 20
10.8844274501
 30
0.0
 10
12.6167066567
 20
10.8858893182
 30
0.0
 10
12.6168185855
 20
10.8871579778
 30
0.0
 10
12.6169158602
 20
10.8880937037
 30
0.0
 10
12.6169952604
 20
10.8887448314
 30
0.0
 10
12.6170519142
 20
10.8891604794
 30
0.0
 10
12.6171085271
 20
10.8895274082
 30
0.0
 10
12.6171650437
 20
10.889845629
 30
0.0
 10
12.6172214011
 20
10.8901151343
 30
0.0
 10
12.6172774286
 20
10.8903361257
 30
0.0
 10
12.6173331133
 20
10.8905085983
 30
0.0
 10
12.6173823661
 20
10.8906213832
 30
0.0
 10
12.6174238735
 20
10.8906855577
 30
0.0
 10
12.617452387
 20
10.8907173973
 30
0.0
 10
12.6174816544
 20
10.8907376041
 30
0.0
 10
12.6175028742
 20
10.8907425922
 30
0.0
 10
12.6175126277
 20
10.8907426014
 30
0.0
  0
SPLINE
  5
27B
100
AcDbEntity
  8
0
100
AcDbSpline
 62
9
  6
CONTINUOUS
 70
0
 71
3
 72
35
 73
31
 74
0
 42
0.0000001
 43
0.0000001
 44
0.0000000001
 40
0.0
 40
0.0
 40
0.0
 40
0.0
 40
0.0003049079
 40
0.0006593799
 40
0.0010963468
 40
0.0016337407
 40
0.0030430187
 40
0.0049266677
 40
0.0072989924
 40
0.0101667519
 40
0.0135336046
 40
0.0174017002
 40
0.021772348
 40
0.0266463611
 40
0.0379057086
 40
0.051177923
 40
0.0664576211
 40
0.0837381453
 40
0.1030114973
 40
0.147499972
 40
0.1998303617
 40
0.2598881093
 40
0.327546592
 40
0.4026719276
 40
0.4850957147
 40
0.5746392748
 40
0.6711169789
 40
0.7743224955
 40
0.8840272586
 40
1.0
 40
1.0
 40
1.0
 40
1.0
 10
12.6175126277
 20
10.161298157
 30
0.0
 10
12.6175028746
 20
10.1612981658
 30
0.0
 10
12.6174816544
 20
10.1613031568
 30
0.0
 10
12.6174523917
 20
10.161323375
 30
0.0
 10
12.6174238855
 20
10.1613552296
 30
0.0
 10
12.6173823902
 20
10.1614194319
 30
0.0
 10
12.6173331559
 20
10.1615322537
 30
0.0
 10
12.6172774906
 20
10.1617047677
 30
0.0
 10
12.6172214788
 20
10.1619257914
 30
0.0
 10
12.6171651286
 20
10.1621953125
 30
0.0
 10
12.617108612
 20
10.1625135303
 30
0.0
 10
12.6170519927
 20
10.1628804379
 30
0.0
 10
12.6169953268
 20
10.1632960486
 30
0.0
 10
12.6169159026
 20
10.1639471009
 30
0.0
 10
12.6168185834
 20
10.1648827176
 30
0.0
 10
12.6167066051
 20
10.1661512599
 30
0.0
 10
12.6165947714
 20
10.1676130589
 30
0.0
 10
12.6164831599
 20
10.169267317
 30
0.0
 10
12.6163273285
 20
10.171854951
 30
0.0
 10
12.6161377648
 20
10.1755636241
 30
0.0
 10
12.6159216768
 20
10.1805770185
 30
0.0
 10
12.6157081602
 20
10.1863322438
 30
0.0
 10
12.6154976998
 20
10.1928171469
 30
0.0
 10
12.6152917734
 20
10.2000179398
 30
0.0
 10
12.6150901184
 20
10.2079191378
 30
0.0
 10
12.6148932164
 20
10.216503648
 30
0.0
 10
12.6147019285
 20
10.2257531826
 30
0.0
 10
12.614516772
 20
10.2356478583
 30
0.0
 10
12.6143375231
 20
10.2461663261
 30
0.0
 10
12.6142255167
 20
10.2533842131
 30
0.0
 10
12.6141705142
 20
10.2570934288
 30
0.0
  0
ENDSEC
  0
SECTION
  2
OBJECTS
  0
DICTIONARY
  5
C
100
AcDbDictionary
280
0
281
1
  3
ACAD_GROUP
350
D
  3
ACAD_MLINESTYLE
350
17
  3
ACAD_LAYOUT
350
1A
  3
ACAD_PLOTSETTINGS
350
19
  3
ACAD_PLOTSTYLENAME
350
E
  0
DICTIONARY
  5
D
102
{ACAD_REACTORS
330
C
102
}
100
AcDbDictionary
280
0
281
1
  0
ACDBDICTIONARYWDFLT
  5
E
102
{ACAD_REACTORS
330
C
102
}
100
AcDbDictionary
281
1
  3
Normal
350
F
100
AcDbDictionaryWithDefault
340
F
  0
DICTIONARY
  5
17
102
{ACAD_REACTORS
330
C
102
}
100
AcDbDictionary
280
0
281
1
  3
Standard
350
18
  0
DICTIONARY
  5
19
102
{ACAD_REACTORS
330
C
102
}
100
AcDbDictionary
281
1
  0
DICTIONARY
  5
1A
102
{ACAD_REACTORS
330
C
102
}
100
AcDbDictionary
281
1
  3
Model
350
27C
  3
Layout1
350
27D
  0
ACDBPLACEHOLDER
  5
F
102
{ACAD_REACTORS
330
E
102
}
  0
MLINESTYLE
  5
18
102
{ACAD_REACTORS
330
17
102
}
100
AcDbMlineStyle
  2
STANDARD
 70
0
  3

 62
256
 51
90.0
 52
90.0
 71
2
 49
0.5
 62
256
  6
BYLAYER
 49
-0.5
 62
256
  6
BYLAYER
  0
LAYOUT
  5
27C
102
{ACAD_REACTORS
330
1A
102
}
100
AcDbPlotSettings
  1

  2
none_device
  4
ANSI_C_(22.00_x_17.00_Inches)
  6

 40
0.0
 41
0.0
 42
0.0
 43
0.0
 44
558.8
 45
431.8
 46
0.0
 47
0.0
 48
0.0
 49
0.0
140
0.0
141
0.0
142
1.0
143
1.0
 70
1024
 72
0
 73
0
 74
0
  7

 75
0
147
1.0
148
0.0
149
0.0
100
AcDbLayout
  1
Model
 70
0
 71
0
 10
0.0
 20
0.0
 11
22.0
 21
17.0
 12
0.0
 22
0.0
 32
0.0
 14
0.0
 24
0.0
 34
0.0
 15
0.0
 25
0.0
 35
0.0
146
0.0
 13
0.0
 23
0.0
 33
0.0
 16
1.0
 26
0.0
 36
0.0
 17
0.0
 27
1.0
 37
0.0
 76
0
330
205
345
0
346
0
  0
LAYOUT
  5
27D
102
{ACAD_REACTORS
330
1A
102
}
100
AcDbPlotSettings
  1

  2
none_device
  4
ANSI_C_(22.00_x_17.00_Inches)
  6

 40
0.0
 41
0.0
 42
0.0
 43
0.0
 44
558.8
 45
431.8
 46
0.0
 47
0.0
 48
0.0
 49
0.0
140
0.0
141
0.0
142
1.0
143
1.0
 70
0
 72
0
 73
0
 74
0
  7

 75
0
147
1.0
148
0.0
149
0.0
100
AcDbLayout
  1
Layout1
 70
0
 71
1
 10
0.0
 20
0.0
 11
22.0
 21
17.0
 12
0.0
 22
0.0
 32
0.0
 14
0.0
 24
0.0
 34
0.0
 15
0.0
 25
0.0
 35
0.0
146
0.0
 13
0.0
 23
0.0
 33
0.0
 16
1.0
 26
0.0
 36
0.0
 17
0.0
 27
1.0
 37
0.0
 76
0
330
206
345
0
346
0
  0
ENDSEC
  0
EOF
