999
DXF file: 2470-5233_top.dxf
999
Pro/ENGINEER 2023134 by Parametric Technology Corporation
  0
SECTION
  2
HEADER
  9
$ACADVER
  1
AC1032
  9
$DWGCODEPAGE
  3
ANSI_1252
  9
$EXTMAX
 10
11.0
 20
8.5
 30
0.0
  9
$EXTMIN
 10
0.0
 20
0.0
 30
0.0
  9
$LIMMIN
 10
0.0
 20
0.0
  9
$LIMMAX
 10
11.0
 20
8.5
  9
$VIEWCTR
 10
5.5
 20
4.25
  9
$VIEWSIZE
 40
8.5
  9
$CLAYER
  8
0
  9
$LTSCALE
 40
0.605
  9
$CELTYPE
  6
BYLAYER
  9
$DIMSCALE
 40
1.0
  9
$DIMASZ
 40
0.1
  9
$DIMEXO
 40
0.03125
  9
$DIMDLI
 40
0.418
  9
$DIMEXE
 40
0.0625
  9
$DIMCEN
 40
0.099
  9
$DIMLFAC
 40
1.0
  9
$DIMBLK
  1
_FILLED
  9
$DIMALT
 70
1
  9
$DIMALTD
 70
2
  9
$DIMALTTD
 70
2
  9
$DIMALTF
 40
25.4
  9
$DIMTXT
 40
0.08
  9
$DIMTOL
 70
1
  9
$DIMLIM
 70
0
  9
$DIMTFAC
 40
1.0
  9
$DIMTP
 40
0.001
  9
$DIMTM
 40
0.001
  9
$DIMGAP
 40
0.09
  9
$DIMDSEP
 70
46
  9
$AUNITS
 70
0
  9
$PDMODE
 70
3
  9
$PDSIZE
 40
0.06
  9
$HANDSEED
  5
284
  9
$TILEMODE
 70
1
  9
$MEASUREMENT
 70
0
  9
$INSUNITS
 70
1
  0
ENDSEC
  0
SECTION
  2
CLASSES
  0
CLASS
  1
ACDBDICTIONARYWDFLT
  2
AcDbDictionaryWithDefault
  3
AutoCAD 2000
 90
0
 91
1
280
0
281
0
  0
CLASS
  1
ACDBPLACEHOLDER
  2
AcDbPlaceHolder
  3
AutoCAD 2000
 90
0
 91
1
280
0
281
0
  0
CLASS
  1
LAYOUT
  2
AcDbLayout
  3
AutoCAD 2000
 90
0
 91
0
280
0
281
0
  0
ENDSEC
  0
SECTION
  2
TABLES
  0
TABLE
  2
VPORT
  5
8
100
AcDbSymbolTable
 70
2
  0
VPORT
  5
1F4
100
AcDbSymbolTableRecord
100
AcDbViewportTableRecord
  2
*ACTIVE
 70
0
 10
0.0
 20
0.0
 11
1.0
 21
1.0
 12
5.5
 22
4.25
 13
0.0
 23
0.0
 14
1.0
 24
1.0
 15
0.0
 25
0.0
 16
0.0
 26
0.0
 36
1.0
 17
0.0
 27
0.0
 37
0.0
 40
8.5
 41
1.2941176471
 42
50.0
 43
0.0
 44
0.0
 50
0.0
 51
0.0
 71
0
 72
100
 73
1
 74
1
 75
0
 76
0
 77
0
 78
0
  0
ENDTAB
  0
TABLE
  2
LTYPE
  5
5
100
AcDbSymbolTable
 70
6
  0
LTYPE
  5
14
100
AcDbSymbolTableRecord
100
AcDbLinetypeTableRecord
  2
BYBLOCK
 70
0
  3

 72
65
 73
0
 40
0.0
  0
LTYPE
  5
15
100
AcDbSymbolTableRecord
100
AcDbLinetypeTableRecord
  2
BYLAYER
 70
0
  3

 72
65
 73
0
 40
0.0
  0
LTYPE
  5
16
100
AcDbSymbolTableRecord
100
AcDbLinetypeTableRecord
  2
CONTINUOUS
 70
64
  3
Solid line
 72
65
 73
0
 40
0.0
  0
LTYPE
  5
1F5
100
AcDbSymbolTableRecord
100
AcDbLinetypeTableRecord
  2
CENTER
 70
64
  3
____ _ ____ _ ____ _ ____ _ ____ _ ____ _ ____
 72
65
 73
4
 40
0.6
 49
0.375
 74
0
 49
-0.075
 74
0
 49
0.075
 74
0
 49
-0.075
 74
0
  0
LTYPE
  5
1F6
100
AcDbSymbolTableRecord
100
AcDbLinetypeTableRecord
  2
HIDDEN
 70
64
  3
- - - - - - - - - - - - - - - - - - - -
 72
65
 73
2
 40
0.2
 49
0.1
 74
0
 49
-0.1
 74
0
  0
LTYPE
  5
1F7
100
AcDbSymbolTableRecord
100
AcDbLinetypeTableRecord
  2
PHANTOM
 70
64
  3
_____ _ _ _____ _ _ _____ _ _ _____
 72
65
 73
6
 40
0.8
 49
0.45
 74
0
 49
-0.05
 74
0
 49
0.1
 74
0
 49
-0.05
 74
0
 49
0.1
 74
0
 49
-0.05
 74
0
  0
LTYPE
  5
1F8
100
AcDbSymbolTableRecord
100
AcDbLinetypeTableRecord
  2
DOT
 70
64
  3
. . . . . . . . . . . . . . . . . . . .
 72
65
 73
2
 40
0.2
 49
0.1
 74
0
 49
-0.1
 74
0
  0
LTYPE
  5
1F9
100
AcDbSymbolTableRecord
100
AcDbLinetypeTableRecord
  2
DASHED
 70
64
  3
- - - - - - - - - - - - - - - - - - - -
 72
65
 73
2
 40
0.2
 49
0.1
 74
0
 49
-0.1
 74
0
  0
ENDTAB
  0
TABLE
  2
LAYER
  5
2
100
AcDbSymbolTable
 70
36
  0
LAYER
  5
10
100
AcDbSymbolTableRecord
100
AcDbLayerTableRecord
  2
0
 70
0
 62
7
  6
CONTINUOUS
370
-3
390
F
  0
LAYER
  5
1FA
100
AcDbSymbolTableRecord
100
AcDbLayerTableRecord
  2
DEFAULT_1
 70
0
 62
7
  6
CENTER
370
-3
390
F
  0
LAYER
  5
1FB
100
AcDbSymbolTableRecord
100
AcDbLayerTableRecord
  2
DEFAULT_2
 70
0
 62
8
  6
HIDDEN
370
-3
390
F
  0
LAYER
  5
1FC
100
AcDbSymbolTableRecord
100
AcDbLayerTableRecord
  2
DEFAULT_3
 70
0
 62
7
  6
PHANTOM
370
-3
390
F
  0
LAYER
  5
1FD
100
AcDbSymbolTableRecord
100
AcDbLayerTableRecord
  2
DEFAULT_COORDINATE_SYSTEM
 70
0
 62
7
  6
CONTINUOUS
370
-3
390
F
  0
LAYER
  5
1FE
100
AcDbSymbolTableRecord
100
AcDbLayerTableRecord
  2
DEFAULT_DATUM_AXES
 70
0
 62
7
  6
CONTINUOUS
370
-3
390
F
  0
LAYER
  5
1FF
100
AcDbSymbolTableRecord
100
AcDbLayerTableRecord
  2
DEFAULT_DATUM_CURVES
 70
0
 62
7
  6
CONTINUOUS
370
-3
390
F
  0
LAYER
  5
200
100
AcDbSymbolTableRecord
100
AcDbLayerTableRecord
  2
DEFAULT_DATUM_PLANES
 70
0
 62
7
  6
CONTINUOUS
370
-3
390
F
  0
ENDTAB
  0
TABLE
  2
STYLE
  5
3
100
AcDbSymbolTable
 70
1
  0
STYLE
  5
11
100
AcDbSymbolTableRecord
100
AcDbTextStyleTableRecord
  2
STANDARD
 70
0
 40
0.0
 41
0.8
 50
0.0
 71
0
 42
0.2
  3
txt
  4

  0
STYLE
  5
201
100
AcDbSymbolTableRecord
100
AcDbTextStyleTableRecord
  2
TEXTSTYLE_1
 70
0
 40
0.0
 41
0.8
 50
0.0
 71
0
 42
0.2
  3
gdt
  4

  0
ENDTAB
  0
TABLE
  2
VIEW
  5
6
100
AcDbSymbolTable
 70
0
  0
ENDTAB
  0
TABLE
  2
UCS
  5
7
100
AcDbSymbolTable
 70
0
  0
ENDTAB
  0
TABLE
  2
APPID
  5
9
100
AcDbSymbolTable
 70
1
  0
APPID
  5
202
100
AcDbSymbolTableRecord
100
AcDbRegAppTableRecord
  2
ACAD
 70
0
  0
ENDTAB
  0
TABLE
  2
BLOCK_RECORD
  5
1
100
AcDbSymbolTable
 70
0
  0
BLOCK_RECORD
  5
203
100
AcDbSymbolTableRecord
100
AcDbBlockTableRecord
  2
*Model_Space
  0
BLOCK_RECORD
  5
204
100
AcDbSymbolTableRecord
100
AcDbBlockTableRecord
  2
*Paper_Space
  0
BLOCK_RECORD
  5
205
100
AcDbSymbolTableRecord
100
AcDbBlockTableRecord
  2
_FILLED
  0
ENDTAB
  0
TABLE
  2
DIMSTYLE
  5
A
100
AcDbSymbolTable
 70
1
100
AcDbDimStyleTable
 71
0
  0
DIMSTYLE
105
206
100
AcDbSymbolTableRecord
100
AcDbDimStyleTableRecord
  2
STANDARD
 70
0
  3

  4

 40
1.0
 41
0.1
 42
0.03125
 43
0.38
 44
0.0625
 45
0.0
 46
0.0
 47
0.001
 48
0.001
140
0.08
141
0.09
142
0.0
143
25.4
144
1.0
145
0.0
146
1.0
147
0.09
 71
1
 72
0
 73
1
 74
1
 75
0
 76
0
 77
0
 78
4
 79
1
170
1
171
2
172
0
173
0
174
0
175
0
176
0
177
0
178
0
270
2
179
3
271
3
272
3
273
2
274
2
275
0
280
0
281
0
282
0
283
1
284
4
285
0
286
0
287
3
288
0
340
11
278
46
341
205
342
205
343
205
344
205
  0
ENDTAB
  0
ENDSEC
  0
SECTION
  2
BLOCKS
  0
BLOCK
  5
20
100
AcDbEntity
  8
0
100
AcDbBlockBegin
  2
*Model_Space
 70
0
 10
0.0
 20
0.0
 30
0.0
  3
*Model_Space
  1

  0
ENDBLK
  5
21
100
AcDbEntity
  8
0
100
AcDbBlockEnd
  0
BLOCK
  5
1C
100
AcDbEntity
  8
0
100
AcDbBlockBegin
  2
*Paper_Space
 70
0
 10
0.0
 20
0.0
 30
0.0
  3
*Paper_Space
  1

  0
ENDBLK
  5
1D
100
AcDbEntity
  8
0
100
AcDbBlockEnd
  0
BLOCK
  5
207
100
AcDbEntity
  8
0
100
AcDbBlockBegin
  2
_FILLED
 70
64
 10
0.0
 20
0.0
  3
_FILLED
  1

  0
SOLID
  5
208
100
AcDbEntity
  8
0
  6
BYBLOCK
 62
0
100
AcDbTrace
 10
0.0
 20
0.0
 11
-1.0
 21
0.2
 12
-1.0
 22
-0.2
 13
-1.0
 23
-0.2
  0
ENDBLK
  5
209
100
AcDbEntity
  8
0
  6
BYBLOCK
 62
0
100
AcDbBlockEnd
  0
ENDSEC
  0
SECTION
  2
ENTITIES
  0
MTEXT
  5
20A
100
AcDbEntity
  8
0
100
AcDbMText
 62
2
  6
CONTINUOUS
  7
STANDARD
 71
3
 72
1
 10
5.2226027397
 20
1.7303945146
 30
0.0
 11
1.0
 21
0.0
 31
0.0
 73
2
 44
0.9
  1
SCALE .500
 40
0.08
 41
0.64
  0
LINE
  5
20B
100
AcDbEntity
  8
0
100
AcDbLine
 62
7
  6
CONTINUOUS
 10
0.0
 20
0.0
 11
0.0
 21
8.5
  0
LINE
  5
20C
100
AcDbEntity
  8
0
100
AcDbLine
 62
7
  6
CONTINUOUS
 10
0.0
 20
0.0
 11
11.0
 21
0.0
  0
LINE
  5
20D
100
AcDbEntity
  8
0
100
AcDbLine
 62
7
  6
CONTINUOUS
 10
0.0
 20
8.5
 11
11.0
 21
8.5
  0
LINE
  5
20E
100
AcDbEntity
  8
0
100
AcDbLine
 62
7
  6
CONTINUOUS
 10
11.0
 20
0.0
 11
11.0
 21
8.5
  0
LINE
  5
20F
100
AcDbEntity
  8
0
100
AcDbLine
 62
7
  6
CONTINUOUS
 10
4.6283010833
 20
2.6712726647
 11
4.6283010833
 21
6.1712726647
  0
LINE
  5
210
100
AcDbEntity
  8
0
100
AcDbLine
 62
7
  6
CONTINUOUS
 10
5.0658010833
 20
2.6712726647
 11
5.0658010833
 21
6.1712726647
  0
LINE
  5
211
100
AcDbEntity
  8
0
100
AcDbLine
 62
7
  6
CONTINUOUS
 10
5.8720140543
 20
6.3359511481
 11
5.8707021493
 21
6.3330210744
  0
LINE
  5
212
100
AcDbEntity
  8
0
100
AcDbLine
 62
7
  6
CONTINUOUS
 10
5.8717465403
 20
6.3353561597
 11
5.8716016749
 21
6.3350332813
  0
LINE
  5
213
100
AcDbEntity
  8
0
100
AcDbLine
 62
7
  6
CONTINUOUS
 10
5.8707021493
 20
6.3330210744
 11
5.870535738
 21
6.3326470757
  0
LINE
  5
214
100
AcDbEntity
  8
0
100
AcDbLine
 62
7
  6
CONTINUOUS
 10
5.4341877241
 20
5.7900226005
 11
5.4341877241
 21
6.5525226005
  0
LINE
  5
215
100
AcDbEntity
  8
0
100
AcDbLine
 62
7
  6
CONTINUOUS
 10
5.4706580227
 20
6.5679543911
 11
5.4706580227
 21
5.77459081
  0
LINE
  5
216
100
AcDbEntity
  8
0
100
AcDbLine
 62
7
  6
CONTINUOUS
 10
5.5097926324
 20
6.549897813
 11
5.5097926324
 21
5.7926473881
  0
LINE
  5
217
100
AcDbEntity
  8
0
100
AcDbLine
 62
7
  6
CONTINUOUS
 10
5.6611521842
 20
6.5150363717
 11
5.6611521842
 21
5.8275088293
  0
LINE
  5
218
100
AcDbEntity
  8
0
100
AcDbLine
 62
7
  6
CONTINUOUS
 10
5.7053250341
 20
6.5145209826
 11
5.7053250341
 21
5.8280242184
  0
LINE
  5
219
100
AcDbEntity
  8
0
100
AcDbLine
 62
7
  6
CONTINUOUS
 10
5.7471828217
 20
5.8579336718
 11
5.7471828217
 21
6.4847726005
  0
LINE
  5
21A
100
AcDbEntity
  8
0
100
AcDbLine
 62
7
  6
CONTINUOUS
 10
5.755127408
 20
6.4364683206
 11
5.755127408
 21
5.9060768805
  0
LINE
  5
21B
100
AcDbEntity
  8
0
100
AcDbLine
 62
7
  6
CONTINUOUS
 10
5.8350276674
 20
5.979756146
 11
5.8350276674
 21
6.0489021516
  0
LINE
  5
21C
100
AcDbEntity
  8
0
100
AcDbLine
 62
7
  6
CONTINUOUS
 10
5.8350276674
 20
6.2936408208
 11
5.8350276674
 21
6.3627890551
  0
LINE
  5
21D
100
AcDbEntity
  8
0
100
AcDbLine
 62
7
  6
CONTINUOUS
 10
5.8374424304
 20
5.9862726005
 11
5.8374424304
 21
6.0455299999
  0
LINE
  5
21E
100
AcDbEntity
  8
0
100
AcDbLine
 62
7
  6
CONTINUOUS
 10
5.8374424304
 20
6.2970130235
 11
5.8374424304
 21
6.3562726005
  0
LINE
  5
21F
100
AcDbEntity
  8
0
100
AcDbLine
 62
7
  6
CONTINUOUS
 10
6.1835877072
 20
6.0420226005
 11
6.1835877072
 21
6.0507707468
  0
LINE
  5
220
100
AcDbEntity
  8
0
100
AcDbLine
 62
7
  6
CONTINUOUS
 10
6.1835877072
 20
6.2917723243
 11
6.1835877072
 21
6.3005226005
  0
LINE
  5
221
100
AcDbEntity
  8
0
100
AcDbLine
 62
7
  6
CONTINUOUS
 10
6.184688145
 20
6.0420226005
 11
6.1846881451
 21
6.052392342
  0
LINE
  5
222
100
AcDbEntity
  8
0
100
AcDbLine
 62
7
  6
CONTINUOUS
 10
6.1846881451
 20
6.2901537301
 11
6.184688145
 21
6.3005226005
  0
LINE
  5
223
100
AcDbEntity
  8
0
100
AcDbLine
 62
7
  6
CONTINUOUS
 10
6.2086571853
 20
6.0599173133
 11
6.2086571857
 21
6.0996984314
  0
LINE
  5
224
100
AcDbEntity
  8
0
100
AcDbLine
 62
7
  6
CONTINUOUS
 10
6.2086571857
 20
6.242851764
 11
6.2086571853
 21
6.2826278878
  0
LWPOLYLINE
  5
225
100
AcDbEntity
  8
0
100
AcDbPolyline
 62
7
  6
CONTINUOUS
 90
21
 70
0
 10
5.4341877241
 20
5.8137726647
 10
5.3352107772
 20
5.8137837438
 10
5.3295346145
 20
5.8138241436
 10
5.3239037874
 20
5.8139098304
 10
5.3183198861
 20
5.8140385344
 10
5.3127826909
 20
5.8142080854
 10
5.3072901612
 20
5.8144164782
 10
5.3018428517
 20
5.8146617177
 10
5.2964413866
 20
5.8149418629
 10
5.2910837735
 20
5.8152551883
 10
5.2857704879
 20
5.815599919
 10
5.2805020703
 20
5.8159743262
 10
5.2752765805
 20
5.8163769278
 10
5.2700944281
 20
5.8168061433
 10
5.2649560786
 20
5.8172604325
 10
5.2598596376
 20
5.8177385255
 10
5.2548055252
 20
5.8182390074
 10
5.2497940748
 20
5.8187605113
 10
5.2448232315
 20
5.8193019756
 10
5.2398933574
 20
5.8198621409
 10
5.2350047388
 20
5.8204397916
  0
LINE
  5
226
100
AcDbEntity
  8
0
100
AcDbLine
 62
7
  6
CONTINUOUS
 10
5.2350047388
 20
5.8204397916
 11
5.225344932
 21
5.8216438226
  0
LINE
  5
227
100
AcDbEntity
  8
0
100
AcDbLine
 62
7
  6
CONTINUOUS
 10
5.225344932
 20
5.8216438226
 11
5.2158411974
 21
5.8229058691
  0
LINE
  5
228
100
AcDbEntity
  8
0
100
AcDbLine
 62
7
  6
CONTINUOUS
 10
5.2158411974
 20
5.8229058691
 11
5.2064884517
 21
5.8242187192
  0
LINE
  5
229
100
AcDbEntity
  8
0
100
AcDbLine
 62
7
  6
CONTINUOUS
 10
5.2064884517
 20
5.8242187192
 11
5.1972819082
 21
5.8255757648
  0
LINE
  5
22A
100
AcDbEntity
  8
0
100
AcDbLine
 62
7
  6
CONTINUOUS
 10
5.1972819082
 20
5.8255757648
 11
5.1882189088
 21
5.8269706469
  0
LINE
  5
22B
100
AcDbEntity
  8
0
100
AcDbLine
 62
7
  6
CONTINUOUS
 10
5.1882189088
 20
5.8269706469
 11
5.1792946308
 21
5.8283978412
  0
LINE
  5
22C
100
AcDbEntity
  8
0
100
AcDbLine
 62
7
  6
CONTINUOUS
 10
5.1792946308
 20
5.8283978412
 11
5.1705045164
 21
5.8298522707
  0
LINE
  5
22D
100
AcDbEntity
  8
0
100
AcDbLine
 62
7
  6
CONTINUOUS
 10
5.1705045164
 20
5.8298522707
 11
5.161845912
 21
5.8313289716
  0
LINE
  5
22E
100
AcDbEntity
  8
0
100
AcDbLine
 62
7
  6
CONTINUOUS
 10
5.161845912
 20
5.8313289716
 11
5.1533143445
 21
5.8328236729
  0
LINE
  5
22F
100
AcDbEntity
  8
0
100
AcDbLine
 62
7
  6
CONTINUOUS
 10
5.1533143445
 20
5.8328236729
 11
5.1449045022
 21
5.8343326272
  0
LINE
  5
230
100
AcDbEntity
  8
0
100
AcDbLine
 62
7
  6
CONTINUOUS
 10
5.1449045022
 20
5.8343326272
 11
5.1366131637
 21
5.8358520507
  0
LINE
  5
231
100
AcDbEntity
  8
0
100
AcDbLine
 62
7
  6
CONTINUOUS
 10
5.1366131637
 20
5.8358520507
 11
5.1243862949
 21
5.8381441953
  0
LINE
  5
232
100
AcDbEntity
  8
0
100
AcDbLine
 62
7
  6
CONTINUOUS
 10
5.1243862949
 20
5.8381441953
 11
5.1123984777
 21
5.8404432703
  0
LINE
  5
233
100
AcDbEntity
  8
0
100
AcDbLine
 62
7
  6
CONTINUOUS
 10
5.1123984777
 20
5.8404432703
 11
5.1006349755
 21
5.8427405962
  0
LINE
  5
234
100
AcDbEntity
  8
0
100
AcDbLine
 62
7
  6
CONTINUOUS
 10
5.1006349755
 20
5.8427405962
 11
5.0852745539
 21
5.8457877116
  0
LINE
  5
235
100
AcDbEntity
  8
0
100
AcDbLine
 62
7
  6
CONTINUOUS
 10
5.0852745539
 20
5.8457877116
 11
5.0658010833
 21
5.8496992811
  0
LINE
  5
236
100
AcDbEntity
  8
0
100
AcDbLine
 62
7
  6
CONTINUOUS
 10
5.8705360362
 20
6.0098974715
 11
5.8720129009
 21
6.0065966243
  0
LINE
  5
237
100
AcDbEntity
  8
0
100
AcDbLine
 62
7
  6
CONTINUOUS
 10
5.8374424304
 20
6.0362726005
 11
5.8446581018
 21
6.0362726005
  0
LINE
  5
238
100
AcDbEntity
  8
0
100
AcDbLine
 62
7
  6
CONTINUOUS
 10
5.8374424304
 20
6.0410726005
 11
5.8408119556
 21
6.0410726005
  0
LINE
  5
239
100
AcDbEntity
  8
0
100
AcDbLine
 62
7
  6
CONTINUOUS
 10
6.184688145
 20
6.0420226005
 11
6.1835877072
 21
6.0420226005
  0
LINE
  5
23A
100
AcDbEntity
  8
0
100
AcDbLine
 62
7
  6
CONTINUOUS
 10
5.2163686003
 20
6.1712726647
 11
5.3371010833
 21
6.1712726647
  0
LINE
  5
23B
100
AcDbEntity
  8
0
100
AcDbLine
 62
7
  6
CONTINUOUS
 10
6.184688145
 20
6.3005226005
 11
6.1835877072
 21
6.3005226005
  0
LINE
  5
23C
100
AcDbEntity
  8
0
100
AcDbLine
 62
7
  6
CONTINUOUS
 10
5.8408142789
 20
6.3014726005
 11
5.8374424304
 21
6.3014726005
  0
LINE
  5
23D
100
AcDbEntity
  8
0
100
AcDbLine
 62
7
  6
CONTINUOUS
 10
5.8446593765
 20
6.3062726005
 11
5.8374424304
 21
6.3062726005
  0
LINE
  5
23E
100
AcDbEntity
  8
0
100
AcDbLine
 62
7
  6
CONTINUOUS
 10
5.0381829759
 20
6.4872828157
 11
5.0801366358
 21
6.4957396315
  0
LINE
  5
23F
100
AcDbEntity
  8
0
100
AcDbLine
 62
7
  6
CONTINUOUS
 10
5.0801366358
 20
6.4957396315
 11
5.0963545617
 21
6.4989717025
  0
LINE
  5
240
100
AcDbEntity
  8
0
100
AcDbLine
 62
7
  6
CONTINUOUS
 10
5.0963545617
 20
6.4989717025
 11
5.108998654
 21
6.5014541186
  0
LINE
  5
241
100
AcDbEntity
  8
0
100
AcDbLine
 62
7
  6
CONTINUOUS
 10
5.108998654
 20
6.5014541186
 11
5.122070629
 21
6.5039736692
  0
LINE
  5
242
100
AcDbEntity
  8
0
100
AcDbLine
 62
7
  6
CONTINUOUS
 10
5.122070629
 20
6.5039736692
 11
5.1310213512
 21
6.5056655424
  0
LINE
  5
243
100
AcDbEntity
  8
0
100
AcDbLine
 62
7
  6
CONTINUOUS
 10
5.1310213512
 20
6.5056655424
 11
5.140159626
 21
6.5073605975
  0
LINE
  5
244
100
AcDbEntity
  8
0
100
AcDbLine
 62
7
  6
CONTINUOUS
 10
5.140159626
 20
6.5073605975
 11
5.1494843173
 21
6.5090527208
  0
LINE
  5
245
100
AcDbEntity
  8
0
100
AcDbLine
 62
7
  6
CONTINUOUS
 10
5.1494843173
 20
6.5090527208
 11
5.1589950131
 21
6.5107354664
  0
LINE
  5
246
100
AcDbEntity
  8
0
100
AcDbLine
 62
7
  6
CONTINUOUS
 10
5.1589950131
 20
6.5107354664
 11
5.1686918862
 21
6.5124019914
  0
LINE
  5
247
100
AcDbEntity
  8
0
100
AcDbLine
 62
7
  6
CONTINUOUS
 10
5.1686918862
 20
6.5124019914
 11
5.1785769402
 21
6.5140452138
  0
LINE
  5
248
100
AcDbEntity
  8
0
100
AcDbLine
 62
7
  6
CONTINUOUS
 10
5.1785769402
 20
6.5140452138
 11
5.1886538435
 21
6.5156576915
  0
LINE
  5
249
100
AcDbEntity
  8
0
100
AcDbLine
 62
7
  6
CONTINUOUS
 10
5.1886538435
 20
6.5156576915
 11
5.1989242566
 21
6.5172309639
  0
LWPOLYLINE
  5
24A
100
AcDbEntity
  8
0
100
AcDbPolyline
 62
7
  6
CONTINUOUS
 90
24
 70
0
 10
5.1989242566
 20
6.5172309639
 10
5.209391569
 20
6.5187560937
 10
5.2147004415
 20
6.5194976286
 10
5.2200596395
 20
6.5202233662
 10
5.2254688821
 20
6.5209318515
 10
5.2309300972
 20
6.5216218543
 10
5.2364428315
 20
6.5222917665
 10
5.2420067176
 20
6.522939938
 10
5.2476237793
 20
6.5235649235
 10
5.2532936199
 20
6.5241649182
 10
5.2590156617
 20
6.5247380386
 10
5.2647916148
 20
6.5252825507
 10
5.27062091
 20
6.5257964092
 10
5.2765029645
 20
6.5262775009
 10
5.282439417
 20
6.5267238043
 10
5.2884295436
 20
6.5271330116
 10
5.2944727128
 20
6.5275027481
 10
5.3005706389
 20
6.5278306782
 10
5.3067224796
 20
6.5281142044
 10
5.312927488
 20
6.5283506509
 10
5.3191874462
 20
6.5285373193
 10
5.3255023236
 20
6.5286713014
 10
5.3318702886
 20
6.528749549
 10
5.3371337876
 20
6.528769942
  0
LINE
  5
24B
100
AcDbEntity
  8
0
100
AcDbLine
 62
7
  6
CONTINUOUS
 10
5.4341877241
 20
6.5287726647
 11
5.3371343041
 21
6.5287726647
  0
ARC
  5
24C
100
AcDbEntity
  8
0
100
AcDbCircle
 62
7
  6
CONTINUOUS
 10
4.8470510833
 20
2.6712726647
 40
0.245
100
AcDbArc
 50
153.2365631305
 51
26.7634368709
  0
ARC
  5
24D
100
AcDbEntity
  8
0
100
AcDbCircle
 62
7
  6
CONTINUOUS
 10
4.8470510833
 20
2.6712726647
 40
0.21875
100
AcDbArc
 50
180.0
 51
360.0
  0
ARC
  5
24E
100
AcDbEntity
  8
0
100
AcDbCircle
 62
7
  6
CONTINUOUS
 10
5.4542016281
 20
6.3800226005
 40
0.59
100
AcDbArc
 50
275.4065452097
 51
290.5340307299
  0
ARC
  5
24F
100
AcDbEntity
  8
0
100
AcDbCircle
 62
7
  6
CONTINUOUS
 10
5.4542016281
 20
5.9625226005
 40
0.59
100
AcDbArc
 50
69.4659692701
 51
84.5934547903
  0
ARC
  5
250
100
AcDbEntity
  8
0
100
AcDbCircle
 62
7
  6
CONTINUOUS
 10
4.8470510833
 20
6.1712726647
 40
0.5842699124
100
AcDbArc
 50
37.6581030572
 51
248.0118267081
  0
ARC
  5
251
100
AcDbEntity
  8
0
100
AcDbCircle
 62
7
  6
CONTINUOUS
 10
4.8470510833
 20
6.1712726647
 40
0.5842699124
100
AcDbArc
 50
291.9881732919
 51
322.3427873385
  0
ARC
  5
252
100
AcDbEntity
  8
0
100
AcDbCircle
 62
7
  6
CONTINUOUS
 10
4.8470510833
 20
6.1712726647
 40
0.5791511029
100
AcDbArc
 50
292.1932237804
 51
321.9851646639
  0
ARC
  5
253
100
AcDbEntity
  8
0
100
AcDbCircle
 62
7
  6
CONTINUOUS
 10
4.8470510833
 20
6.1712726647
 40
0.5791511029
100
AcDbArc
 50
38.0157264302
 51
247.8067762208
  0
ARC
  5
254
100
AcDbEntity
  8
0
100
AcDbCircle
 62
7
  6
CONTINUOUS
 10
4.8470510833
 20
6.1712726647
 40
0.5117982719
100
AcDbArc
 50
43.011808169
 51
244.6955266908
  0
ARC
  5
255
100
AcDbEntity
  8
0
100
AcDbCircle
 62
7
  6
CONTINUOUS
 10
4.8470510833
 20
6.1712726647
 40
0.5117982719
100
AcDbArc
 50
295.3044733093
 51
316.9900347459
  0
ARC
  5
256
100
AcDbEntity
  8
0
100
AcDbCircle
 62
7
  6
CONTINUOUS
 10
4.8470510833
 20
6.1712726647
 40
0.5099668415
100
AcDbArc
 50
295.4026993039
 51
316.8425976475
  0
ARC
  5
257
100
AcDbEntity
  8
0
100
AcDbCircle
 62
7
  6
CONTINUOUS
 10
4.8470510833
 20
6.1712726647
 40
0.5099668415
100
AcDbArc
 50
43.1594107345
 51
244.5973007143
  0
ARC
  5
258
100
AcDbEntity
  8
0
100
AcDbCircle
 62
7
  6
CONTINUOUS
 10
4.8470510833
 20
6.1712726647
 40
0.4870633417
100
AcDbArc
 50
296.6882082489
 51
314.9404052044
  0
ARC
  5
259
100
AcDbEntity
  8
0
100
AcDbCircle
 62
7
  6
CONTINUOUS
 10
4.8470510833
 20
6.1712726647
 40
0.4870633417
100
AcDbArc
 50
45.0616275358
 51
243.3117917514
  0
ARC
  5
25A
100
AcDbEntity
  8
0
100
AcDbCircle
 62
7
  6
CONTINUOUS
 10
5.4792800538
 20
6.2853778655
 40
0.469
100
AcDbArc
 50
306.0265921099
 51
319.3342222547
  0
ARC
  5
25B
100
AcDbEntity
  8
0
100
AcDbCircle
 62
7
  6
CONTINUOUS
 10
5.4792800538
 20
6.0571673356
 40
0.469
100
AcDbArc
 50
40.66578416
 51
53.9734078901
  0
ARC
  5
25C
100
AcDbEntity
  8
0
100
AcDbCircle
 62
7
  6
CONTINUOUS
 10
4.8470510833
 20
6.1712726647
 40
0.459
100
AcDbArc
 50
298.4644994142
 51
312.3860395398
  0
ARC
  5
25D
100
AcDbEntity
  8
0
100
AcDbCircle
 62
7
  6
CONTINUOUS
 10
4.8470510833
 20
6.1712726647
 40
0.459
100
AcDbArc
 50
47.616083564
 51
241.5355005858
  0
ARC
  5
25E
100
AcDbEntity
  8
0
100
AcDbCircle
 62
7
  6
CONTINUOUS
 10
4.8470510833
 20
6.1712726647
 40
0.369317517
100
AcDbArc
 50
306.3228411975
 51
233.6771588025
  0
ARC
  5
25F
100
AcDbEntity
  8
0
100
AcDbCircle
 62
7
  6
CONTINUOUS
 10
4.8470510833
 20
6.1712726647
 40
0.268321298
100
AcDbArc
 50
324.6197501239
 51
215.3802496354
  0
ARC
  5
260
100
AcDbEntity
  8
0
100
AcDbCircle
 62
7
  6
CONTINUOUS
 10
4.8470510833
 20
6.1712726647
 40
0.2678434356
100
AcDbArc
 50
324.7570442229
 51
215.2429557772
  0
ARC
  5
261
100
AcDbEntity
  8
0
100
AcDbCircle
 62
7
  6
CONTINUOUS
 10
4.8470510833
 20
6.1712726647
 40
0.2306352427
100
AcDbArc
 50
341.5328105151
 51
198.4671894916
  0
ARC
  5
262
100
AcDbEntity
  8
0
100
AcDbCircle
 62
7
  6
CONTINUOUS
 10
4.8470510833
 20
6.1712726647
 40
0.225
100
AcDbArc
 50
346.4766741698
 51
193.52332583
  0
ARC
  5
263
100
AcDbEntity
  8
0
100
AcDbCircle
 62
7
  6
CONTINUOUS
 10
4.8470510833
 20
6.1712726647
 40
0.21875
100
AcDbArc
 50
0.0
 51
180.0
  0
ARC
  5
264
100
AcDbEntity
  8
0
100
AcDbCircle
 62
7
  6
CONTINUOUS
 10
5.4556877241
 20
5.7900226005
 40
0.0215
100
AcDbArc
 50
180.0
 51
314.1303391118
  0
ARC
  5
265
100
AcDbEntity
  8
0
100
AcDbCircle
 62
7
  6
CONTINUOUS
 10
5.4556877241
 20
6.5525226005
 40
0.0215
100
AcDbArc
 50
45.8696608882
 51
180.0
  0
ARC
  5
266
100
AcDbEntity
  8
0
100
AcDbCircle
 62
7
  6
CONTINUOUS
 10
5.9086571853
 20
6.1712726005
 40
0.32
100
AcDbArc
 50
339.6358651937
 51
20.3641348063
  0
ARC
  5
267
100
AcDbEntity
  8
0
100
AcDbCircle
 62
7
  6
CONTINUOUS
 10
6.0086571853
 20
6.1712726005
 40
0.2175
100
AcDbArc
 50
36.4593894586
 51
125.654081501
  0
ARC
  5
268
100
AcDbEntity
  8
0
100
AcDbCircle
 62
7
  6
CONTINUOUS
 10
6.0086571853
 20
6.1712726005
 40
0.2175
100
AcDbArc
 50
234.345918499
 51
323.5406105414
  0
CIRCLE
  5
269
100
AcDbEntity
  8
0
100
AcDbCircle
 62
7
  6
CONTINUOUS
 10
6.0086571853
 20
6.1712726005
 40
0.2124285231
  0
CIRCLE
  5
26A
100
AcDbEntity
  8
0
100
AcDbCircle
 62
7
  6
CONTINUOUS
 10
6.0086571853
 20
6.1712726005
 40
0.2124046974
  0
CIRCLE
  5
26B
100
AcDbEntity
  8
0
100
AcDbCircle
 62
7
  6
CONTINUOUS
 10
6.0086571853
 20
6.1712726005
 40
0.1893374806
  0
CIRCLE
  5
26C
100
AcDbEntity
  8
0
100
AcDbCircle
 62
7
  6
CONTINUOUS
 10
6.0086571853
 20
6.1712726005
 40
0.1371049365
  0
ARC
  5
26D
100
AcDbEntity
  8
0
100
AcDbCircle
 62
7
  6
CONTINUOUS
 10
5.5159170651
 20
6.6146086415
 40
0.065
100
AcDbArc
 50
225.8696608882
 51
264.5934547903
  0
ARC
  5
26E
100
AcDbEntity
  8
0
100
AcDbCircle
 62
7
  6
CONTINUOUS
 10
5.5159170651
 20
5.7279365596
 40
0.065
100
AcDbArc
 50
95.4065452097
 51
134.1303391118
  0
ARC
  5
26F
100
AcDbEntity
  8
0
100
AcDbCircle
 62
7
  6
CONTINUOUS
 10
5.6839518217
 20
6.575906533
 40
0.065
100
AcDbArc
 50
249.4659692701
 51
289.1970882092
  0
ARC
  5
270
100
AcDbEntity
  8
0
100
AcDbCircle
 62
7
  6
CONTINUOUS
 10
5.6839518217
 20
5.7666386681
 40
0.065
100
AcDbArc
 50
70.8029117908
 51
110.5340307299
  0
CIRCLE
  5
271
100
AcDbEntity
  8
0
100
AcDbCircle
 62
7
  6
CONTINUOUS
 10
6.0086571853
 20
6.1712726005
 40
0.0346910143
  0
ARC
  5
272
100
AcDbEntity
  8
0
100
AcDbCircle
 62
7
  6
CONTINUOUS
 10
5.7156828217
 20
5.8577726005
 40
0.0315
100
AcDbArc
 50
250.8029117908
 51
360.0
  0
ARC
  5
273
100
AcDbEntity
  8
0
100
AcDbCircle
 62
7
  6
CONTINUOUS
 10
5.7156828217
 20
6.4847726005
 40
0.0315
100
AcDbArc
 50
0.0
 51
109.1970882092
  0
ARC
  5
274
100
AcDbEntity
  8
0
100
AcDbCircle
 62
7
  6
CONTINUOUS
 10
5.7727722281
 20
5.8818145573
 40
0.03
100
AcDbArc
 50
126.0265921099
 51
148.5374893657
  0
ARC
  5
275
100
AcDbEntity
  8
0
100
AcDbCircle
 62
7
  6
CONTINUOUS
 10
5.7727722281
 20
6.4607306437
 40
0.03
100
AcDbArc
 50
211.4625106343
 51
233.9734078901
  0
ARC
  5
276
100
AcDbEntity
  8
0
100
AcDbCircle
 62
7
  6
CONTINUOUS
 10
5.8993651897
 20
6.0189194527
 40
0.029999998
100
AcDbArc
 50
198.0300012167
 51
234.3462177452
  0
ARC
  5
277
100
AcDbEntity
  8
0
100
AcDbCircle
 62
7
  6
CONTINUOUS
 10
5.8993651857
 20
6.3236257409
 40
0.0299999979
100
AcDbArc
 50
125.6537677891
 51
155.7418275478
  0
ARC
  5
278
100
AcDbEntity
  8
0
100
AcDbCircle
 62
7
  6
CONTINUOUS
 10
6.1846881451
 20
6.2755226005
 40
0.025
100
AcDbArc
 50
16.511721404
 51
90.0000002218
  0
ARC
  5
279
100
AcDbEntity
  8
0
100
AcDbCircle
 62
7
  6
CONTINUOUS
 10
6.1846881451
 20
6.0670226005
 40
0.025
100
AcDbArc
 50
269.9999997732
 51
343.4882785945
  0
ARC
  5
27A
100
AcDbEntity
  8
0
100
AcDbCircle
 62
7
  6
CONTINUOUS
 10
5.8274424304
 20
5.9862726005
 40
0.01
100
AcDbArc
 50
319.3342225086
 51
360.0
  0
ARC
  5
27B
100
AcDbEntity
  8
0
100
AcDbCircle
 62
7
  6
CONTINUOUS
 10
5.8274424304
 20
6.3562726005
 40
0.01
100
AcDbArc
 50
0.0
 51
40.6657774914
  0
SPLINE
  5
27C
100
AcDbEntity
  8
0
100
AcDbSpline
 62
7
  6
CONTINUOUS
 70
0
 71
3
 72
14
 73
10
 74
0
 42
0.0000001
 43
0.0000001
 44
0.0000000001
 40
0.0
 40
0.0
 40
0.0
 40
0.0
 40
0.120320939
 40
0.2434920728
 40
0.3687587971
 40
0.4953643466
 40
0.7495581071
 40
0.8756277418
 40
1.0
 40
1.0
 40
1.0
 40
1.0
 10
5.1719745857
 20
5.9957758166
 30
0.0
 10
5.1785888771
 20
5.9963856025
 30
0.0
 10
5.1919788817
 20
5.9975684695
 30
0.0
 10
5.2122675757
 20
5.9992405488
 30
0.0
 10
5.2329093884
 20
6.0008491306
 30
0.0
 10
5.2607692098
 20
6.0029310762
 30
0.0
 10
5.288679349
 20
6.0049327232
 30
0.0
 10
5.316465727
 20
6.00693609
 30
0.0
 10
5.3302542343
 20
6.0079495977
 30
0.0
 10
5.3371010833
 20
6.008461984
 30
0.0
  0
SPLINE
  5
27D
100
AcDbEntity
  8
0
100
AcDbSpline
 62
7
  6
CONTINUOUS
 70
0
 71
3
 72
52
 73
48
 74
0
 42
0.0000001
 43
0.0000001
 44
0.0000000001
 40
0.0
 40
0.0
 40
0.0
 40
0.0
 40
0.0000105722
 40
0.0000278074
 40
0.0000879894
 40
0.0001846135
 40
0.0003183079
 40
0.0004892985
 40
0.0006976955
 40
0.0009435638
 40
0.0012269471
 40
0.0019063782
 40
0.0027362008
 40
0.0037165573
 40
0.004847335
 40
0.0061282418
 40
0.007558949
 40
0.0091391113
 40
0.0108683765
 40
0.0147728086
 40
0.0192694824
 40
0.0243557581
 40
0.0300291554
 40
0.0362873659
 40
0.0431273444
 40
0.0505442224
 40
0.0585327429
 40
0.0670875578
 40
0.0762033047
 40
0.0960963609
 40
0.1068632211
 40
0.1181687022
 40
0.1423653359
 40
0.168625191
 40
0.1968867038
 40
0.2270853517
 40
0.259145001
 40
0.2929866047
 40
0.3285310187
 40
0.3656948425
 40
0.4445097733
 40
0.5286772721
 40
0.6173773914
 40
0.7097520334
 40
0.8049381543
 40
0.9020405289
 40
1.0
 40
1.0
 40
1.0
 40
1.0
 10
5.337163838
 20
6.5287715335
 30
0.0
 10
5.3371625809
 20
6.5287714506
 30
0.0
 10
5.337159661
 20
6.528769197
 30
0.0
 10
5.3371549792
 20
6.5287598677
 30
0.0
 10
5.3371497791
 20
6.5287395465
 30
0.0
 10
5.3371442618
 20
6.5287054535
 30
0.0
 10
5.3371389577
 20
6.5286578684
 30
0.0
 10
5.337134018
 20
6.5285969364
 30
0.0
 10
5.3371295443
 20
6.5285225494
 30
0.0
 10
5.3371256193
 20
6.5284347317
 30
0.0
 10
5.3371209352
 20
6.5282907665
 30
0.0
 10
5.3371172753
 20
6.5280771599
 30
0.0
 10
5.3371163326
 20
6.5277804697
 30
0.0
 10
5.3371192878
 20
6.5274300051
 30
0.0
 10
5.3371257928
 20
6.5270258289
 30
0.0
 10
5.3371352501
 20
6.5265680313
 30
0.0
 10
5.3371471202
 20
6.5260567217
 30
0.0
 10
5.3371608317
 20
6.5254920105
 30
0.0
 10
5.3371816844
 20
6.5246325943
 30
0.0
 10
5.3372092397
 20
6.5234256797
 30
0.0
 10
5.3372391621
 20
6.5218186722
 30
0.0
 10
5.337262618
 20
6.5200007265
 30
0.0
 10
5.3372751354
 20
6.5179727412
 30
0.0
 10
5.3372716219
 20
6.5157357271
 30
0.0
 10
5.3372498429
 20
6.5132910479
 30
0.0
 10
5.337215426
 20
6.5106403069
 30
0.0
 10
5.3371726122
 20
6.5077853103
 30
0.0
 10
5.337126091
 20
6.5047278938
 30
0.0
 10
5.3370633374
 20
6.5002519121
 30
0.0
 10
5.3370144815
 20
6.4955120884
 30
0.0
 10
5.3369950798
 20
6.4905111319
 30
0.0
 10
5.3369947097
 20
6.4849972899
 30
0.0
 10
5.3370230334
 20
6.4776372081
 30
0.0
 10
5.3370748101
 20
6.4682566021
 30
0.0
 10
5.3371202112
 20
6.4581606851
 30
0.0
 10
5.337135594
 20
6.4473735177
 30
0.0
 10
5.337131956
 20
6.4359213776
 30
0.0
 10
5.3371186383
 20
6.4238321952
 30
0.0
 10
5.337106156
 20
6.4111347515
 30
0.0
 10
5.3371004247
 20
6.3930778707
 30
0.0
 10
5.337106504
 20
6.3692266205
 30
0.0
 10
5.3371163158
 20
6.339233838
 30
0.0
 10
5.3371192148
 20
6.3076251538
 30
0.0
 10
5.3371060961
 20
6.2747033935
 30
0.0
 10
5.3370910804
 20
6.2407803443
 30
0.0
 10
5.3370957438
 20
6.2061917527
 30
0.0
 10
5.3371010833
 20
6.1829464074
 30
0.0
 10
5.3371010833
 20
6.1712726647
 30
0.0
  0
SPLINE
  5
27E
100
AcDbEntity
  8
0
100
AcDbSpline
 62
7
  6
CONTINUOUS
 70
0
 71
3
 72
65
 73
61
 74
0
 42
0.0000001
 43
0.0000001
 44
0.0000000001
 40
0.0
 40
0.0
 40
0.0
 40
0.0
 40
0.0000433685
 40
0.0001095329
 40
0.0002051018
 40
0.0003321677
 40
0.0006836722
 40
0.0011671462
 40
0.001783574
 40
0.0025334289
 40
0.0034169962
 40
0.0044344864
 40
0.0068718883
 40
0.0098467715
 40
0.0133590653
 40
0.0174080003
 40
0.021992482
 40
0.0271111687
 40
0.0327621558
 40
0.0389433838
 40
0.0456528506
 40
0.05288864
 40
0.0689306296
 40
0.0870508354
 40
0.1072299841
 40
0.1294443963
 40
0.15366766
 40
0.1798697855
 40
0.1937029575
 40
0.2080190642
 40
0.2228140799
 40
0.238083638
 40
0.2700283561
 40
0.3038159992
 40
0.3394063203
 40
0.3578647066
 40
0.3767581191
 40
0.4158267842
 40
0.4359904957
 40
0.4565661874
 40
0.477547816
 40
0.4989290739
 40
0.5207035966
 40
0.542865048
 40
0.5654070211
 40
0.588322806
 40
0.6116056044
 40
0.6352486236
 40
0.6592451003
 40
0.6835879233
 40
0.7082696822
 40
0.7332829305
 40
0.7586202595
 40
0.7842743722
 40
0.8365038779
 40
0.8630646124
 40
0.8899128457
 40
0.9170400681
 40
0.9444367383
 40
1.0
 40
1.0
 40
1.0
 40
1.0
 10
5.3372306831
 20
5.8137726782
 30
0.0
 10
5.3372278727
 20
5.813772836
 30
0.0
 10
5.3372213067
 20
5.8137769502
 30
0.0
 10
5.3372140654
 20
5.8137881416
 30
0.0
 10
5.3372063368
 20
5.8138052993
 30
0.0
 10
5.3371947816
 20
5.8138407557
 30
0.0
 10
5.3371811823
 20
5.8139018061
 30
0.0
 10
5.337166154
 20
5.8139948108
 30
0.0
 10
5.3371517919
 20
5.8141140362
 30
0.0
 10
5.3371385337
 20
5.8142594678
 30
0.0
 10
5.33712687
 20
5.8144311385
 30
0.0
 10
5.3371131711
 20
5.8147123999
 30
0.0
 10
5.3371040616
 20
5.8151296817
 30
0.0
 10
5.3371043328
 20
5.8157089362
 30
0.0
 10
5.3371134541
 20
5.8163927156
 30
0.0
 10
5.3371300955
 20
5.8171808396
 30
0.0
 10
5.3371526759
 20
5.8180731114
 30
0.0
 10
5.3371796609
 20
5.8190692805
 30
0.0
 10
5.33720897
 20
5.8201690589
 30
0.0
 10
5.3372384944
 20
5.8213721135
 30
0.0
 10
5.3372661504
 20
5.8226780985
 30
0.0
 10
5.3372987122
 20
5.8246241026
 30
0.0
 10
5.3373231565
 20
5.8273109003
 30
0.0
 10
5.3373221576
 20
5.8308378847
 30
0.0
 10
5.3372837821
 20
5.8347652769
 30
0.0
 10
5.3372197127
 20
5.8390884545
 30
0.0
 10
5.3371416434
 20
5.8438023653
 30
0.0
 10
5.3370825797
 20
5.8479725526
 30
0.0
 10
5.3370496444
 20
5.8514999908
 30
0.0
 10
5.3370354772
 20
5.8542871875
 30
0.0
 10
5.3370318443
 20
5.8571676404
 30
0.0
 10
5.3370369498
 20
5.8611922444
 30
0.0
 10
5.3370556478
 20
5.8664495017
 30
0.0
 10
5.337075887
 20
5.873025641
 30
0.0
 10
5.3370982411
 20
5.8787264644
 30
0.0
 10
5.3371239138
 20
5.8834605764
 30
0.0
 10
5.3371544912
 20
5.8884204178
 30
0.0
 10
5.3371825112
 20
5.8934909649
 30
0.0
 10
5.3371945264
 20
5.8986707612
 30
0.0
 10
5.3371914728
 20
5.9026766607
 30
0.0
 10
5.3371801839
 20
5.9067615643
 30
0.0
 10
5.337165736
 20
5.9109242654
 30
0.0
 10
5.3371527187
 20
5.9151635467
 30
0.0
 10
5.3371465268
 20
5.9194781804
 30
0.0
 10
5.3371495416
 20
5.9238668878
 30
0.0
 10
5.3371564033
 20
5.9283283679
 30
0.0
 10
5.3371629152
 20
5.9328613102
 30
0.0
 10
5.3371648386
 20
5.9374643995
 30
0.0
 10
5.3371568849
 20
5.9421362825
 30
0.0
 10
5.337141462
 20
5.9468755621
 30
0.0
 10
5.3371238472
 20
5.9516808255
 30
0.0
 10
5.3371085124
 20
5.9565506445
 30
0.0
 10
5.337100446
 20
5.9614835928
 30
0.0
 10
5.3371043378
 20
5.9681829707
 30
0.0
 10
5.3371201589
 20
5.9749617313
 30
0.0
 10
5.33713097
 20
5.9818180041
 30
0.0
 10
5.3371315366
 20
5.9870450669
 30
0.0
 10
5.3371247546
 20
5.992326379
 30
0.0
 10
5.3371115698
 20
5.9994713802
 30
0.0
 10
5.3371023145
 20
6.0048557445
 30
0.0
 10
5.3371010833
 20
6.0084619806
 30
0.0
  0
SPLINE
  5
27F
100
AcDbEntity
  8
0
100
AcDbSpline
 62
7
  6
CONTINUOUS
 70
0
 71
3
 72
24
 73
20
 74
0
 42
0.0000001
 43
0.0000001
 44
0.0000000001
 40
0.0
 40
0.0
 40
0.0
 40
0.0
 40
0.117217792
 40
0.177014876
 40
0.2375270548
 40
0.2987030689
 40
0.3604919751
 40
0.4228403627
 40
0.4856932499
 40
0.5489954439
 40
0.612690826
 40
0.6446683758
 40
0.6767231948
 40
0.7410376216
 40
0.8055804851
 40
0.8379207753
 40
0.870297378
 40
0.935126187
 40
1.0
 40
1.0
 40
1.0
 40
1.0
 10
5.3371010833
 20
6.0084619806
 30
0.0
 10
5.3371032709
 20
6.0148234452
 30
0.0
 10
5.3371185847
 20
6.024430119
 30
0.0
 10
5.337144048
 20
6.0373207981
 30
0.0
 10
5.3371611131
 20
6.0471700755
 30
0.0
 10
5.3371701656
 20
6.0571274623
 30
0.0
 10
5.3371649242
 20
6.0671845059
 30
0.0
 10
5.3371430513
 20
6.0773325321
 30
0.0
 10
5.3371039582
 20
6.0875626356
 30
0.0
 10
5.3370467323
 20
6.0978657521
 30
0.0
 10
5.3370003612
 20
6.1064932842
 30
0.0
 10
5.3369735312
 20
6.1134250798
 30
0.0
 10
5.3369571889
 20
6.1203905046
 30
0.0
 10
5.3369571598
 20
6.1291232936
 30
0.0
 10
5.3369790357
 20
6.1378715423
 30
0.0
 10
5.3370072984
 20
6.1448864741
 30
0.0
 10
5.337040883
 20
6.1519169007
 30
0.0
 10
5.3370836917
 20
6.1607129111
 30
0.0
 10
5.3371010833
 20
6.1677519323
 30
0.0
 10
5.3371010833
 20
6.1712726647
 30
0.0
  0
LINE
  5
280
100
AcDbEntity
  8
0
100
AcDbLine
 62
7
  6
CONTINUOUS
 10
5.8776639468
 20
6.0040465085
 11
5.8818785675
 21
5.9945427726
  0
LINE
  5
281
100
AcDbEntity
  8
0
100
AcDbLine
 62
7
  6
CONTINUOUS
 10
5.8818785675
 20
6.3480024284
 11
5.8776626092
 21
6.3384960374
  0
ENDSEC
  0
SECTION
  2
OBJECTS
  0
DICTIONARY
  5
C
100
AcDbDictionary
280
0
281
1
  3
ACAD_GROUP
350
D
  3
ACAD_MLINESTYLE
350
17
  3
ACAD_LAYOUT
350
1A
  3
ACAD_PLOTSETTINGS
350
19
  3
ACAD_PLOTSTYLENAME
350
E
  0
DICTIONARY
  5
D
102
{ACAD_REACTORS
330
C
102
}
100
AcDbDictionary
280
0
281
1
  0
ACDBDICTIONARYWDFLT
  5
E
102
{ACAD_REACTORS
330
C
102
}
100
AcDbDictionary
281
1
  3
Normal
350
F
100
AcDbDictionaryWithDefault
340
F
  0
DICTIONARY
  5
17
102
{ACAD_REACTORS
330
C
102
}
100
AcDbDictionary
280
0
281
1
  3
Standard
350
18
  0
DICTIONARY
  5
19
102
{ACAD_REACTORS
330
C
102
}
100
AcDbDictionary
281
1
  0
DICTIONARY
  5
1A
102
{ACAD_REACTORS
330
C
102
}
100
AcDbDictionary
281
1
  3
Model
350
282
  3
Layout1
350
283
  0
ACDBPLACEHOLDER
  5
F
102
{ACAD_REACTORS
330
E
102
}
  0
MLINESTYLE
  5
18
102
{ACAD_REACTORS
330
17
102
}
100
AcDbMlineStyle
  2
STANDARD
 70
0
  3

 62
256
 51
90.0
 52
90.0
 71
2
 49
0.5
 62
256
  6
BYLAYER
 49
-0.5
 62
256
  6
BYLAYER
  0
LAYOUT
  5
282
102
{ACAD_REACTORS
330
1A
102
}
100
AcDbPlotSettings
  1

  2
none_device
  4
ANSI_A_(11.00_x_8.50_Inches)
  6

 40
0.0
 41
0.0
 42
0.0
 43
0.0
 44
279.4
 45
215.9
 46
0.0
 47
0.0
 48
0.0
 49
0.0
140
0.0
141
0.0
142
1.0
143
1.0
 70
1024
 72
0
 73
0
 74
0
  7

 75
0
147
1.0
148
0.0
149
0.0
100
AcDbLayout
  1
Model
 70
0
 71
0
 10
0.0
 20
0.0
 11
11.0
 21
8.5
 12
0.0
 22
0.0
 32
0.0
 14
0.0
 24
0.0
 34
0.0
 15
0.0
 25
0.0
 35
0.0
146
0.0
 13
0.0
 23
0.0
 33
0.0
 16
1.0
 26
0.0
 36
0.0
 17
0.0
 27
1.0
 37
0.0
 76
0
330
203
345
0
346
0
  0
LAYOUT
  5
283
102
{ACAD_REACTORS
330
1A
102
}
100
AcDbPlotSettings
  1

  2
none_device
  4
ANSI_A_(11.00_x_8.50_Inches)
  6

 40
0.0
 41
0.0
 42
0.0
 43
0.0
 44
279.4
 45
215.9
 46
0.0
 47
0.0
 48
0.0
 49
0.0
140
0.0
141
0.0
142
1.0
143
1.0
 70
0
 72
0
 73
0
 74
0
  7

 75
0
147
1.0
148
0.0
149
0.0
100
AcDbLayout
  1
Layout1
 70
0
 71
1
 10
0.0
 20
0.0
 11
11.0
 21
8.5
 12
0.0
 22
0.0
 32
0.0
 14
0.0
 24
0.0
 34
0.0
 15
0.0
 25
0.0
 35
0.0
146
0.0
 13
0.0
 23
0.0
 33
0.0
 16
1.0
 26
0.0
 36
0.0
 17
0.0
 27
1.0
 37
0.0
 76
0
330
204
345
0
346
0
  0
ENDSEC
  0
EOF
