999
DXF file: 2470-5303_top.dxf
999
Pro/ENGINEER 2018400 by Parametric Technology Corporation
  0
SECTION
  2
HEADER
  9
$ACADVER
  1
AC1027
  9
$DWGCODEPAGE
  3
ANSI_1252
  9
$EXTMAX
 10
11.0
 20
8.5
 30
0.0
  9
$EXTMIN
 10
0.0
 20
0.0
 30
0.0
  9
$LIMMIN
 10
0.0
 20
0.0
  9
$LIMMAX
 10
11.0
 20
8.5
  9
$VIEWCTR
 10
5.5
 20
4.25
  9
$VIEWSIZE
 40
8.5
  9
$CLAYER
  8
0
  9
$LTSCALE
 40
0.605
  9
$CELTYPE
  6
BYLAYER
  9
$DIMSCALE
 40
1.0
  9
$DIMASZ
 40
0.1
  9
$DIMEXO
 40
0.0625
  9
$DIMDLI
 40
0.418
  9
$DIMEXE
 40
0.125
  9
$DIMCEN
 40
0.099
  9
$DIMLFAC
 40
1.0
  9
$DIMBLK
  1
_FILLED
  9
$DIMALT
 70
1
  9
$DIMALTD
 70
2
  9
$DIMALTTD
 70
2
  9
$DIMALTF
 40
25.4
  9
$DIMTXT
 40
0.08
  9
$DIMTOL
 70
1
  9
$DIMLIM
 70
0
  9
$DIMTFAC
 40
1.0
  9
$DIMTP
 40
0.001
  9
$DIMTM
 40
0.001
  9
$DIMGAP
 40
0.09
  9
$DIMDSEP
 70
46
  9
$AUNITS
 70
0
  9
$PDMODE
 70
3
  9
$PDSIZE
 40
0.3125
  9
$HANDSEED
  5
2CC
  9
$TILEMODE
 70
1
  9
$MEASUREMENT
 70
0
  9
$INSUNITS
 70
1
  0
ENDSEC
  0
SECTION
  2
CLASSES
  0
CLASS
  1
ACDBDICTIONARYWDFLT
  2
AcDbDictionaryWithDefault
  3
AutoCAD 2000
 90
0
 91
1
280
0
281
0
  0
CLASS
  1
ACDBPLACEHOLDER
  2
AcDbPlaceHolder
  3
AutoCAD 2000
 90
0
 91
1
280
0
281
0
  0
CLASS
  1
LAYOUT
  2
AcDbLayout
  3
AutoCAD 2000
 90
0
 91
0
280
0
281
0
  0
ENDSEC
  0
SECTION
  2
TABLES
  0
TABLE
  2
VPORT
  5
8
100
AcDbSymbolTable
 70
2
  0
VPORT
  5
1F4
100
AcDbSymbolTableRecord
100
AcDbViewportTableRecord
  2
*ACTIVE
 70
0
 10
0.0
 20
0.0
 11
1.0
 21
1.0
 12
5.5
 22
4.25
 13
0.0
 23
0.0
 14
1.0
 24
1.0
 15
0.0
 25
0.0
 16
0.0
 26
0.0
 36
1.0
 17
0.0
 27
0.0
 37
0.0
 40
8.5
 41
1.2941176471
 42
50.0
 43
0.0
 44
0.0
 50
0.0
 51
0.0
 71
0
 72
100
 73
1
 74
1
 75
0
 76
0
 77
0
 78
0
  0
ENDTAB
  0
TABLE
  2
LTYPE
  5
5
100
AcDbSymbolTable
 70
6
  0
LTYPE
  5
14
100
AcDbSymbolTableRecord
100
AcDbLinetypeTableRecord
  2
BYBLOCK
 70
0
  3

 72
65
 73
0
 40
0.0
  0
LTYPE
  5
15
100
AcDbSymbolTableRecord
100
AcDbLinetypeTableRecord
  2
BYLAYER
 70
0
  3

 72
65
 73
0
 40
0.0
  0
LTYPE
  5
16
100
AcDbSymbolTableRecord
100
AcDbLinetypeTableRecord
  2
CONTINUOUS
 70
64
  3
Solid line
 72
65
 73
0
 40
0.0
  0
LTYPE
  5
1F5
100
AcDbSymbolTableRecord
100
AcDbLinetypeTableRecord
  2
CENTER
 70
64
  3
____ _ ____ _ ____ _ ____ _ ____ _ ____ _ ____
 72
65
 73
4
 40
0.6
 49
0.375
 74
0
 49
-0.075
 74
0
 49
0.075
 74
0
 49
-0.075
 74
0
  0
LTYPE
  5
1F6
100
AcDbSymbolTableRecord
100
AcDbLinetypeTableRecord
  2
HIDDEN
 70
64
  3
- - - - - - - - - - - - - - - - - - - -
 72
65
 73
2
 40
0.2
 49
0.1
 74
0
 49
-0.1
 74
0
  0
LTYPE
  5
1F7
100
AcDbSymbolTableRecord
100
AcDbLinetypeTableRecord
  2
PHANTOM
 70
64
  3
_____ _ _ _____ _ _ _____ _ _ _____
 72
65
 73
6
 40
0.8
 49
0.45
 74
0
 49
-0.05
 74
0
 49
0.1
 74
0
 49
-0.05
 74
0
 49
0.1
 74
0
 49
-0.05
 74
0
  0
LTYPE
  5
1F8
100
AcDbSymbolTableRecord
100
AcDbLinetypeTableRecord
  2
DOT
 70
64
  3
. . . . . . . . . . . . . . . . . . . .
 72
65
 73
2
 40
0.2
 49
0.1
 74
0
 49
-0.1
 74
0
  0
LTYPE
  5
1F9
100
AcDbSymbolTableRecord
100
AcDbLinetypeTableRecord
  2
DASHED
 70
64
  3
- - - - - - - - - - - - - - - - - - - -
 72
65
 73
2
 40
0.2
 49
0.1
 74
0
 49
-0.1
 74
0
  0
ENDTAB
  0
TABLE
  2
LAYER
  5
2
100
AcDbSymbolTable
 70
36
  0
LAYER
  5
10
100
AcDbSymbolTableRecord
100
AcDbLayerTableRecord
  2
0
 70
0
 62
7
  6
CONTINUOUS
370
-3
390
F
  0
LAYER
  5
1FA
100
AcDbSymbolTableRecord
100
AcDbLayerTableRecord
  2
DEFAULT_1
 70
0
 62
7
  6
CENTER
370
-3
390
F
  0
LAYER
  5
1FB
100
AcDbSymbolTableRecord
100
AcDbLayerTableRecord
  2
DEFAULT_2
 70
0
 62
8
  6
HIDDEN
370
-3
390
F
  0
LAYER
  5
1FC
100
AcDbSymbolTableRecord
100
AcDbLayerTableRecord
  2
DEFAULT_3
 70
0
 62
7
  6
PHANTOM
370
-3
390
F
  0
LAYER
  5
1FD
100
AcDbSymbolTableRecord
100
AcDbLayerTableRecord
  2
11719
 70
0
 62
7
  6
CONTINUOUS
370
-3
390
F
  0
LAYER
  5
1FE
100
AcDbSymbolTableRecord
100
AcDbLayerTableRecord
  2
11720
 70
0
 62
7
  6
CONTINUOUS
370
-3
390
F
  0
LAYER
  5
1FF
100
AcDbSymbolTableRecord
100
AcDbLayerTableRecord
  2
11721
 70
0
 62
7
  6
CONTINUOUS
370
-3
390
F
  0
LAYER
  5
200
100
AcDbSymbolTableRecord
100
AcDbLayerTableRecord
  2
11802
 70
0
 62
7
  6
CONTINUOUS
370
-3
390
F
  0
LAYER
  5
201
100
AcDbSymbolTableRecord
100
AcDbLayerTableRecord
  2
11803
 70
0
 62
7
  6
CONTINUOUS
370
-3
390
F
  0
LAYER
  5
202
100
AcDbSymbolTableRecord
100
AcDbLayerTableRecord
  2
11804
 70
0
 62
7
  6
CONTINUOUS
370
-3
390
F
  0
LAYER
  5
203
100
AcDbSymbolTableRecord
100
AcDbLayerTableRecord
  2
11830
 70
0
 62
7
  6
CONTINUOUS
370
-3
390
F
  0
LAYER
  5
204
100
AcDbSymbolTableRecord
100
AcDbLayerTableRecord
  2
11837
 70
0
 62
7
  6
CONTINUOUS
370
-3
390
F
  0
LAYER
  5
205
100
AcDbSymbolTableRecord
100
AcDbLayerTableRecord
  2
11852
 70
0
 62
7
  6
CONTINUOUS
370
-3
390
F
  0
LAYER
  5
206
100
AcDbSymbolTableRecord
100
AcDbLayerTableRecord
  2
11853
 70
0
 62
7
  6
CONTINUOUS
370
-3
390
F
  0
LAYER
  5
207
100
AcDbSymbolTableRecord
100
AcDbLayerTableRecord
  2
11855
 70
0
 62
7
  6
CONTINUOUS
370
-3
390
F
  0
LAYER
  5
208
100
AcDbSymbolTableRecord
100
AcDbLayerTableRecord
  2
11923
 70
0
 62
7
  6
CONTINUOUS
370
-3
390
F
  0
LAYER
  5
209
100
AcDbSymbolTableRecord
100
AcDbLayerTableRecord
  2
12020
 70
0
 62
7
  6
CONTINUOUS
370
-3
390
F
  0
LAYER
  5
20A
100
AcDbSymbolTableRecord
100
AcDbLayerTableRecord
  2
12835
 70
0
 62
7
  6
CONTINUOUS
370
-3
390
F
  0
LAYER
  5
20B
100
AcDbSymbolTableRecord
100
AcDbLayerTableRecord
  2
12846
 70
0
 62
7
  6
CONTINUOUS
370
-3
390
F
  0
LAYER
  5
20C
100
AcDbSymbolTableRecord
100
AcDbLayerTableRecord
  2
13374
 70
0
 62
7
  6
CONTINUOUS
370
-3
390
F
  0
LAYER
  5
20D
100
AcDbSymbolTableRecord
100
AcDbLayerTableRecord
  2
13377
 70
0
 62
7
  6
CONTINUOUS
370
-3
390
F
  0
LAYER
  5
20E
100
AcDbSymbolTableRecord
100
AcDbLayerTableRecord
  2
2-708
 70
0
 62
7
  6
CONTINUOUS
370
-3
390
F
  0
LAYER
  5
20F
100
AcDbSymbolTableRecord
100
AcDbLayerTableRecord
  2
2-735
 70
0
 62
7
  6
CONTINUOUS
370
-3
390
F
  0
LAYER
  5
210
100
AcDbSymbolTableRecord
100
AcDbLayerTableRecord
  2
2-746
 70
0
 62
7
  6
CONTINUOUS
370
-3
390
F
  0
LAYER
  5
211
100
AcDbSymbolTableRecord
100
AcDbLayerTableRecord
  2
2-778
 70
0
 62
7
  6
CONTINUOUS
370
-3
390
F
  0
LAYER
  5
212
100
AcDbSymbolTableRecord
100
AcDbLayerTableRecord
  2
2-783
 70
0
 62
7
  6
CONTINUOUS
370
-3
390
F
  0
LAYER
  5
213
100
AcDbSymbolTableRecord
100
AcDbLayerTableRecord
  2
2-786
 70
0
 62
7
  6
CONTINUOUS
370
-3
390
F
  0
LAYER
  5
214
100
AcDbSymbolTableRecord
100
AcDbLayerTableRecord
  2
2-788
 70
0
 62
7
  6
CONTINUOUS
370
-3
390
F
  0
LAYER
  5
215
100
AcDbSymbolTableRecord
100
AcDbLayerTableRecord
  2
2-800
 70
0
 62
7
  6
CONTINUOUS
370
-3
390
F
  0
LAYER
  5
216
100
AcDbSymbolTableRecord
100
AcDbLayerTableRecord
  2
20-314
 70
0
 62
7
  6
CONTINUOUS
370
-3
390
F
  0
LAYER
  5
217
100
AcDbSymbolTableRecord
100
AcDbLayerTableRecord
  2
2470-5703
 70
0
 62
7
  6
CONTINUOUS
370
-3
390
F
  0
LAYER
  5
218
100
AcDbSymbolTableRecord
100
AcDbLayerTableRecord
  2
91049
 70
0
 62
7
  6
CONTINUOUS
370
-3
390
F
  0
LAYER
  5
219
100
AcDbSymbolTableRecord
100
AcDbLayerTableRecord
  2
91114
 70
0
 62
7
  6
CONTINUOUS
370
-3
390
F
  0
LAYER
  5
21A
100
AcDbSymbolTableRecord
100
AcDbLayerTableRecord
  2
91353
 70
0
 62
7
  6
CONTINUOUS
370
-3
390
F
  0
LAYER
  5
21B
100
AcDbSymbolTableRecord
100
AcDbLayerTableRecord
  2
91543
 70
0
 62
7
  6
CONTINUOUS
370
-3
390
F
  0
LAYER
  5
21C
100
AcDbSymbolTableRecord
100
AcDbLayerTableRecord
  2
91791
 70
0
 62
7
  6
CONTINUOUS
370
-3
390
F
  0
LAYER
  5
21D
100
AcDbSymbolTableRecord
100
AcDbLayerTableRecord
  2
92005
 70
0
 62
7
  6
CONTINUOUS
370
-3
390
F
  0
LAYER
  5
21E
100
AcDbSymbolTableRecord
100
AcDbLayerTableRecord
  2
ALL_ASSEMBLY_MEMBERS
 70
0
 62
7
  6
CONTINUOUS
370
-3
390
F
  0
LAYER
  5
21F
100
AcDbSymbolTableRecord
100
AcDbLayerTableRecord
  2
ALL_ASSEMBLY_MEMBERS_1
 70
0
 62
7
  6
CONTINUOUS
370
-3
390
F
  0
LAYER
  5
220
100
AcDbSymbolTableRecord
100
AcDbLayerTableRecord
  2
ALL_ASSEMBLY_MEMBERS_2
 70
0
 62
7
  6
CONTINUOUS
370
-3
390
F
  0
LAYER
  5
221
100
AcDbSymbolTableRecord
100
AcDbLayerTableRecord
  2
COLOR131
 70
0
 62
7
  6
CONTINUOUS
370
-3
390
F
  0
LAYER
  5
222
100
AcDbSymbolTableRecord
100
AcDbLayerTableRecord
  2
COLOR147
 70
0
 62
7
  6
CONTINUOUS
370
-3
390
F
  0
LAYER
  5
223
100
AcDbSymbolTableRecord
100
AcDbLayerTableRecord
  2
COLOR148
 70
0
 62
7
  6
CONTINUOUS
370
-3
390
F
  0
LAYER
  5
224
100
AcDbSymbolTableRecord
100
AcDbLayerTableRecord
  2
COLOR149
 70
0
 62
7
  6
CONTINUOUS
370
-3
390
F
  0
LAYER
  5
225
100
AcDbSymbolTableRecord
100
AcDbLayerTableRecord
  2
COLOR150
 70
0
 62
7
  6
CONTINUOUS
370
-3
390
F
  0
LAYER
  5
226
100
AcDbSymbolTableRecord
100
AcDbLayerTableRecord
  2
COLOR152
 70
0
 62
7
  6
CONTINUOUS
370
-3
390
F
  0
LAYER
  5
227
100
AcDbSymbolTableRecord
100
AcDbLayerTableRecord
  2
COLOR153
 70
0
 62
7
  6
CONTINUOUS
370
-3
390
F
  0
LAYER
  5
228
100
AcDbSymbolTableRecord
100
AcDbLayerTableRecord
  2
COLOR48
 70
0
 62
7
  6
CONTINUOUS
370
-3
390
F
  0
LAYER
  5
229
100
AcDbSymbolTableRecord
100
AcDbLayerTableRecord
  2
COLOR67
 70
0
 62
7
  6
CONTINUOUS
370
-3
390
F
  0
LAYER
  5
22A
100
AcDbSymbolTableRecord
100
AcDbLayerTableRecord
  2
INTF_CYAN
 70
0
 62
7
  6
CONTINUOUS
370
-3
390
F
  0
LAYER
  5
22B
100
AcDbSymbolTableRecord
100
AcDbLayerTableRecord
  2
NONE
 70
0
 62
7
  6
CONTINUOUS
370
-3
390
F
  0
ENDTAB
  0
TABLE
  2
STYLE
  5
3
100
AcDbSymbolTable
 70
1
  0
STYLE
  5
11
100
AcDbSymbolTableRecord
100
AcDbTextStyleTableRecord
  2
STANDARD
 70
0
 40
0.0
 41
0.8
 50
0.0
 71
0
 42
0.2
  3
txt
  4

  0
STYLE
  5
22C
100
AcDbSymbolTableRecord
100
AcDbTextStyleTableRecord
  2
TEXTSTYLE_1
 70
0
 40
0.0
 41
0.8
 50
0.0
 71
0
 42
0.2
  3
gdt
  4

  0
ENDTAB
  0
TABLE
  2
VIEW
  5
6
100
AcDbSymbolTable
 70
0
  0
ENDTAB
  0
TABLE
  2
UCS
  5
7
100
AcDbSymbolTable
 70
0
  0
ENDTAB
  0
TABLE
  2
APPID
  5
9
100
AcDbSymbolTable
 70
1
  0
APPID
  5
22D
100
AcDbSymbolTableRecord
100
AcDbRegAppTableRecord
  2
ACAD
 70
0
  0
ENDTAB
  0
TABLE
  2
BLOCK_RECORD
  5
1
100
AcDbSymbolTable
 70
0
  0
BLOCK_RECORD
  5
22E
100
AcDbSymbolTableRecord
100
AcDbBlockTableRecord
  2
*Model_Space
  0
BLOCK_RECORD
  5
22F
100
AcDbSymbolTableRecord
100
AcDbBlockTableRecord
  2
*Paper_Space
  0
BLOCK_RECORD
  5
230
100
AcDbSymbolTableRecord
100
AcDbBlockTableRecord
  2
_FILLED
  0
ENDTAB
  0
TABLE
  2
DIMSTYLE
  5
A
100
AcDbSymbolTable
 70
1
100
AcDbDimStyleTable
 71
0
  0
DIMSTYLE
105
231
100
AcDbSymbolTableRecord
100
AcDbDimStyleTableRecord
  2
STANDARD
 70
0
  3

  4

 40
1.0
 41
0.1
 42
0.0625
 43
0.38
 44
0.125
 45
0.0
 46
0.0
 47
0.001
 48
0.001
140
0.08
141
0.09
142
0.0
143
25.4
144
1.0
145
0.0
146
1.0
147
0.09
 71
1.0
 72
0.0
 73
1
 74
1
 75
0
 76
0
 77
0
 78
4
 79
1
170
1
171
2
172
0
173
0
174
0
175
0
176
0
177
0
178
0
270
2
179
3
271
3
272
3
273
2
274
2
275
0
280
0
281
0
282
0
283
1
284
4
285
0
286
0
287
3
288
0
340
11
278
46
341
230
342
230
343
230
344
230
  0
ENDTAB
  0
ENDSEC
  0
SECTION
  2
BLOCKS
  0
BLOCK
  5
20
100
AcDbEntity
  8
0
100
AcDbBlockBegin
  2
*Model_Space
 70
0
 10
0.0
 20
0.0
 30
0.0
  3
*Model_Space
  1

  0
ENDBLK
  5
21
100
AcDbEntity
  8
0
100
AcDbBlockEnd
  0
BLOCK
  5
1C
100
AcDbEntity
  8
0
100
AcDbBlockBegin
  2
*Paper_Space
 70
0
 10
0.0
 20
0.0
 30
0.0
  3
*Paper_Space
  1

  0
ENDBLK
  5
1D
100
AcDbEntity
  8
0
100
AcDbBlockEnd
  0
BLOCK
  5
232
100
AcDbEntity
  8
0
100
AcDbBlockBegin
  2
_FILLED
 70
64
 10
0.0
 20
0.0
  3
_FILLED
  1

  0
SOLID
  5
233
100
AcDbEntity
  8
0
  6
BYBLOCK
 62
0
100
AcDbTrace
 10
0.0
 20
0.0
 11
-1.0
 21
0.2
 12
-1.0
 22
-0.2
 13
-1.0
 23
-0.2
  0
ENDBLK
  5
234
100
AcDbEntity
  8
0
  6
BYBLOCK
 62
0
100
AcDbBlockEnd
  0
ENDSEC
  0
SECTION
  2
ENTITIES
  0
MTEXT
  5
235
100
AcDbEntity
  8
0
100
AcDbMText
 62
2
  6
CONTINUOUS
  7
STANDARD
 71
3
 72
1
 10
5.4305047231
 20
1.0699225208
 30
0.0
 11
1.0
 21
0.0
 31
0.0
 73
2
 44
0.9
  1
SCALE  .500
 40
0.08
 41
0.704
  0
LINE
  5
236
100
AcDbEntity
  8
0
100
AcDbLine
 62
7
  6
CONTINUOUS
 10
0.0
 20
0.0
 11
0.0
 21
8.5
  0
LINE
  5
237
100
AcDbEntity
  8
0
100
AcDbLine
 62
7
  6
CONTINUOUS
 10
0.0
 20
0.0
 11
11.0
 21
0.0
  0
LINE
  5
238
100
AcDbEntity
  8
0
100
AcDbLine
 62
7
  6
CONTINUOUS
 10
0.0
 20
8.5
 11
11.0
 21
8.5
  0
LINE
  5
239
100
AcDbEntity
  8
0
100
AcDbLine
 62
7
  6
CONTINUOUS
 10
11.0
 20
0.0
 11
11.0
 21
8.5
  0
LINE
  5
23A
100
AcDbEntity
  8
0
100
AcDbLine
 62
7
  6
CONTINUOUS
 10
6.1199213051
 20
6.5964809551
 11
6.1198840236
 21
6.5964657522
  0
LINE
  5
23B
100
AcDbEntity
  8
0
100
AcDbLine
 62
7
  6
CONTINUOUS
 10
4.4110031804
 20
5.9983832341
 11
4.4110031804
 21
6.0018832341
  0
LINE
  5
23C
100
AcDbEntity
  8
0
100
AcDbLine
 62
7
  6
CONTINUOUS
 10
4.4567531804
 20
5.5008832341
 11
4.4567531804
 21
5.5090503053
  0
LINE
  5
23D
100
AcDbEntity
  8
0
100
AcDbLine
 62
7
  6
CONTINUOUS
 10
4.5217531804
 20
5.4604332341
 11
4.5217531804
 21
1.8869332341
  0
LINE
  5
23E
100
AcDbEntity
  8
0
100
AcDbLine
 62
7
  6
CONTINUOUS
 10
4.9567531804
 20
5.4604332341
 11
4.9567531804
 21
1.8869332341
  0
LINE
  5
23F
100
AcDbEntity
  8
0
100
AcDbLine
 62
7
  6
CONTINUOUS
 10
5.0217531804
 20
5.5008832341
 11
5.0217531804
 21
5.5090503053
  0
LINE
  5
240
100
AcDbEntity
  8
0
100
AcDbLine
 62
7
  6
CONTINUOUS
 10
5.0675031804
 20
5.9983832341
 11
5.0675031804
 21
6.0018832341
  0
LINE
  5
241
100
AcDbEntity
  8
0
100
AcDbLine
 62
7
  6
CONTINUOUS
 10
5.5490031804
 20
5.9191046411
 11
5.5490031804
 21
6.9091041903
  0
LINE
  5
242
100
AcDbEntity
  8
0
100
AcDbLine
 62
7
  6
CONTINUOUS
 10
5.5874860104
 20
6.9301572727
 11
5.5874860104
 21
5.8980520095
  0
LINE
  5
243
100
AcDbEntity
  8
0
100
AcDbLine
 62
7
  6
CONTINUOUS
 10
5.6252379343
 20
5.9091046411
 11
5.6252379343
 21
6.9191046411
  0
LINE
  5
244
100
AcDbEntity
  8
0
100
AcDbLine
 62
7
  6
CONTINUOUS
 10
5.6490031804
 20
5.9091046411
 11
5.6490031804
 21
6.9191046411
  0
LINE
  5
245
100
AcDbEntity
  8
0
100
AcDbLine
 62
7
  6
CONTINUOUS
 10
5.8790894159
 20
6.8636436542
 11
5.8790894159
 21
5.9645656281
  0
LINE
  5
246
100
AcDbEntity
  8
0
100
AcDbLine
 62
7
  6
CONTINUOUS
 10
5.9279963061
 20
5.9701541906
 11
5.9279963061
 21
6.8580550916
  0
LINE
  5
247
100
AcDbEntity
  8
0
100
AcDbLine
 62
7
  6
CONTINUOUS
 10
6.5352154314
 20
6.3039795939
 11
6.5381925197
 21
6.3122754862
  0
LINE
  5
248
100
AcDbEntity
  8
0
100
AcDbLine
 62
7
  6
CONTINUOUS
 10
5.9715031804
 20
6.006350664
 11
5.9715031804
 21
6.8241046411
  0
LINE
  5
249
100
AcDbEntity
  8
0
100
AcDbLine
 62
7
  6
CONTINUOUS
 10
5.9831565368
 20
6.035466906
 11
5.9831565368
 21
6.7927423762
  0
LINE
  5
24A
100
AcDbEntity
  8
0
100
AcDbLine
 62
7
  6
CONTINUOUS
 10
6.1191221319
 20
6.5579391089
 11
6.1193156936
 21
6.5674023855
  0
LINE
  5
24B
100
AcDbEntity
  8
0
100
AcDbLine
 62
7
  6
CONTINUOUS
 10
6.1193156936
 20
6.5674023855
 11
6.1194686913
 21
6.573581431
  0
LINE
  5
24C
100
AcDbEntity
  8
0
100
AcDbLine
 62
7
  6
CONTINUOUS
 10
6.1194686913
 20
6.573581431
 11
6.1195916207
 21
6.5778135075
  0
LINE
  5
24D
100
AcDbEntity
  8
0
100
AcDbLine
 62
7
  6
CONTINUOUS
 10
6.1195916207
 20
6.5778135075
 11
6.1197137097
 21
6.5814207543
  0
LINE
  5
24E
100
AcDbEntity
  8
0
100
AcDbLine
 62
7
  6
CONTINUOUS
 10
6.1197137097
 20
6.5814207543
 11
6.1198038982
 21
6.5837251412
  0
LINE
  5
24F
100
AcDbEntity
  8
0
100
AcDbLine
 62
7
  6
CONTINUOUS
 10
6.1198038982
 20
6.5837251412
 11
6.1198921224
 21
6.5856942525
  0
LINE
  5
250
100
AcDbEntity
  8
0
100
AcDbLine
 62
7
  6
CONTINUOUS
 10
6.1198921224
 20
6.5856942525
 11
6.1199494046
 21
6.5868247164
  0
LINE
  5
251
100
AcDbEntity
  8
0
100
AcDbLine
 62
7
  6
CONTINUOUS
 10
6.1199494046
 20
6.5868247164
 11
6.1200050569
 21
6.5878123249
  0
LWPOLYLINE
  5
252
100
AcDbEntity
  8
0
100
AcDbPolyline
 62
7
  6
CONTINUOUS
 90
8
 70
0
 10
6.1200050569
 20
6.5878123249
 10
6.1200585166
 20
6.5886581681
 10
6.1200842668
 20
6.5890292305
 10
6.1201090625
 20
6.5893637751
 10
6.1201328743
 20
6.5896635379
 10
6.1201555092
 20
6.5899282828
 10
6.1201762769
 20
6.5901529914
 10
6.1201863973
 20
6.5902558048
  0
LINE
  5
253
100
AcDbEntity
  8
0
100
AcDbLine
 62
7
  6
CONTINUOUS
 10
6.1200792797
 20
6.2392499399
 11
6.1200242468
 21
6.2400816159
  0
LINE
  5
254
100
AcDbEntity
  8
0
100
AcDbLine
 62
7
  6
CONTINUOUS
 10
6.1200242468
 20
6.2400816159
 11
6.1199663285
 21
6.2410726712
  0
LINE
  5
255
100
AcDbEntity
  8
0
100
AcDbLine
 62
7
  6
CONTINUOUS
 10
6.1199663285
 20
6.2410726712
 11
6.1199059252
 21
6.242232004
  0
LINE
  5
256
100
AcDbEntity
  8
0
100
AcDbLine
 62
7
  6
CONTINUOUS
 10
6.1199059252
 20
6.242232004
 11
6.1198433082
 21
6.2435701246
  0
LINE
  5
257
100
AcDbEntity
  8
0
100
AcDbLine
 62
7
  6
CONTINUOUS
 10
6.1198433082
 20
6.2435701246
 11
6.1197454597
 21
6.2459432119
  0
LINE
  5
258
100
AcDbEntity
  8
0
100
AcDbLine
 62
7
  6
CONTINUOUS
 10
6.1197454597
 20
6.2459432119
 11
6.1196430887
 21
6.2488050611
  0
LINE
  5
259
100
AcDbEntity
  8
0
100
AcDbLine
 62
7
  6
CONTINUOUS
 10
6.1196430887
 20
6.2488050611
 11
6.1194998304
 21
6.2534965014
  0
LINE
  5
25A
100
AcDbEntity
  8
0
100
AcDbLine
 62
7
  6
CONTINUOUS
 10
6.1194998304
 20
6.2534965014
 11
6.1193104065
 21
6.2610397828
  0
LINE
  5
25B
100
AcDbEntity
  8
0
100
AcDbLine
 62
7
  6
CONTINUOUS
 10
6.1193104065
 20
6.2610397828
 11
6.1191222028
 21
6.2702700789
  0
LINE
  5
25C
100
AcDbEntity
  8
0
100
AcDbLine
 62
7
  6
CONTINUOUS
 10
6.5352154314
 20
6.5242296883
 11
6.5352154314
 21
6.4996596268
  0
LINE
  5
25D
100
AcDbEntity
  8
0
100
AcDbLine
 62
7
  6
CONTINUOUS
 10
6.5352154314
 20
6.3285496554
 11
6.5352154314
 21
6.3040051928
  0
LINE
  5
25E
100
AcDbEntity
  8
0
100
AcDbLine
 62
7
  6
CONTINUOUS
 10
6.5381925198
 20
6.3122991567
 11
6.5381925198
 21
6.3373428829
  0
LINE
  5
25F
100
AcDbEntity
  8
0
100
AcDbLine
 62
7
  6
CONTINUOUS
 10
6.5381925198
 20
6.4908663993
 11
6.5381925198
 21
6.5159337958
  0
LINE
  5
260
100
AcDbEntity
  8
0
100
AcDbLine
 62
7
  6
CONTINUOUS
 10
4.5217531804
 20
5.4604332341
 11
4.9567531804
 21
5.4604332341
  0
LINE
  5
261
100
AcDbEntity
  8
0
100
AcDbLine
 62
7
  6
CONTINUOUS
 10
4.4957531805
 20
5.4618832341
 11
4.9827531804
 21
5.4618832341
  0
LINE
  5
262
100
AcDbEntity
  8
0
100
AcDbLine
 62
7
  6
CONTINUOUS
 10
4.4567531804
 20
5.5008832341
 11
5.0217531804
 21
5.5008832341
  0
LINE
  5
263
100
AcDbEntity
  8
0
100
AcDbLine
 62
7
  6
CONTINUOUS
 10
5.0217531804
 20
5.5090503053
 11
4.4567531804
 21
5.5090503053
  0
LINE
  5
264
100
AcDbEntity
  8
0
100
AcDbLine
 62
7
  6
CONTINUOUS
 10
4.4649186884
 20
5.5329298808
 11
5.0135876725
 21
5.5329298807
  0
LWPOLYLINE
  5
265
100
AcDbEntity
  8
0
100
AcDbPolyline
 62
7
  6
CONTINUOUS
 90
9
 70
0
 10
6.1202286842
 20
6.2375810082
 10
6.1202236257
 20
6.2376193872
 10
6.1202116583
 20
6.237718201
 10
6.1201948254
 20
6.2378714362
 10
6.1201753389
 20
6.2380660091
 10
6.1201537959
 20
6.2383002523
 10
6.1201302135
 20
6.2385780727
 10
6.1201053072
 20
6.2388946088
 10
6.1200792797
 20
6.2392499399
  0
LINE
  5
266
100
AcDbEntity
  8
0
100
AcDbLine
 62
7
  6
CONTINUOUS
 10
4.4794115654
 20
5.5710140262
 11
4.9990947955
 21
5.5710140262
  0
LINE
  5
267
100
AcDbEntity
  8
0
100
AcDbLine
 62
7
  6
CONTINUOUS
 10
5.6490031804
 20
5.9091046411
 11
5.6252379343
 21
5.9091046411
  0
LINE
  5
268
100
AcDbEntity
  8
0
100
AcDbLine
 62
7
  6
CONTINUOUS
 10
4.4608805231
 20
5.9183110654
 11
5.0176258378
 21
5.9183110654
  0
LWPOLYLINE
  5
269
100
AcDbEntity
  8
0
100
AcDbPolyline
 62
7
  6
CONTINUOUS
 90
20
 70
0
 10
5.0680278186
 20
6.0044896843
 10
5.0808515037
 20
6.0018813451
 10
5.0938254714
 20
5.9994101962
 10
5.1069421322
 20
5.9970700488
 10
5.1201987349
 20
5.994852946
 10
5.1335950385
 20
5.9927510352
 10
5.1471274642
 20
5.9907605815
 10
5.1607948106
 20
5.9888779426
 10
5.1745960513
 20
5.9870990936
 10
5.1885280521
 20
5.9854198868
 10
5.2025913156
 20
5.983835268
 10
5.2167840865
 20
5.982339268
 10
5.2311001114
 20
5.9809253357
 10
5.2455315993
 20
5.9795867435
 10
5.2600861548
 20
5.9783159261
 10
5.2747806248
 20
5.9771047251
 10
5.2896099007
 20
5.9759501209
 10
5.3045680484
 20
5.9748524933
 10
5.3196687034
 20
5.9738110419
 10
5.3427639801
 20
5.9723443372
  0
LINE
  5
26A
100
AcDbEntity
  8
0
100
AcDbLine
 62
7
  6
CONTINUOUS
 10
5.0673448557
 20
6.0046380088
 11
5.0680278186
 21
6.0044896843
  0
LINE
  5
26B
100
AcDbEntity
  8
0
100
AcDbLine
 62
7
  6
CONTINUOUS
 10
5.0492750343
 20
5.9653752035
 11
4.4292313266
 21
5.9653752035
  0
LINE
  5
26C
100
AcDbEntity
  8
0
100
AcDbLine
 62
7
  6
CONTINUOUS
 10
4.4110031804
 20
5.9983832341
 11
5.0675031804
 21
5.9983832341
  0
LINE
  5
26D
100
AcDbEntity
  8
0
100
AcDbLine
 62
7
  6
CONTINUOUS
 10
5.0675031804
 20
6.0018832341
 11
4.4110031804
 21
6.0018832341
  0
LINE
  5
26E
100
AcDbEntity
  8
0
100
AcDbLine
 62
7
  6
CONTINUOUS
 10
4.4300381928
 20
6.0353854619
 11
5.0484681681
 21
6.0353854619
  0
LINE
  5
26F
100
AcDbEntity
  8
0
100
AcDbLine
 62
7
  6
CONTINUOUS
 10
5.0463259197
 20
6.0596087557
 11
4.4321804412
 21
6.0596087557
  0
LINE
  5
270
100
AcDbEntity
  8
0
100
AcDbLine
 62
7
  6
CONTINUOUS
 10
6.1228159147
 20
6.2653546411
 11
6.1192177625
 21
6.2653546411
  0
LINE
  5
271
100
AcDbEntity
  8
0
100
AcDbLine
 62
7
  6
CONTINUOUS
 10
6.5352154314
 20
6.5242296883
 11
6.5381925198
 21
6.5159337958
  0
LINE
  5
272
100
AcDbEntity
  8
0
100
AcDbLine
 62
7
  6
CONTINUOUS
 10
5.2079674783
 20
6.4141046411
 11
5.5490031804
 21
6.4141046411
  0
LINE
  5
273
100
AcDbEntity
  8
0
100
AcDbLine
 62
7
  6
CONTINUOUS
 10
6.1198840236
 20
6.23174353
 11
6.1199210586
 21
6.2317276907
  0
LINE
  5
274
100
AcDbEntity
  8
0
100
AcDbLine
 62
7
  6
CONTINUOUS
 10
6.1192176573
 20
6.5628546411
 11
6.1228159147
 21
6.5628546411
  0
LWPOLYLINE
  5
275
100
AcDbEntity
  8
0
100
AcDbPolyline
 62
7
  6
CONTINUOUS
 90
25
 70
0
 10
5.3247774119
 20
6.8547370376
 10
5.3087866597
 20
6.8536551447
 10
5.2929771574
 20
6.8525121237
 10
5.2773507505
 20
6.8513088164
 10
5.26192333
 20
6.8500471356
 10
5.2466816246
 20
6.8487235335
 10
5.231623599
 20
6.8473310256
 10
5.2167518827
 20
6.8458631011
 10
5.2020558261
 20
6.8443113819
 10
5.1875359893
 20
6.8426688307
 10
5.1731930324
 20
6.8409297123
 10
5.1590168005
 20
6.8390882236
 10
5.1450042003
 20
6.8371397435
 10
5.1311607194
 20
6.8350812842
 10
5.1174893065
 20
6.8329100699
 10
5.1039944934
 20
6.8306225572
 10
5.0906748783
 20
6.8282106689
 10
5.0775246443
 20
6.8256654881
 10
5.0645481799
 20
6.8229807513
 10
5.0517447118
 20
6.8201499914
 10
5.0391010761
 20
6.8171648984
 10
5.0266192363
 20
6.8140325207
 10
5.0142974786
 20
6.8107703007
 10
5.0021165025
 20
6.8073903091
 10
4.9967022205
 20
6.8058246698
  0
LINE
  5
276
100
AcDbEntity
  8
0
100
AcDbLine
 62
7
  6
CONTINUOUS
 10
5.3438676142
 20
6.8559332673
 11
5.3247774119
 21
6.8547370376
  0
LINE
  5
277
100
AcDbEntity
  8
0
100
AcDbLine
 62
7
  6
CONTINUOUS
 10
5.6490031804
 20
6.9191046411
 11
5.6252379343
 21
6.9191046411
  0
ARC
  5
278
100
AcDbEntity
  8
0
100
AcDbCircle
 62
7
  6
CONTINUOUS
 10
4.7392531804
 20
1.8869332341
 40
0.2945805891
100
AcDbArc
 50
137.6347968792
 51
42.3652031208
  0
ARC
  5
279
100
AcDbEntity
  8
0
100
AcDbCircle
 62
7
  6
CONTINUOUS
 10
4.7392531804
 20
1.8869332341
 40
0.2545805891
100
AcDbArc
 50
148.7639296178
 51
31.2509023799
  0
ARC
  5
27A
100
AcDbEntity
  8
0
100
AcDbCircle
 62
7
  6
CONTINUOUS
 10
4.7392531804
 20
1.8869332341
 40
0.225
100
AcDbArc
 50
165.1988951887
 51
14.8053469794
  0
ARC
  5
27B
100
AcDbEntity
  8
0
100
AcDbCircle
 62
7
  6
CONTINUOUS
 10
4.7388775052
 20
1.8868910622
 40
0.2216248643
100
AcDbArc
 50
357.3059463851
 51
10.25297288
  0
ARC
  5
27C
100
AcDbEntity
  8
0
100
AcDbCircle
 62
7
  6
CONTINUOUS
 10
4.7385923111
 20
1.8890980953
 40
0.2206587015
100
AcDbArc
 50
352.3072057466
 51
357.565467517
  0
ARC
  5
27D
100
AcDbEntity
  8
0
100
AcDbCircle
 62
7
  6
CONTINUOUS
 10
4.7392300876
 20
1.8890754679
 40
0.2200205395
100
AcDbArc
 50
357.5642997315
 51
8.5320118532
  0
ARC
  5
27E
100
AcDbEntity
  8
0
100
AcDbCircle
 62
7
  6
CONTINUOUS
 10
4.7404070532
 20
1.8887461732
 40
0.2188062679
100
AcDbArc
 50
304.7681673995
 51
352.3349172895
  0
ARC
  5
27F
100
AcDbEntity
  8
0
100
AcDbCircle
 62
7
  6
CONTINUOUS
 10
4.7411217752
 20
1.8882122323
 40
0.2179753305
100
AcDbArc
 50
293.9615673298
 51
296.2539089638
  0
ARC
  5
280
100
AcDbEntity
  8
0
100
AcDbCircle
 62
7
  6
CONTINUOUS
 10
4.7392531804
 20
1.8869332341
 40
0.2175
100
AcDbArc
 50
180.0
 51
360.0
  0
ARC
  5
281
100
AcDbEntity
  8
0
100
AcDbCircle
 62
7
  6
CONTINUOUS
 10
4.741508708
 20
1.8874191734
 40
0.2170929219
100
AcDbArc
 50
296.2549096708
 51
296.9657856909
  0
ARC
  5
282
100
AcDbEntity
  8
0
100
AcDbCircle
 62
7
  6
CONTINUOUS
 10
4.741428637
 20
1.8873523672
 40
0.2170732491
100
AcDbArc
 50
299.4474011603
 51
304.7564564547
  0
ARC
  5
283
100
AcDbEntity
  8
0
100
AcDbCircle
 62
7
  6
CONTINUOUS
 10
4.7420623324
 20
1.8863451903
 40
0.2158846594
100
AcDbArc
 50
296.9640801235
 51
299.4323598956
  0
ARC
  5
284
100
AcDbEntity
  8
0
100
AcDbCircle
 62
7
  6
CONTINUOUS
 10
3.0491373001
 20
5.6688404965
 40
1.4336158804
100
AcDbArc
 50
356.0872344213
 51
10.0213382993
  0
ARC
  5
285
100
AcDbEntity
  8
0
100
AcDbCircle
 62
7
  6
CONTINUOUS
 10
5.6252379343
 20
5.8391046411
 40
0.07
100
AcDbArc
 50
90.0
 51
122.6368975036
  0
ARC
  5
286
100
AcDbEntity
  8
0
100
AcDbCircle
 62
7
  6
CONTINUOUS
 10
5.0865578488
 20
5.9061300202
 40
0.07
100
AcDbArc
 50
122.1820829817
 51
169.9786617007
  0
ARC
  5
287
100
AcDbEntity
  8
0
100
AcDbCircle
 62
7
  6
CONTINUOUS
 10
4.3919485121
 20
5.9061300202
 40
0.07
100
AcDbArc
 50
10.0213382993
 51
57.8179170183
  0
ARC
  5
288
100
AcDbEntity
  8
0
100
AcDbCircle
 62
7
  6
CONTINUOUS
 10
4.4095747284
 20
5.5757906564
 40
0.07
100
AcDbArc
 50
322.2442378682
 51
356.0872344213
  0
ARC
  5
289
100
AcDbEntity
  8
0
100
AcDbCircle
 62
7
  6
CONTINUOUS
 10
5.0689316325
 20
5.5757906564
 40
0.07
100
AcDbArc
 50
183.9127655791
 51
217.7557621284
  0
ARC
  5
28A
100
AcDbEntity
  8
0
100
AcDbCircle
 62
7
  6
CONTINUOUS
 10
5.0285031805
 20
6.0018832341
 40
0.039
100
AcDbArc
 50
0.0
 51
59.208011109
  0
ARC
  5
28B
100
AcDbEntity
  8
0
100
AcDbCircle
 62
7
  6
CONTINUOUS
 10
4.4500031804
 20
6.0018832341
 40
0.039
100
AcDbArc
 50
120.791988891
 51
180.0
  0
ARC
  5
28C
100
AcDbEntity
  8
0
100
AcDbCircle
 62
7
  6
CONTINUOUS
 10
4.4500031804
 20
5.9983832341
 40
0.039
100
AcDbArc
 50
180.0
 51
237.8179170183
  0
ARC
  5
28D
100
AcDbEntity
  8
0
100
AcDbCircle
 62
7
  6
CONTINUOUS
 10
5.0285031805
 20
5.9983832341
 40
0.039
100
AcDbArc
 50
302.1820829817
 51
360.0
  0
ARC
  5
28E
100
AcDbEntity
  8
0
100
AcDbCircle
 62
7
  6
CONTINUOUS
 10
4.4957531805
 20
5.5090503057
 40
0.039
100
AcDbArc
 50
142.2442378722
 51
180.0
  0
ARC
  5
28F
100
AcDbEntity
  8
0
100
AcDbCircle
 62
7
  6
CONTINUOUS
 10
4.9827531805
 20
5.5090503057
 40
0.039
100
AcDbArc
 50
0.0
 51
37.7557621323
  0
ARC
  5
290
100
AcDbEntity
  8
0
100
AcDbCircle
 62
7
  6
CONTINUOUS
 10
4.9827531805
 20
5.5008832341
 40
0.039
100
AcDbArc
 50
270.0
 51
360.0
  0
ARC
  5
291
100
AcDbEntity
  8
0
100
AcDbCircle
 62
7
  6
CONTINUOUS
 10
4.4957531804
 20
5.5008832341
 40
0.039
100
AcDbArc
 50
180.0
 51
270.0
  0
ARC
  5
292
100
AcDbEntity
  8
0
100
AcDbCircle
 62
7
  6
CONTINUOUS
 10
5.5740031804
 20
5.9191046411
 40
0.025
100
AcDbArc
 50
180.0
 51
302.6368975036
  0
ARC
  5
293
100
AcDbEntity
  8
0
100
AcDbCircle
 62
7
  6
CONTINUOUS
 10
4.4223593514
 20
6.0482709342
 40
0.015
100
AcDbArc
 50
300.791988891
 51
49.1001135169
  0
ARC
  5
294
100
AcDbEntity
  8
0
100
AcDbCircle
 62
7
  6
CONTINUOUS
 10
5.0561470095
 20
6.0482709342
 40
0.015
100
AcDbArc
 50
130.8998864831
 51
239.208011109
  0
ARC
  5
295
100
AcDbEntity
  8
0
100
AcDbCircle
 62
7
  6
CONTINUOUS
 10
4.7392531804
 20
6.4141046411
 40
0.6376826031
100
AcDbArc
 50
294.7138651488
 51
317.459839133
  0
ARC
  5
296
100
AcDbEntity
  8
0
100
AcDbCircle
 62
7
  6
CONTINUOUS
 10
4.7392531804
 20
6.4141046411
 40
0.6376826031
100
AcDbArc
 50
42.5396062532
 51
245.2861348512
  0
ARC
  5
297
100
AcDbEntity
  8
0
100
AcDbCircle
 62
7
  6
CONTINUOUS
 10
4.7392531804
 20
6.4141046411
 40
0.6351104694
100
AcDbArc
 50
294.8513793966
 51
317.2931890521
  0
ARC
  5
298
100
AcDbEntity
  8
0
100
AcDbCircle
 62
7
  6
CONTINUOUS
 10
4.7392531804
 20
6.4141046411
 40
0.6351104694
100
AcDbArc
 50
42.7061837298
 51
245.1487064847
  0
ARC
  5
299
100
AcDbEntity
  8
0
100
AcDbCircle
 62
7
  6
CONTINUOUS
 10
4.7392531804
 20
6.4141046411
 40
0.5557423364
100
AcDbArc
 50
48.6189950187
 51
239.2025145973
  0
ARC
  5
29A
100
AcDbEntity
  8
0
100
AcDbCircle
 62
7
  6
CONTINUOUS
 10
4.7392531804
 20
6.4141046411
 40
0.5557423364
100
AcDbArc
 50
300.7974854036
 51
311.3792264717
  0
ARC
  5
29B
100
AcDbEntity
  8
0
100
AcDbCircle
 62
7
  6
CONTINUOUS
 10
4.7392531804
 20
6.4141046411
 40
0.554327434
100
AcDbArc
 50
48.7651443181
 51
238.9385030456
  0
ARC
  5
29C
100
AcDbEntity
  8
0
100
AcDbCircle
 62
7
  6
CONTINUOUS
 10
4.7392531804
 20
6.4141046411
 40
0.554327434
100
AcDbArc
 50
301.0617986306
 51
311.2355940461
  0
ARC
  5
29D
100
AcDbEntity
  8
0
100
AcDbCircle
 62
7
  6
CONTINUOUS
 10
4.7392531804
 20
6.4141046411
 40
0.5353123378
100
AcDbArc
 50
50.3786157027
 51
232.2639530203
  0
ARC
  5
29E
100
AcDbEntity
  8
0
100
AcDbCircle
 62
7
  6
CONTINUOUS
 10
4.7392531804
 20
6.4141046411
 40
0.5353123378
100
AcDbArc
 50
307.7360469797
 51
309.6194490377
  0
ARC
  5
29F
100
AcDbEntity
  8
0
100
AcDbCircle
 62
7
  6
CONTINUOUS
 10
4.7392531804
 20
6.4141046411
 40
0.5134953195
100
AcDbArc
 50
52.3358956237
 51
230.6983707569
  0
ARC
  5
2A0
100
AcDbEntity
  8
0
100
AcDbCircle
 62
7
  6
CONTINUOUS
 10
4.7392531804
 20
6.4141046411
 40
0.5085522121
100
AcDbArc
 50
52.7758628971
 51
230.5672334004
  0
ARC
  5
2A1
100
AcDbEntity
  8
0
100
AcDbCircle
 62
7
  6
CONTINUOUS
 10
4.7392531804
 20
6.4141046411
 40
0.469
100
AcDbArc
 50
310.8998864821
 51
229.1001135207
  0
CIRCLE
  5
2A2
100
AcDbEntity
  8
0
100
AcDbCircle
 62
7
  6
CONTINUOUS
 10
4.7392531804
 20
6.4141046411
 40
0.29
  0
CIRCLE
  5
2A3
100
AcDbEntity
  8
0
100
AcDbCircle
 62
7
  6
CONTINUOUS
 10
4.7392531804
 20
6.4141046411
 40
0.2745150554
  0
CIRCLE
  5
2A4
100
AcDbEntity
  8
0
100
AcDbCircle
 62
7
  6
CONTINUOUS
 10
4.7392531804
 20
6.4141046411
 40
0.2514038967
  0
ARC
  5
2A5
100
AcDbEntity
  8
0
100
AcDbCircle
 62
7
  6
CONTINUOUS
 10
5.6490031804
 20
6.4141046411
 40
0.505
100
AcDbArc
 50
270.0
 51
297.1045955711
  0
ARC
  5
2A6
100
AcDbEntity
  8
0
100
AcDbCircle
 62
7
  6
CONTINUOUS
 10
5.6490031804
 20
6.4141046411
 40
0.505
100
AcDbArc
 50
62.8954044289
 51
90.0
  0
ARC
  5
2A7
100
AcDbEntity
  8
0
100
AcDbCircle
 62
7
  6
CONTINUOUS
 10
5.6490031804
 20
6.4141046411
 40
0.505
100
AcDbArc
 50
311.4288753314
 51
338.8315511542
  0
ARC
  5
2A8
100
AcDbEntity
  8
0
100
AcDbCircle
 62
7
  6
CONTINUOUS
 10
5.6490031804
 20
6.4141046411
 40
0.505
100
AcDbArc
 50
21.1684488458
 51
48.5711246686
  0
ARC
  5
2A9
100
AcDbEntity
  8
0
100
AcDbCircle
 62
7
  6
CONTINUOUS
 10
5.6252379343
 20
6.9891046411
 40
0.07
100
AcDbArc
 50
237.3631024964
 51
270.0
  0
ARC
  5
2AA
100
AcDbEntity
  8
0
100
AcDbCircle
 62
7
  6
CONTINUOUS
 10
5.5740031804
 20
6.9091046411
 40
0.025
100
AcDbArc
 50
57.3631024964
 51
180.0
  0
ARC
  5
2AB
100
AcDbEntity
  8
0
100
AcDbCircle
 62
7
  6
CONTINUOUS
 10
8.6355825182
 20
6.3139740169
 40
2.5175982828
100
AcDbArc
 50
180.9739124272
 51
181.3153466311
  0
ARC
  5
2AC
100
AcDbEntity
  8
0
100
AcDbCircle
 62
7
  6
CONTINUOUS
 10
8.374088866
 20
6.5194610578
 40
2.2560537916
100
AcDbArc
 50
178.6648546288
 51
179.0459142278
  0
ARC
  5
2AD
100
AcDbEntity
  8
0
100
AcDbCircle
 62
7
  6
CONTINUOUS
 10
6.4293690608
 20
5.6688404965
 40
1.4336158804
100
AcDbArc
 50
169.9786617007
 51
183.9127655791
  0
ARC
  5
2AE
100
AcDbEntity
  8
0
100
AcDbCircle
 62
7
  6
CONTINUOUS
 10
7.3861382616
 20
6.5426588464
 40
1.2678309008
100
AcDbArc
 50
178.3404528418
 51
178.6726129411
  0
ARC
  5
2AF
100
AcDbEntity
  8
0
100
AcDbCircle
 62
7
  6
CONTINUOUS
 10
6.2561131437
 20
6.4140975531
 40
0.2998900368
100
AcDbArc
 50
340.1578181461
 51
19.8421818217
  0
CIRCLE
  5
2B0
100
AcDbEntity
  8
0
100
AcDbCircle
 62
7
  6
CONTINUOUS
 10
6.3110031804
 20
6.4141046411
 40
0.24
  0
CIRCLE
  5
2B1
100
AcDbEntity
  8
0
100
AcDbCircle
 62
7
  6
CONTINUOUS
 10
6.3110031804
 20
6.4141046411
 40
0.2243253516
  0
CIRCLE
  5
2B2
100
AcDbEntity
  8
0
100
AcDbCircle
 62
7
  6
CONTINUOUS
 10
6.3110031804
 20
6.4141046411
 40
0.2109184529
  0
ARC
  5
2B3
100
AcDbEntity
  8
0
100
AcDbCircle
 62
7
  6
CONTINUOUS
 10
5.9109825574
 20
5.9022532896
 40
0.07
100
AcDbArc
 50
75.9331661451
 51
117.1045955712
  0
ARC
  5
2B4
100
AcDbEntity
  8
0
100
AcDbCircle
 62
7
  6
CONTINUOUS
 10
5.9109825574
 20
6.9259559926
 40
0.07
100
AcDbArc
 50
242.8954044288
 51
284.0668338549
  0
ARC
  5
2B5
100
AcDbEntity
  8
0
100
AcDbCircle
 62
7
  6
CONTINUOUS
 10
6.4928334429
 20
6.5091046411
 40
0.045
100
AcDbArc
 50
19.6401819571
 51
70.6800940694
  0
ARC
  5
2B6
100
AcDbEntity
  8
0
100
AcDbCircle
 62
7
  6
CONTINUOUS
 10
6.4928334429
 20
6.3191046411
 40
0.045
100
AcDbArc
 50
289.319905942
 51
340.3598180429
  0
ARC
  5
2B7
100
AcDbEntity
  8
0
100
AcDbCircle
 62
7
  6
CONTINUOUS
 10
5.9365031804
 20
6.0041046411
 40
0.035
100
AcDbArc
 50
255.9331661451
 51
360.0
  0
ARC
  5
2B8
100
AcDbEntity
  8
0
100
AcDbCircle
 62
7
  6
CONTINUOUS
 10
5.9365031804
 20
6.8241046411
 40
0.035
100
AcDbArc
 50
0.0
 51
104.0668338549
  0
ARC
  5
2B9
100
AcDbEntity
  8
0
100
AcDbCircle
 62
7
  6
CONTINUOUS
 10
6.0063156803
 20
6.8189845955
 40
0.035
100
AcDbArc
 50
185.1944771655
 51
228.5711246686
  0
ARC
  5
2BA
100
AcDbEntity
  8
0
100
AcDbCircle
 62
7
  6
CONTINUOUS
 10
6.0063156803
 20
6.0092246867
 40
0.035
100
AcDbArc
 50
131.4288753315
 51
174.8055228345
  0
ARC
  5
2BB
100
AcDbEntity
  8
0
100
AcDbCircle
 62
7
  6
CONTINUOUS
 10
6.1106019646
 20
6.2353546411
 40
0.01
100
AcDbArc
 50
338.8315511542
 51
16.9080255422
  0
ARC
  5
2BC
100
AcDbEntity
  8
0
100
AcDbCircle
 62
7
  6
CONTINUOUS
 10
6.1106019646
 20
6.5928546411
 40
0.01
100
AcDbArc
 50
343.0909469072
 51
21.1684488458
  0
SPLINE
  5
2BD
100
AcDbEntity
  8
0
100
AcDbSpline
 62
7
  6
CONTINUOUS
 70
0
 71
3
 72
9
 73
5
 74
0
 42
0.0000001
 43
0.0000001
 44
0.0000000001
 40
0.0
 40
0.0
 40
0.0
 40
0.0
 40
0.4956847645
 40
1.0
 40
1.0
 40
1.0
 40
1.0
 10
5.5490025537
 20
6.8632759644
 30
0.0
 10
5.5150887642
 20
6.8627503019
 30
0.0
 10
5.4466778285
 20
6.8611223922
 30
0.0
 10
5.3783141095
 20
6.8579995707
 30
0.0
 10
5.3438676142
 20
6.8559332673
 30
0.0
  0
SPLINE
  5
2BE
100
AcDbEntity
  8
0
100
AcDbSpline
 62
7
  6
CONTINUOUS
 70
0
 71
3
 72
9
 73
5
 74
0
 42
0.0000001
 43
0.0000001
 44
0.0000000001
 40
0.0
 40
0.0
 40
0.0
 40
0.0
 40
0.5043319003
 40
1.0
 40
1.0
 40
1.0
 40
1.0
 10
5.3427639801
 20
5.9723443372
 30
0.0
 10
5.3773965558
 20
5.9702572873
 30
0.0
 10
5.4461279879
 20
5.9671053078
 30
0.0
 10
5.5149072802
 20
5.9654642255
 30
0.0
 10
5.5490025534
 20
5.9649350226
 30
0.0
  0
SPLINE
  5
2BF
100
AcDbEntity
  8
0
100
AcDbSpline
 62
7
  6
CONTINUOUS
 70
0
 71
3
 72
21
 73
17
 74
0
 42
0.0000001
 43
0.0000001
 44
0.0000000001
 40
0.0
 40
0.0
 40
0.0
 40
0.0
 40
0.0347973702
 40
0.071215592
 40
0.1106246844
 40
0.1539930112
 40
0.2019476886
 40
0.2547867481
 40
0.3125564161
 40
0.3751605674
 40
0.4423248028
 40
0.5136561898
 40
0.5887115461
 40
0.6669824311
 40
0.8308964125
 40
1.0
 40
1.0
 40
1.0
 40
1.0
 10
4.5217569349
 20
3.0972071309
 30
0.0
 10
4.5217569349
 20
3.1001184239
 30
0.0
 10
4.5224924636
 20
3.1060994923
 30
0.0
 10
4.5257549061
 20
3.1148369908
 30
0.0
 10
4.5310902654
 20
3.1233303431
 30
0.0
 10
4.5384015764
 20
3.1315209553
 30
0.0
 10
4.5476202374
 20
3.1393467313
 30
0.0
 10
4.5586530991
 20
3.1467540225
 30
0.0
 10
4.5713983897
 20
3.1536879158
 30
0.0
 10
4.5857449642
 20
3.1600753322
 30
0.0
 10
4.6015544102
 20
3.1658642907
 30
0.0
 10
4.6186756415
 20
3.1710036971
 30
0.0
 10
4.6369500688
 20
3.1754354535
 30
0.0
 10
4.6630268089
 20
3.1804286263
 30
0.0
 10
4.697232237
 20
3.1845680633
 30
0.0
 10
4.7251052697
 20
3.1856723508
 30
0.0
 10
4.7392531804
 20
3.1856723508
 30
0.0
  0
SPLINE
  5
2C0
100
AcDbEntity
  8
0
100
AcDbSpline
 62
7
  6
CONTINUOUS
 70
0
 71
3
 72
21
 73
17
 74
0
 42
0.0000001
 43
0.0000001
 44
0.0000000001
 40
0.0
 40
0.0
 40
0.0
 40
0.0
 40
0.0347973702
 40
0.071215592
 40
0.1106246844
 40
0.1539930112
 40
0.2019476886
 40
0.2547867481
 40
0.3125564161
 40
0.3751605674
 40
0.4423248028
 40
0.5136561898
 40
0.5887115461
 40
0.6669824311
 40
0.8308964125
 40
1.0
 40
1.0
 40
1.0
 40
1.0
 10
4.956749426
 20
5.0669332341
 30
0.0
 10
4.956749426
 20
5.0698445271
 30
0.0
 10
4.9560138973
 20
5.0758255955
 30
0.0
 10
4.9527514548
 20
5.0845630941
 30
0.0
 10
4.9474160955
 20
5.0930564463
 30
0.0
 10
4.9401047845
 20
5.1012470585
 30
0.0
 10
4.9308861235
 20
5.1090728346
 30
0.0
 10
4.9198532618
 20
5.1164801257
 30
0.0
 10
4.9071079712
 20
5.1234140191
 30
0.0
 10
4.8927613967
 20
5.1298014354
 30
0.0
 10
4.8769519507
 20
5.1355903939
 30
0.0
 10
4.8598307194
 20
5.1407298003
 30
0.0
 10
4.8415562921
 20
5.1451615567
 30
0.0
 10
4.815479552
 20
5.1501547295
 30
0.0
 10
4.7812741239
 20
5.1542941665
 30
0.0
 10
4.7534010912
 20
5.155398454
 30
0.0
 10
4.7392531804
 20
5.155398454
 30
0.0
  0
SPLINE
  5
2C1
100
AcDbEntity
  8
0
100
AcDbSpline
 62
7
  6
CONTINUOUS
 70
0
 71
3
 72
21
 73
17
 74
0
 42
0.0000001
 43
0.0000001
 44
0.0000000001
 40
0.0
 40
0.0
 40
0.0
 40
0.0
 40
0.1691035875
 40
0.3330175689
 40
0.4112884539
 40
0.4863438102
 40
0.5576751972
 40
0.6248394326
 40
0.6874435839
 40
0.7452132519
 40
0.7980523114
 40
0.8460069888
 40
0.8893753156
 40
0.928784408
 40
0.9652026298
 40
1.0
 40
1.0
 40
1.0
 40
1.0
 10
4.7392531804
 20
5.155398454
 30
0.0
 10
4.7251052697
 20
5.155398454
 30
0.0
 10
4.697232237
 20
5.1542941665
 30
0.0
 10
4.6630268089
 20
5.1501547295
 30
0.0
 10
4.6369500688
 20
5.1451615567
 30
0.0
 10
4.6186756415
 20
5.1407298003
 30
0.0
 10
4.6015544102
 20
5.1355903939
 30
0.0
 10
4.5857449642
 20
5.1298014354
 30
0.0
 10
4.5713983897
 20
5.123414019
 30
0.0
 10
4.5586530991
 20
5.1164801257
 30
0.0
 10
4.5476202374
 20
5.1090728346
 30
0.0
 10
4.5384015764
 20
5.1012470585
 30
0.0
 10
4.5310902654
 20
5.0930564463
 30
0.0
 10
4.5257549061
 20
5.0845630941
 30
0.0
 10
4.5224924636
 20
5.0758255955
 30
0.0
 10
4.5217569349
 20
5.0698445271
 30
0.0
 10
4.5217569349
 20
5.0669332341
 30
0.0
  0
SPLINE
  5
2C2
100
AcDbEntity
  8
0
100
AcDbSpline
 62
7
  6
CONTINUOUS
 70
0
 71
3
 72
21
 73
17
 74
0
 42
0.0000001
 43
0.0000001
 44
0.0000000001
 40
0.0
 40
0.0
 40
0.0
 40
0.0
 40
0.1691035875
 40
0.3330175689
 40
0.4112884539
 40
0.4863438102
 40
0.5576751972
 40
0.6248394326
 40
0.6874435839
 40
0.7452132519
 40
0.7980523114
 40
0.8460069888
 40
0.8893753156
 40
0.928784408
 40
0.9652026298
 40
1.0
 40
1.0
 40
1.0
 40
1.0
 10
4.7392531804
 20
3.1856723508
 30
0.0
 10
4.7534010912
 20
3.1856723508
 30
0.0
 10
4.7812741239
 20
3.1845680633
 30
0.0
 10
4.815479552
 20
3.1804286263
 30
0.0
 10
4.8415562921
 20
3.1754354535
 30
0.0
 10
4.8598307194
 20
3.1710036971
 30
0.0
 10
4.8769519507
 20
3.1658642907
 30
0.0
 10
4.8927613967
 20
3.1600753322
 30
0.0
 10
4.9071079712
 20
3.1536879158
 30
0.0
 10
4.9198532618
 20
3.1467540225
 30
0.0
 10
4.9308861235
 20
3.1393467313
 30
0.0
 10
4.9401047845
 20
3.1315209553
 30
0.0
 10
4.9474160955
 20
3.1233303431
 30
0.0
 10
4.9527514548
 20
3.1148369908
 30
0.0
 10
4.9560138973
 20
3.1060994923
 30
0.0
 10
4.956749426
 20
3.1001184239
 30
0.0
 10
4.956749426
 20
3.0972071309
 30
0.0
  0
SPLINE
  5
2C3
100
AcDbEntity
  8
0
100
AcDbSpline
 62
7
  6
CONTINUOUS
 70
0
 71
3
 72
12
 73
8
 74
0
 42
0.0000001
 43
0.0000001
 44
0.0000000001
 40
0.0
 40
0.0
 40
0.0
 40
0.0
 40
0.2440538547
 40
0.3765845137
 40
0.5095592943
 40
0.7655506397
 40
1.0
 40
1.0
 40
1.0
 40
1.0
 10
5.1772441226
 20
6.2474181945
 30
0.0
 10
5.2073596138
 20
6.2505912437
 30
0.0
 10
5.2539451114
 20
6.2544091158
 30
0.0
 10
5.3170655911
 20
6.258072202
 30
0.0
 10
5.3817138626
 20
6.2608888145
 30
0.0
 10
5.4590567654
 20
6.262660534
 30
0.0
 10
5.519920896
 20
6.2623245316
 30
0.0
 10
5.5490037711
 20
6.2616600452
 30
0.0
  0
SPLINE
  5
2C4
100
AcDbEntity
  8
0
100
AcDbSpline
 62
7
  6
CONTINUOUS
 70
0
 71
3
 72
9
 73
5
 74
0
 42
0.0000001
 43
0.0000001
 44
0.0000000001
 40
0.0
 40
0.0
 40
0.0
 40
0.0
 40
0.5171049752
 40
1.0
 40
1.0
 40
1.0
 40
1.0
 10
6.1202042241
 20
6.5902455288
 30
0.0
 10
6.1204134135
 20
6.5910114944
 30
0.0
 10
6.1206490953
 20
6.5925463429
 30
0.0
 10
6.1205100105
 20
6.5940904338
 30
0.0
 10
6.120363978
 20
6.5948173991
 30
0.0
  0
SPLINE
  5
2C5
100
AcDbEntity
  8
0
100
AcDbSpline
 62
7
  6
CONTINUOUS
 70
0
 71
3
 72
19
 73
15
 74
0
 42
0.0000001
 43
0.0000001
 44
0.0000000001
 40
0.0
 40
0.0
 40
0.0
 40
0.0
 40
0.0055770795
 40
0.0180972257
 40
0.0382640871
 40
0.0661858532
 40
0.1018818402
 40
0.1453458911
 40
0.19656187
 40
0.2555089427
 40
0.3965003021
 40
0.5679953723
 40
0.7693806404
 40
1.0
 40
1.0
 40
1.0
 40
1.0
 10
6.1198840236
 20
6.5964657522
 30
0.0
 10
6.11985212
 20
6.5964657213
 30
0.0
 10
6.1197887781
 20
6.5963516649
 30
0.0
 10
6.1197388067
 20
6.5961583885
 30
0.0
 10
6.1196705361
 20
6.595807696
 30
0.0
 10
6.1196080831
 20
6.5953368477
 30
0.0
 10
6.1195418181
 20
6.5947261336
 30
0.0
 10
6.1194764847
 20
6.5939837624
 30
0.0
 10
6.1194107132
 20
6.5931071835
 30
0.0
 10
6.1193177749
 20
6.5916735387
 30
0.0
 10
6.1192056648
 20
6.589551604
 30
0.0
 10
6.1190789826
 20
6.5866147416
 30
0.0
 10
6.1189541156
 20
6.5831646651
 30
0.0
 10
6.1188775198
 20
6.580694573
 30
0.0
 10
6.1188391443
 20
6.5793758787
 30
0.0
  0
SPLINE
  5
2C6
100
AcDbEntity
  8
0
100
AcDbSpline
 62
7
  6
CONTINUOUS
 70
0
 71
3
 72
10
 73
6
 74
0
 42
0.0000001
 43
0.0000001
 44
0.0000000001
 40
0.0
 40
0.0
 40
0.0
 40
0.0
 40
0.4726567225
 40
0.7302034754
 40
1.0
 40
1.0
 40
1.0
 40
1.0
 10
6.1198840236
 20
6.23174353
 30
0.0
 10
6.1202479823
 20
6.2326834925
 30
0.0
 10
6.1205921664
 20
6.2342341402
 30
0.0
 10
6.1205559304
 20
6.2363736121
 30
0.0
 10
6.1203392573
 20
6.2374844191
 30
0.0
 10
6.1201835652
 20
6.238038309
 30
0.0
  0
LINE
  5
2C7
100
AcDbEntity
  8
0
100
AcDbLine
 62
7
  6
CONTINUOUS
 10
6.1186476308
 20
6.2561822637
 11
6.1192444976
 21
6.2379566083
  0
LINE
  5
2C8
100
AcDbEntity
  8
0
100
AcDbLine
 62
7
  6
CONTINUOUS
 10
6.1192444976
 20
6.2379566083
 11
6.1196688434
 21
6.2324408525
  0
LINE
  5
2C9
100
AcDbEntity
  8
0
100
AcDbLine
 62
7
  6
CONTINUOUS
 10
6.1196688434
 20
6.2324408525
 11
6.1198840236
 21
6.23174353
  0
ENDSEC
  0
SECTION
  2
OBJECTS
  0
DICTIONARY
  5
C
100
AcDbDictionary
280
0
281
1
  3
ACAD_GROUP
350
D
  3
ACAD_MLINESTYLE
350
17
  3
ACAD_LAYOUT
350
1A
  3
ACAD_PLOTSETTINGS
350
19
  3
ACAD_PLOTSTYLENAME
350
E
  0
DICTIONARY
  5
D
102
{ACAD_REACTORS
330
C
102
}
100
AcDbDictionary
280
0
281
1
  0
ACDBDICTIONARYWDFLT
  5
E
102
{ACAD_REACTORS
330
C
102
}
100
AcDbDictionary
281
1
  3
Normal
350
F
100
AcDbDictionaryWithDefault
340
F
  0
DICTIONARY
  5
17
102
{ACAD_REACTORS
330
C
102
}
100
AcDbDictionary
280
0
281
1
  3
Standard
350
18
  0
DICTIONARY
  5
19
102
{ACAD_REACTORS
330
C
102
}
100
AcDbDictionary
281
1
  0
DICTIONARY
  5
1A
102
{ACAD_REACTORS
330
C
102
}
100
AcDbDictionary
281
1
  3
Model
350
2CA
  3
Layout1
350
2CB
  0
ACDBPLACEHOLDER
  5
F
102
{ACAD_REACTORS
330
E
102
}
  0
MLINESTYLE
  5
18
102
{ACAD_REACTORS
330
17
102
}
100
AcDbMlineStyle
  2
STANDARD
 70
0
  3

 62
256
 51
90.0
 52
90.0
 71
2
 49
0.5
 62
256
  6
BYLAYER
 49
-0.5
 62
256
  6
BYLAYER
  0
LAYOUT
  5
2CA
102
{ACAD_REACTORS
330
1A
102
}
100
AcDbPlotSettings
  1

  2
none_device
  4
ANSI_A_(11.00_x_8.50_Inches)
  6

 40
0.0
 41
0.0
 42
0.0
 43
0.0
 44
279.4
 45
215.9
 46
0.0
 47
0.0
 48
0.0
 49
0.0
140
0.0
141
0.0
142
1.0
143
1.0
 70
1024
 72
0
 73
0
 74
0
  7

 75
0
147
1.0
148
0.0
149
0.0
100
AcDbLayout
  1
Model
 70
0
 71
0
 10
0.0
 20
0.0
 11
11.0
 21
8.5
 12
0.0
 22
0.0
 32
0.0
 14
0.0
 24
0.0
 34
0.0
 15
0.0
 25
0.0
 35
0.0
146
0.0
 13
0.0
 23
0.0
 33
0.0
 16
1.0
 26
0.0
 36
0.0
 17
0.0
 27
1.0
 37
0.0
 76
0
330
22E
345
0
346
0
  0
LAYOUT
  5
2CB
102
{ACAD_REACTORS
330
1A
102
}
100
AcDbPlotSettings
  1

  2
none_device
  4
ANSI_A_(11.00_x_8.50_Inches)
  6

 40
0.0
 41
0.0
 42
0.0
 43
0.0
 44
279.4
 45
215.9
 46
0.0
 47
0.0
 48
0.0
 49
0.0
140
0.0
141
0.0
142
1.0
143
1.0
 70
0
 72
0
 73
0
 74
0
  7

 75
0
147
1.0
148
0.0
149
0.0
100
AcDbLayout
  1
Layout1
 70
0
 71
1
 10
0.0
 20
0.0
 11
11.0
 21
8.5
 12
0.0
 22
0.0
 32
0.0
 14
0.0
 24
0.0
 34
0.0
 15
0.0
 25
0.0
 35
0.0
146
0.0
 13
0.0
 23
0.0
 33
0.0
 16
1.0
 26
0.0
 36
0.0
 17
0.0
 27
1.0
 37
0.0
 76
0
330
22F
345
0
346
0
  0
ENDSEC
  0
EOF
