999
DXF file: 2470-5422_front.dxf
999
Pro/ENGINEER 2018400 by Parametric Technology Corporation
  0
SECTION
  2
HEADER
  9
$ACADVER
  1
AC1027
  9
$DWGCODEPAGE
  3
ANSI_1252
  9
$EXTMAX
 10
11.0
 20
8.5
 30
0.0
  9
$EXTMIN
 10
0.0
 20
0.0
 30
0.0
  9
$LIMMIN
 10
0.0
 20
0.0
  9
$LIMMAX
 10
11.0
 20
8.5
  9
$VIEWCTR
 10
5.5
 20
4.25
  9
$VIEWSIZE
 40
8.5
  9
$CLAYER
  8
0
  9
$LTSCALE
 40
0.605
  9
$CELTYPE
  6
BYLAYER
  9
$DIMSCALE
 40
1.0
  9
$DIMASZ
 40
0.1
  9
$DIMEXO
 40
0.0625
  9
$DIMDLI
 40
0.418
  9
$DIMEXE
 40
0.125
  9
$DIMCEN
 40
0.099
  9
$DIMLFAC
 40
1.0
  9
$DIMBLK
  1
_FILLED
  9
$DIMALT
 70
1
  9
$DIMALTD
 70
1
  9
$DIMALTTD
 70
2
  9
$DIMALTF
 40
25.4
  9
$DIMTXT
 40
0.08
  9
$DIMTOL
 70
1
  9
$DIMLIM
 70
0
  9
$DIMTFAC
 40
1.0
  9
$DIMTP
 40
0.01
  9
$DIMTM
 40
0.01
  9
$DIMGAP
 40
0.09
  9
$DIMDSEP
 70
46
  9
$AUNITS
 70
0
  9
$PDMODE
 70
3
  9
$PDSIZE
 40
0.3125
  9
$HANDSEED
  5
38D
  9
$TILEMODE
 70
1
  9
$MEASUREMENT
 70
0
  9
$INSUNITS
 70
1
  0
ENDSEC
  0
SECTION
  2
CLASSES
  0
CLASS
  1
ACDBDICTIONARYWDFLT
  2
AcDbDictionaryWithDefault
  3
AutoCAD 2000
 90
0
 91
1
280
0
281
0
  0
CLASS
  1
ACDBPLACEHOLDER
  2
AcDbPlaceHolder
  3
AutoCAD 2000
 90
0
 91
1
280
0
281
0
  0
CLASS
  1
LAYOUT
  2
AcDbLayout
  3
AutoCAD 2000
 90
0
 91
0
280
0
281
0
  0
ENDSEC
  0
SECTION
  2
TABLES
  0
TABLE
  2
VPORT
  5
8
100
AcDbSymbolTable
 70
2
  0
VPORT
  5
1F4
100
AcDbSymbolTableRecord
100
AcDbViewportTableRecord
  2
*ACTIVE
 70
0
 10
0.0
 20
0.0
 11
1.0
 21
1.0
 12
5.5
 22
4.25
 13
0.0
 23
0.0
 14
1.0
 24
1.0
 15
0.0
 25
0.0
 16
0.0
 26
0.0
 36
1.0
 17
0.0
 27
0.0
 37
0.0
 40
8.5
 41
1.2941176471
 42
50.0
 43
0.0
 44
0.0
 50
0.0
 51
0.0
 71
0
 72
100
 73
1
 74
1
 75
0
 76
0
 77
0
 78
0
  0
ENDTAB
  0
TABLE
  2
LTYPE
  5
5
100
AcDbSymbolTable
 70
6
  0
LTYPE
  5
14
100
AcDbSymbolTableRecord
100
AcDbLinetypeTableRecord
  2
BYBLOCK
 70
0
  3

 72
65
 73
0
 40
0.0
  0
LTYPE
  5
15
100
AcDbSymbolTableRecord
100
AcDbLinetypeTableRecord
  2
BYLAYER
 70
0
  3

 72
65
 73
0
 40
0.0
  0
LTYPE
  5
16
100
AcDbSymbolTableRecord
100
AcDbLinetypeTableRecord
  2
CONTINUOUS
 70
64
  3
Solid line
 72
65
 73
0
 40
0.0
  0
LTYPE
  5
1F5
100
AcDbSymbolTableRecord
100
AcDbLinetypeTableRecord
  2
CENTER
 70
64
  3
____ _ ____ _ ____ _ ____ _ ____ _ ____ _ ____
 72
65
 73
4
 40
0.6
 49
0.375
 74
0
 49
-0.075
 74
0
 49
0.075
 74
0
 49
-0.075
 74
0
  0
LTYPE
  5
1F6
100
AcDbSymbolTableRecord
100
AcDbLinetypeTableRecord
  2
HIDDEN
 70
64
  3
- - - - - - - - - - - - - - - - - - - -
 72
65
 73
2
 40
0.2
 49
0.1
 74
0
 49
-0.1
 74
0
  0
LTYPE
  5
1F7
100
AcDbSymbolTableRecord
100
AcDbLinetypeTableRecord
  2
PHANTOM
 70
64
  3
_____ _ _ _____ _ _ _____ _ _ _____
 72
65
 73
6
 40
0.8
 49
0.45
 74
0
 49
-0.05
 74
0
 49
0.1
 74
0
 49
-0.05
 74
0
 49
0.1
 74
0
 49
-0.05
 74
0
  0
LTYPE
  5
1F8
100
AcDbSymbolTableRecord
100
AcDbLinetypeTableRecord
  2
DOT
 70
64
  3
. . . . . . . . . . . . . . . . . . . .
 72
65
 73
2
 40
0.2
 49
0.1
 74
0
 49
-0.1
 74
0
  0
LTYPE
  5
1F9
100
AcDbSymbolTableRecord
100
AcDbLinetypeTableRecord
  2
DASHED
 70
64
  3
- - - - - - - - - - - - - - - - - - - -
 72
65
 73
2
 40
0.2
 49
0.1
 74
0
 49
-0.1
 74
0
  0
ENDTAB
  0
TABLE
  2
LAYER
  5
2
100
AcDbSymbolTable
 70
36
  0
LAYER
  5
10
100
AcDbSymbolTableRecord
100
AcDbLayerTableRecord
  2
0
 70
0
 62
7
  6
CONTINUOUS
370
-3
390
F
  0
LAYER
  5
1FA
100
AcDbSymbolTableRecord
100
AcDbLayerTableRecord
  2
DEFAULT_1
 70
0
 62
7
  6
CENTER
370
-3
390
F
  0
LAYER
  5
1FB
100
AcDbSymbolTableRecord
100
AcDbLayerTableRecord
  2
DEFAULT_2
 70
0
 62
8
  6
HIDDEN
370
-3
390
F
  0
LAYER
  5
1FC
100
AcDbSymbolTableRecord
100
AcDbLayerTableRecord
  2
DEFAULT_3
 70
0
 62
7
  6
PHANTOM
370
-3
390
F
  0
LAYER
  5
1FD
100
AcDbSymbolTableRecord
100
AcDbLayerTableRecord
  2
DEFAULT_COORDINATE_SYSTEM
 70
0
 62
7
  6
CONTINUOUS
370
-3
390
F
  0
LAYER
  5
1FE
100
AcDbSymbolTableRecord
100
AcDbLayerTableRecord
  2
DEFAULT_DATUM_AXES
 70
0
 62
7
  6
CONTINUOUS
370
-3
390
F
  0
LAYER
  5
1FF
100
AcDbSymbolTableRecord
100
AcDbLayerTableRecord
  2
DEFAULT_DATUM_PLANES
 70
0
 62
7
  6
CONTINUOUS
370
-3
390
F
  0
ENDTAB
  0
TABLE
  2
STYLE
  5
3
100
AcDbSymbolTable
 70
1
  0
STYLE
  5
11
100
AcDbSymbolTableRecord
100
AcDbTextStyleTableRecord
  2
STANDARD
 70
0
 40
0.0
 41
0.8
 50
0.0
 71
0
 42
0.2
  3
txt
  4

  0
STYLE
  5
200
100
AcDbSymbolTableRecord
100
AcDbTextStyleTableRecord
  2
TEXTSTYLE_1
 70
0
 40
0.0
 41
0.8
 50
0.0
 71
0
 42
0.2
  3
gdt
  4

  0
ENDTAB
  0
TABLE
  2
VIEW
  5
6
100
AcDbSymbolTable
 70
0
  0
ENDTAB
  0
TABLE
  2
UCS
  5
7
100
AcDbSymbolTable
 70
0
  0
ENDTAB
  0
TABLE
  2
APPID
  5
9
100
AcDbSymbolTable
 70
1
  0
APPID
  5
201
100
AcDbSymbolTableRecord
100
AcDbRegAppTableRecord
  2
ACAD
 70
0
  0
ENDTAB
  0
TABLE
  2
BLOCK_RECORD
  5
1
100
AcDbSymbolTable
 70
0
  0
BLOCK_RECORD
  5
202
100
AcDbSymbolTableRecord
100
AcDbBlockTableRecord
  2
*Model_Space
  0
BLOCK_RECORD
  5
203
100
AcDbSymbolTableRecord
100
AcDbBlockTableRecord
  2
*Paper_Space
  0
BLOCK_RECORD
  5
204
100
AcDbSymbolTableRecord
100
AcDbBlockTableRecord
  2
_FILLED
  0
ENDTAB
  0
TABLE
  2
DIMSTYLE
  5
A
100
AcDbSymbolTable
 70
1
100
AcDbDimStyleTable
 71
0
  0
DIMSTYLE
105
205
100
AcDbSymbolTableRecord
100
AcDbDimStyleTableRecord
  2
STANDARD
 70
0
  3

  4

 40
1.0
 41
0.1
 42
0.0625
 43
0.38
 44
0.125
 45
0.0
 46
0.0
 47
0.01
 48
0.01
140
0.08
141
0.09
142
0.0
143
25.4
144
1.0
145
0.0
146
1.0
147
0.09
 71
1.0
 72
0.0
 73
1
 74
1
 75
0
 76
0
 77
0
 78
4
 79
1
170
1
171
1
172
0
173
0
174
0
175
0
176
0
177
0
178
0
270
2
179
2
271
2
272
2
273
2
274
2
275
0
280
0
281
0
282
0
283
1
284
4
285
0
286
0
287
3
288
0
340
11
278
46
341
204
342
204
343
204
344
204
  0
ENDTAB
  0
ENDSEC
  0
SECTION
  2
BLOCKS
  0
BLOCK
  5
20
100
AcDbEntity
  8
0
100
AcDbBlockBegin
  2
*Model_Space
 70
0
 10
0.0
 20
0.0
 30
0.0
  3
*Model_Space
  1

  0
ENDBLK
  5
21
100
AcDbEntity
  8
0
100
AcDbBlockEnd
  0
BLOCK
  5
1C
100
AcDbEntity
  8
0
100
AcDbBlockBegin
  2
*Paper_Space
 70
0
 10
0.0
 20
0.0
 30
0.0
  3
*Paper_Space
  1

  0
ENDBLK
  5
1D
100
AcDbEntity
  8
0
100
AcDbBlockEnd
  0
BLOCK
  5
206
100
AcDbEntity
  8
0
100
AcDbBlockBegin
  2
_FILLED
 70
64
 10
0.0
 20
0.0
  3
_FILLED
  1

  0
SOLID
  5
207
100
AcDbEntity
  8
0
  6
BYBLOCK
 62
0
100
AcDbTrace
 10
0.0
 20
0.0
 11
-1.0
 21
0.2
 12
-1.0
 22
-0.2
 13
-1.0
 23
-0.2
  0
ENDBLK
  5
208
100
AcDbEntity
  8
0
  6
BYBLOCK
 62
0
100
AcDbBlockEnd
  0
ENDSEC
  0
SECTION
  2
ENTITIES
  0
MTEXT
  5
209
100
AcDbEntity
  8
0
100
AcDbMText
 62
2
  6
CONTINUOUS
  7
STANDARD
 71
3
 72
1
 10
5.5461180124
 20
1.2930975013
 30
0.0
 11
1.0
 21
0.0
 31
0.0
 73
2
 44
0.9
  1
SCALE  .500
 40
0.08
 41
0.704
  0
LINE
  5
20A
100
AcDbEntity
  8
0
100
AcDbLine
 62
7
  6
CONTINUOUS
 10
0.0
 20
0.0
 11
0.0
 21
8.5
  0
LINE
  5
20B
100
AcDbEntity
  8
0
100
AcDbLine
 62
7
  6
CONTINUOUS
 10
0.0
 20
0.0
 11
11.0
 21
0.0
  0
LINE
  5
20C
100
AcDbEntity
  8
0
100
AcDbLine
 62
7
  6
CONTINUOUS
 10
0.0
 20
8.5
 11
11.0
 21
8.5
  0
LINE
  5
20D
100
AcDbEntity
  8
0
100
AcDbLine
 62
7
  6
CONTINUOUS
 10
11.0
 20
0.0
 11
11.0
 21
8.5
  0
LINE
  5
20E
100
AcDbEntity
  8
0
100
AcDbLine
 62
7
  6
CONTINUOUS
 10
2.5698042408
 20
3.5475936856
 11
2.5698042408
 21
3.327346312
  0
LINE
  5
20F
100
AcDbEntity
  8
0
100
AcDbLine
 62
7
  6
CONTINUOUS
 10
2.5815194708
 20
3.2810741677
 11
2.5815194708
 21
3.5938658298
  0
LINE
  5
210
100
AcDbEntity
  8
0
100
AcDbLine
 62
7
  6
CONTINUOUS
 10
2.6064804735
 20
3.2574699988
 11
2.6064804735
 21
3.6174699988
  0
LINE
  5
211
100
AcDbEntity
  8
0
100
AcDbLine
 62
7
  6
CONTINUOUS
 10
2.6139649617
 20
3.2574699988
 11
2.6139649617
 21
3.6174699988
  0
LINE
  5
212
100
AcDbEntity
  8
0
100
AcDbLine
 62
7
  6
CONTINUOUS
 10
2.6368588236
 20
3.2724265387
 11
2.6368588236
 21
3.6025134588
  0
LINE
  5
213
100
AcDbEntity
  8
0
100
AcDbLine
 62
7
  6
CONTINUOUS
 10
3.5852213995
 20
2.2358853229
 11
3.635156854
 21
2.1742201721
  0
LINE
  5
214
100
AcDbEntity
  8
0
100
AcDbLine
 62
7
  6
CONTINUOUS
 10
2.6530646305
 20
3.5906597646
 11
2.6530646305
 21
3.2842802329
  0
LINE
  5
215
100
AcDbEntity
  8
0
100
AcDbLine
 62
7
  6
CONTINUOUS
 10
2.6354563372
 20
2.0222201721
 11
3.7188914889
 21
2.0222201721
  0
LINE
  5
216
100
AcDbEntity
  8
0
100
AcDbLine
 62
7
  6
CONTINUOUS
 10
4.552565422
 20
2.0222201721
 11
5.8017821932
 21
2.0222201721
  0
LINE
  5
217
100
AcDbEntity
  8
0
100
AcDbLine
 62
7
  6
CONTINUOUS
 10
6.6354563372
 20
2.0222201721
 11
7.7188914889
 21
2.0222201721
  0
LINE
  5
218
100
AcDbEntity
  8
0
100
AcDbLine
 62
7
  6
CONTINUOUS
 10
2.9049933416
 20
3.3286401975
 11
2.9049933416
 21
3.5462998
  0
LINE
  5
219
100
AcDbEntity
  8
0
100
AcDbLine
 62
7
  6
CONTINUOUS
 10
2.9201739131
 20
3.3474699988
 11
2.9201739131
 21
3.5274699988
  0
LINE
  5
21A
100
AcDbEntity
  8
0
100
AcDbLine
 62
7
  6
CONTINUOUS
 10
2.952173913
 20
3.0622201721
 11
2.952173913
 21
3.0598005706
  0
LINE
  5
21B
100
AcDbEntity
  8
0
100
AcDbLine
 62
7
  6
CONTINUOUS
 10
2.965173913
 20
3.3474699988
 11
2.965173913
 21
3.5274699988
  0
LINE
  5
21C
100
AcDbEntity
  8
0
100
AcDbLine
 62
7
  6
CONTINUOUS
 10
2.9694088517
 20
3.349811974
 11
2.9694088517
 21
3.5251280234
  0
LINE
  5
21D
100
AcDbEntity
  8
0
100
AcDbLine
 62
7
  6
CONTINUOUS
 10
3.014923913
 20
3.1322201721
 11
3.014923913
 21
3.0922201721
  0
LINE
  5
21E
100
AcDbEntity
  8
0
100
AcDbLine
 62
7
  6
CONTINUOUS
 10
3.037173913
 20
3.6210339888
 11
3.037173913
 21
3.6176059738
  0
LINE
  5
21F
100
AcDbEntity
  8
0
100
AcDbLine
 62
7
  6
CONTINUOUS
 10
3.047923913
 20
3.2572201721
 11
3.047923913
 21
3.1322201721
  0
LINE
  5
220
100
AcDbEntity
  8
0
100
AcDbLine
 62
7
  6
CONTINUOUS
 10
2.6255624955
 20
2.0484945633
 11
3.7287853306
 21
2.0484945633
  0
LINE
  5
221
100
AcDbEntity
  8
0
100
AcDbLine
 62
7
  6
CONTINUOUS
 10
6.6255624955
 20
2.0484945633
 11
7.7287853306
 21
2.0484945633
  0
LINE
  5
222
100
AcDbEntity
  8
0
100
AcDbLine
 62
7
  6
CONTINUOUS
 10
4.5371721866
 20
2.054989209
 11
5.8171756395
 21
2.054989209
  0
LINE
  5
223
100
AcDbEntity
  8
0
100
AcDbLine
 62
7
  6
CONTINUOUS
 10
4.601457301
 20
2.1183148038
 11
5.7528905251
 21
2.1183148038
  0
LINE
  5
224
100
AcDbEntity
  8
0
100
AcDbLine
 62
7
  6
CONTINUOUS
 10
7.6445354281
 20
2.1293238447
 11
6.709812398
 21
2.1293238447
  0
LINE
  5
225
100
AcDbEntity
  8
0
100
AcDbLine
 62
7
  6
CONTINUOUS
 10
3.6445354281
 20
2.1293238447
 11
2.709812398
 21
2.1293238447
  0
LINE
  5
226
100
AcDbEntity
  8
0
100
AcDbLine
 62
7
  6
CONTINUOUS
 10
4.6068690399
 20
2.1427229583
 11
5.7474787862
 21
2.1427229584
  0
LINE
  5
227
100
AcDbEntity
  8
0
100
AcDbLine
 62
7
  6
CONTINUOUS
 10
7.6399300008
 20
2.149127661
 11
6.7144178253
 21
2.149127661
  0
LINE
  5
228
100
AcDbEntity
  8
0
100
AcDbLine
 62
7
  6
CONTINUOUS
 10
3.6399300008
 20
2.149127661
 11
2.7144178253
 21
2.149127661
  0
LINE
  5
229
100
AcDbEntity
  8
0
100
AcDbLine
 62
7
  6
CONTINUOUS
 10
4.6051028679
 20
2.1549176224
 11
5.7492449582
 21
2.1549176225
  0
LINE
  5
22A
100
AcDbEntity
  8
0
100
AcDbLine
 62
7
  6
CONTINUOUS
 10
4.6071340098
 20
2.1617602317
 11
5.7472138163
 21
2.1617602317
  0
LINE
  5
22B
100
AcDbEntity
  8
0
100
AcDbLine
 62
7
  6
CONTINUOUS
 10
2.7191909721
 20
2.1742201721
 11
3.635156854
 21
2.1742201721
  0
LINE
  5
22C
100
AcDbEntity
  8
0
100
AcDbLine
 62
7
  6
CONTINUOUS
 10
6.7191909721
 20
2.1742201721
 11
7.635156854
 21
2.1742201721
  0
LINE
  5
22D
100
AcDbEntity
  8
0
100
AcDbLine
 62
7
  6
CONTINUOUS
 10
4.6271050515
 20
2.2282340233
 11
5.7272427746
 21
2.2282340233
  0
LINE
  5
22E
100
AcDbEntity
  8
0
100
AcDbLine
 62
7
  6
CONTINUOUS
 10
2.7691264266
 20
2.2358853229
 11
3.5852213995
 21
2.2358853229
  0
LINE
  5
22F
100
AcDbEntity
  8
0
100
AcDbLine
 62
7
  6
CONTINUOUS
 10
6.7691264266
 20
2.2358853229
 11
7.5852213995
 21
2.2358853229
  0
LINE
  5
230
100
AcDbEntity
  8
0
100
AcDbLine
 62
7
  6
CONTINUOUS
 10
7.5579166283
 20
2.2488591092
 11
6.7963265353
 21
2.2488591092
  0
LINE
  5
231
100
AcDbEntity
  8
0
100
AcDbLine
 62
7
  6
CONTINUOUS
 10
3.5579166283
 20
2.2488591092
 11
2.7963265353
 21
2.2488591092
  0
LINE
  5
232
100
AcDbEntity
  8
0
100
AcDbLine
 62
7
  6
CONTINUOUS
 10
4.6526739134
 20
2.2527201728
 11
5.7016739127
 21
2.2527201727
  0
LINE
  5
233
100
AcDbEntity
  8
0
100
AcDbLine
 62
7
  6
CONTINUOUS
 10
3.306423913
 20
3.2572201721
 11
3.306423913
 21
3.1322201721
  0
LINE
  5
234
100
AcDbEntity
  8
0
100
AcDbLine
 62
7
  6
CONTINUOUS
 10
3.317173913
 20
3.6210339888
 11
3.317173913
 21
3.6176059738
  0
LINE
  5
235
100
AcDbEntity
  8
0
100
AcDbLine
 62
7
  6
CONTINUOUS
 10
3.339423913
 20
3.1322201721
 11
3.339423913
 21
3.0922201721
  0
LINE
  5
236
100
AcDbEntity
  8
0
100
AcDbLine
 62
7
  6
CONTINUOUS
 10
7.429673913
 20
2.3572201721
 11
6.924673913
 21
2.3572201721
  0
LINE
  5
237
100
AcDbEntity
  8
0
100
AcDbLine
 62
7
  6
CONTINUOUS
 10
3.429673913
 20
2.3572201721
 11
2.924673913
 21
2.3572201721
  0
LINE
  5
238
100
AcDbEntity
  8
0
100
AcDbLine
 62
7
  6
CONTINUOUS
 10
7.4150629601
 20
2.4023727063
 11
6.939284866
 21
2.4023727063
  0
LINE
  5
239
100
AcDbEntity
  8
0
100
AcDbLine
 62
7
  6
CONTINUOUS
 10
3.4150629601
 20
2.4023727063
 11
2.939284866
 21
2.4023727063
  0
LINE
  5
23A
100
AcDbEntity
  8
0
100
AcDbLine
 62
7
  6
CONTINUOUS
 10
7.3927791756
 20
2.4266355817
 11
6.9615686505
 21
2.4266355817
  0
LINE
  5
23B
100
AcDbEntity
  8
0
100
AcDbLine
 62
7
  6
CONTINUOUS
 10
3.3927791756
 20
2.4266355817
 11
2.9615686505
 21
2.4266355817
  0
LINE
  5
23C
100
AcDbEntity
  8
0
100
AcDbLine
 62
7
  6
CONTINUOUS
 10
5.544673913
 20
2.4622201721
 11
4.809673913
 21
2.4622201721
  0
LINE
  5
23D
100
AcDbEntity
  8
0
100
AcDbLine
 62
7
  6
CONTINUOUS
 10
3.3849389744
 20
3.5251280234
 11
3.3849389744
 21
3.349811974
  0
LINE
  5
23E
100
AcDbEntity
  8
0
100
AcDbLine
 62
7
  6
CONTINUOUS
 10
3.389173913
 20
3.5274699988
 11
3.389173913
 21
3.3474699988
  0
LINE
  5
23F
100
AcDbEntity
  8
0
100
AcDbLine
 62
7
  6
CONTINUOUS
 10
3.402173913
 20
3.0622201721
 11
3.402173913
 21
3.0598005706
  0
LINE
  5
240
100
AcDbEntity
  8
0
100
AcDbLine
 62
7
  6
CONTINUOUS
 10
3.434173913
 20
3.5274699988
 11
3.434173913
 21
3.3474699988
  0
LINE
  5
241
100
AcDbEntity
  8
0
100
AcDbLine
 62
7
  6
CONTINUOUS
 10
3.4493544845
 20
3.5462998
 11
3.4493544845
 21
3.3286401975
  0
LINE
  5
242
100
AcDbEntity
  8
0
100
AcDbLine
 62
7
  6
CONTINUOUS
 10
5.5294328889
 20
2.5234740967
 11
4.8249149372
 21
2.5234740967
  0
LINE
  5
243
100
AcDbEntity
  8
0
100
AcDbLine
 62
7
  6
CONTINUOUS
 10
5.5120326944
 20
2.550516208
 11
4.8423151317
 21
2.550516208
  0
LINE
  5
244
100
AcDbEntity
  8
0
100
AcDbLine
 62
7
  6
CONTINUOUS
 10
3.7012831956
 20
3.2842802329
 11
3.7012831956
 21
3.5906597646
  0
LINE
  5
245
100
AcDbEntity
  8
0
100
AcDbLine
 62
7
  6
CONTINUOUS
 10
3.7174890025
 20
3.6025134588
 11
3.7174890025
 21
3.2724265387
  0
LINE
  5
246
100
AcDbEntity
  8
0
100
AcDbLine
 62
7
  6
CONTINUOUS
 10
3.7403828644
 20
3.6174699988
 11
3.7403828644
 21
3.2574699988
  0
LINE
  5
247
100
AcDbEntity
  8
0
100
AcDbLine
 62
7
  6
CONTINUOUS
 10
3.7478673526
 20
3.6174699988
 11
3.7478673526
 21
3.2574699988
  0
LINE
  5
248
100
AcDbEntity
  8
0
100
AcDbLine
 62
7
  6
CONTINUOUS
 10
3.7728283553
 20
3.5938658298
 11
3.7728283553
 21
3.2810741677
  0
LINE
  5
249
100
AcDbEntity
  8
0
100
AcDbLine
 62
7
  6
CONTINUOUS
 10
3.7845435853
 20
3.327346312
 11
3.7845435853
 21
3.5475936856
  0
LINE
  5
24A
100
AcDbEntity
  8
0
100
AcDbLine
 62
7
  6
CONTINUOUS
 10
5.5109078642
 20
2.7339459482
 11
4.8434399619
 21
2.7339459482
  0
LINE
  5
24B
100
AcDbEntity
  8
0
100
AcDbLine
 62
7
  6
CONTINUOUS
 10
5.5216984968
 20
2.7652799479
 11
4.8326493293
 21
2.7652799479
  0
LINE
  5
24C
100
AcDbEntity
  8
0
100
AcDbLine
 62
7
  6
CONTINUOUS
 10
5.5133596476
 20
2.8228083793
 11
4.8409881785
 21
2.8228083793
  0
LINE
  5
24D
100
AcDbEntity
  8
0
100
AcDbLine
 62
7
  6
CONTINUOUS
 10
5.5006861963
 20
2.8455121603
 11
4.8536616297
 21
2.8455121603
  0
LINE
  5
24E
100
AcDbEntity
  8
0
100
AcDbLine
 62
7
  6
CONTINUOUS
 10
2.9790347139
 20
3.0127369116
 11
3.3753131122
 21
3.0127369116
  0
LINE
  5
24F
100
AcDbEntity
  8
0
100
AcDbLine
 62
7
  6
CONTINUOUS
 10
6.9790347139
 20
3.0127369116
 11
7.3753131122
 21
3.0127369116
  0
LINE
  5
250
100
AcDbEntity
  8
0
100
AcDbLine
 62
7
  6
CONTINUOUS
 10
2.965682415
 20
3.0347400341
 11
3.3886654111
 21
3.0347400341
  0
LINE
  5
251
100
AcDbEntity
  8
0
100
AcDbLine
 62
7
  6
CONTINUOUS
 10
6.965682415
 20
3.0347400341
 11
7.3886654111
 21
3.0347400341
  0
LINE
  5
252
100
AcDbEntity
  8
0
100
AcDbLine
 62
7
  6
CONTINUOUS
 10
2.952173913
 20
3.0598005706
 11
3.402173913
 21
3.0598005706
  0
LINE
  5
253
100
AcDbEntity
  8
0
100
AcDbLine
 62
7
  6
CONTINUOUS
 10
6.952173913
 20
3.0598005706
 11
7.402173913
 21
3.0598005706
  0
LINE
  5
254
100
AcDbEntity
  8
0
100
AcDbLine
 62
7
  6
CONTINUOUS
 10
2.952173913
 20
3.0622201721
 11
3.402173913
 21
3.0622201721
  0
LINE
  5
255
100
AcDbEntity
  8
0
100
AcDbLine
 62
7
  6
CONTINUOUS
 10
6.952173913
 20
3.0622201721
 11
7.402173913
 21
3.0622201721
  0
LINE
  5
256
100
AcDbEntity
  8
0
100
AcDbLine
 62
7
  6
CONTINUOUS
 10
2.982173913
 20
3.0922201721
 11
3.372173913
 21
3.0922201721
  0
LINE
  5
257
100
AcDbEntity
  8
0
100
AcDbLine
 62
7
  6
CONTINUOUS
 10
6.982173913
 20
3.0922201721
 11
7.372173913
 21
3.0922201721
  0
LINE
  5
258
100
AcDbEntity
  8
0
100
AcDbLine
 62
7
  6
CONTINUOUS
 10
3.0149238464
 20
3.1322201721
 11
3.3394239797
 21
3.1322201721
  0
LINE
  5
259
100
AcDbEntity
  8
0
100
AcDbLine
 62
7
  6
CONTINUOUS
 10
7.0149238444
 20
3.1322201721
 11
7.3394239816
 21
3.1322201721
  0
LINE
  5
25A
100
AcDbEntity
  8
0
100
AcDbLine
 62
7
  6
CONTINUOUS
 10
3.0416738558
 20
3.2572201721
 11
3.3126739703
 21
3.2572201721
  0
LINE
  5
25B
100
AcDbEntity
  8
0
100
AcDbLine
 62
7
  6
CONTINUOUS
 10
7.0416738548
 20
3.2572201721
 11
7.3126739713
 21
3.2572201721
  0
LINE
  5
25C
100
AcDbEntity
  8
0
100
AcDbLine
 62
7
  6
CONTINUOUS
 10
7.7478673526
 20
3.2574699988
 11
7.7403828644
 21
3.2574699988
  0
LINE
  5
25D
100
AcDbEntity
  8
0
100
AcDbLine
 62
7
  6
CONTINUOUS
 10
3.7478673526
 20
3.2574699988
 11
3.7403828644
 21
3.2574699988
  0
LINE
  5
25E
100
AcDbEntity
  8
0
100
AcDbLine
 62
7
  6
CONTINUOUS
 10
2.6064804735
 20
3.2574699988
 11
2.6139649617
 21
3.2574699988
  0
LINE
  5
25F
100
AcDbEntity
  8
0
100
AcDbLine
 62
7
  6
CONTINUOUS
 10
6.6064804735
 20
3.2574699988
 11
6.6139649617
 21
3.2574699988
  0
LINE
  5
260
100
AcDbEntity
  8
0
100
AcDbLine
 62
7
  6
CONTINUOUS
 10
7.434173913
 20
3.3474699988
 11
7.389173913
 21
3.3474699988
  0
LINE
  5
261
100
AcDbEntity
  8
0
100
AcDbLine
 62
7
  6
CONTINUOUS
 10
3.434173913
 20
3.3474699988
 11
3.389173913
 21
3.3474699988
  0
LINE
  5
262
100
AcDbEntity
  8
0
100
AcDbLine
 62
7
  6
CONTINUOUS
 10
2.9201739131
 20
3.3474699988
 11
2.965173913
 21
3.3474699988
  0
LINE
  5
263
100
AcDbEntity
  8
0
100
AcDbLine
 62
7
  6
CONTINUOUS
 10
6.9201739131
 20
3.3474699988
 11
6.965173913
 21
3.3474699988
  0
LINE
  5
264
100
AcDbEntity
  8
0
100
AcDbLine
 62
7
  6
CONTINUOUS
 10
7.434173913
 20
3.5274699988
 11
7.389173913
 21
3.5274699988
  0
LINE
  5
265
100
AcDbEntity
  8
0
100
AcDbLine
 62
7
  6
CONTINUOUS
 10
3.434173913
 20
3.5274699988
 11
3.389173913
 21
3.5274699988
  0
LINE
  5
266
100
AcDbEntity
  8
0
100
AcDbLine
 62
7
  6
CONTINUOUS
 10
2.9201739131
 20
3.5274699988
 11
2.965173913
 21
3.5274699988
  0
LINE
  5
267
100
AcDbEntity
  8
0
100
AcDbLine
 62
7
  6
CONTINUOUS
 10
6.9201739131
 20
3.5274699988
 11
6.965173913
 21
3.5274699988
  0
LINE
  5
268
100
AcDbEntity
  8
0
100
AcDbLine
 62
7
  6
CONTINUOUS
 10
3.0277429653
 20
3.6063505537
 11
3.1149059575
 21
3.6063505537
  0
LINE
  5
269
100
AcDbEntity
  8
0
100
AcDbLine
 62
7
  6
CONTINUOUS
 10
3.2394418651
 20
3.6063505537
 11
3.3266048608
 21
3.6063505537
  0
LINE
  5
26A
100
AcDbEntity
  8
0
100
AcDbLine
 62
7
  6
CONTINUOUS
 10
7.0277429653
 20
3.6063505537
 11
7.1149132531
 21
3.6063505537
  0
LINE
  5
26B
100
AcDbEntity
  8
0
100
AcDbLine
 62
7
  6
CONTINUOUS
 10
7.2394345714
 20
3.6063505537
 11
7.3266048608
 21
3.6063505537
  0
LINE
  5
26C
100
AcDbEntity
  8
0
100
AcDbLine
 62
7
  6
CONTINUOUS
 10
7.118428968
 20
3.6076059738
 11
7.03105629
 21
3.6076059738
  0
LINE
  5
26D
100
AcDbEntity
  8
0
100
AcDbLine
 62
7
  6
CONTINUOUS
 10
3.118418291
 20
3.6076059738
 11
3.03105629
 21
3.6076059738
  0
LINE
  5
26E
100
AcDbEntity
  8
0
100
AcDbLine
 62
7
  6
CONTINUOUS
 10
3.2359295304
 20
3.6076059738
 11
3.323291536
 21
3.6076059738
  0
LINE
  5
26F
100
AcDbEntity
  8
0
100
AcDbLine
 62
7
  6
CONTINUOUS
 10
7.2359188557
 20
3.6076059738
 11
7.323291536
 21
3.6076059738
  0
LINE
  5
270
100
AcDbEntity
  8
0
100
AcDbLine
 62
7
  6
CONTINUOUS
 10
7.7478673526
 20
3.6174699988
 11
7.7403828644
 21
3.6174699988
  0
LINE
  5
271
100
AcDbEntity
  8
0
100
AcDbLine
 62
7
  6
CONTINUOUS
 10
3.7478673526
 20
3.6174699988
 11
3.7403828644
 21
3.6174699988
  0
LINE
  5
272
100
AcDbEntity
  8
0
100
AcDbLine
 62
7
  6
CONTINUOUS
 10
2.6064804735
 20
3.6174699988
 11
2.6139649617
 21
3.6174699988
  0
LINE
  5
273
100
AcDbEntity
  8
0
100
AcDbLine
 62
7
  6
CONTINUOUS
 10
6.6064804735
 20
3.6174699988
 11
6.6139649617
 21
3.6174699988
  0
LINE
  5
274
100
AcDbEntity
  8
0
100
AcDbLine
 62
7
  6
CONTINUOUS
 10
7.317173913
 20
3.6176059738
 11
7.037173913
 21
3.6176059738
  0
LINE
  5
275
100
AcDbEntity
  8
0
100
AcDbLine
 62
7
  6
CONTINUOUS
 10
3.317173913
 20
3.6176059738
 11
3.037173913
 21
3.6176059738
  0
LINE
  5
276
100
AcDbEntity
  8
0
100
AcDbLine
 62
7
  6
CONTINUOUS
 10
7.317173913
 20
3.6210339888
 11
7.037173913
 21
3.6210339888
  0
LINE
  5
277
100
AcDbEntity
  8
0
100
AcDbLine
 62
7
  6
CONTINUOUS
 10
3.317173913
 20
3.6210339888
 11
3.037173913
 21
3.6210339888
  0
LINE
  5
278
100
AcDbEntity
  8
0
100
AcDbLine
 62
7
  6
CONTINUOUS
 10
2.7691264266
 20
2.2358853229
 11
2.7191909721
 21
2.1742201721
  0
LINE
  5
279
100
AcDbEntity
  8
0
100
AcDbLine
 62
7
  6
CONTINUOUS
 10
7.2900771388
 20
3.6588956682
 11
7.0642706872
 21
3.6588956682
  0
LINE
  5
27A
100
AcDbEntity
  8
0
100
AcDbLine
 62
7
  6
CONTINUOUS
 10
3.2900771388
 20
3.6588956682
 11
3.0642706872
 21
3.6588956682
  0
LINE
  5
27B
100
AcDbEntity
  8
0
100
AcDbLine
 62
7
  6
CONTINUOUS
 10
4.850423913
 20
4.9882201721
 11
4.850423913
 21
4.9698383477
  0
LINE
  5
27C
100
AcDbEntity
  8
0
100
AcDbLine
 62
7
  6
CONTINUOUS
 10
4.887173913
 20
6.1167201721
 11
4.887173913
 21
6.0867201721
  0
LINE
  5
27D
100
AcDbEntity
  8
0
100
AcDbLine
 62
7
  6
CONTINUOUS
 10
4.959673913
 20
6.4102184275
 11
4.959673913
 21
5.4322201721
  0
LINE
  5
27E
100
AcDbEntity
  8
0
100
AcDbLine
 62
7
  6
CONTINUOUS
 10
4.8434399619
 20
2.7339459482
 11
4.8423151317
 21
2.550516208
  0
LINE
  5
27F
100
AcDbEntity
  8
0
100
AcDbLine
 62
7
  6
CONTINUOUS
 10
4.9276838415
 20
5.1374356957
 11
4.9119414711
 21
5.3173718123
  0
LINE
  5
280
100
AcDbEntity
  8
0
100
AcDbLine
 62
7
  6
CONTINUOUS
 10
5.394673913
 20
6.4102184275
 11
5.394673913
 21
5.4322201721
  0
LINE
  5
281
100
AcDbEntity
  8
0
100
AcDbLine
 62
7
  6
CONTINUOUS
 10
5.4266639846
 20
5.1374356957
 11
5.442406355
 21
5.3173718123
  0
LINE
  5
282
100
AcDbEntity
  8
0
100
AcDbLine
 62
7
  6
CONTINUOUS
 10
5.5109078642
 20
2.7339459482
 11
5.5120326944
 21
2.550516208
  0
LINE
  5
283
100
AcDbEntity
  8
0
100
AcDbLine
 62
7
  6
CONTINUOUS
 10
5.467173913
 20
6.1167201721
 11
5.467173913
 21
6.0867201721
  0
LINE
  5
284
100
AcDbEntity
  8
0
100
AcDbLine
 62
7
  6
CONTINUOUS
 10
5.503923913
 20
4.9882201721
 11
5.503923913
 21
4.9698383477
  0
LINE
  5
285
100
AcDbEntity
  8
0
100
AcDbLine
 62
7
  6
CONTINUOUS
 10
4.8845122897
 20
4.9144410866
 11
5.4698355364
 21
4.9144410866
  0
LINE
  5
286
100
AcDbEntity
  8
0
100
AcDbLine
 62
7
  6
CONTINUOUS
 10
4.8714239138
 20
4.9412201714
 11
5.4829239123
 21
4.9412201715
  0
LINE
  5
287
100
AcDbEntity
  8
0
100
AcDbLine
 62
7
  6
CONTINUOUS
 10
4.850423913
 20
4.9698383477
 11
5.503923913
 21
4.9698383477
  0
LINE
  5
288
100
AcDbEntity
  8
0
100
AcDbLine
 62
7
  6
CONTINUOUS
 10
4.850423913
 20
4.9882201721
 11
5.503923913
 21
4.9882201721
  0
LINE
  5
289
100
AcDbEntity
  8
0
100
AcDbLine
 62
7
  6
CONTINUOUS
 10
4.865173913
 20
5.0142201721
 11
5.489173913
 21
5.0142201721
  0
LINE
  5
28A
100
AcDbEntity
  8
0
100
AcDbLine
 62
7
  6
CONTINUOUS
 10
4.9539066691
 20
5.0222201721
 11
5.400441157
 21
5.0222201721
  0
LINE
  5
28B
100
AcDbEntity
  8
0
100
AcDbLine
 62
7
  6
CONTINUOUS
 10
5.4893613567
 20
5.0252201721
 11
5.4156329975
 21
5.0252201721
  0
LINE
  5
28C
100
AcDbEntity
  8
0
100
AcDbLine
 62
7
  6
CONTINUOUS
 10
4.8649864693
 20
5.0252201721
 11
4.9387148286
 21
5.0252201721
  0
LINE
  5
28D
100
AcDbEntity
  8
0
100
AcDbLine
 62
7
  6
CONTINUOUS
 10
4.9224755386
 20
5.03747984
 11
5.4318722875
 21
5.03747984
  0
LINE
  5
28E
100
AcDbEntity
  8
0
100
AcDbLine
 62
7
  6
CONTINUOUS
 10
7.5852213995
 20
2.2358853229
 11
7.635156854
 21
2.1742201721
  0
LINE
  5
28F
100
AcDbEntity
  8
0
100
AcDbLine
 62
7
  6
CONTINUOUS
 10
5.4387474583
 20
5.0839598161
 11
4.9156003678
 21
5.0839598161
  0
LINE
  5
290
100
AcDbEntity
  8
0
100
AcDbLine
 62
7
  6
CONTINUOUS
 10
5.4266639846
 20
5.1374356957
 11
4.9276838415
 21
5.1374356957
  0
LINE
  5
291
100
AcDbEntity
  8
0
100
AcDbLine
 62
7
  6
CONTINUOUS
 10
5.442406355
 20
5.3173718123
 11
4.9119414711
 21
5.3173718123
  0
LINE
  5
292
100
AcDbEntity
  8
0
100
AcDbLine
 62
7
  6
CONTINUOUS
 10
5.4626189254
 20
5.3667763639
 11
4.8917289007
 21
5.3667763639
  0
LINE
  5
293
100
AcDbEntity
  8
0
100
AcDbLine
 62
7
  6
CONTINUOUS
 10
5.4317545021
 20
5.4322201721
 11
4.922593324
 21
5.4322201721
  0
LINE
  5
294
100
AcDbEntity
  8
0
100
AcDbLine
 62
7
  6
CONTINUOUS
 10
6.5698042408
 20
3.5475936856
 11
6.5698042408
 21
3.327346312
  0
LINE
  5
295
100
AcDbEntity
  8
0
100
AcDbLine
 62
7
  6
CONTINUOUS
 10
6.5815194708
 20
3.2810741677
 11
6.5815194708
 21
3.5938658298
  0
LINE
  5
296
100
AcDbEntity
  8
0
100
AcDbLine
 62
7
  6
CONTINUOUS
 10
6.6064804735
 20
3.2574699988
 11
6.6064804735
 21
3.6174699988
  0
LINE
  5
297
100
AcDbEntity
  8
0
100
AcDbLine
 62
7
  6
CONTINUOUS
 10
5.394673913
 20
5.5498786841
 11
4.959673913
 21
5.5498786841
  0
LINE
  5
298
100
AcDbEntity
  8
0
100
AcDbLine
 62
7
  6
CONTINUOUS
 10
6.6139649617
 20
3.2574699988
 11
6.6139649617
 21
3.6174699988
  0
LINE
  5
299
100
AcDbEntity
  8
0
100
AcDbLine
 62
7
  6
CONTINUOUS
 10
6.6368588236
 20
3.2724265387
 11
6.6368588236
 21
3.6025134588
  0
LINE
  5
29A
100
AcDbEntity
  8
0
100
AcDbLine
 62
7
  6
CONTINUOUS
 10
6.6530646305
 20
3.5906597646
 11
6.6530646305
 21
3.2842802329
  0
LINE
  5
29B
100
AcDbEntity
  8
0
100
AcDbLine
 62
7
  6
CONTINUOUS
 10
6.9049933416
 20
3.3286401975
 11
6.9049933416
 21
3.5462998
  0
LINE
  5
29C
100
AcDbEntity
  8
0
100
AcDbLine
 62
7
  6
CONTINUOUS
 10
6.9201739131
 20
3.3474699988
 11
6.9201739131
 21
3.5274699988
  0
LINE
  5
29D
100
AcDbEntity
  8
0
100
AcDbLine
 62
7
  6
CONTINUOUS
 10
6.952173913
 20
3.0622201721
 11
6.952173913
 21
3.0598005706
  0
LINE
  5
29E
100
AcDbEntity
  8
0
100
AcDbLine
 62
7
  6
CONTINUOUS
 10
6.965173913
 20
3.3474699988
 11
6.965173913
 21
3.5274699988
  0
LINE
  5
29F
100
AcDbEntity
  8
0
100
AcDbLine
 62
7
  6
CONTINUOUS
 10
6.9694088612
 20
3.3498119517
 11
6.9694088612
 21
3.5251280458
  0
LINE
  5
2A0
100
AcDbEntity
  8
0
100
AcDbLine
 62
7
  6
CONTINUOUS
 10
7.014923913
 20
3.1322201721
 11
7.014923913
 21
3.0922201721
  0
LINE
  5
2A1
100
AcDbEntity
  8
0
100
AcDbLine
 62
7
  6
CONTINUOUS
 10
7.037173913
 20
3.6210339888
 11
7.037173913
 21
3.6176059738
  0
LINE
  5
2A2
100
AcDbEntity
  8
0
100
AcDbLine
 62
7
  6
CONTINUOUS
 10
7.047923913
 20
3.2572201721
 11
7.047923913
 21
3.1322201721
  0
LINE
  5
2A3
100
AcDbEntity
  8
0
100
AcDbLine
 62
7
  6
CONTINUOUS
 10
5.4354858761
 20
6.0516764247
 11
5.394673913
 21
6.0516764247
  0
LINE
  5
2A4
100
AcDbEntity
  8
0
100
AcDbLine
 62
7
  6
CONTINUOUS
 10
4.959673913
 20
6.0516764247
 11
4.91886195
 21
6.0516764247
  0
LINE
  5
2A5
100
AcDbEntity
  8
0
100
AcDbLine
 62
7
  6
CONTINUOUS
 10
5.4555764486
 20
6.0685708637
 11
5.394673913
 21
6.0685708637
  0
LINE
  5
2A6
100
AcDbEntity
  8
0
100
AcDbLine
 62
7
  6
CONTINUOUS
 10
4.959673913
 20
6.0685708637
 11
4.8987713775
 21
6.0685708637
  0
LINE
  5
2A7
100
AcDbEntity
  8
0
100
AcDbLine
 62
7
  6
CONTINUOUS
 10
5.467173913
 20
6.0867201721
 11
5.394673913
 21
6.0867201721
  0
LINE
  5
2A8
100
AcDbEntity
  8
0
100
AcDbLine
 62
7
  6
CONTINUOUS
 10
4.887173913
 20
6.0867201721
 11
4.959673913
 21
6.0867201721
  0
LINE
  5
2A9
100
AcDbEntity
  8
0
100
AcDbLine
 62
7
  6
CONTINUOUS
 10
5.467173913
 20
6.1167201721
 11
5.394673913
 21
6.1167201721
  0
LINE
  5
2AA
100
AcDbEntity
  8
0
100
AcDbLine
 62
7
  6
CONTINUOUS
 10
4.887173913
 20
6.1167201721
 11
4.959673913
 21
6.1167201721
  0
LINE
  5
2AB
100
AcDbEntity
  8
0
100
AcDbLine
 62
7
  6
CONTINUOUS
 10
5.4516889685
 20
6.1362038647
 11
5.394673913
 21
6.1362038647
  0
LINE
  5
2AC
100
AcDbEntity
  8
0
100
AcDbLine
 62
7
  6
CONTINUOUS
 10
4.959673913
 20
6.1362038647
 11
4.9026588576
 21
6.1362038647
  0
LINE
  5
2AD
100
AcDbEntity
  8
0
100
AcDbLine
 62
7
  6
CONTINUOUS
 10
5.4285778097
 20
6.1429770835
 11
5.394673913
 21
6.1429770835
  0
LINE
  5
2AE
100
AcDbEntity
  8
0
100
AcDbLine
 62
7
  6
CONTINUOUS
 10
4.959673913
 20
6.1429770835
 11
4.9257700164
 21
6.1429770835
  0
LINE
  5
2AF
100
AcDbEntity
  8
0
100
AcDbLine
 62
7
  6
CONTINUOUS
 10
7.306423913
 20
3.2572201721
 11
7.306423913
 21
3.1322201721
  0
LINE
  5
2B0
100
AcDbEntity
  8
0
100
AcDbLine
 62
7
  6
CONTINUOUS
 10
7.317173913
 20
3.6210339888
 11
7.317173913
 21
3.6176059738
  0
LINE
  5
2B1
100
AcDbEntity
  8
0
100
AcDbLine
 62
7
  6
CONTINUOUS
 10
7.339423913
 20
3.1322201721
 11
7.339423913
 21
3.0922201721
  0
LINE
  5
2B2
100
AcDbEntity
  8
0
100
AcDbLine
 62
7
  6
CONTINUOUS
 10
7.3849389649
 20
3.5251280458
 11
7.3849389649
 21
3.3498119517
  0
LINE
  5
2B3
100
AcDbEntity
  8
0
100
AcDbLine
 62
7
  6
CONTINUOUS
 10
7.389173913
 20
3.5274699988
 11
7.389173913
 21
3.3474699988
  0
LINE
  5
2B4
100
AcDbEntity
  8
0
100
AcDbLine
 62
7
  6
CONTINUOUS
 10
7.402173913
 20
3.0622201721
 11
7.402173913
 21
3.0598005706
  0
LINE
  5
2B5
100
AcDbEntity
  8
0
100
AcDbLine
 62
7
  6
CONTINUOUS
 10
7.434173913
 20
3.5274699988
 11
7.434173913
 21
3.3474699988
  0
LINE
  5
2B6
100
AcDbEntity
  8
0
100
AcDbLine
 62
7
  6
CONTINUOUS
 10
7.4493544845
 20
3.5462998
 11
7.4493544845
 21
3.3286401975
  0
LINE
  5
2B7
100
AcDbEntity
  8
0
100
AcDbLine
 62
7
  6
CONTINUOUS
 10
7.7012831956
 20
3.2842802329
 11
7.7012831956
 21
3.5906597646
  0
LINE
  5
2B8
100
AcDbEntity
  8
0
100
AcDbLine
 62
7
  6
CONTINUOUS
 10
7.7174890025
 20
3.6025134588
 11
7.7174890025
 21
3.2724265387
  0
LINE
  5
2B9
100
AcDbEntity
  8
0
100
AcDbLine
 62
7
  6
CONTINUOUS
 10
7.7403828644
 20
3.6174699988
 11
7.7403828644
 21
3.2574699988
  0
LINE
  5
2BA
100
AcDbEntity
  8
0
100
AcDbLine
 62
7
  6
CONTINUOUS
 10
7.7478673526
 20
3.6174699988
 11
7.7478673526
 21
3.2574699988
  0
LINE
  5
2BB
100
AcDbEntity
  8
0
100
AcDbLine
 62
7
  6
CONTINUOUS
 10
7.7728283553
 20
3.5938658298
 11
7.7728283553
 21
3.2810741677
  0
LINE
  5
2BC
100
AcDbEntity
  8
0
100
AcDbLine
 62
7
  6
CONTINUOUS
 10
6.7691264266
 20
2.2358853229
 11
6.7191909721
 21
2.1742201721
  0
LINE
  5
2BD
100
AcDbEntity
  8
0
100
AcDbLine
 62
7
  6
CONTINUOUS
 10
7.7845435853
 20
3.327346312
 11
7.7845435853
 21
3.5475936856
  0
ARC
  5
2BE
100
AcDbEntity
  8
0
100
AcDbCircle
 62
7
  6
CONTINUOUS
 10
2.4563740305
 20
1.7360606684
 40
1.865
100
AcDbArc
 50
76.0811997271
 51
83.9460923514
  0
ARC
  5
2BF
100
AcDbEntity
  8
0
100
AcDbCircle
 62
7
  6
CONTINUOUS
 10
2.7963265353
 20
2.2138591092
 40
0.035
100
AcDbArc
 50
90.0
 51
141.0
  0
ARC
  5
2C0
100
AcDbEntity
  8
0
100
AcDbCircle
 62
7
  6
CONTINUOUS
 10
2.740173913
 20
2.1572285216
 40
0.027
100
AcDbArc
 50
141.0
 51
197.4595175183
  0
ARC
  5
2C1
100
AcDbEntity
  8
0
100
AcDbCircle
 62
7
  6
CONTINUOUS
 10
2.6953392417
 20
2.1431270235
 40
0.02
100
AcDbArc
 50
316.3573080802
 51
17.4595175183
  0
ARC
  5
2C2
100
AcDbEntity
  8
0
100
AcDbCircle
 62
7
  6
CONTINUOUS
 10
2.6354563372
 20
2.0372201721
 40
0.015
100
AcDbArc
 50
131.2685692708
 51
270.0
  0
ARC
  5
2C3
100
AcDbEntity
  8
0
100
AcDbCircle
 62
7
  6
CONTINUOUS
 10
0.7611432005
 20
2.7855200883
 40
2.2295
100
AcDbArc
 50
350.7367477834
 51
5.849386431
  0
ARC
  5
2C4
100
AcDbEntity
  8
0
100
AcDbCircle
 62
7
  6
CONTINUOUS
 10
1.7582023714
 20
3.036882855
 40
1.315
100
AcDbArc
 50
311.2685692708
 51
316.3573080802
  0
ARC
  5
2C5
100
AcDbEntity
  8
0
100
AcDbCircle
 62
7
  6
CONTINUOUS
 10
2.803673913
 20
3.4374699988
 40
0.2585
100
AcDbArc
 50
154.7853651812
 51
205.2146348188
  0
ARC
  5
2C6
100
AcDbEntity
  8
0
100
AcDbCircle
 62
7
  6
CONTINUOUS
 10
2.4567144573
 20
3.2740950127
 40
0.125
100
AcDbArc
 50
3.2006734286
 51
25.2146348188
  0
ARC
  5
2C7
100
AcDbEntity
  8
0
100
AcDbCircle
 62
7
  6
CONTINUOUS
 10
2.4567144573
 20
3.6008449848
 40
0.125
100
AcDbArc
 50
334.7853651812
 51
356.7993265714
  0
ARC
  5
2C8
100
AcDbEntity
  8
0
100
AcDbCircle
 62
7
  6
CONTINUOUS
 10
2.6064804735
 20
3.5924699988
 40
0.025
100
AcDbArc
 50
90.0
 51
176.7993265714
  0
ARC
  5
2C9
100
AcDbEntity
  8
0
100
AcDbCircle
 62
7
  6
CONTINUOUS
 10
2.6064804735
 20
3.2824699988
 40
0.025
100
AcDbArc
 50
183.2006734286
 51
270.0
  0
ARC
  5
2CA
100
AcDbEntity
  8
0
100
AcDbCircle
 62
7
  6
CONTINUOUS
 10
2.6139649617
 20
3.2824699988
 40
0.025
100
AcDbArc
 50
270.0
 51
336.3131006371
  0
ARC
  5
2CB
100
AcDbEntity
  8
0
100
AcDbCircle
 62
7
  6
CONTINUOUS
 10
2.6139649617
 20
3.5924699988
 40
0.025
100
AcDbArc
 50
23.6868993629
 51
90.0
  0
ARC
  5
2CC
100
AcDbEntity
  8
0
100
AcDbCircle
 62
7
  6
CONTINUOUS
 10
2.655173913
 20
3.2643917707
 40
0.02
100
AcDbArc
 50
96.0539076486
 51
156.3131006371
  0
ARC
  5
2CD
100
AcDbEntity
  8
0
100
AcDbCircle
 62
7
  6
CONTINUOUS
 10
2.655173913
 20
3.6105482268
 40
0.02
100
AcDbArc
 50
203.6868993629
 51
263.9460923514
  0
ARC
  5
2CE
100
AcDbEntity
  8
0
100
AcDbCircle
 62
7
  6
CONTINUOUS
 10
3.8979737956
 20
1.7360606684
 40
1.865
100
AcDbArc
 50
96.0539076486
 51
103.9188002729
  0
ARC
  5
2CF
100
AcDbEntity
  8
0
100
AcDbCircle
 62
7
  6
CONTINUOUS
 10
4.9713480241
 20
1.868989673
 40
0.825
100
AcDbArc
 50
27.7184984363
 51
45.977526257
  0
ARC
  5
2D0
100
AcDbEntity
  8
0
100
AcDbCircle
 62
7
  6
CONTINUOUS
 10
3.161673913
 20
1.9571501782
 40
0.465
100
AcDbArc
 50
120.6423451974
 51
141.1463853048
  0
ARC
  5
2D1
100
AcDbEntity
  8
0
100
AcDbCircle
 62
7
  6
CONTINUOUS
 10
3.192673913
 20
1.9571501782
 40
0.465
100
AcDbArc
 50
38.8536146952
 51
59.3576548026
  0
ARC
  5
2D2
100
AcDbEntity
  8
0
100
AcDbCircle
 62
7
  6
CONTINUOUS
 10
4.8835199834
 20
1.7676858786
 40
0.45
100
AcDbArc
 50
128.8148632765
 51
140.323525851
  0
ARC
  5
2D3
100
AcDbEntity
  8
0
100
AcDbCircle
 62
7
  6
CONTINUOUS
 10
4.3317349769
 20
2.2807365851
 40
0.3
100
AcDbArc
 50
336.6349592663
 51
349.9208449448
  0
ARC
  5
2D4
100
AcDbEntity
  8
0
100
AcDbCircle
 62
7
  6
CONTINUOUS
 10
4.841923913
 20
2.4867188966
 40
0.0405
100
AcDbArc
 50
114.8329910391
 51
217.2221338961
  0
ARC
  5
2D5
100
AcDbEntity
  8
0
100
AcDbCircle
 62
7
  6
CONTINUOUS
 10
3.5580212908
 20
2.2138591092
 40
0.035
100
AcDbArc
 50
39.0
 51
90.0
  0
ARC
  5
2D6
100
AcDbEntity
  8
0
100
AcDbCircle
 62
7
  6
CONTINUOUS
 10
2.9319598756
 20
2.4314647072
 40
0.03
100
AcDbArc
 50
284.1325726664
 51
350.7367477834
  0
ARC
  5
2D7
100
AcDbEntity
  8
0
100
AcDbCircle
 62
7
  6
CONTINUOUS
 10
3.4223879505
 20
2.4314647072
 40
0.03
100
AcDbArc
 50
189.2632522166
 51
255.8674273336
  0
ARC
  5
2D8
100
AcDbEntity
  8
0
100
AcDbCircle
 62
7
  6
CONTINUOUS
 10
4.656642059
 20
2.2229837671
 40
0.03
100
AcDbArc
 50
97.6008745497
 51
169.9208449448
  0
ARC
  5
2D9
100
AcDbEntity
  8
0
100
AcDbCircle
 62
7
  6
CONTINUOUS
 10
4.634673913
 20
2.1498625964
 40
0.03
100
AcDbArc
 50
156.6349592663
 51
170.2993321321
  0
ARC
  5
2DA
100
AcDbEntity
  8
0
100
AcDbCircle
 62
7
  6
CONTINUOUS
 10
4.8123156958
 20
2.5507001709
 40
0.03
100
AcDbArc
 50
294.8329910391
 51
359.6486545051
  0
ARC
  5
2DB
100
AcDbEntity
  8
0
100
AcDbCircle
 62
7
  6
CONTINUOUS
 10
2.9461215236
 20
2.3752201721
 40
0.028
100
AcDbArc
 50
104.1325726664
 51
220.0052008849
  0
ARC
  5
2DC
100
AcDbEntity
  8
0
100
AcDbCircle
 62
7
  6
CONTINUOUS
 10
3.4082263025
 20
2.3752201721
 40
0.028
100
AcDbArc
 50
319.9947991151
 51
75.8674273336
  0
ARC
  5
2DD
100
AcDbEntity
  8
0
100
AcDbCircle
 62
7
  6
CONTINUOUS
 10
3.614173913
 20
2.1572285216
 40
0.027
100
AcDbArc
 50
342.5404824817
 51
39.0
  0
ARC
  5
2DE
100
AcDbEntity
  8
0
100
AcDbCircle
 62
7
  6
CONTINUOUS
 10
3.6590085844
 20
2.1431270235
 40
0.02
100
AcDbArc
 50
162.5404824817
 51
223.6426919198
  0
ARC
  5
2DF
100
AcDbEntity
  8
0
100
AcDbCircle
 62
7
  6
CONTINUOUS
 10
4.624816898
 20
2.1515476051
 40
0.02
100
AcDbArc
 50
170.2993321321
 51
206.1825354829
  0
ARC
  5
2E0
100
AcDbEntity
  8
0
100
AcDbCircle
 62
7
  6
CONTINUOUS
 10
4.552565422
 20
2.0422201721
 40
0.02
100
AcDbArc
 50
140.323525851
 51
270.0
  0
ARC
  5
2E1
100
AcDbEntity
  8
0
100
AcDbCircle
 62
7
  6
CONTINUOUS
 10
4.5889211818
 20
2.1338983116
 40
0.02
100
AcDbArc
 50
308.8148632765
 51
26.1825354829
  0
ARC
  5
2E2
100
AcDbEntity
  8
0
100
AcDbCircle
 62
7
  6
CONTINUOUS
 10
3.7188914889
 20
2.0372201721
 40
0.015
100
AcDbArc
 50
270.0
 51
48.7314307292
  0
ARC
  5
2E3
100
AcDbEntity
  8
0
100
AcDbCircle
 62
7
  6
CONTINUOUS
 10
2.9491909169
 20
3.0096794975
 40
0.03
100
AcDbArc
 50
5.849386431
 51
56.6524271107
  0
ARC
  5
2E4
100
AcDbEntity
  8
0
100
AcDbCircle
 62
7
  6
CONTINUOUS
 10
3.4051569092
 20
3.0096794975
 40
0.03
100
AcDbArc
 50
123.3475728905
 51
174.1506135687
  0
ARC
  5
2E5
100
AcDbEntity
  8
0
100
AcDbCircle
 62
7
  6
CONTINUOUS
 10
2.982173913
 20
3.0598005706
 40
0.03
100
AcDbArc
 50
180.0
 51
236.6524271107
  0
ARC
  5
2E6
100
AcDbEntity
  8
0
100
AcDbCircle
 62
7
  6
CONTINUOUS
 10
3.372173913
 20
3.0598005706
 40
0.03
100
AcDbArc
 50
303.3475728905
 51
360.0
  0
ARC
  5
2E7
100
AcDbEntity
  8
0
100
AcDbCircle
 62
7
  6
CONTINUOUS
 10
2.982173913
 20
3.0622201721
 40
0.03
100
AcDbArc
 50
90.0
 51
180.0
  0
ARC
  5
2E8
100
AcDbEntity
  8
0
100
AcDbCircle
 62
7
  6
CONTINUOUS
 10
3.372173913
 20
3.0622201721
 40
0.03
100
AcDbArc
 50
0.0
 51
90.0
  0
ARC
  5
2E9
100
AcDbEntity
  8
0
100
AcDbCircle
 62
7
  6
CONTINUOUS
 10
3.177173913
 20
3.3276059738
 40
0.35
100
AcDbArc
 50
71.180936631
 51
108.819063369
  0
ARC
  5
2EA
100
AcDbEntity
  8
0
100
AcDbCircle
 62
7
  6
CONTINUOUS
 10
3.550673913
 20
3.4374699988
 40
0.2585
100
AcDbArc
 50
334.7853651812
 51
25.2146348188
  0
ARC
  5
2EB
100
AcDbEntity
  8
0
100
AcDbCircle
 62
7
  6
CONTINUOUS
 10
3.177173913
 20
3.4374699988
 40
0.2255
100
AcDbArc
 50
202.8753427359
 51
233.066555091
  0
ARC
  5
2EC
100
AcDbEntity
  8
0
100
AcDbCircle
 62
7
  6
CONTINUOUS
 10
3.177173913
 20
3.4374699988
 40
0.2255
100
AcDbArc
 50
131.5034356457
 51
157.1246572641
  0
ARC
  5
2ED
100
AcDbEntity
  8
0
100
AcDbCircle
 62
7
  6
CONTINUOUS
 10
3.177173913
 20
3.4374699988
 40
0.2255
100
AcDbArc
 50
306.933444909
 51
337.1246572641
  0
ARC
  5
2EE
100
AcDbEntity
  8
0
100
AcDbCircle
 62
7
  6
CONTINUOUS
 10
3.177173913
 20
3.4374699988
 40
0.2255
100
AcDbArc
 50
22.8753427359
 51
48.4965643543
  0
CIRCLE
  5
2EF
100
AcDbEntity
  8
0
100
AcDbCircle
 62
7
  6
CONTINUOUS
 10
3.177173913
 20
3.4374699988
 40
0.18
  0
CIRCLE
  5
2F0
100
AcDbEntity
  8
0
100
AcDbCircle
 62
7
  6
CONTINUOUS
 10
3.177173913
 20
3.4374699988
 40
0.156395831
  0
CIRCLE
  5
2F1
100
AcDbEntity
  8
0
100
AcDbCircle
 62
7
  6
CONTINUOUS
 10
3.177173913
 20
3.4374699988
 40
0.1101236868
  0
ARC
  5
2F2
100
AcDbEntity
  8
0
100
AcDbCircle
 62
7
  6
CONTINUOUS
 10
3.277173913
 20
3.6210339888
 40
0.04
100
AcDbArc
 50
0.0
 51
71.180936631
  0
ARC
  5
2F3
100
AcDbEntity
  8
0
100
AcDbCircle
 62
7
  6
CONTINUOUS
 10
3.077173913
 20
3.6210339888
 40
0.04
100
AcDbArc
 50
108.819063369
 51
180.0
  0
ARC
  5
2F4
100
AcDbEntity
  8
0
100
AcDbCircle
 62
7
  6
CONTINUOUS
 10
3.7478673526
 20
3.5924699988
 40
0.025
100
AcDbArc
 50
3.2006734286
 51
90.0
  0
ARC
  5
2F5
100
AcDbEntity
  8
0
100
AcDbCircle
 62
7
  6
CONTINUOUS
 10
3.7478673526
 20
3.2824699988
 40
0.025
100
AcDbArc
 50
270.0
 51
356.7993265714
  0
ARC
  5
2F6
100
AcDbEntity
  8
0
100
AcDbCircle
 62
7
  6
CONTINUOUS
 10
3.7403828644
 20
3.2824699988
 40
0.025
100
AcDbArc
 50
203.6868993629
 51
270.0
  0
ARC
  5
2F7
100
AcDbEntity
  8
0
100
AcDbCircle
 62
7
  6
CONTINUOUS
 10
3.7403828644
 20
3.5924699988
 40
0.025
100
AcDbArc
 50
90.0
 51
156.3131006371
  0
ARC
  5
2F8
100
AcDbEntity
  8
0
100
AcDbCircle
 62
7
  6
CONTINUOUS
 10
2.9001824107
 20
3.3480529496
 40
0.02
100
AcDbArc
 50
283.9188002729
 51
358.3297322854
  0
ARC
  5
2F9
100
AcDbEntity
  8
0
100
AcDbCircle
 62
7
  6
CONTINUOUS
 10
2.9001824107
 20
3.5268870479
 40
0.02
100
AcDbArc
 50
1.6702677144
 51
76.0811997271
  0
ARC
  5
2FA
100
AcDbEntity
  8
0
100
AcDbCircle
 62
7
  6
CONTINUOUS
 10
3.4541654154
 20
3.3480529496
 40
0.02
100
AcDbArc
 50
181.6702677146
 51
256.0811997271
  0
ARC
  5
2FB
100
AcDbEntity
  8
0
100
AcDbCircle
 62
7
  6
CONTINUOUS
 10
3.4541654154
 20
3.5268870479
 40
0.02
100
AcDbArc
 50
103.9188002729
 51
178.3297322856
  0
ARC
  5
2FC
100
AcDbEntity
  8
0
100
AcDbCircle
 62
7
  6
CONTINUOUS
 10
3.699173913
 20
3.2643917707
 40
0.02
100
AcDbArc
 50
23.6868993629
 51
83.9460923514
  0
ARC
  5
2FD
100
AcDbEntity
  8
0
100
AcDbCircle
 62
7
  6
CONTINUOUS
 10
3.699173913
 20
3.6105482268
 40
0.02
100
AcDbArc
 50
276.0539076486
 51
336.3131006371
  0
ARC
  5
2FE
100
AcDbEntity
  8
0
100
AcDbCircle
 62
7
  6
CONTINUOUS
 10
3.307173913
 20
3.6176059738
 40
0.01
100
AcDbArc
 50
270.0
 51
360.0
  0
ARC
  5
2FF
100
AcDbEntity
  8
0
100
AcDbCircle
 62
7
  6
CONTINUOUS
 10
3.047173913
 20
3.6176059738
 40
0.01
100
AcDbArc
 50
180.0
 51
270.0
  0
ARC
  5
300
100
AcDbEntity
  8
0
100
AcDbCircle
 62
7
  6
CONTINUOUS
 10
2.965173913
 20
3.3524699988
 40
0.005
100
AcDbArc
 50
270.0
 51
327.8857385925
  0
ARC
  5
301
100
AcDbEntity
  8
0
100
AcDbCircle
 62
7
  6
CONTINUOUS
 10
2.965173913
 20
3.5224699988
 40
0.005
100
AcDbArc
 50
32.1142614075
 51
90.0
  0
ARC
  5
302
100
AcDbEntity
  8
0
100
AcDbCircle
 62
7
  6
CONTINUOUS
 10
3.389173913
 20
3.3524699988
 40
0.005
100
AcDbArc
 50
212.1142614075
 51
270.0
  0
ARC
  5
303
100
AcDbEntity
  8
0
100
AcDbCircle
 62
7
  6
CONTINUOUS
 10
3.389173913
 20
3.5224699988
 40
0.005
100
AcDbArc
 50
90.0
 51
147.8857385925
  0
ARC
  5
304
100
AcDbEntity
  8
0
100
AcDbCircle
 62
7
  6
CONTINUOUS
 10
3.323291536
 20
3.6026059738
 40
0.005
100
AcDbArc
 50
48.4965643543
 51
90.0
  0
ARC
  5
305
100
AcDbEntity
  8
0
100
AcDbCircle
 62
7
  6
CONTINUOUS
 10
3.03105629
 20
3.6026059738
 40
0.005
100
AcDbArc
 50
90.0
 51
131.5034356457
  0
ARC
  5
306
100
AcDbEntity
  8
0
100
AcDbCircle
 62
7
  6
CONTINUOUS
 10
4.7611432005
 20
2.7855200883
 40
2.2295
100
AcDbArc
 50
350.7367477834
 51
5.8493864313
  0
ARC
  5
307
100
AcDbEntity
  8
0
100
AcDbCircle
 62
7
  6
CONTINUOUS
 10
4.5961454547
 20
3.036882855
 40
1.315
100
AcDbArc
 50
223.6426919198
 51
228.7314307292
  0
ARC
  5
308
100
AcDbEntity
  8
0
100
AcDbCircle
 62
7
  6
CONTINUOUS
 10
4.7934409019
 20
2.7342525531
 40
0.05
100
AcDbArc
 50
359.6486545051
 51
38.35615575
  0
ARC
  5
309
100
AcDbEntity
  8
0
100
AcDbCircle
 62
7
  6
CONTINUOUS
 10
4.8640160711
 20
2.7901018637
 40
0.04
100
AcDbArc
 50
125.1484803012
 51
218.35615575
  0
ARC
  5
30A
100
AcDbEntity
  8
0
100
AcDbCircle
 62
7
  6
CONTINUOUS
 10
4.823717259
 20
2.8473382659
 40
0.03
100
AcDbArc
 50
305.1484803012
 51
356.5102378959
  0
ARC
  5
30B
100
AcDbEntity
  8
0
100
AcDbCircle
 62
7
  6
CONTINUOUS
 10
3.8976333688
 20
3.2740950127
 40
0.125
100
AcDbArc
 50
154.7853651812
 51
176.7993265714
  0
ARC
  5
30C
100
AcDbEntity
  8
0
100
AcDbCircle
 62
7
  6
CONTINUOUS
 10
3.8976333688
 20
3.6008449848
 40
0.125
100
AcDbArc
 50
183.2006734286
 51
205.2146348188
  0
ARC
  5
30D
100
AcDbEntity
  8
0
100
AcDbCircle
 62
7
  6
CONTINUOUS
 10
-17.6046164165
 20
4.2150913645
 40
22.5
100
AcDbArc
 50
356.5102378959
 51
1.7811663206
  0
ARC
  5
30E
100
AcDbEntity
  8
0
100
AcDbCircle
 62
7
  6
CONTINUOUS
 10
2.4563740305
 20
5.1388793292
 40
1.865
100
AcDbArc
 50
276.0539076486
 51
283.9188002729
  0
ARC
  5
30F
100
AcDbEntity
  8
0
100
AcDbCircle
 62
7
  6
CONTINUOUS
 10
3.8979737956
 20
5.1388793292
 40
1.865
100
AcDbArc
 50
256.0811997271
 51
263.9460923514
  0
ARC
  5
310
100
AcDbEntity
  8
0
100
AcDbCircle
 62
7
  6
CONTINUOUS
 10
5.1524390045
 20
5.5071735212
 40
0.675
100
AcDbArc
 50
106.5935974246
 51
109.6215522579
  0
ARC
  5
311
100
AcDbEntity
  8
0
100
AcDbCircle
 62
7
  6
CONTINUOUS
 10
5.106710585
 20
6.279507081
 40
0.4
100
AcDbArc
 50
316.0486527912
 51
325.2792910921
  0
ARC
  5
312
100
AcDbEntity
  8
0
100
AcDbCircle
 62
7
  6
CONTINUOUS
 10
4.8552507756
 20
6.3407826362
 40
0.21
100
AcDbArc
 50
283.0471477631
 51
289.6215522579
  0
ARC
  5
313
100
AcDbEntity
  8
0
100
AcDbCircle
 62
7
  6
CONTINUOUS
 10
4.8380263187
 20
5.1295916789
 40
0.09
100
AcDbArc
 50
329.5344171503
 51
5.0
  0
ARC
  5
314
100
AcDbEntity
  8
0
100
AcDbCircle
 62
7
  6
CONTINUOUS
 10
4.8222839483
 20
5.3095277955
 40
0.09
100
AcDbArc
 50
5.0
 51
39.5012611871
  0
ARC
  5
315
100
AcDbEntity
  8
0
100
AcDbCircle
 62
7
  6
CONTINUOUS
 10
4.8777650386
 20
6.0231975926
 40
0.05
100
AcDbArc
 50
34.7207089079
 51
65.1574082513
  0
ARC
  5
316
100
AcDbEntity
  8
0
100
AcDbCircle
 62
7
  6
CONTINUOUS
 10
4.922593324
 20
5.3922201721
 40
0.04
100
AcDbArc
 50
90.0
 51
219.5012611871
  0
ARC
  5
317
100
AcDbEntity
  8
0
100
AcDbCircle
 62
7
  6
CONTINUOUS
 10
4.9539066691
 20
5.0622201721
 40
0.04
100
AcDbArc
 50
218.2072845312
 51
270.0
  0
ARC
  5
318
100
AcDbEntity
  8
0
100
AcDbCircle
 62
7
  6
CONTINUOUS
 10
4.8470517978
 20
4.9127201721
 40
0.0375
100
AcDbArc
 50
2.6302873863
 51
49.4641962751
  0
ARC
  5
319
100
AcDbEntity
  8
0
100
AcDbCircle
 62
7
  6
CONTINUOUS
 10
4.880423913
 20
4.9698383477
 40
0.03
100
AcDbArc
 50
180.0
 51
252.5423984832
  0
ARC
  5
31A
100
AcDbEntity
  8
0
100
AcDbCircle
 62
7
  6
CONTINUOUS
 10
4.8804234597
 20
4.9883850928
 40
0.03
100
AcDbArc
 50
120.5518721988
 51
180.3149767916
  0
ARC
  5
31B
100
AcDbEntity
  8
0
100
AcDbCircle
 62
7
  6
CONTINUOUS
 10
4.907173913
 20
6.1167201721
 40
0.02
100
AcDbArc
 50
103.0471477631
 51
180.0
  0
ARC
  5
31C
100
AcDbEntity
  8
0
100
AcDbCircle
 62
7
  6
CONTINUOUS
 10
4.907173913
 20
6.0867201721
 40
0.02
100
AcDbArc
 50
180.0
 51
245.1574082513
  0
ARC
  5
31D
100
AcDbEntity
  8
0
100
AcDbCircle
 62
7
  6
CONTINUOUS
 10
6.4563740305
 20
1.7360606684
 40
1.865
100
AcDbArc
 50
76.0811997271
 51
83.9460923514
  0
ARC
  5
31E
100
AcDbEntity
  8
0
100
AcDbCircle
 62
7
  6
CONTINUOUS
 10
5.382999802
 20
1.868989673
 40
0.825
100
AcDbArc
 50
134.022473743
 51
152.2815015631
  0
ARC
  5
31F
100
AcDbEntity
  8
0
100
AcDbCircle
 62
7
  6
CONTINUOUS
 10
7.192673913
 20
1.9571501782
 40
0.465
100
AcDbArc
 50
38.8536146952
 51
59.3576548026
  0
ARC
  5
320
100
AcDbEntity
  8
0
100
AcDbCircle
 62
7
  6
CONTINUOUS
 10
7.161673913
 20
1.9571501782
 40
0.465
100
AcDbArc
 50
120.6423451974
 51
141.1463853048
  0
ARC
  5
321
100
AcDbEntity
  8
0
100
AcDbCircle
 62
7
  6
CONTINUOUS
 10
5.4708278427
 20
1.7676858786
 40
0.45
100
AcDbArc
 50
39.676474149
 51
51.1851367253
  0
ARC
  5
322
100
AcDbEntity
  8
0
100
AcDbCircle
 62
7
  6
CONTINUOUS
 10
6.0226128492
 20
2.2807365851
 40
0.3
100
AcDbArc
 50
190.0791550566
 51
203.3650407337
  0
ARC
  5
323
100
AcDbEntity
  8
0
100
AcDbCircle
 62
7
  6
CONTINUOUS
 10
5.512423913
 20
2.4867188966
 40
0.0405
100
AcDbArc
 50
322.7778661039
 51
65.1670089609
  0
ARC
  5
324
100
AcDbEntity
  8
0
100
AcDbCircle
 62
7
  6
CONTINUOUS
 10
6.7963265353
 20
2.2138591092
 40
0.035
100
AcDbArc
 50
90.0
 51
141.0
  0
ARC
  5
325
100
AcDbEntity
  8
0
100
AcDbCircle
 62
7
  6
CONTINUOUS
 10
7.4223879505
 20
2.4314647072
 40
0.03
100
AcDbArc
 50
189.2632522166
 51
255.8674273336
  0
ARC
  5
326
100
AcDbEntity
  8
0
100
AcDbCircle
 62
7
  6
CONTINUOUS
 10
6.9319598756
 20
2.4314647072
 40
0.03
100
AcDbArc
 50
284.1325726664
 51
350.7367477834
  0
ARC
  5
327
100
AcDbEntity
  8
0
100
AcDbCircle
 62
7
  6
CONTINUOUS
 10
5.6977057671
 20
2.2229837671
 40
0.03
100
AcDbArc
 50
10.0791550566
 51
82.3991254447
  0
ARC
  5
328
100
AcDbEntity
  8
0
100
AcDbCircle
 62
7
  6
CONTINUOUS
 10
5.719673913
 20
2.1498625964
 40
0.03
100
AcDbArc
 50
9.7006680033
 51
23.3650407337
  0
ARC
  5
329
100
AcDbEntity
  8
0
100
AcDbCircle
 62
7
  6
CONTINUOUS
 10
5.5420321303
 20
2.5507001709
 40
0.03
100
AcDbArc
 50
180.3513454949
 51
245.1670089609
  0
ARC
  5
32A
100
AcDbEntity
  8
0
100
AcDbCircle
 62
7
  6
CONTINUOUS
 10
7.4082263025
 20
2.3752201721
 40
0.028
100
AcDbArc
 50
319.9947991151
 51
75.8674273336
  0
ARC
  5
32B
100
AcDbEntity
  8
0
100
AcDbCircle
 62
7
  6
CONTINUOUS
 10
6.9461215236
 20
2.3752201721
 40
0.028
100
AcDbArc
 50
104.1325726664
 51
220.0052008849
  0
ARC
  5
32C
100
AcDbEntity
  8
0
100
AcDbCircle
 62
7
  6
CONTINUOUS
 10
6.740173913
 20
2.1572285216
 40
0.027
100
AcDbArc
 50
141.0
 51
197.4595175183
  0
ARC
  5
32D
100
AcDbEntity
  8
0
100
AcDbCircle
 62
7
  6
CONTINUOUS
 10
5.7295309281
 20
2.1515476051
 40
0.02
100
AcDbArc
 50
333.8174644941
 51
9.7006680033
  0
ARC
  5
32E
100
AcDbEntity
  8
0
100
AcDbCircle
 62
7
  6
CONTINUOUS
 10
5.8017824041
 20
2.0422201721
 40
0.02
100
AcDbArc
 50
270.0
 51
39.676474149
  0
ARC
  5
32F
100
AcDbEntity
  8
0
100
AcDbCircle
 62
7
  6
CONTINUOUS
 10
6.6953392417
 20
2.1431270235
 40
0.02
100
AcDbArc
 50
316.3573080802
 51
17.4595175183
  0
ARC
  5
330
100
AcDbEntity
  8
0
100
AcDbCircle
 62
7
  6
CONTINUOUS
 10
5.7654266443
 20
2.1338983116
 40
0.02
100
AcDbArc
 50
153.8174644941
 51
231.1851367253
  0
ARC
  5
331
100
AcDbEntity
  8
0
100
AcDbCircle
 62
7
  6
CONTINUOUS
 10
6.6354563372
 20
2.0372201721
 40
0.015
100
AcDbArc
 50
131.2685692708
 51
270.0
  0
ARC
  5
332
100
AcDbEntity
  8
0
100
AcDbCircle
 62
7
  6
CONTINUOUS
 10
5.5932046256
 20
2.7855200883
 40
2.2295
100
AcDbArc
 50
174.1506135687
 51
189.2632522166
  0
ARC
  5
333
100
AcDbEntity
  8
0
100
AcDbCircle
 62
7
  6
CONTINUOUS
 10
5.7582023714
 20
3.036882855
 40
1.315
100
AcDbArc
 50
311.2685692708
 51
316.3573080802
  0
ARC
  5
334
100
AcDbEntity
  8
0
100
AcDbCircle
 62
7
  6
CONTINUOUS
 10
5.5609069241
 20
2.7342525531
 40
0.05
100
AcDbArc
 50
141.64384425
 51
180.3513454949
  0
ARC
  5
335
100
AcDbEntity
  8
0
100
AcDbCircle
 62
7
  6
CONTINUOUS
 10
5.4903317549
 20
2.7901018637
 40
0.04
100
AcDbArc
 50
321.64384425
 51
54.8515196988
  0
ARC
  5
336
100
AcDbEntity
  8
0
100
AcDbCircle
 62
7
  6
CONTINUOUS
 10
5.5306305671
 20
2.8473382659
 40
0.03
100
AcDbArc
 50
183.4897621041
 51
234.8515196988
  0
ARC
  5
337
100
AcDbEntity
  8
0
100
AcDbCircle
 62
7
  6
CONTINUOUS
 10
6.4567144573
 20
3.2740950127
 40
0.125
100
AcDbArc
 50
3.2006734286
 51
25.2146348188
  0
ARC
  5
338
100
AcDbEntity
  8
0
100
AcDbCircle
 62
7
  6
CONTINUOUS
 10
6.4567144573
 20
3.6008449848
 40
0.125
100
AcDbArc
 50
334.7853651812
 51
356.7993265714
  0
ARC
  5
339
100
AcDbEntity
  8
0
100
AcDbCircle
 62
7
  6
CONTINUOUS
 10
7.4051569092
 20
3.0096794975
 40
0.03
100
AcDbArc
 50
123.3475728893
 51
174.150613569
  0
ARC
  5
33A
100
AcDbEntity
  8
0
100
AcDbCircle
 62
7
  6
CONTINUOUS
 10
6.9491909169
 20
3.0096794975
 40
0.03
100
AcDbArc
 50
5.8493864313
 51
56.6524271095
  0
ARC
  5
33B
100
AcDbEntity
  8
0
100
AcDbCircle
 62
7
  6
CONTINUOUS
 10
7.372173913
 20
3.0598005706
 40
0.03
100
AcDbArc
 50
303.3475728893
 51
360.0
  0
ARC
  5
33C
100
AcDbEntity
  8
0
100
AcDbCircle
 62
7
  6
CONTINUOUS
 10
6.982173913
 20
3.0598005706
 40
0.03
100
AcDbArc
 50
180.0
 51
236.6524271095
  0
ARC
  5
33D
100
AcDbEntity
  8
0
100
AcDbCircle
 62
7
  6
CONTINUOUS
 10
7.372173913
 20
3.0622201721
 40
0.03
100
AcDbArc
 50
0.0
 51
90.0
  0
ARC
  5
33E
100
AcDbEntity
  8
0
100
AcDbCircle
 62
7
  6
CONTINUOUS
 10
6.982173913
 20
3.0622201721
 40
0.03
100
AcDbArc
 50
90.0
 51
180.0
  0
ARC
  5
33F
100
AcDbEntity
  8
0
100
AcDbCircle
 62
7
  6
CONTINUOUS
 10
6.803673913
 20
3.4374699988
 40
0.2585
100
AcDbArc
 50
154.7853651812
 51
205.2146348188
  0
ARC
  5
340
100
AcDbEntity
  8
0
100
AcDbCircle
 62
7
  6
CONTINUOUS
 10
6.6064804735
 20
3.2824699988
 40
0.025
100
AcDbArc
 50
183.2006734286
 51
270.0
  0
ARC
  5
341
100
AcDbEntity
  8
0
100
AcDbCircle
 62
7
  6
CONTINUOUS
 10
6.6139649617
 20
3.2824699988
 40
0.025
100
AcDbArc
 50
270.0
 51
336.3131006371
  0
ARC
  5
342
100
AcDbEntity
  8
0
100
AcDbCircle
 62
7
  6
CONTINUOUS
 10
6.9001824107
 20
3.3480529496
 40
0.02
100
AcDbArc
 50
283.9188002729
 51
358.3297322854
  0
ARC
  5
343
100
AcDbEntity
  8
0
100
AcDbCircle
 62
7
  6
CONTINUOUS
 10
6.655173913
 20
3.2643917707
 40
0.02
100
AcDbArc
 50
96.0539076486
 51
156.3131006371
  0
ARC
  5
344
100
AcDbEntity
  8
0
100
AcDbCircle
 62
7
  6
CONTINUOUS
 10
6.965173913
 20
3.3524699988
 40
0.005
100
AcDbArc
 50
270.0
 51
327.8857385924
  0
ARC
  5
345
100
AcDbEntity
  8
0
100
AcDbCircle
 62
7
  6
CONTINUOUS
 10
6.6064804735
 20
3.5924699988
 40
0.025
100
AcDbArc
 50
90.0
 51
176.7993265714
  0
ARC
  5
346
100
AcDbEntity
  8
0
100
AcDbCircle
 62
7
  6
CONTINUOUS
 10
6.6139649617
 20
3.5924699988
 40
0.025
100
AcDbArc
 50
23.6868993629
 51
90.0
  0
ARC
  5
347
100
AcDbEntity
  8
0
100
AcDbCircle
 62
7
  6
CONTINUOUS
 10
6.9001824107
 20
3.5268870479
 40
0.02
100
AcDbArc
 50
1.6702677144
 51
76.0811997271
  0
ARC
  5
348
100
AcDbEntity
  8
0
100
AcDbCircle
 62
7
  6
CONTINUOUS
 10
6.655173913
 20
3.6105482268
 40
0.02
100
AcDbArc
 50
203.6868993629
 51
263.9460923514
  0
ARC
  5
349
100
AcDbEntity
  8
0
100
AcDbCircle
 62
7
  6
CONTINUOUS
 10
6.965173913
 20
3.5224699988
 40
0.005
100
AcDbArc
 50
32.1142614076
 51
90.0
  0
ARC
  5
34A
100
AcDbEntity
  8
0
100
AcDbCircle
 62
7
  6
CONTINUOUS
 10
7.177173913
 20
3.3276059738
 40
0.35
100
AcDbArc
 50
71.180936631
 51
108.819063369
  0
ARC
  5
34B
100
AcDbEntity
  8
0
100
AcDbCircle
 62
7
  6
CONTINUOUS
 10
7.177173913
 20
3.4374699988
 40
0.2255
100
AcDbArc
 50
306.933444909
 51
337.1246572641
  0
ARC
  5
34C
100
AcDbEntity
  8
0
100
AcDbCircle
 62
7
  6
CONTINUOUS
 10
7.177173913
 20
3.4374699988
 40
0.2255
100
AcDbArc
 50
22.8753427359
 51
48.4965643543
  0
ARC
  5
34D
100
AcDbEntity
  8
0
100
AcDbCircle
 62
7
  6
CONTINUOUS
 10
7.177173913
 20
3.4374699988
 40
0.2255
100
AcDbArc
 50
202.8753427359
 51
233.066555091
  0
ARC
  5
34E
100
AcDbEntity
  8
0
100
AcDbCircle
 62
7
  6
CONTINUOUS
 10
7.177173913
 20
3.4374699988
 40
0.2255
100
AcDbArc
 50
131.5034356457
 51
157.1246572641
  0
CIRCLE
  5
34F
100
AcDbEntity
  8
0
100
AcDbCircle
 62
7
  6
CONTINUOUS
 10
7.177173913
 20
3.4374699988
 40
0.18
  0
CIRCLE
  5
350
100
AcDbEntity
  8
0
100
AcDbCircle
 62
7
  6
CONTINUOUS
 10
7.177173913
 20
3.4374699988
 40
0.156395831
  0
CIRCLE
  5
351
100
AcDbEntity
  8
0
100
AcDbCircle
 62
7
  6
CONTINUOUS
 10
7.177173913
 20
3.4374699988
 40
0.1101236868
  0
ARC
  5
352
100
AcDbEntity
  8
0
100
AcDbCircle
 62
7
  6
CONTINUOUS
 10
7.4541654154
 20
3.3480529496
 40
0.02
100
AcDbArc
 50
181.6702677146
 51
256.0811997271
  0
ARC
  5
353
100
AcDbEntity
  8
0
100
AcDbCircle
 62
7
  6
CONTINUOUS
 10
7.389173913
 20
3.3524699988
 40
0.005
100
AcDbArc
 50
212.1142614075
 51
270.0
  0
ARC
  5
354
100
AcDbEntity
  8
0
100
AcDbCircle
 62
7
  6
CONTINUOUS
 10
7.077173913
 20
3.6210339888
 40
0.04
100
AcDbArc
 50
108.819063369
 51
180.0
  0
ARC
  5
355
100
AcDbEntity
  8
0
100
AcDbCircle
 62
7
  6
CONTINUOUS
 10
7.277173913
 20
3.6210339888
 40
0.04
100
AcDbArc
 50
0.0
 51
71.180936631
  0
ARC
  5
356
100
AcDbEntity
  8
0
100
AcDbCircle
 62
7
  6
CONTINUOUS
 10
7.4541654154
 20
3.5268870479
 40
0.02
100
AcDbArc
 50
103.9188002729
 51
178.3297322856
  0
ARC
  5
357
100
AcDbEntity
  8
0
100
AcDbCircle
 62
7
  6
CONTINUOUS
 10
7.047173913
 20
3.6176059738
 40
0.01
100
AcDbArc
 50
180.0
 51
270.0
  0
ARC
  5
358
100
AcDbEntity
  8
0
100
AcDbCircle
 62
7
  6
CONTINUOUS
 10
7.307173913
 20
3.6176059738
 40
0.01
100
AcDbArc
 50
270.0
 51
360.0
  0
ARC
  5
359
100
AcDbEntity
  8
0
100
AcDbCircle
 62
7
  6
CONTINUOUS
 10
7.389173913
 20
3.5224699988
 40
0.005
100
AcDbArc
 50
90.0
 51
147.8857385924
  0
ARC
  5
35A
100
AcDbEntity
  8
0
100
AcDbCircle
 62
7
  6
CONTINUOUS
 10
7.03105629
 20
3.6026059738
 40
0.005
100
AcDbArc
 50
90.0
 51
131.5034356457
  0
ARC
  5
35B
100
AcDbEntity
  8
0
100
AcDbCircle
 62
7
  6
CONTINUOUS
 10
7.323291536
 20
3.6026059738
 40
0.005
100
AcDbArc
 50
48.4965643543
 51
90.0
  0
ARC
  5
35C
100
AcDbEntity
  8
0
100
AcDbCircle
 62
7
  6
CONTINUOUS
 10
7.8979737956
 20
1.7360606684
 40
1.865
100
AcDbArc
 50
96.0539076486
 51
103.9188002729
  0
ARC
  5
35D
100
AcDbEntity
  8
0
100
AcDbCircle
 62
7
  6
CONTINUOUS
 10
7.5580212908
 20
2.2138591092
 40
0.035
100
AcDbArc
 50
39.0
 51
90.0
  0
ARC
  5
35E
100
AcDbEntity
  8
0
100
AcDbCircle
 62
7
  6
CONTINUOUS
 10
7.614173913
 20
2.1572285216
 40
0.027
100
AcDbArc
 50
342.5404824817
 51
39.0
  0
ARC
  5
35F
100
AcDbEntity
  8
0
100
AcDbCircle
 62
7
  6
CONTINUOUS
 10
7.6590085844
 20
2.1431270235
 40
0.02
100
AcDbArc
 50
162.5404824817
 51
223.6426919198
  0
ARC
  5
360
100
AcDbEntity
  8
0
100
AcDbCircle
 62
7
  6
CONTINUOUS
 10
7.7188914889
 20
2.0372201721
 40
0.015
100
AcDbArc
 50
270.0
 51
48.7314307292
  0
ARC
  5
361
100
AcDbEntity
  8
0
100
AcDbCircle
 62
7
  6
CONTINUOUS
 10
9.5932046256
 20
2.7855200883
 40
2.2295
100
AcDbArc
 50
174.150613569
 51
189.2632522166
  0
ARC
  5
362
100
AcDbEntity
  8
0
100
AcDbCircle
 62
7
  6
CONTINUOUS
 10
8.5961454547
 20
3.036882855
 40
1.315
100
AcDbArc
 50
223.6426919198
 51
228.7314307292
  0
ARC
  5
363
100
AcDbEntity
  8
0
100
AcDbCircle
 62
7
  6
CONTINUOUS
 10
7.550673913
 20
3.4374699988
 40
0.2585
100
AcDbArc
 50
334.7853651812
 51
25.2146348188
  0
ARC
  5
364
100
AcDbEntity
  8
0
100
AcDbCircle
 62
7
  6
CONTINUOUS
 10
7.8976333688
 20
3.2740950127
 40
0.125
100
AcDbArc
 50
154.7853651812
 51
176.7993265714
  0
ARC
  5
365
100
AcDbEntity
  8
0
100
AcDbCircle
 62
7
  6
CONTINUOUS
 10
7.8976333688
 20
3.6008449848
 40
0.125
100
AcDbArc
 50
183.2006734286
 51
205.2146348188
  0
ARC
  5
366
100
AcDbEntity
  8
0
100
AcDbCircle
 62
7
  6
CONTINUOUS
 10
7.7478673526
 20
3.5924699988
 40
0.025
100
AcDbArc
 50
3.2006734286
 51
90.0
  0
ARC
  5
367
100
AcDbEntity
  8
0
100
AcDbCircle
 62
7
  6
CONTINUOUS
 10
7.7478673526
 20
3.2824699988
 40
0.025
100
AcDbArc
 50
270.0
 51
356.7993265714
  0
ARC
  5
368
100
AcDbEntity
  8
0
100
AcDbCircle
 62
7
  6
CONTINUOUS
 10
7.7403828644
 20
3.2824699988
 40
0.025
100
AcDbArc
 50
203.6868993629
 51
270.0
  0
ARC
  5
369
100
AcDbEntity
  8
0
100
AcDbCircle
 62
7
  6
CONTINUOUS
 10
7.7403828644
 20
3.5924699988
 40
0.025
100
AcDbArc
 50
90.0
 51
156.3131006371
  0
ARC
  5
36A
100
AcDbEntity
  8
0
100
AcDbCircle
 62
7
  6
CONTINUOUS
 10
7.699173913
 20
3.2643917707
 40
0.02
100
AcDbArc
 50
23.6868993629
 51
83.9460923514
  0
ARC
  5
36B
100
AcDbEntity
  8
0
100
AcDbCircle
 62
7
  6
CONTINUOUS
 10
7.699173913
 20
3.6105482268
 40
0.02
100
AcDbArc
 50
276.0539076486
 51
336.3131006371
  0
ARC
  5
36C
100
AcDbEntity
  8
0
100
AcDbCircle
 62
7
  6
CONTINUOUS
 10
27.9589642426
 20
4.2150913645
 40
22.5
100
AcDbArc
 50
178.2188336794
 51
183.4897621041
  0
ARC
  5
36D
100
AcDbEntity
  8
0
100
AcDbCircle
 62
7
  6
CONTINUOUS
 10
7.8979737956
 20
5.1388793292
 40
1.865
100
AcDbArc
 50
256.0811997271
 51
263.9460923514
  0
ARC
  5
36E
100
AcDbEntity
  8
0
100
AcDbCircle
 62
7
  6
CONTINUOUS
 10
6.4563740305
 20
5.1388793292
 40
1.865
100
AcDbArc
 50
276.0539076486
 51
283.9188002729
  0
ARC
  5
36F
100
AcDbEntity
  8
0
100
AcDbCircle
 62
7
  6
CONTINUOUS
 10
5.2019088216
 20
5.5071735212
 40
0.675
100
AcDbArc
 50
70.3784477421
 51
73.4064025754
  0
ARC
  5
370
100
AcDbEntity
  8
0
100
AcDbCircle
 62
7
  6
CONTINUOUS
 10
5.177173913
 20
5.3752201721
 40
0.469
100
AcDbArc
 50
311.7318170398
 51
62.3697723766
  0
ARC
  5
371
100
AcDbEntity
  8
0
100
AcDbCircle
 62
7
  6
CONTINUOUS
 10
5.177173913
 20
5.3752201721
 40
0.469
100
AcDbArc
 50
117.6302276234
 51
228.2681829602
  0
ARC
  5
372
100
AcDbEntity
  8
0
100
AcDbCircle
 62
7
  6
CONTINUOUS
 10
5.2476372411
 20
6.279507081
 40
0.4
100
AcDbArc
 50
214.7207089079
 51
223.9513472088
  0
ARC
  5
373
100
AcDbEntity
  8
0
100
AcDbCircle
 62
7
  6
CONTINUOUS
 10
5.177173913
 20
5.3752201721
 40
0.32825
100
AcDbArc
 50
320.1184704317
 51
48.4989549682
  0
ARC
  5
374
100
AcDbEntity
  8
0
100
AcDbCircle
 62
7
  6
CONTINUOUS
 10
5.177173913
 20
5.3752201721
 40
0.32825
100
AcDbArc
 50
131.5010450318
 51
219.8815295683
  0
ARC
  5
375
100
AcDbEntity
  8
0
100
AcDbCircle
 62
7
  6
CONTINUOUS
 10
5.177173913
 20
5.3752201721
 40
0.3100218538
100
AcDbArc
 50
325.2904140154
 51
45.4447202154
  0
ARC
  5
376
100
AcDbEntity
  8
0
100
AcDbCircle
 62
7
  6
CONTINUOUS
 10
5.177173913
 20
5.3752201721
 40
0.3100218538
100
AcDbArc
 50
134.5552797847
 51
214.7095859847
  0
ARC
  5
377
100
AcDbEntity
  8
0
100
AcDbCircle
 62
7
  6
CONTINUOUS
 10
5.177173913
 20
5.3752201721
 40
0.2825
100
AcDbArc
 50
337.4002067583
 51
357.4380202235
  0
ARC
  5
378
100
AcDbEntity
  8
0
100
AcDbCircle
 62
7
  6
CONTINUOUS
 10
5.177173913
 20
5.3752201721
 40
0.2825
100
AcDbArc
 50
10.0517481136
 51
39.6516993332
  0
ARC
  5
379
100
AcDbEntity
  8
0
100
AcDbCircle
 62
7
  6
CONTINUOUS
 10
5.177173913
 20
5.3752201721
 40
0.2825
100
AcDbArc
 50
140.3483006668
 51
169.9482518864
  0
ARC
  5
37A
100
AcDbEntity
  8
0
100
AcDbCircle
 62
7
  6
CONTINUOUS
 10
5.177173913
 20
5.3752201721
 40
0.2825
100
AcDbArc
 50
182.5619797765
 51
202.5997932417
  0
ARC
  5
37B
100
AcDbEntity
  8
0
100
AcDbCircle
 62
7
  6
CONTINUOUS
 10
5.177173913
 20
5.3752201721
 40
0.2435
100
AcDbArc
 50
153.2866728273
 51
166.4615914451
  0
ARC
  5
37C
100
AcDbEntity
  8
0
100
AcDbCircle
 62
7
  6
CONTINUOUS
 10
5.177173913
 20
5.3752201721
 40
0.2435
100
AcDbArc
 50
13.538408555
 51
26.713327174
  0
ARC
  5
37D
100
AcDbEntity
  8
0
100
AcDbCircle
 62
7
  6
CONTINUOUS
 10
5.177173913
 20
6.4102201721
 40
0.2175
100
AcDbArc
 50
0.0
 51
180.0
  0
ARC
  5
37E
100
AcDbEntity
  8
0
100
AcDbCircle
 62
7
  6
CONTINUOUS
 10
5.4990970505
 20
6.3407826362
 40
0.21
100
AcDbArc
 50
250.3784477421
 51
256.9528522369
  0
ARC
  5
37F
100
AcDbEntity
  8
0
100
AcDbCircle
 62
7
  6
CONTINUOUS
 10
5.5163215074
 20
5.1295916789
 40
0.09
100
AcDbArc
 50
175.0
 51
210.4655828497
  0
ARC
  5
380
100
AcDbEntity
  8
0
100
AcDbCircle
 62
7
  6
CONTINUOUS
 10
5.5320638778
 20
5.3095277955
 40
0.09
100
AcDbArc
 50
140.4987388129
 51
175.0
  0
ARC
  5
381
100
AcDbEntity
  8
0
100
AcDbCircle
 62
7
  6
CONTINUOUS
 10
5.4765827875
 20
6.0231975926
 40
0.05
100
AcDbArc
 50
114.8425917487
 51
145.2792910921
  0
ARC
  5
382
100
AcDbEntity
  8
0
100
AcDbCircle
 62
7
  6
CONTINUOUS
 10
5.4317545021
 20
5.3922201721
 40
0.04
100
AcDbArc
 50
320.4987388129
 51
90.0
  0
ARC
  5
383
100
AcDbEntity
  8
0
100
AcDbCircle
 62
7
  6
CONTINUOUS
 10
5.400441157
 20
5.0622201721
 40
0.04
100
AcDbArc
 50
270.0
 51
321.7927154688
  0
ARC
  5
384
100
AcDbEntity
  8
0
100
AcDbCircle
 62
7
  6
CONTINUOUS
 10
5.5072960283
 20
4.9127201721
 40
0.0375
100
AcDbArc
 50
130.5358036884
 51
177.3697126137
  0
ARC
  5
385
100
AcDbEntity
  8
0
100
AcDbCircle
 62
7
  6
CONTINUOUS
 10
5.473923913
 20
4.9698383477
 40
0.03
100
AcDbArc
 50
287.4576015532
 51
360.0
  0
ARC
  5
386
100
AcDbEntity
  8
0
100
AcDbCircle
 62
7
  6
CONTINUOUS
 10
5.4739243664
 20
4.9883850928
 40
0.03
100
AcDbArc
 50
359.6850232084
 51
59.4481278012
  0
ARC
  5
387
100
AcDbEntity
  8
0
100
AcDbCircle
 62
7
  6
CONTINUOUS
 10
5.447173913
 20
6.1167201721
 40
0.02
100
AcDbArc
 50
0.0
 51
76.9528522369
  0
ARC
  5
388
100
AcDbEntity
  8
0
100
AcDbCircle
 62
7
  6
CONTINUOUS
 10
5.447173913
 20
6.0867201721
 40
0.02
100
AcDbArc
 50
294.8425917487
 51
360.0
  0
SPLINE
  5
389
100
AcDbEntity
  8
0
100
AcDbSpline
 62
7
  6
CONTINUOUS
 70
0
 71
3
 72
22
 73
18
 74
0
 42
0.0000001
 43
0.0000001
 44
0.0000000001
 40
0.0
 40
0.0
 40
0.0
 40
0.0
 40
0.0769232296
 40
0.1505256827
 40
0.2210114596
 40
0.2886128965
 40
0.4161706004
 40
0.4768319372
 40
0.5358628667
 40
0.5936581028
 40
0.6506380452
 40
0.7072412624
 40
0.7639150693
 40
0.8211051245
 40
0.8792452164
 40
0.938748359
 40
1.0
 40
1.0
 40
1.0
 40
1.0
 10
5.4318722875
 20
5.03747984
 30
0.0
 10
5.4326702775
 20
5.0384936391
 30
0.0
 10
5.4341874863
 20
5.0405130179
 30
0.0
 10
5.4362632149
 20
5.0435861157
 30
0.0
 10
5.4380871761
 20
5.0466349375
 30
0.0
 10
5.4401428564
 20
5.0505896883
 30
0.0
 10
5.4417557318
 20
5.0545839671
 30
0.0
 10
5.4428591681
 20
5.0585851719
 30
0.0
 10
5.4434198392
 20
5.0615122813
 30
0.0
 10
5.4437267263
 20
5.0644147732
 30
0.0
 10
5.4437795738
 20
5.0672924328
 30
0.0
 10
5.4435781727
 20
5.0701447349
 30
0.0
 10
5.4431225145
 20
5.0729711595
 30
0.0
 10
5.4424127801
 20
5.0757711895
 30
0.0
 10
5.4414492693
 20
5.0785444767
 30
0.0
 10
5.4402324973
 20
5.0812905924
 30
0.0
 10
5.4392683384
 20
5.0830743212
 30
0.0
 10
5.4387474583
 20
5.0839598161
 30
0.0
  0
SPLINE
  5
38A
100
AcDbEntity
  8
0
100
AcDbSpline
 62
7
  6
CONTINUOUS
 70
0
 71
3
 72
22
 73
18
 74
0
 42
0.0000001
 43
0.0000001
 44
0.0000000001
 40
0.0
 40
0.0
 40
0.0
 40
0.0
 40
0.0769232296
 40
0.1505256827
 40
0.2210114596
 40
0.2886128965
 40
0.4161706004
 40
0.4768319372
 40
0.5358628667
 40
0.5936581028
 40
0.6506380452
 40
0.7072412624
 40
0.7639150693
 40
0.8211051245
 40
0.8792452164
 40
0.938748359
 40
1.0
 40
1.0
 40
1.0
 40
1.0
 10
4.9224755386
 20
5.03747984
 30
0.0
 10
4.9216775486
 20
5.0384936391
 30
0.0
 10
4.9201603398
 20
5.0405130179
 30
0.0
 10
4.9180846112
 20
5.0435861157
 30
0.0
 10
4.91626065
 20
5.0466349375
 30
0.0
 10
4.9142049697
 20
5.0505896883
 30
0.0
 10
4.9125920943
 20
5.0545839671
 30
0.0
 10
4.911488658
 20
5.0585851719
 30
0.0
 10
4.9109279869
 20
5.0615122813
 30
0.0
 10
4.9106210997
 20
5.0644147732
 30
0.0
 10
4.9105682523
 20
5.0672924328
 30
0.0
 10
4.9107696534
 20
5.0701447349
 30
0.0
 10
4.9112253116
 20
5.0729711595
 30
0.0
 10
4.911935046
 20
5.0757711895
 30
0.0
 10
4.9128985568
 20
5.0785444767
 30
0.0
 10
4.9141153287
 20
5.0812905924
 30
0.0
 10
4.9150794877
 20
5.0830743212
 30
0.0
 10
4.9156003678
 20
5.0839598161
 30
0.0
  0
ENDSEC
  0
SECTION
  2
OBJECTS
  0
DICTIONARY
  5
C
100
AcDbDictionary
280
0
281
1
  3
ACAD_GROUP
350
D
  3
ACAD_MLINESTYLE
350
17
  3
ACAD_LAYOUT
350
1A
  3
ACAD_PLOTSETTINGS
350
19
  3
ACAD_PLOTSTYLENAME
350
E
  0
DICTIONARY
  5
D
102
{ACAD_REACTORS
330
C
102
}
100
AcDbDictionary
280
0
281
1
  0
ACDBDICTIONARYWDFLT
  5
E
102
{ACAD_REACTORS
330
C
102
}
100
AcDbDictionary
281
1
  3
Normal
350
F
100
AcDbDictionaryWithDefault
340
F
  0
DICTIONARY
  5
17
102
{ACAD_REACTORS
330
C
102
}
100
AcDbDictionary
280
0
281
1
  3
Standard
350
18
  0
DICTIONARY
  5
19
102
{ACAD_REACTORS
330
C
102
}
100
AcDbDictionary
281
1
  0
DICTIONARY
  5
1A
102
{ACAD_REACTORS
330
C
102
}
100
AcDbDictionary
281
1
  3
Model
350
38B
  3
Layout1
350
38C
  0
ACDBPLACEHOLDER
  5
F
102
{ACAD_REACTORS
330
E
102
}
  0
MLINESTYLE
  5
18
102
{ACAD_REACTORS
330
17
102
}
100
AcDbMlineStyle
  2
STANDARD
 70
0
  3

 62
256
 51
90.0
 52
90.0
 71
2
 49
0.5
 62
256
  6
BYLAYER
 49
-0.5
 62
256
  6
BYLAYER
  0
LAYOUT
  5
38B
102
{ACAD_REACTORS
330
1A
102
}
100
AcDbPlotSettings
  1

  2
none_device
  4
ANSI_A_(11.00_x_8.50_Inches)
  6

 40
0.0
 41
0.0
 42
0.0
 43
0.0
 44
279.4
 45
215.9
 46
0.0
 47
0.0
 48
0.0
 49
0.0
140
0.0
141
0.0
142
1.0
143
1.0
 70
1024
 72
0
 73
0
 74
0
  7

 75
0
147
1.0
148
0.0
149
0.0
100
AcDbLayout
  1
Model
 70
0
 71
0
 10
0.0
 20
0.0
 11
11.0
 21
8.5
 12
0.0
 22
0.0
 32
0.0
 14
0.0
 24
0.0
 34
0.0
 15
0.0
 25
0.0
 35
0.0
146
0.0
 13
0.0
 23
0.0
 33
0.0
 16
1.0
 26
0.0
 36
0.0
 17
0.0
 27
1.0
 37
0.0
 76
0
330
202
345
0
346
0
  0
LAYOUT
  5
38C
102
{ACAD_REACTORS
330
1A
102
}
100
AcDbPlotSettings
  1

  2
none_device
  4
ANSI_A_(11.00_x_8.50_Inches)
  6

 40
0.0
 41
0.0
 42
0.0
 43
0.0
 44
279.4
 45
215.9
 46
0.0
 47
0.0
 48
0.0
 49
0.0
140
0.0
141
0.0
142
1.0
143
1.0
 70
0
 72
0
 73
0
 74
0
  7

 75
0
147
1.0
148
0.0
149
0.0
100
AcDbLayout
  1
Layout1
 70
0
 71
1
 10
0.0
 20
0.0
 11
11.0
 21
8.5
 12
0.0
 22
0.0
 32
0.0
 14
0.0
 24
0.0
 34
0.0
 15
0.0
 25
0.0
 35
0.0
146
0.0
 13
0.0
 23
0.0
 33
0.0
 16
1.0
 26
0.0
 36
0.0
 17
0.0
 27
1.0
 37
0.0
 76
0
330
203
345
0
346
0
  0
ENDSEC
  0
EOF
