999
DXF file: 2470-5432_right.dxf
999
Pro/ENGINEER 2018400 by Parametric Technology Corporation
  0
SECTION
  2
HEADER
  9
$ACADVER
  1
AC1027
  9
$DWGCODEPAGE
  3
ANSI_1252
  9
$EXTMAX
 10
11.0
 20
8.5
 30
0.0
  9
$EXTMIN
 10
0.0
 20
0.0
 30
0.0
  9
$LIMMIN
 10
0.0
 20
0.0
  9
$LIMMAX
 10
11.0
 20
8.5
  9
$VIEWCTR
 10
5.5
 20
4.25
  9
$VIEWSIZE
 40
8.5
  9
$CLAYER
  8
0
  9
$LTSCALE
 40
0.605
  9
$CELTYPE
  6
BYLAYER
  9
$DIMSCALE
 40
1.0
  9
$DIMASZ
 40
0.1
  9
$DIMEXO
 40
0.0625
  9
$DIMDLI
 40
0.418
  9
$DIMEXE
 40
0.125
  9
$DIMCEN
 40
0.099
  9
$DIMLFAC
 40
1.0
  9
$DIMBLK
  1
_FILLED
  9
$DIMALT
 70
1
  9
$DIMALTD
 70
1
  9
$DIMALTTD
 70
2
  9
$DIMALTF
 40
25.4
  9
$DIMTXT
 40
0.08
  9
$DIMTOL
 70
1
  9
$DIMLIM
 70
0
  9
$DIMTFAC
 40
1.0
  9
$DIMTP
 40
0.01
  9
$DIMTM
 40
0.01
  9
$DIMGAP
 40
0.09
  9
$DIMDSEP
 70
46
  9
$AUNITS
 70
0
  9
$PDMODE
 70
3
  9
$PDSIZE
 40
0.3125
  9
$HANDSEED
  5
52D
  9
$TILEMODE
 70
1
  9
$MEASUREMENT
 70
0
  9
$INSUNITS
 70
1
  0
ENDSEC
  0
SECTION
  2
CLASSES
  0
CLASS
  1
ACDBDICTIONARYWDFLT
  2
AcDbDictionaryWithDefault
  3
AutoCAD 2000
 90
0
 91
1
280
0
281
0
  0
CLASS
  1
ACDBPLACEHOLDER
  2
AcDbPlaceHolder
  3
AutoCAD 2000
 90
0
 91
1
280
0
281
0
  0
CLASS
  1
LAYOUT
  2
AcDbLayout
  3
AutoCAD 2000
 90
0
 91
0
280
0
281
0
  0
ENDSEC
  0
SECTION
  2
TABLES
  0
TABLE
  2
VPORT
  5
8
100
AcDbSymbolTable
 70
2
  0
VPORT
  5
1F4
100
AcDbSymbolTableRecord
100
AcDbViewportTableRecord
  2
*ACTIVE
 70
0
 10
0.0
 20
0.0
 11
1.0
 21
1.0
 12
5.5
 22
4.25
 13
0.0
 23
0.0
 14
1.0
 24
1.0
 15
0.0
 25
0.0
 16
0.0
 26
0.0
 36
1.0
 17
0.0
 27
0.0
 37
0.0
 40
8.5
 41
1.2941176471
 42
50.0
 43
0.0
 44
0.0
 50
0.0
 51
0.0
 71
0
 72
100
 73
1
 74
1
 75
0
 76
0
 77
0
 78
0
  0
ENDTAB
  0
TABLE
  2
LTYPE
  5
5
100
AcDbSymbolTable
 70
6
  0
LTYPE
  5
14
100
AcDbSymbolTableRecord
100
AcDbLinetypeTableRecord
  2
BYBLOCK
 70
0
  3

 72
65
 73
0
 40
0.0
  0
LTYPE
  5
15
100
AcDbSymbolTableRecord
100
AcDbLinetypeTableRecord
  2
BYLAYER
 70
0
  3

 72
65
 73
0
 40
0.0
  0
LTYPE
  5
16
100
AcDbSymbolTableRecord
100
AcDbLinetypeTableRecord
  2
CONTINUOUS
 70
64
  3
Solid line
 72
65
 73
0
 40
0.0
  0
LTYPE
  5
1F5
100
AcDbSymbolTableRecord
100
AcDbLinetypeTableRecord
  2
CENTER
 70
64
  3
____ _ ____ _ ____ _ ____ _ ____ _ ____ _ ____
 72
65
 73
4
 40
0.6
 49
0.375
 74
0
 49
-0.075
 74
0
 49
0.075
 74
0
 49
-0.075
 74
0
  0
LTYPE
  5
1F6
100
AcDbSymbolTableRecord
100
AcDbLinetypeTableRecord
  2
HIDDEN
 70
64
  3
- - - - - - - - - - - - - - - - - - - -
 72
65
 73
2
 40
0.2
 49
0.1
 74
0
 49
-0.1
 74
0
  0
LTYPE
  5
1F7
100
AcDbSymbolTableRecord
100
AcDbLinetypeTableRecord
  2
PHANTOM
 70
64
  3
_____ _ _ _____ _ _ _____ _ _ _____
 72
65
 73
6
 40
0.8
 49
0.45
 74
0
 49
-0.05
 74
0
 49
0.1
 74
0
 49
-0.05
 74
0
 49
0.1
 74
0
 49
-0.05
 74
0
  0
LTYPE
  5
1F8
100
AcDbSymbolTableRecord
100
AcDbLinetypeTableRecord
  2
DOT
 70
64
  3
. . . . . . . . . . . . . . . . . . . .
 72
65
 73
2
 40
0.2
 49
0.1
 74
0
 49
-0.1
 74
0
  0
LTYPE
  5
1F9
100
AcDbSymbolTableRecord
100
AcDbLinetypeTableRecord
  2
DASHED
 70
64
  3
- - - - - - - - - - - - - - - - - - - -
 72
65
 73
2
 40
0.2
 49
0.1
 74
0
 49
-0.1
 74
0
  0
ENDTAB
  0
TABLE
  2
LAYER
  5
2
100
AcDbSymbolTable
 70
36
  0
LAYER
  5
10
100
AcDbSymbolTableRecord
100
AcDbLayerTableRecord
  2
0
 70
0
 62
7
  6
CONTINUOUS
370
-3
390
F
  0
LAYER
  5
1FA
100
AcDbSymbolTableRecord
100
AcDbLayerTableRecord
  2
DEFAULT_1
 70
0
 62
7
  6
CENTER
370
-3
390
F
  0
LAYER
  5
1FB
100
AcDbSymbolTableRecord
100
AcDbLayerTableRecord
  2
DEFAULT_2
 70
0
 62
8
  6
HIDDEN
370
-3
390
F
  0
LAYER
  5
1FC
100
AcDbSymbolTableRecord
100
AcDbLayerTableRecord
  2
DEFAULT_3
 70
0
 62
7
  6
PHANTOM
370
-3
390
F
  0
LAYER
  5
1FD
100
AcDbSymbolTableRecord
100
AcDbLayerTableRecord
  2
DEFAULT_COORDINATE_SYSTEM
 70
0
 62
7
  6
CONTINUOUS
370
-3
390
F
  0
LAYER
  5
1FE
100
AcDbSymbolTableRecord
100
AcDbLayerTableRecord
  2
DEFAULT_DATUM_AXES
 70
0
 62
7
  6
CONTINUOUS
370
-3
390
F
  0
LAYER
  5
1FF
100
AcDbSymbolTableRecord
100
AcDbLayerTableRecord
  2
DEFAULT_DATUM_PLANES
 70
0
 62
7
  6
CONTINUOUS
370
-3
390
F
  0
ENDTAB
  0
TABLE
  2
STYLE
  5
3
100
AcDbSymbolTable
 70
1
  0
STYLE
  5
11
100
AcDbSymbolTableRecord
100
AcDbTextStyleTableRecord
  2
STANDARD
 70
0
 40
0.0
 41
0.8
 50
0.0
 71
0
 42
0.2
  3
txt
  4

  0
STYLE
  5
200
100
AcDbSymbolTableRecord
100
AcDbTextStyleTableRecord
  2
TEXTSTYLE_1
 70
0
 40
0.0
 41
0.8
 50
0.0
 71
0
 42
0.2
  3
gdt
  4

  0
ENDTAB
  0
TABLE
  2
VIEW
  5
6
100
AcDbSymbolTable
 70
0
  0
ENDTAB
  0
TABLE
  2
UCS
  5
7
100
AcDbSymbolTable
 70
0
  0
ENDTAB
  0
TABLE
  2
APPID
  5
9
100
AcDbSymbolTable
 70
1
  0
APPID
  5
201
100
AcDbSymbolTableRecord
100
AcDbRegAppTableRecord
  2
ACAD
 70
0
  0
ENDTAB
  0
TABLE
  2
BLOCK_RECORD
  5
1
100
AcDbSymbolTable
 70
0
  0
BLOCK_RECORD
  5
202
100
AcDbSymbolTableRecord
100
AcDbBlockTableRecord
  2
*Model_Space
  0
BLOCK_RECORD
  5
203
100
AcDbSymbolTableRecord
100
AcDbBlockTableRecord
  2
*Paper_Space
  0
BLOCK_RECORD
  5
204
100
AcDbSymbolTableRecord
100
AcDbBlockTableRecord
  2
_FILLED
  0
ENDTAB
  0
TABLE
  2
DIMSTYLE
  5
A
100
AcDbSymbolTable
 70
1
100
AcDbDimStyleTable
 71
0
  0
DIMSTYLE
105
205
100
AcDbSymbolTableRecord
100
AcDbDimStyleTableRecord
  2
STANDARD
 70
0
  3

  4

 40
1.0
 41
0.1
 42
0.0625
 43
0.38
 44
0.125
 45
0.0
 46
0.0
 47
0.01
 48
0.01
140
0.08
141
0.09
142
0.0
143
25.4
144
1.0
145
0.0
146
1.0
147
0.09
 71
1.0
 72
0.0
 73
1
 74
1
 75
0
 76
0
 77
0
 78
4
 79
1
170
1
171
1
172
0
173
0
174
0
175
0
176
0
177
0
178
0
270
2
179
2
271
2
272
2
273
2
274
2
275
0
280
0
281
0
282
0
283
1
284
4
285
0
286
0
287
3
288
0
340
11
278
46
341
204
342
204
343
204
344
204
  0
ENDTAB
  0
ENDSEC
  0
SECTION
  2
BLOCKS
  0
BLOCK
  5
20
100
AcDbEntity
  8
0
100
AcDbBlockBegin
  2
*Model_Space
 70
0
 10
0.0
 20
0.0
 30
0.0
  3
*Model_Space
  1

  0
ENDBLK
  5
21
100
AcDbEntity
  8
0
100
AcDbBlockEnd
  0
BLOCK
  5
1C
100
AcDbEntity
  8
0
100
AcDbBlockBegin
  2
*Paper_Space
 70
0
 10
0.0
 20
0.0
 30
0.0
  3
*Paper_Space
  1

  0
ENDBLK
  5
1D
100
AcDbEntity
  8
0
100
AcDbBlockEnd
  0
BLOCK
  5
206
100
AcDbEntity
  8
0
100
AcDbBlockBegin
  2
_FILLED
 70
64
 10
0.0
 20
0.0
  3
_FILLED
  1

  0
SOLID
  5
207
100
AcDbEntity
  8
0
  6
BYBLOCK
 62
0
100
AcDbTrace
 10
0.0
 20
0.0
 11
-1.0
 21
0.2
 12
-1.0
 22
-0.2
 13
-1.0
 23
-0.2
  0
ENDBLK
  5
208
100
AcDbEntity
  8
0
  6
BYBLOCK
 62
0
100
AcDbBlockEnd
  0
ENDSEC
  0
SECTION
  2
ENTITIES
  0
MTEXT
  5
209
100
AcDbEntity
  8
0
100
AcDbMText
 62
2
  6
CONTINUOUS
  7
STANDARD
 71
3
 72
1
 10
4.747738575
 20
0.8041083709
 30
0.0
 11
1.0
 21
0.0
 31
0.0
 73
2
 44
0.9
  1
SCALE  .500
 40
0.08
 41
0.704
  0
LINE
  5
20A
100
AcDbEntity
  8
0
100
AcDbLine
 62
7
  6
CONTINUOUS
 10
0.0
 20
0.0
 11
0.0
 21
8.5
  0
LINE
  5
20B
100
AcDbEntity
  8
0
100
AcDbLine
 62
7
  6
CONTINUOUS
 10
0.0
 20
0.0
 11
11.0
 21
0.0
  0
LINE
  5
20C
100
AcDbEntity
  8
0
100
AcDbLine
 62
7
  6
CONTINUOUS
 10
0.0
 20
8.5
 11
11.0
 21
8.5
  0
LINE
  5
20D
100
AcDbEntity
  8
0
100
AcDbLine
 62
7
  6
CONTINUOUS
 10
11.0
 20
0.0
 11
11.0
 21
8.5
  0
LINE
  5
20E
100
AcDbEntity
  8
0
100
AcDbLine
 62
7
  6
CONTINUOUS
 10
2.4602020167
 20
5.1030612533
 11
2.4759443871
 21
4.9231251367
  0
LINE
  5
20F
100
AcDbEntity
  8
0
100
AcDbLine
 62
7
  6
CONTINUOUS
 10
2.5079344586
 20
5.3355681251
 11
2.5079344586
 21
5.2179096131
  0
LINE
  5
210
100
AcDbEntity
  8
0
100
AcDbLine
 62
7
  6
CONTINUOUS
 10
2.9429344586
 20
5.3355681251
 11
2.9429344586
 21
5.2179096131
  0
LINE
  5
211
100
AcDbEntity
  8
0
100
AcDbLine
 62
7
  6
CONTINUOUS
 10
2.9906669005
 20
5.1030612533
 11
2.9749245302
 21
4.9231251367
  0
LINE
  5
212
100
AcDbEntity
  8
0
100
AcDbLine
 62
7
  6
CONTINUOUS
 10
7.0836058656
 20
1.7984096131
 11
7.4216058656
 21
1.7984096131
  0
LINE
  5
213
100
AcDbEntity
  8
0
100
AcDbLine
 62
7
  6
CONTINUOUS
 10
6.6279973746
 20
1.8079096131
 11
7.8772143566
 21
1.8079096131
  0
LINE
  5
214
100
AcDbEntity
  8
0
100
AcDbLine
 62
7
  6
CONTINUOUS
 10
6.6759172681
 20
1.8239222713
 11
7.8292944631
 21
1.8239222713
  0
LINE
  5
215
100
AcDbEntity
  8
0
100
AcDbLine
 62
7
  6
CONTINUOUS
 10
6.6126041392
 20
1.84067865
 11
6.689423432
 21
1.84067865
  0
LINE
  5
216
100
AcDbEntity
  8
0
100
AcDbLine
 62
7
  6
CONTINUOUS
 10
7.8157882992
 20
1.84067865
 11
7.892607592
 21
1.84067865
  0
LINE
  5
217
100
AcDbEntity
  8
0
100
AcDbLine
 62
7
  6
CONTINUOUS
 10
7.7927782858
 20
1.8647887568
 11
6.7124334454
 21
1.8647887568
  0
LINE
  5
218
100
AcDbEntity
  8
0
100
AcDbLine
 62
7
  6
CONTINUOUS
 10
7.7879539601
 20
1.886760231
 11
6.7172577711
 21
1.886760231
  0
LINE
  5
219
100
AcDbEntity
  8
0
100
AcDbLine
 62
7
  6
CONTINUOUS
 10
6.7190092785
 20
1.8991034422
 11
7.7862024527
 21
1.8991034422
  0
LINE
  5
21A
100
AcDbEntity
  8
0
100
AcDbLine
 62
7
  6
CONTINUOUS
 10
6.6768892536
 20
1.9040042448
 11
6.7227474429
 21
1.9040042448
  0
LINE
  5
21B
100
AcDbEntity
  8
0
100
AcDbLine
 62
7
  6
CONTINUOUS
 10
7.7824642883
 20
1.9040042448
 11
7.8283224776
 21
1.9040042448
  0
LINE
  5
21C
100
AcDbEntity
  8
0
100
AcDbLine
 62
7
  6
CONTINUOUS
 10
6.6823009925
 20
1.9284123993
 11
6.7392360946
 21
1.9284123993
  0
LINE
  5
21D
100
AcDbEntity
  8
0
100
AcDbLine
 62
7
  6
CONTINUOUS
 10
7.7659756366
 20
1.9284123993
 11
7.8229107387
 21
1.9284123993
  0
LINE
  5
21E
100
AcDbEntity
  8
0
100
AcDbLine
 62
7
  6
CONTINUOUS
 10
7.7589532028
 20
1.9406070635
 11
7.8246769102
 21
1.9406070666
  0
LINE
  5
21F
100
AcDbEntity
  8
0
100
AcDbLine
 62
7
  6
CONTINUOUS
 10
6.680534821
 20
1.9406070666
 11
6.7462585284
 21
1.9406070635
  0
LINE
  5
220
100
AcDbEntity
  8
0
100
AcDbLine
 62
7
  6
CONTINUOUS
 10
6.6825659623
 20
1.9474496727
 11
6.7498858814
 21
1.9474496727
  0
LINE
  5
221
100
AcDbEntity
  8
0
100
AcDbLine
 62
7
  6
CONTINUOUS
 10
7.7553258498
 20
1.9474496727
 11
7.8226457689
 21
1.9474496727
  0
LINE
  5
222
100
AcDbEntity
  8
0
100
AcDbLine
 62
7
  6
CONTINUOUS
 10
6.7562215843
 20
1.9605717967
 11
7.7489901469
 21
1.9605717967
  0
LINE
  5
223
100
AcDbEntity
  8
0
100
AcDbLine
 62
7
  6
CONTINUOUS
 10
7.7374935891
 20
1.9679096131
 11
6.7676058656
 21
1.9679096131
  0
LINE
  5
224
100
AcDbEntity
  8
0
100
AcDbLine
 62
7
  6
CONTINUOUS
 10
7.7162523762
 20
1.9753641135
 11
6.788959355
 21
1.9753641135
  0
LINE
  5
225
100
AcDbEntity
  8
0
100
AcDbLine
 62
7
  6
CONTINUOUS
 10
3.8472431355
 20
5.9228330465
 11
4.0241735753
 21
6.3202253205
  0
LINE
  5
226
100
AcDbEntity
  8
0
100
AcDbLine
 62
7
  6
CONTINUOUS
 10
6.702537004
 20
2.0139234637
 11
6.8207034733
 21
2.0139234643
  0
LINE
  5
227
100
AcDbEntity
  8
0
100
AcDbLine
 62
7
  6
CONTINUOUS
 10
7.684508258
 20
2.0139234643
 11
7.8026747272
 21
2.0139234637
  0
LINE
  5
228
100
AcDbEntity
  8
0
100
AcDbLine
 62
7
  6
CONTINUOUS
 10
6.7281058656
 20
2.0384096131
 11
6.8437202621
 21
2.0384096137
  0
LINE
  5
229
100
AcDbEntity
  8
0
100
AcDbLine
 62
7
  6
CONTINUOUS
 10
7.6614914691
 20
2.0384096137
 11
7.7771058656
 21
2.0384096131
  0
LINE
  5
22A
100
AcDbEntity
  8
0
100
AcDbLine
 62
7
  6
CONTINUOUS
 10
7.6072362906
 20
2.0871810925
 11
6.8979754406
 21
2.0871810925
  0
LINE
  5
22B
100
AcDbEntity
  8
0
100
AcDbLine
 62
7
  6
CONTINUOUS
 10
7.5814075379
 20
2.1338821705
 11
6.9238041933
 21
2.1338821705
  0
LINE
  5
22C
100
AcDbEntity
  8
0
100
AcDbLine
 62
7
  6
CONTINUOUS
 10
6.9541058656
 20
2.1609096131
 11
7.5511058656
 21
2.1609096131
  0
LINE
  5
22D
100
AcDbEntity
  8
0
100
AcDbLine
 62
7
  6
CONTINUOUS
 10
6.9653558656
 20
2.1734096131
 11
7.5398558656
 21
2.1734096131
  0
LINE
  5
22E
100
AcDbEntity
  8
0
100
AcDbLine
 62
7
  6
CONTINUOUS
 10
6.9393896762
 20
2.2052017781
 11
7.565822055
 21
2.2052017781
  0
LINE
  5
22F
100
AcDbEntity
  8
0
100
AcDbLine
 62
7
  6
CONTINUOUS
 10
7.5585756991
 20
2.2212829249
 11
6.9466360321
 21
2.2212829249
  0
LINE
  5
230
100
AcDbEntity
  8
0
100
AcDbLine
 62
7
  6
CONTINUOUS
 10
7.6201058656
 20
2.2479096131
 11
7.5430885383
 21
2.2479096131
  0
LINE
  5
231
100
AcDbEntity
  8
0
100
AcDbLine
 62
7
  6
CONTINUOUS
 10
6.9621231929
 20
2.2479096131
 11
6.8851058656
 21
2.2479096131
  0
LINE
  5
232
100
AcDbEntity
  8
0
100
AcDbLine
 62
7
  6
CONTINUOUS
 10
7.533311616
 20
2.2841931933
 11
6.9719001153
 21
2.2841931933
  0
LINE
  5
233
100
AcDbEntity
  8
0
100
AcDbLine
 62
7
  6
CONTINUOUS
 10
7.6048648415
 20
2.3091635377
 11
7.5304430411
 21
2.3091635377
  0
LINE
  5
234
100
AcDbEntity
  8
0
100
AcDbLine
 62
7
  6
CONTINUOUS
 10
6.9747686901
 20
2.3091635377
 11
6.9003468897
 21
2.3091635377
  0
LINE
  5
235
100
AcDbEntity
  8
0
100
AcDbLine
 62
7
  6
CONTINUOUS
 10
7.5874646469
 20
2.336205649
 11
7.5274237008
 21
2.336205649
  0
LINE
  5
236
100
AcDbEntity
  8
0
100
AcDbLine
 62
7
  6
CONTINUOUS
 10
6.9777880304
 20
2.336205649
 11
6.9177470843
 21
2.336205649
  0
LINE
  5
237
100
AcDbEntity
  8
0
100
AcDbLine
 62
7
  6
CONTINUOUS
 10
7.5863398168
 20
2.5196353892
 11
7.5105373441
 21
2.5196353892
  0
LINE
  5
238
100
AcDbEntity
  8
0
100
AcDbLine
 62
7
  6
CONTINUOUS
 10
6.9946743871
 20
2.5196353892
 11
6.9188719144
 21
2.5196353892
  0
LINE
  5
239
100
AcDbEntity
  8
0
100
AcDbLine
 62
7
  6
CONTINUOUS
 10
7.5971304494
 20
2.5509693889
 11
7.5082883148
 21
2.5509693889
  0
LINE
  5
23A
100
AcDbEntity
  8
0
100
AcDbLine
 62
7
  6
CONTINUOUS
 10
6.9969234164
 20
2.5509693889
 11
6.9080812818
 21
2.5509693889
  0
LINE
  5
23B
100
AcDbEntity
  8
0
100
AcDbLine
 62
7
  6
CONTINUOUS
 10
7.5887916001
 20
2.6084978202
 11
7.5045675243
 21
2.6084978202
  0
LINE
  5
23C
100
AcDbEntity
  8
0
100
AcDbLine
 62
7
  6
CONTINUOUS
 10
7.000644207
 20
2.6084978202
 11
6.9164201311
 21
2.6084978202
  0
LINE
  5
23D
100
AcDbEntity
  8
0
100
AcDbLine
 62
7
  6
CONTINUOUS
 10
7.5761181489
 20
2.6312016013
 11
7.5033150425
 21
2.6312016013
  0
LINE
  5
23E
100
AcDbEntity
  8
0
100
AcDbLine
 62
7
  6
CONTINUOUS
 10
7.0018966888
 20
2.6312016013
 11
6.9290935823
 21
2.6312016013
  0
LINE
  5
23F
100
AcDbEntity
  8
0
100
AcDbLine
 62
7
  6
CONTINUOUS
 10
7.8232993052
 20
3.0431594397
 11
7.815814817
 21
3.0431594397
  0
LINE
  5
240
100
AcDbEntity
  8
0
100
AcDbLine
 62
7
  6
CONTINUOUS
 10
6.6819124261
 20
3.0431594397
 11
6.6893969143
 21
3.0431594397
  0
LINE
  5
241
100
AcDbEntity
  8
0
100
AcDbLine
 62
7
  6
CONTINUOUS
 10
7.5096058656
 20
3.1331594397
 11
7.4988588214
 21
3.1331594397
  0
LINE
  5
242
100
AcDbEntity
  8
0
100
AcDbLine
 62
7
  6
CONTINUOUS
 10
6.9956058656
 20
3.1331594397
 11
7.0063529098
 21
3.1331594397
  0
LINE
  5
243
100
AcDbEntity
  8
0
100
AcDbLine
 62
7
  6
CONTINUOUS
 10
7.9262229507
 20
2.937711694
 11
7.8996225584
 21
2.9381760056
  0
LINE
  5
244
100
AcDbEntity
  8
0
100
AcDbLine
 62
7
  6
CONTINUOUS
 10
7.9057830917
 20
3.0180840182
 11
7.8791826997
 21
3.0185483288
  0
LINE
  5
245
100
AcDbEntity
  8
0
100
AcDbLine
 62
7
  6
CONTINUOUS
 10
7.5776058656
 20
3.8155108533
 11
7.5996557789
 21
3.8197969223
  0
LINE
  5
246
100
AcDbEntity
  8
0
100
AcDbLine
 62
7
  6
CONTINUOUS
 10
7.5776058656
 20
3.8511659377
 11
7.5971959673
 21
3.8549738677
  0
LINE
  5
247
100
AcDbEntity
  8
0
100
AcDbLine
 62
7
  6
CONTINUOUS
 10
7.5096058656
 20
3.3131594397
 11
7.5084980925
 21
3.3131594397
  0
LINE
  5
248
100
AcDbEntity
  8
0
100
AcDbLine
 62
7
  6
CONTINUOUS
 10
6.9956058656
 20
3.3131594397
 11
6.9967136387
 21
3.3131594397
  0
LINE
  5
249
100
AcDbEntity
  8
0
100
AcDbLine
 62
7
  6
CONTINUOUS
 10
7.5135167734
 20
3.3796383928
 11
6.9916949578
 21
3.3796383928
  0
LINE
  5
24A
100
AcDbEntity
  8
0
100
AcDbLine
 62
7
  6
CONTINUOUS
 10
7.8232993052
 20
3.4031594397
 11
7.815814817
 21
3.4031594397
  0
LINE
  5
24B
100
AcDbEntity
  8
0
100
AcDbLine
 62
7
  6
CONTINUOUS
 10
6.6819124261
 20
3.4031594397
 11
6.6893969143
 21
3.4031594397
  0
LINE
  5
24C
100
AcDbEntity
  8
0
100
AcDbLine
 62
7
  6
CONTINUOUS
 10
7.5776058656
 20
3.9135623352
 11
7.5928912969
 21
3.9165335221
  0
LINE
  5
24D
100
AcDbEntity
  8
0
100
AcDbLine
 62
7
  6
CONTINUOUS
 10
7.5776058656
 20
4.0829239858
 11
7.5812071916
 21
4.0836240126
  0
LINE
  5
24E
100
AcDbEntity
  8
0
100
AcDbLine
 62
7
  6
CONTINUOUS
 10
7.6206272716
 20
3.8066023452
 11
7.6006759906
 21
3.8052072157
  0
LINE
  5
24F
100
AcDbEntity
  8
0
100
AcDbLine
 62
7
  6
CONTINUOUS
 10
7.55165937
 20
3.6600300795
 11
7.5679491179
 21
3.6605751153
  0
LINE
  5
250
100
AcDbEntity
  8
0
100
AcDbLine
 62
7
  6
CONTINUOUS
 10
7.5348117932
 20
3.6594967888
 11
7.55165937
 21
3.6600300795
  0
LINE
  5
251
100
AcDbEntity
  8
0
100
AcDbLine
 62
7
  6
CONTINUOUS
 10
7.51955979
 20
3.6590406708
 11
7.5348117932
 21
3.6594967888
  0
LINE
  5
252
100
AcDbEntity
  8
0
100
AcDbLine
 62
7
  6
CONTINUOUS
 10
7.5393042963
 20
3.4356391232
 11
6.9659074349
 21
3.4356391232
  0
LINE
  5
253
100
AcDbEntity
  8
0
100
AcDbLine
 62
7
  6
CONTINUOUS
 10
6.9868558656
 20
3.4859096131
 11
7.5183558656
 21
3.4859096131
  0
LINE
  5
254
100
AcDbEntity
  8
0
100
AcDbLine
 62
7
  6
CONTINUOUS
 10
6.991779981
 20
3.5010663267
 11
7.5134317502
 21
3.5010663267
  0
LINE
  5
255
100
AcDbEntity
  8
0
100
AcDbLine
 62
7
  6
CONTINUOUS
 10
7.0119300443
 20
3.5484481279
 11
7.493281687
 21
3.5484481279
  0
LINE
  5
256
100
AcDbEntity
  8
0
100
AcDbLine
 62
7
  6
CONTINUOUS
 10
6.9968480775
 20
3.6128825025
 11
7.5083636537
 21
3.6128825025
  0
LINE
  5
257
100
AcDbEntity
  8
0
100
AcDbLine
 62
7
  6
CONTINUOUS
 10
6.7406964168
 20
3.61722611
 11
6.8681964168
 21
3.61722611
  0
LINE
  5
258
100
AcDbEntity
  8
0
100
AcDbLine
 62
7
  6
CONTINUOUS
 10
6.7406964168
 20
3.6173012268
 11
6.8681964168
 21
3.6173012268
  0
LINE
  5
259
100
AcDbEntity
  8
0
100
AcDbLine
 62
7
  6
CONTINUOUS
 10
6.7406964168
 20
3.6179563241
 11
6.8681964168
 21
3.6179563241
  0
LINE
  5
25A
100
AcDbEntity
  8
0
100
AcDbLine
 62
7
  6
CONTINUOUS
 10
6.7406964168
 20
3.6181809212
 11
6.8681964168
 21
3.6181809212
  0
LINE
  5
25B
100
AcDbEntity
  8
0
100
AcDbLine
 62
7
  6
CONTINUOUS
 10
6.7406964168
 20
3.6194893201
 11
6.8681964168
 21
3.6194893201
  0
LINE
  5
25C
100
AcDbEntity
  8
0
100
AcDbLine
 62
7
  6
CONTINUOUS
 10
6.7406964168
 20
3.6198629645
 11
6.8681964168
 21
3.6198629645
  0
LINE
  5
25D
100
AcDbEntity
  8
0
100
AcDbLine
 62
7
  6
CONTINUOUS
 10
6.7406964168
 20
3.6218210789
 11
6.8681964168
 21
3.6218210789
  0
LINE
  5
25E
100
AcDbEntity
  8
0
100
AcDbLine
 62
7
  6
CONTINUOUS
 10
6.7406964168
 20
3.6223427465
 11
6.8681964168
 21
3.6223427465
  0
LINE
  5
25F
100
AcDbEntity
  8
0
100
AcDbLine
 62
7
  6
CONTINUOUS
 10
6.7406964168
 20
3.6249452092
 11
6.8681964168
 21
3.6249452092
  0
LINE
  5
260
100
AcDbEntity
  8
0
100
AcDbLine
 62
7
  6
CONTINUOUS
 10
6.7406964168
 20
3.6256134702
 11
6.8681964168
 21
3.6256134702
  0
LINE
  5
261
100
AcDbEntity
  8
0
100
AcDbLine
 62
7
  6
CONTINUOUS
 10
6.7406964168
 20
3.6288531481
 11
6.8681964168
 21
3.6288531481
  0
LINE
  5
262
100
AcDbEntity
  8
0
100
AcDbLine
 62
7
  6
CONTINUOUS
 10
6.7406964168
 20
3.6296686475
 11
6.8681964168
 21
3.6296686475
  0
LINE
  5
263
100
AcDbEntity
  8
0
100
AcDbLine
 62
7
  6
CONTINUOUS
 10
6.7406964168
 20
3.6334096131
 11
6.6972305336
 21
3.6334096131
  0
LINE
  5
264
100
AcDbEntity
  8
0
100
AcDbLine
 62
7
  6
CONTINUOUS
 10
6.7406964168
 20
3.63353136
 11
6.8681964168
 21
3.63353136
  0
LINE
  5
265
100
AcDbEntity
  8
0
100
AcDbLine
 62
7
  6
CONTINUOUS
 10
6.7406964168
 20
3.6344897401
 11
6.8681964168
 21
3.6344897401
  0
LINE
  5
266
100
AcDbEntity
  8
0
100
AcDbLine
 62
7
  6
CONTINUOUS
 10
6.7406964168
 20
3.638975487
 11
6.8681964168
 21
3.638975487
  0
LINE
  5
267
100
AcDbEntity
  8
0
100
AcDbLine
 62
7
  6
CONTINUOUS
 10
6.7406964168
 20
3.6400709571
 11
6.8681964168
 21
3.6400709571
  0
LINE
  5
268
100
AcDbEntity
  8
0
100
AcDbLine
 62
7
  6
CONTINUOUS
 10
6.7406964168
 20
3.6451621424
 11
6.8681964168
 21
3.6451621424
  0
LINE
  5
269
100
AcDbEntity
  8
0
100
AcDbLine
 62
7
  6
CONTINUOUS
 10
6.7406964168
 20
3.646394524
 11
6.8681964168
 21
3.646394524
  0
LINE
  5
26A
100
AcDbEntity
  8
0
100
AcDbLine
 62
7
  6
CONTINUOUS
 10
7.479722834
 20
3.6520554735
 11
7.0311776394
 21
3.6520554743
  0
LINE
  5
26B
100
AcDbEntity
  8
0
100
AcDbLine
 62
7
  6
CONTINUOUS
 10
6.7406964168
 20
3.6520771931
 11
6.8681964168
 21
3.6520771931
  0
LINE
  5
26C
100
AcDbEntity
  8
0
100
AcDbLine
 62
7
  6
CONTINUOUS
 10
6.7406964168
 20
3.6534431084
 11
6.8681964168
 21
3.6534431084
  0
LINE
  5
26D
100
AcDbEntity
  8
0
100
AcDbLine
 62
7
  6
CONTINUOUS
 10
6.8781964168
 20
3.6551601143
 11
6.989655496
 21
3.6551601143
  0
LINE
  5
26E
100
AcDbEntity
  8
0
100
AcDbLine
 62
7
  6
CONTINUOUS
 10
7.477343669
 20
3.658257128
 11
7.0334973919
 21
3.6582571235
  0
LINE
  5
26F
100
AcDbEntity
  8
0
100
AcDbLine
 62
7
  6
CONTINUOUS
 10
7.6389185447
 20
3.8998687983
 11
7.6588698257
 21
3.9012639278
  0
LINE
  5
270
100
AcDbEntity
  8
0
100
AcDbLine
 62
7
  6
CONTINUOUS
 10
7.6364394815
 20
3.9353210536
 11
7.6563907625
 21
3.9367161831
  0
LINE
  5
271
100
AcDbEntity
  8
0
100
AcDbLine
 62
7
  6
CONTINUOUS
 10
7.6115960594
 20
3.9357546972
 11
7.5916447784
 21
3.9343595677
  0
LINE
  5
272
100
AcDbEntity
  8
0
100
AcDbLine
 62
7
  6
CONTINUOUS
 10
6.7406964168
 20
3.6597016855
 11
6.8681964168
 21
3.6597016855
  0
LINE
  5
273
100
AcDbEntity
  8
0
100
AcDbLine
 62
7
  6
CONTINUOUS
 10
6.7406964168
 20
3.6611973905
 11
6.8681964168
 21
3.6611973905
  0
LINE
  5
274
100
AcDbEntity
  8
0
100
AcDbLine
 62
7
  6
CONTINUOUS
 10
6.7406964168
 20
3.6680147214
 11
6.8681964168
 21
3.6680147214
  0
LINE
  5
275
100
AcDbEntity
  8
0
100
AcDbLine
 62
7
  6
CONTINUOUS
 10
6.7406964168
 20
3.6696410103
 11
6.8681964168
 21
3.6696410103
  0
LINE
  5
276
100
AcDbEntity
  8
0
100
AcDbLine
 62
7
  6
CONTINUOUS
 10
6.7406964168
 20
3.676988326
 11
6.8681964168
 21
3.676988326
  0
LINE
  5
277
100
AcDbEntity
  8
0
100
AcDbLine
 62
7
  6
CONTINUOUS
 10
6.7406964168
 20
3.6787361565
 11
6.8681964168
 21
3.6787361565
  0
LINE
  5
278
100
AcDbEntity
  8
0
100
AcDbLine
 62
7
  6
CONTINUOUS
 10
6.7406964168
 20
3.6866134569
 11
6.8681964168
 21
3.6866134569
  0
LINE
  5
279
100
AcDbEntity
  8
0
100
AcDbLine
 62
7
  6
CONTINUOUS
 10
6.7406964168
 20
3.6884725677
 11
6.8681964168
 21
3.6884725677
  0
LINE
  5
27A
100
AcDbEntity
  8
0
100
AcDbLine
 62
7
  6
CONTINUOUS
 10
6.7406964168
 20
3.6968481787
 11
6.8681964168
 21
3.6968481787
  0
LINE
  5
27B
100
AcDbEntity
  8
0
100
AcDbLine
 62
7
  6
CONTINUOUS
 10
6.7406964168
 20
3.6988186634
 11
6.8681964168
 21
3.6988186634
  0
LINE
  5
27C
100
AcDbEntity
  8
0
100
AcDbLine
 62
7
  6
CONTINUOUS
 10
6.7406964168
 20
3.7076696281
 11
6.8681964168
 21
3.7076696281
  0
LINE
  5
27D
100
AcDbEntity
  8
0
100
AcDbLine
 62
7
  6
CONTINUOUS
 10
6.7406964168
 20
3.7097460856
 11
6.8681964168
 21
3.7097460856
  0
LINE
  5
27E
100
AcDbEntity
  8
0
100
AcDbLine
 62
7
  6
CONTINUOUS
 10
6.7406964168
 20
3.7190481441
 11
6.8681964168
 21
3.7190481441
  0
LINE
  5
27F
100
AcDbEntity
  8
0
100
AcDbLine
 62
7
  6
CONTINUOUS
 10
6.7406964168
 20
3.7212248831
 11
6.8681964168
 21
3.7212248831
  0
LINE
  5
280
100
AcDbEntity
  8
0
100
AcDbLine
 62
7
  6
CONTINUOUS
 10
6.877885388
 20
3.7307826116
 11
6.7406964168
 21
3.7307826116
  0
LINE
  5
281
100
AcDbEntity
  8
0
100
AcDbLine
 62
7
  6
CONTINUOUS
 10
6.7406964168
 20
3.730952539
 11
6.8681964168
 21
3.730952539
  0
LINE
  5
282
100
AcDbEntity
  8
0
100
AcDbLine
 62
7
  6
CONTINUOUS
 10
6.7406964168
 20
3.7332304249
 11
6.8681964168
 21
3.7332304249
  0
LINE
  5
283
100
AcDbEntity
  8
0
100
AcDbLine
 62
7
  6
CONTINUOUS
 10
6.8778827247
 20
3.7426648761
 11
6.7406964168
 21
3.7426648761
  0
LINE
  5
284
100
AcDbEntity
  8
0
100
AcDbLine
 62
7
  6
CONTINUOUS
 10
6.7406964168
 20
3.7433431374
 11
6.8681964168
 21
3.7433431374
  0
LINE
  5
285
100
AcDbEntity
  8
0
100
AcDbLine
 62
7
  6
CONTINUOUS
 10
6.7406964168
 20
3.7457093284
 11
6.8681964168
 21
3.7457093284
  0
LINE
  5
286
100
AcDbEntity
  8
0
100
AcDbLine
 62
7
  6
CONTINUOUS
 10
6.8781964168
 20
3.7515105463
 11
7.0051280749
 21
3.7515105463
  0
LINE
  5
287
100
AcDbEntity
  8
0
100
AcDbLine
 62
7
  6
CONTINUOUS
 10
6.877885388
 20
3.7550205021
 11
6.7406964168
 21
3.7550205021
  0
LINE
  5
288
100
AcDbEntity
  8
0
100
AcDbLine
 62
7
  6
CONTINUOUS
 10
6.7406964168
 20
3.7562070973
 11
6.8681964168
 21
3.7562070973
  0
LINE
  5
289
100
AcDbEntity
  8
0
100
AcDbLine
 62
7
  6
CONTINUOUS
 10
6.7406964168
 20
3.7586478661
 11
6.8681964168
 21
3.7586478661
  0
LINE
  5
28A
100
AcDbEntity
  8
0
100
AcDbLine
 62
7
  6
CONTINUOUS
 10
6.877885388
 20
3.7677972938
 11
6.7406964168
 21
3.7677972938
  0
LINE
  5
28B
100
AcDbEntity
  8
0
100
AcDbLine
 62
7
  6
CONTINUOUS
 10
6.7406964168
 20
3.7694880397
 11
6.8681964168
 21
3.7694880397
  0
LINE
  5
28C
100
AcDbEntity
  8
0
100
AcDbLine
 62
7
  6
CONTINUOUS
 10
6.7406964168
 20
3.7720037426
 11
6.8681964168
 21
3.7720037426
  0
LINE
  5
28D
100
AcDbEntity
  8
0
100
AcDbLine
 62
7
  6
CONTINUOUS
 10
6.877885388
 20
3.7809663464
 11
6.7406964168
 21
3.7809663464
  0
LINE
  5
28E
100
AcDbEntity
  8
0
100
AcDbLine
 62
7
  6
CONTINUOUS
 10
6.7406964168
 20
3.7831566088
 11
6.8681964168
 21
3.7831566088
  0
LINE
  5
28F
100
AcDbEntity
  8
0
100
AcDbLine
 62
7
  6
CONTINUOUS
 10
6.7406964168
 20
3.7857403505
 11
6.8681964168
 21
3.7857403505
  0
LINE
  5
290
100
AcDbEntity
  8
0
100
AcDbLine
 62
7
  6
CONTINUOUS
 10
6.877885388
 20
3.7944915644
 11
6.7406964168
 21
3.7944915644
  0
LINE
  5
291
100
AcDbEntity
  8
0
100
AcDbLine
 62
7
  6
CONTINUOUS
 10
6.7406964168
 20
3.79717534
 11
6.8681964168
 21
3.79717534
  0
LINE
  5
292
100
AcDbEntity
  8
0
100
AcDbLine
 62
7
  6
CONTINUOUS
 10
6.7406964168
 20
3.7998200386
 11
6.8681964168
 21
3.7998200386
  0
LINE
  5
293
100
AcDbEntity
  8
0
100
AcDbLine
 62
7
  6
CONTINUOUS
 10
6.877885388
 20
3.8083358763
 11
6.7406964168
 21
3.8083358763
  0
LINE
  5
294
100
AcDbEntity
  8
0
100
AcDbLine
 62
7
  6
CONTINUOUS
 10
6.7406964168
 20
3.8115058089
 11
6.8681964168
 21
3.8115058089
  0
LINE
  5
295
100
AcDbEntity
  8
0
100
AcDbLine
 62
7
  6
CONTINUOUS
 10
6.7406964168
 20
3.8142123165
 11
6.8681964168
 21
3.8142123165
  0
LINE
  5
296
100
AcDbEntity
  8
0
100
AcDbLine
 62
7
  6
CONTINUOUS
 10
6.8778827247
 20
3.8224581204
 11
6.7406964168
 21
3.8224581204
  0
LINE
  5
297
100
AcDbEntity
  8
0
100
AcDbLine
 62
7
  6
CONTINUOUS
 10
6.7406964168
 20
3.8261005229
 11
6.8681964168
 21
3.8261005229
  0
LINE
  5
298
100
AcDbEntity
  8
0
100
AcDbLine
 62
7
  6
CONTINUOUS
 10
6.7406964168
 20
3.8288534552
 11
6.8681964168
 21
3.8288534552
  0
LINE
  5
299
100
AcDbEntity
  8
0
100
AcDbLine
 62
7
  6
CONTINUOUS
 10
6.877885388
 20
3.8368292255
 11
6.7406964168
 21
3.8368292255
  0
LINE
  5
29A
100
AcDbEntity
  8
0
100
AcDbLine
 62
7
  6
CONTINUOUS
 10
6.7406964168
 20
3.8409440979
 11
6.8681964168
 21
3.8409440979
  0
LINE
  5
29B
100
AcDbEntity
  8
0
100
AcDbLine
 62
7
  6
CONTINUOUS
 10
6.7406964168
 20
3.8437276052
 11
6.8681964168
 21
3.8437276052
  0
LINE
  5
29C
100
AcDbEntity
  8
0
100
AcDbLine
 62
7
  6
CONTINUOUS
 10
6.877885388
 20
3.8514001645
 11
6.7406964168
 21
3.8514001645
  0
LINE
  5
29D
100
AcDbEntity
  8
0
100
AcDbLine
 62
7
  6
CONTINUOUS
 10
6.7406964168
 20
3.8559712296
 11
6.8681964168
 21
3.8559712296
  0
LINE
  5
29E
100
AcDbEntity
  8
0
100
AcDbLine
 62
7
  6
CONTINUOUS
 10
6.7406964168
 20
3.8587858963
 11
6.8681964168
 21
3.8587858963
  0
LINE
  5
29F
100
AcDbEntity
  8
0
100
AcDbLine
 62
7
  6
CONTINUOUS
 10
6.877885388
 20
3.8661342149
 11
6.7406964168
 21
3.8661342149
  0
LINE
  5
2A0
100
AcDbEntity
  8
0
100
AcDbLine
 62
7
  6
CONTINUOUS
 10
6.7406964168
 20
3.8711489437
 11
6.8681964168
 21
3.8711489437
  0
LINE
  5
2A1
100
AcDbEntity
  8
0
100
AcDbLine
 62
7
  6
CONTINUOUS
 10
6.7406964168
 20
3.8739870549
 11
6.8681964168
 21
3.8739870549
  0
LINE
  5
2A2
100
AcDbEntity
  8
0
100
AcDbLine
 62
7
  6
CONTINUOUS
 10
6.877885388
 20
3.8809909915
 11
6.7406964168
 21
3.8809909915
  0
LINE
  5
2A3
100
AcDbEntity
  8
0
100
AcDbLine
 62
7
  6
CONTINUOUS
 10
6.7406964168
 20
3.886435639
 11
6.8681964168
 21
3.886435639
  0
LINE
  5
2A4
100
AcDbEntity
  8
0
100
AcDbLine
 62
7
  6
CONTINUOUS
 10
6.7406964168
 20
3.8892894157
 11
6.8681964168
 21
3.8892894157
  0
LINE
  5
2A5
100
AcDbEntity
  8
0
100
AcDbLine
 62
7
  6
CONTINUOUS
 10
6.877885388
 20
3.895929773
 11
6.7406964168
 21
3.895929773
  0
LWPOLYLINE
  5
2A6
100
AcDbEntity
  8
0
100
AcDbPolyline
 62
7
  6
CONTINUOUS
 90
9
 70
0
 10
6.9896554972
 20
3.6551601143
 10
6.9899206486
 20
3.6551587082
 10
6.9906382751
 20
3.6551407904
 10
6.9913551176
 20
3.6551022751
 10
6.9920705864
 20
3.6550431919
 10
6.9927840896
 20
3.6549635874
 10
6.9934950333
 20
3.6548635259
 10
6.9942028307
 20
3.6547430883
 10
6.9945548077
 20
3.6546753701
  0
LINE
  5
2A7
100
AcDbEntity
  8
0
100
AcDbLine
 62
7
  6
CONTINUOUS
 10
6.7406964168
 20
3.9017894157
 11
6.8681964168
 21
3.9017894157
  0
LINE
  5
2A8
100
AcDbEntity
  8
0
100
AcDbLine
 62
7
  6
CONTINUOUS
 10
6.7406964168
 20
3.9046596131
 11
6.8681964168
 21
3.9046596131
  0
LINE
  5
2A9
100
AcDbEntity
  8
0
100
AcDbLine
 62
7
  6
CONTINUOUS
 10
6.8778827247
 20
3.9109096131
 11
6.7406964168
 21
3.9109096131
  0
LINE
  5
2AA
100
AcDbEntity
  8
0
100
AcDbLine
 62
7
  6
CONTINUOUS
 10
6.8781964168
 20
3.9109096131
 11
6.985100994
 21
3.9109096131
  0
LINE
  5
2AB
100
AcDbEntity
  8
0
100
AcDbLine
 62
7
  6
CONTINUOUS
 10
7.5776058656
 20
3.910909495
 11
7.5031390426
 21
3.9109096131
  0
LINE
  5
2AC
100
AcDbEntity
  8
0
100
AcDbLine
 62
7
  6
CONTINUOUS
 10
6.7406964168
 20
3.9171596131
 11
6.8681964168
 21
3.9171596131
  0
LINE
  5
2AD
100
AcDbEntity
  8
0
100
AcDbLine
 62
7
  6
CONTINUOUS
 10
6.7406964168
 20
3.9200298105
 11
6.8681964168
 21
3.9200298105
  0
LINE
  5
2AE
100
AcDbEntity
  8
0
100
AcDbLine
 62
7
  6
CONTINUOUS
 10
6.877885388
 20
3.9258894533
 11
6.7406964168
 21
3.9258894533
  0
LINE
  5
2AF
100
AcDbEntity
  8
0
100
AcDbLine
 62
7
  6
CONTINUOUS
 10
6.7406964168
 20
3.9325298105
 11
6.8681964168
 21
3.9325298105
  0
LINE
  5
2B0
100
AcDbEntity
  8
0
100
AcDbLine
 62
7
  6
CONTINUOUS
 10
6.7406964168
 20
3.9353835873
 11
6.8681964168
 21
3.9353835873
  0
LINE
  5
2B1
100
AcDbEntity
  8
0
100
AcDbLine
 62
7
  6
CONTINUOUS
 10
6.877885388
 20
3.9408282347
 11
6.7406964168
 21
3.9408282347
  0
LINE
  5
2B2
100
AcDbEntity
  8
0
100
AcDbLine
 62
7
  6
CONTINUOUS
 10
6.7406964168
 20
3.9478321713
 11
6.8681964168
 21
3.9478321713
  0
LINE
  5
2B3
100
AcDbEntity
  8
0
100
AcDbLine
 62
7
  6
CONTINUOUS
 10
6.7406964168
 20
3.9506702826
 11
6.8681964168
 21
3.9506702826
  0
LINE
  5
2B4
100
AcDbEntity
  8
0
100
AcDbLine
 62
7
  6
CONTINUOUS
 10
6.877885388
 20
3.9556850113
 11
6.7406964168
 21
3.9556850113
  0
LINE
  5
2B5
100
AcDbEntity
  8
0
100
AcDbLine
 62
7
  6
CONTINUOUS
 10
6.7406964168
 20
3.9630333299
 11
6.8681964168
 21
3.9630333299
  0
LINE
  5
2B6
100
AcDbEntity
  8
0
100
AcDbLine
 62
7
  6
CONTINUOUS
 10
6.7406964168
 20
3.9658479966
 11
6.8681964168
 21
3.9658479966
  0
LINE
  5
2B7
100
AcDbEntity
  8
0
100
AcDbLine
 62
7
  6
CONTINUOUS
 10
6.877885388
 20
3.9704190617
 11
6.7406964168
 21
3.9704190617
  0
LINE
  5
2B8
100
AcDbEntity
  8
0
100
AcDbLine
 62
7
  6
CONTINUOUS
 10
6.7406964168
 20
3.9780916211
 11
6.8681964168
 21
3.9780916211
  0
LINE
  5
2B9
100
AcDbEntity
  8
0
100
AcDbLine
 62
7
  6
CONTINUOUS
 10
6.7406964168
 20
3.9808751284
 11
6.8681964168
 21
3.9808751284
  0
LINE
  5
2BA
100
AcDbEntity
  8
0
100
AcDbLine
 62
7
  6
CONTINUOUS
 10
6.877885388
 20
3.9849900008
 11
6.7406964168
 21
3.9849900008
  0
LINE
  5
2BB
100
AcDbEntity
  8
0
100
AcDbLine
 62
7
  6
CONTINUOUS
 10
6.7406964168
 20
3.992965771
 11
6.8681964168
 21
3.992965771
  0
LINE
  5
2BC
100
AcDbEntity
  8
0
100
AcDbLine
 62
7
  6
CONTINUOUS
 10
6.7406964168
 20
3.9957187033
 11
6.8681964168
 21
3.9957187033
  0
LINE
  5
2BD
100
AcDbEntity
  8
0
100
AcDbLine
 62
7
  6
CONTINUOUS
 10
6.8778827247
 20
3.9993611058
 11
6.7406964168
 21
3.9993611058
  0
LINE
  5
2BE
100
AcDbEntity
  8
0
100
AcDbLine
 62
7
  6
CONTINUOUS
 10
6.7406964168
 20
4.0076069098
 11
6.8681964168
 21
4.0076069098
  0
LINE
  5
2BF
100
AcDbEntity
  8
0
100
AcDbLine
 62
7
  6
CONTINUOUS
 10
6.7406964168
 20
4.0103134173
 11
6.8681964168
 21
4.0103134173
  0
LINE
  5
2C0
100
AcDbEntity
  8
0
100
AcDbLine
 62
7
  6
CONTINUOUS
 10
6.877885388
 20
4.01348335
 11
6.7406964168
 21
4.01348335
  0
LINE
  5
2C1
100
AcDbEntity
  8
0
100
AcDbLine
 62
7
  6
CONTINUOUS
 10
6.7406964168
 20
4.0219991876
 11
6.8681964168
 21
4.0219991876
  0
LINE
  5
2C2
100
AcDbEntity
  8
0
100
AcDbLine
 62
7
  6
CONTINUOUS
 10
6.7406964168
 20
4.0246438863
 11
6.8681964168
 21
4.0246438863
  0
LINE
  5
2C3
100
AcDbEntity
  8
0
100
AcDbLine
 62
7
  6
CONTINUOUS
 10
6.877885388
 20
4.0273276618
 11
6.7406964168
 21
4.0273276618
  0
LINE
  5
2C4
100
AcDbEntity
  8
0
100
AcDbLine
 62
7
  6
CONTINUOUS
 10
6.7406964168
 20
4.0360788757
 11
6.8681964168
 21
4.0360788757
  0
LINE
  5
2C5
100
AcDbEntity
  8
0
100
AcDbLine
 62
7
  6
CONTINUOUS
 10
6.7406964168
 20
4.0386626175
 11
6.8681964168
 21
4.0386626175
  0
LINE
  5
2C6
100
AcDbEntity
  8
0
100
AcDbLine
 62
7
  6
CONTINUOUS
 10
6.877885388
 20
4.0408528799
 11
6.7406964168
 21
4.0408528799
  0
LINE
  5
2C7
100
AcDbEntity
  8
0
100
AcDbLine
 62
7
  6
CONTINUOUS
 10
6.7406964168
 20
4.0498154836
 11
6.8681964168
 21
4.0498154836
  0
LINE
  5
2C8
100
AcDbEntity
  8
0
100
AcDbLine
 62
7
  6
CONTINUOUS
 10
6.7406964168
 20
4.0523311865
 11
6.8681964168
 21
4.0523311865
  0
LINE
  5
2C9
100
AcDbEntity
  8
0
100
AcDbLine
 62
7
  6
CONTINUOUS
 10
6.877885388
 20
4.0540219324
 11
6.7406964168
 21
4.0540219324
  0
LINE
  5
2CA
100
AcDbEntity
  8
0
100
AcDbLine
 62
7
  6
CONTINUOUS
 10
6.7406964168
 20
4.0631713602
 11
6.8681964168
 21
4.0631713602
  0
LINE
  5
2CB
100
AcDbEntity
  8
0
100
AcDbLine
 62
7
  6
CONTINUOUS
 10
6.7406964168
 20
4.0656121289
 11
6.8681964168
 21
4.0656121289
  0
LINE
  5
2CC
100
AcDbEntity
  8
0
100
AcDbLine
 62
7
  6
CONTINUOUS
 10
6.877885388
 20
4.0667987241
 11
6.7406964168
 21
4.0667987241
  0
LINE
  5
2CD
100
AcDbEntity
  8
0
100
AcDbLine
 62
7
  6
CONTINUOUS
 10
6.7406964168
 20
4.0761098978
 11
6.8681964168
 21
4.0761098978
  0
LINE
  5
2CE
100
AcDbEntity
  8
0
100
AcDbLine
 62
7
  6
CONTINUOUS
 10
6.7406964168
 20
4.0784760889
 11
6.8681964168
 21
4.0784760889
  0
LINE
  5
2CF
100
AcDbEntity
  8
0
100
AcDbLine
 62
7
  6
CONTINUOUS
 10
6.8778827247
 20
4.0791543502
 11
6.7406964168
 21
4.0791543502
  0
LINE
  5
2D0
100
AcDbEntity
  8
0
100
AcDbLine
 62
7
  6
CONTINUOUS
 10
6.7406964168
 20
4.0885888013
 11
6.8681964168
 21
4.0885888013
  0
LINE
  5
2D1
100
AcDbEntity
  8
0
100
AcDbLine
 62
7
  6
CONTINUOUS
 10
6.7406964168
 20
4.0908666872
 11
6.8681964168
 21
4.0908666872
  0
LINE
  5
2D2
100
AcDbEntity
  8
0
100
AcDbLine
 62
7
  6
CONTINUOUS
 10
6.877885388
 20
4.0910366146
 11
6.7406964168
 21
4.0910366146
  0
LINE
  5
2D3
100
AcDbEntity
  8
0
100
AcDbLine
 62
7
  6
CONTINUOUS
 10
6.7406964168
 20
4.1005943432
 11
6.8681964168
 21
4.1005943432
  0
LINE
  5
2D4
100
AcDbEntity
  8
0
100
AcDbLine
 62
7
  6
CONTINUOUS
 10
6.7406964168
 20
4.1027710822
 11
6.8681964168
 21
4.1027710822
  0
LINE
  5
2D5
100
AcDbEntity
  8
0
100
AcDbLine
 62
7
  6
CONTINUOUS
 10
6.7406964168
 20
4.1120731406
 11
6.8681964168
 21
4.1120731406
  0
LINE
  5
2D6
100
AcDbEntity
  8
0
100
AcDbLine
 62
7
  6
CONTINUOUS
 10
6.7406964168
 20
4.1141495982
 11
6.8681964168
 21
4.1141495982
  0
LINE
  5
2D7
100
AcDbEntity
  8
0
100
AcDbLine
 62
7
  6
CONTINUOUS
 10
6.7406964168
 20
4.1230005629
 11
6.8681964168
 21
4.1230005629
  0
LINE
  5
2D8
100
AcDbEntity
  8
0
100
AcDbLine
 62
7
  6
CONTINUOUS
 10
6.7406964168
 20
4.1249710475
 11
6.8681964168
 21
4.1249710475
  0
LINE
  5
2D9
100
AcDbEntity
  8
0
100
AcDbLine
 62
7
  6
CONTINUOUS
 10
6.7406964168
 20
4.1333466586
 11
6.8681964168
 21
4.1333466586
  0
LINE
  5
2DA
100
AcDbEntity
  8
0
100
AcDbLine
 62
7
  6
CONTINUOUS
 10
6.7406964168
 20
4.1352057693
 11
6.8681964168
 21
4.1352057693
  0
LINE
  5
2DB
100
AcDbEntity
  8
0
100
AcDbLine
 62
7
  6
CONTINUOUS
 10
7.6115961857
 20
3.9357528912
 11
7.6364396088
 21
3.9353192336
  0
LWPOLYLINE
  5
2DC
100
AcDbEntity
  8
0
100
AcDbPolyline
 62
7
  6
CONTINUOUS
 90
51
 70
0
 10
6.9945548024
 20
3.6546753914
 10
6.9945992146
 20
3.6546663066
 10
6.9948116174
 20
3.6546169968
 10
6.9950216978
 20
3.6545584641
 10
6.9952290445
 20
3.6544908199
 10
6.9954332615
 20
3.6544141906
 10
6.9956339598
 20
3.6543287195
 10
6.9958307484
 20
3.654234571
 10
6.9960232519
 20
3.6541319233
 10
6.9962111034
 20
3.6540209704
 10
6.9963939374
 20
3.6539019272
 10
6.9965714046
 20
3.6537750211
 10
6.9967431681
 20
3.6536404926
 10
6.9969088979
 20
3.6534986004
 10
6.9970682776
 20
3.6533496157
 10
6.997221005
 20
3.6531938215
 10
6.99736679
 20
3.653031514
 10
6.997505355
 20
3.6528630025
 10
6.9976364364
 20
3.6526886079
 10
6.9977597856
 20
3.6525086609
 10
6.9978751677
 20
3.6523235045
 10
6.997982363
 20
3.6521334909
 10
6.9980811685
 20
3.6519389795
 10
6.9981713962
 20
3.6517403398
 10
6.9982528735
 20
3.6515379506
 10
6.998325445
 20
3.6513321969
 10
6.9983889731
 20
3.6511234672
 10
6.9984433353
 20
3.650912162
 10
6.9984884259
 20
3.6506986928
 10
6.9985241598
 20
3.6504834669
 10
6.9985504701
 20
3.6502668936
 10
6.9985673069
 20
3.650049393
 10
6.9985746401
 20
3.6498313906
 10
6.9985724587
 20
3.6496132902
 10
6.9985607666
 20
3.6493954804
 10
6.9985395851
 20
3.6491783797
 10
6.9985089527
 20
3.6489623975
 10
6.9984689183
 20
3.6487479079
 10
6.9984195429
 20
3.6485352855
 10
6.99836092
 20
3.6483249727
 10
6.9982931782
 20
3.6481174386
 10
6.9982164363
 20
3.6479130458
 10
6.9981308532
 20
3.6477122163
 10
6.9980366729
 20
3.647515487
 10
6.9979340963
 20
3.6473232193
 10
6.9978233415
 20
3.6471357686
 10
6.9977047422
 20
3.6469536267
 10
6.9975785579
 20
3.6467771036
 10
6.9974450707
 20
3.6466065114
 10
6.9973047087
 20
3.6464422962
 10
6.9972468055
 20
3.6463785571
  0
LINE
  5
2DD
100
AcDbEntity
  8
0
100
AcDbLine
 62
7
  6
CONTINUOUS
 10
5.8169692388
 20
5.0458544831
 11
5.9938996785
 21
5.4432467572
  0
LINE
  5
2DE
100
AcDbEntity
  8
0
100
AcDbLine
 62
7
  6
CONTINUOUS
 10
6.7406964168
 20
4.1430830698
 11
6.8681964168
 21
4.1430830698
  0
LINE
  5
2DF
100
AcDbEntity
  8
0
100
AcDbLine
 62
7
  6
CONTINUOUS
 10
6.7406964168
 20
4.1448309003
 11
6.8681964168
 21
4.1448309003
  0
LINE
  5
2E0
100
AcDbEntity
  8
0
100
AcDbLine
 62
7
  6
CONTINUOUS
 10
6.7406964168
 20
4.1521782159
 11
6.8681964168
 21
4.1521782159
  0
LINE
  5
2E1
100
AcDbEntity
  8
0
100
AcDbLine
 62
7
  6
CONTINUOUS
 10
6.7406964168
 20
4.1538045049
 11
6.8681964168
 21
4.1538045049
  0
LINE
  5
2E2
100
AcDbEntity
  8
0
100
AcDbLine
 62
7
  6
CONTINUOUS
 10
6.7406964168
 20
4.1606218357
 11
6.8681964168
 21
4.1606218357
  0
LINE
  5
2E3
100
AcDbEntity
  8
0
100
AcDbLine
 62
7
  6
CONTINUOUS
 10
6.7406964168
 20
4.1621175407
 11
6.8681964168
 21
4.1621175407
  0
LINE
  5
2E4
100
AcDbEntity
  8
0
100
AcDbLine
 62
7
  6
CONTINUOUS
 10
6.9560697893
 20
4.1666596131
 11
6.8781964168
 21
4.1666596131
  0
LINE
  5
2E5
100
AcDbEntity
  8
0
100
AcDbLine
 62
7
  6
CONTINUOUS
 10
6.7406964168
 20
4.1683761179
 11
6.8681964168
 21
4.1683761179
  0
LINE
  5
2E6
100
AcDbEntity
  8
0
100
AcDbLine
 62
7
  6
CONTINUOUS
 10
6.7406964168
 20
4.1697420331
 11
6.8681964168
 21
4.1697420331
  0
LINE
  5
2E7
100
AcDbEntity
  8
0
100
AcDbLine
 62
7
  6
CONTINUOUS
 10
6.7406964168
 20
4.1754247023
 11
6.8681964168
 21
4.1754247023
  0
LINE
  5
2E8
100
AcDbEntity
  8
0
100
AcDbLine
 62
7
  6
CONTINUOUS
 10
6.7406964168
 20
4.1766570838
 11
6.8681964168
 21
4.1766570838
  0
LINE
  5
2E9
100
AcDbEntity
  8
0
100
AcDbLine
 62
7
  6
CONTINUOUS
 10
6.7406964168
 20
4.1817482692
 11
6.8681964168
 21
4.1817482692
  0
LINE
  5
2EA
100
AcDbEntity
  8
0
100
AcDbLine
 62
7
  6
CONTINUOUS
 10
6.7406964168
 20
4.1828437392
 11
6.8681964168
 21
4.1828437392
  0
LINE
  5
2EB
100
AcDbEntity
  8
0
100
AcDbLine
 62
7
  6
CONTINUOUS
 10
6.7406964168
 20
4.1873294861
 11
6.8681964168
 21
4.1873294861
  0
LINE
  5
2EC
100
AcDbEntity
  8
0
100
AcDbLine
 62
7
  6
CONTINUOUS
 10
6.7406964168
 20
4.1882878663
 11
6.8681964168
 21
4.1882878663
  0
LINE
  5
2ED
100
AcDbEntity
  8
0
100
AcDbLine
 62
7
  6
CONTINUOUS
 10
6.7406964168
 20
4.1884096131
 11
6.6972305336
 21
4.1884096131
  0
LINE
  5
2EE
100
AcDbEntity
  8
0
100
AcDbLine
 62
7
  6
CONTINUOUS
 10
6.7406964168
 20
4.1921505787
 11
6.8681964168
 21
4.1921505787
  0
LINE
  5
2EF
100
AcDbEntity
  8
0
100
AcDbLine
 62
7
  6
CONTINUOUS
 10
6.7406964168
 20
4.1929660781
 11
6.8681964168
 21
4.1929660781
  0
LINE
  5
2F0
100
AcDbEntity
  8
0
100
AcDbLine
 62
7
  6
CONTINUOUS
 10
6.7406964168
 20
4.1962057561
 11
6.8681964168
 21
4.1962057561
  0
LINE
  5
2F1
100
AcDbEntity
  8
0
100
AcDbLine
 62
7
  6
CONTINUOUS
 10
6.7406964168
 20
4.196874017
 11
6.8681964168
 21
4.196874017
  0
LINE
  5
2F2
100
AcDbEntity
  8
0
100
AcDbLine
 62
7
  6
CONTINUOUS
 10
6.7406964168
 20
4.1994764798
 11
6.8681964168
 21
4.1994764798
  0
LINE
  5
2F3
100
AcDbEntity
  8
0
100
AcDbLine
 62
7
  6
CONTINUOUS
 10
6.7406964168
 20
4.1999981474
 11
6.8681964168
 21
4.1999981474
  0
LINE
  5
2F4
100
AcDbEntity
  8
0
100
AcDbLine
 62
7
  6
CONTINUOUS
 10
6.7406964168
 20
4.2019562617
 11
6.8681964168
 21
4.2019562617
  0
LINE
  5
2F5
100
AcDbEntity
  8
0
100
AcDbLine
 62
7
  6
CONTINUOUS
 10
6.7406964168
 20
4.2023299062
 11
6.8681964168
 21
4.2023299062
  0
LINE
  5
2F6
100
AcDbEntity
  8
0
100
AcDbLine
 62
7
  6
CONTINUOUS
 10
6.7406964168
 20
4.2036383051
 11
6.8681964168
 21
4.2036383051
  0
LINE
  5
2F7
100
AcDbEntity
  8
0
100
AcDbLine
 62
7
  6
CONTINUOUS
 10
6.7406964168
 20
4.2038629022
 11
6.8681964168
 21
4.2038629022
  0
LINE
  5
2F8
100
AcDbEntity
  8
0
100
AcDbLine
 62
7
  6
CONTINUOUS
 10
6.7406964168
 20
4.2045179994
 11
6.8681964168
 21
4.2045179994
  0
LINE
  5
2F9
100
AcDbEntity
  8
0
100
AcDbLine
 62
7
  6
CONTINUOUS
 10
6.7406964168
 20
4.2045931162
 11
6.8681964367
 21
4.2045931162
  0
LINE
  5
2FA
100
AcDbEntity
  8
0
100
AcDbLine
 62
7
  6
CONTINUOUS
 10
7.5998661557
 20
4.1284887666
 11
7.6247095778
 21
4.128055123
  0
LINE
  5
2FB
100
AcDbEntity
  8
0
100
AcDbLine
 62
7
  6
CONTINUOUS
 10
7.5318529908
 20
4.1624146982
 11
7.5150545558
 21
4.1629100827
  0
LINE
  5
2FC
100
AcDbEntity
  8
0
100
AcDbLine
 62
7
  6
CONTINUOUS
 10
7.5538453025
 20
4.1617196942
 11
7.5318529908
 21
4.1624146982
  0
LINE
  5
2FD
100
AcDbEntity
  8
0
100
AcDbLine
 62
7
  6
CONTINUOUS
 10
7.5679490328
 20
4.161246265
 11
7.5538453025
 21
4.1617196942
  0
LINE
  5
2FE
100
AcDbEntity
  8
0
100
AcDbLine
 62
7
  6
CONTINUOUS
 10
6.6944262928
 20
3.6342700197
 11
6.6203921761
 21
3.6844221633
  0
LINE
  5
2FF
100
AcDbEntity
  8
0
100
AcDbLine
 62
7
  6
CONTINUOUS
 10
7.5452674889
 20
4.7001305276
 11
6.9599442423
 21
4.7001305276
  0
LINE
  5
300
100
AcDbEntity
  8
0
100
AcDbLine
 62
7
  6
CONTINUOUS
 10
6.9468558656
 20
4.7269096131
 11
7.5583558656
 21
4.7269096131
  0
LINE
  5
301
100
AcDbEntity
  8
0
100
AcDbLine
 62
7
  6
CONTINUOUS
 10
6.9258558656
 20
4.7555277892
 11
7.5793558656
 21
4.7555277892
  0
LINE
  5
302
100
AcDbEntity
  8
0
100
AcDbLine
 62
7
  6
CONTINUOUS
 10
7.5793558656
 20
4.7739096131
 11
6.9258558656
 21
4.7739096131
  0
LINE
  5
303
100
AcDbEntity
  8
0
100
AcDbLine
 62
7
  6
CONTINUOUS
 10
7.5646058656
 20
4.7999096131
 11
6.9406058656
 21
4.7999096131
  0
LINE
  5
304
100
AcDbEntity
  8
0
100
AcDbLine
 62
7
  6
CONTINUOUS
 10
2.5021672147
 20
4.8079096131
 11
2.9487016466
 21
4.8079096131
  0
LINE
  5
305
100
AcDbEntity
  8
0
100
AcDbLine
 62
7
  6
CONTINUOUS
 10
7.5647933093
 20
4.8109096131
 11
6.9404184219
 21
4.8109096131
  0
LINE
  5
306
100
AcDbEntity
  8
0
100
AcDbLine
 62
7
  6
CONTINUOUS
 10
2.4707360841
 20
4.823169281
 11
2.9801328331
 21
4.823169281
  0
LINE
  5
307
100
AcDbEntity
  8
0
100
AcDbLine
 62
7
  6
CONTINUOUS
 10
6.8403844586
 20
4.8326596131
 11
6.8368844586
 21
4.8326596131
  0
LINE
  5
308
100
AcDbEntity
  8
0
100
AcDbLine
 62
7
  6
CONTINUOUS
 10
6.6944262928
 20
4.1875492066
 11
6.6203921761
 21
4.1373970629
  0
LINE
  5
309
100
AcDbEntity
  8
0
100
AcDbLine
 62
7
  6
CONTINUOUS
 10
2.9870080039
 20
4.8696492571
 11
2.4638609134
 21
4.8696492571
  0
LINE
  5
30A
100
AcDbEntity
  8
0
100
AcDbLine
 62
7
  6
CONTINUOUS
 10
6.3475515298
 20
4.8784096131
 11
6.3393844586
 21
4.8784096131
  0
LINE
  5
30B
100
AcDbEntity
  8
0
100
AcDbLine
 62
7
  6
CONTINUOUS
 10
2.9749245302
 20
4.9231251367
 11
2.4759443871
 21
4.9231251367
  0
LINE
  5
30C
100
AcDbEntity
  8
0
100
AcDbLine
 62
7
  6
CONTINUOUS
 10
6.3003844586
 20
4.9434096131
 11
6.2989344586
 21
4.9434096131
  0
LINE
  5
30D
100
AcDbEntity
  8
0
100
AcDbLine
 62
7
  6
CONTINUOUS
 10
6.2989344586
 20
4.9434096131
 11
6.2989344586
 21
5.3784096131
  0
LINE
  5
30E
100
AcDbEntity
  8
0
100
AcDbLine
 62
7
  6
CONTINUOUS
 10
6.3003844586
 20
4.9174096131
 11
6.3003844586
 21
5.4044096131
  0
LINE
  5
30F
100
AcDbEntity
  8
0
100
AcDbLine
 62
7
  6
CONTINUOUS
 10
6.3393844586
 20
4.8784096131
 11
6.3393844586
 21
5.4434096131
  0
LINE
  5
310
100
AcDbEntity
  8
0
100
AcDbLine
 62
7
  6
CONTINUOUS
 10
6.3475515298
 20
4.8784096131
 11
6.3475515298
 21
5.4434096131
  0
LINE
  5
311
100
AcDbEntity
  8
0
100
AcDbLine
 62
7
  6
CONTINUOUS
 10
6.3714311052
 20
4.8865751211
 11
6.3714311052
 21
5.4352441051
  0
LINE
  5
312
100
AcDbEntity
  8
0
100
AcDbLine
 62
7
  6
CONTINUOUS
 10
6.4095152507
 20
4.9010679981
 11
6.4095152507
 21
5.4207512281
  0
LINE
  5
313
100
AcDbEntity
  8
0
100
AcDbLine
 62
7
  6
CONTINUOUS
 10
7.6391034151
 20
3.7157891985
 11
7.6201930436
 21
3.7092778354
  0
LINE
  5
314
100
AcDbEntity
  8
0
100
AcDbLine
 62
7
  6
CONTINUOUS
 10
2.9906669005
 20
5.1030612533
 11
2.4602020167
 21
5.1030612533
  0
LINE
  5
315
100
AcDbEntity
  8
0
100
AcDbLine
 62
7
  6
CONTINUOUS
 10
3.010879471
 20
5.1524658049
 11
2.4399894463
 21
5.1524658049
  0
LINE
  5
316
100
AcDbEntity
  8
0
100
AcDbLine
 62
7
  6
CONTINUOUS
 10
2.9800150477
 20
5.2179096131
 11
2.4708539248
 21
5.2179096131
  0
LINE
  5
317
100
AcDbEntity
  8
0
100
AcDbLine
 62
7
  6
CONTINUOUS
 10
2.9429344586
 20
5.3355681251
 11
2.5079344586
 21
5.3355681251
  0
LINE
  5
318
100
AcDbEntity
  8
0
100
AcDbLine
 62
7
  6
CONTINUOUS
 10
5.8169692388
 20
5.0458544831
 11
3.8472431355
 21
5.9228330465
  0
LINE
  5
319
100
AcDbEntity
  8
0
100
AcDbLine
 62
7
  6
CONTINUOUS
 10
6.6153774535
 20
3.7071940985
 11
6.6153774535
 21
4.1146251278
  0
LINE
  5
31A
100
AcDbEntity
  8
0
100
AcDbLine
 62
7
  6
CONTINUOUS
 10
6.6181964168
 20
3.6885617567
 11
6.6181964168
 21
4.1332574695
  0
LINE
  5
31B
100
AcDbEntity
  8
0
100
AcDbLine
 62
7
  6
CONTINUOUS
 10
6.6203921761
 20
3.6844221633
 11
6.6203921761
 21
4.1373970629
  0
LINE
  5
31C
100
AcDbEntity
  8
0
100
AcDbLine
 62
7
  6
CONTINUOUS
 10
6.6452361933
 20
3.3332831266
 11
6.6452361933
 21
3.1130357529
  0
LINE
  5
31D
100
AcDbEntity
  8
0
100
AcDbLine
 62
7
  6
CONTINUOUS
 10
6.6569514234
 20
3.0667636087
 11
6.6569514234
 21
3.3795552708
  0
LINE
  5
31E
100
AcDbEntity
  8
0
100
AcDbLine
 62
7
  6
CONTINUOUS
 10
6.5921529294
 20
4.0182930044
 11
6.5892488407
 21
3.9987042046
  0
LINE
  5
31F
100
AcDbEntity
  8
0
100
AcDbLine
 62
7
  6
CONTINUOUS
 10
6.6051866037
 20
4.0796774652
 11
6.600106685
 21
4.0589501811
  0
LWPOLYLINE
  5
320
100
AcDbEntity
  8
0
100
AcDbPolyline
 62
7
  6
CONTINUOUS
 90
17
 70
0
 10
7.5075997756
 20
3.6561706118
 10
7.5077107245
 20
3.6562228342
 10
7.5084894349
 20
3.6565739939
 10
7.5092778253
 20
3.6569028401
 10
7.5100752555
 20
3.657209106
 10
7.5108810787
 20
3.6574925436
 10
7.5116946417
 20
3.6577529233
 10
7.5125152834
 20
3.6579900339
 10
7.5133423387
 20
3.6582036837
 10
7.5141751367
 20
3.6583936997
 10
7.5150130008
 20
3.6585599279
 10
7.5158552514
 20
3.6587022343
 10
7.5167012058
 20
3.6588205038
 10
7.5175501763
 20
3.6589146409
 10
7.518401474
 20
3.6589845701
 10
7.5192544093
 20
3.6590302353
 10
7.5195597893
 20
3.6590406708
  0
LINE
  5
321
100
AcDbEntity
  8
0
100
AcDbLine
 62
7
  6
CONTINUOUS
 10
7.6920049289
 20
3.638940884
 11
7.7109153004
 21
3.6454522471
  0
LINE
  5
322
100
AcDbEntity
  8
0
100
AcDbLine
 62
7
  6
CONTINUOUS
 10
6.3003844586
 20
5.3784096131
 11
6.2989344586
 21
5.3784096131
  0
LINE
  5
323
100
AcDbEntity
  8
0
100
AcDbLine
 62
7
  6
CONTINUOUS
 10
6.3475515298
 20
5.4434096131
 11
6.3393844586
 21
5.4434096131
  0
LINE
  5
324
100
AcDbEntity
  8
0
100
AcDbLine
 62
7
  6
CONTINUOUS
 10
6.8403844586
 20
5.4891596131
 11
6.8368844586
 21
5.4891596131
  0
LWPOLYLINE
  5
325
100
AcDbEntity
  8
0
100
AcDbPolyline
 62
7
  6
CONTINUOUS
 90
4
 70
0
 10
7.5063829578
 20
3.6479441565
 10
7.5062914693
 20
3.6480290707
 10
7.5061299386
 20
3.6481899677
 10
7.5059758141
 20
3.6483581713
  0
LINE
  5
326
100
AcDbEntity
  8
0
100
AcDbLine
 62
7
  6
CONTINUOUS
 10
6.600106685
 20
3.7628690451
 11
6.6001051375
 21
3.7628753812
  0
LINE
  5
327
100
AcDbEntity
  8
0
100
AcDbLine
 62
7
  6
CONTINUOUS
 10
6.6001051375
 20
3.7628753811
 11
6.6051866037
 21
3.742141761
  0
LINE
  5
328
100
AcDbEntity
  8
0
100
AcDbLine
 62
7
  6
CONTINUOUS
 10
6.5921529295
 20
3.8035262216
 11
6.5921504338
 21
3.8035430144
  0
LINE
  5
329
100
AcDbEntity
  8
0
100
AcDbLine
 62
7
  6
CONTINUOUS
 10
6.5892488407
 20
3.8231150215
 11
6.5921529294
 21
3.8035262219
  0
LINE
  5
32A
100
AcDbEntity
  8
0
100
AcDbLine
 62
7
  6
CONTINUOUS
 10
6.6819124261
 20
3.0431594397
 11
6.6819124261
 21
3.4031594397
  0
LINE
  5
32B
100
AcDbEntity
  8
0
100
AcDbLine
 62
7
  6
CONTINUOUS
 10
6.6893969143
 20
3.0431594397
 11
6.6893969143
 21
3.4031594397
  0
LINE
  5
32C
100
AcDbEntity
  8
0
100
AcDbLine
 62
7
  6
CONTINUOUS
 10
6.6944262928
 20
3.6342700197
 11
6.6944262928
 21
4.1875492066
  0
LINE
  5
32D
100
AcDbEntity
  8
0
100
AcDbLine
 62
7
  6
CONTINUOUS
 10
6.6972305336
 20
3.6334096131
 11
6.6972305336
 21
4.1884096131
  0
LINE
  5
32E
100
AcDbEntity
  8
0
100
AcDbLine
 62
7
  6
CONTINUOUS
 10
6.7122907761
 20
3.0581159797
 11
6.7122907761
 21
3.3882028998
  0
LINE
  5
32F
100
AcDbEntity
  8
0
100
AcDbLine
 62
7
  6
CONTINUOUS
 10
6.728496583
 20
3.3763492056
 11
6.728496583
 21
3.0699696739
  0
LINE
  5
330
100
AcDbEntity
  8
0
100
AcDbLine
 62
7
  6
CONTINUOUS
 10
6.7406964168
 20
3.61722611
 11
6.7406964168
 21
4.2045179994
  0
LINE
  5
331
100
AcDbEntity
  8
0
100
AcDbLine
 62
7
  6
CONTINUOUS
 10
6.7568122899
 20
5.4392822705
 11
6.7568122899
 21
4.8825369558
  0
LINE
  5
332
100
AcDbEntity
  8
0
100
AcDbLine
 62
7
  6
CONTINUOUS
 10
6.803876428
 20
5.4709314669
 11
6.803876428
 21
4.8508877593
  0
LINE
  5
333
100
AcDbEntity
  8
0
100
AcDbLine
 62
7
  6
CONTINUOUS
 10
6.8368844586
 20
4.8326596131
 11
6.8368844586
 21
5.4891596131
  0
LINE
  5
334
100
AcDbEntity
  8
0
100
AcDbLine
 62
7
  6
CONTINUOUS
 10
6.8403844586
 20
4.8326596131
 11
6.8403844586
 21
5.4891596131
  0
LINE
  5
335
100
AcDbEntity
  8
0
100
AcDbLine
 62
7
  6
CONTINUOUS
 10
6.8681964168
 20
3.61722611
 11
6.8681964168
 21
3.6173012268
  0
LINE
  5
336
100
AcDbEntity
  8
0
100
AcDbLine
 62
7
  6
CONTINUOUS
 10
6.8681964168
 20
3.6179563241
 11
6.8681964168
 21
3.6181809212
  0
LINE
  5
337
100
AcDbEntity
  8
0
100
AcDbLine
 62
7
  6
CONTINUOUS
 10
6.8681964168
 20
3.6194893201
 11
6.8681964168
 21
3.6198629645
  0
LINE
  5
338
100
AcDbEntity
  8
0
100
AcDbLine
 62
7
  6
CONTINUOUS
 10
6.8681964168
 20
3.6218210789
 11
6.8681964168
 21
3.6223427465
  0
LINE
  5
339
100
AcDbEntity
  8
0
100
AcDbLine
 62
7
  6
CONTINUOUS
 10
6.8681964168
 20
3.6249452092
 11
6.8681964168
 21
3.6256134702
  0
LINE
  5
33A
100
AcDbEntity
  8
0
100
AcDbLine
 62
7
  6
CONTINUOUS
 10
6.8681964168
 20
3.6288531481
 11
6.8681964168
 21
3.6296686475
  0
LINE
  5
33B
100
AcDbEntity
  8
0
100
AcDbLine
 62
7
  6
CONTINUOUS
 10
6.8681964168
 20
3.63353136
 11
6.8681964168
 21
3.6344897401
  0
LINE
  5
33C
100
AcDbEntity
  8
0
100
AcDbLine
 62
7
  6
CONTINUOUS
 10
6.8681964168
 20
3.638975487
 11
6.8681964168
 21
3.6400709571
  0
LINE
  5
33D
100
AcDbEntity
  8
0
100
AcDbLine
 62
7
  6
CONTINUOUS
 10
6.8681964168
 20
3.6451621424
 11
6.8681964168
 21
3.646394524
  0
LINE
  5
33E
100
AcDbEntity
  8
0
100
AcDbLine
 62
7
  6
CONTINUOUS
 10
6.8681964168
 20
3.6520771931
 11
6.8681964168
 21
3.6534431084
  0
LINE
  5
33F
100
AcDbEntity
  8
0
100
AcDbLine
 62
7
  6
CONTINUOUS
 10
6.8681964168
 20
3.6597016855
 11
6.8681964168
 21
3.6611973905
  0
LINE
  5
340
100
AcDbEntity
  8
0
100
AcDbLine
 62
7
  6
CONTINUOUS
 10
6.8681964168
 20
3.6680147214
 11
6.8681964168
 21
3.6696410103
  0
LINE
  5
341
100
AcDbEntity
  8
0
100
AcDbLine
 62
7
  6
CONTINUOUS
 10
6.8681964168
 20
3.676988326
 11
6.8681964168
 21
3.6787361565
  0
LINE
  5
342
100
AcDbEntity
  8
0
100
AcDbLine
 62
7
  6
CONTINUOUS
 10
6.8681964168
 20
3.6866134569
 11
6.8681964168
 21
3.6884725677
  0
LINE
  5
343
100
AcDbEntity
  8
0
100
AcDbLine
 62
7
  6
CONTINUOUS
 10
6.8681964168
 20
3.6968481787
 11
6.8681964168
 21
3.6988186634
  0
LINE
  5
344
100
AcDbEntity
  8
0
100
AcDbLine
 62
7
  6
CONTINUOUS
 10
6.8681964168
 20
3.7076696281
 11
6.8681964168
 21
3.7097460856
  0
LINE
  5
345
100
AcDbEntity
  8
0
100
AcDbLine
 62
7
  6
CONTINUOUS
 10
6.8681964168
 20
3.7190481441
 11
6.8681964168
 21
3.7212248831
  0
LINE
  5
346
100
AcDbEntity
  8
0
100
AcDbLine
 62
7
  6
CONTINUOUS
 10
6.8681964168
 20
3.730952539
 11
6.8681964168
 21
3.7332304249
  0
LINE
  5
347
100
AcDbEntity
  8
0
100
AcDbLine
 62
7
  6
CONTINUOUS
 10
6.8681964168
 20
3.7433431374
 11
6.8681964168
 21
3.7457093284
  0
LINE
  5
348
100
AcDbEntity
  8
0
100
AcDbLine
 62
7
  6
CONTINUOUS
 10
6.8681964168
 20
3.7562070973
 11
6.8681964168
 21
3.7586478661
  0
LINE
  5
349
100
AcDbEntity
  8
0
100
AcDbLine
 62
7
  6
CONTINUOUS
 10
6.8681964168
 20
3.7694880397
 11
6.8681964168
 21
3.7720037426
  0
LINE
  5
34A
100
AcDbEntity
  8
0
100
AcDbLine
 62
7
  6
CONTINUOUS
 10
6.8681964168
 20
3.7831566088
 11
6.8681964168
 21
3.7857403505
  0
LINE
  5
34B
100
AcDbEntity
  8
0
100
AcDbLine
 62
7
  6
CONTINUOUS
 10
6.8681964168
 20
3.79717534
 11
6.8681964168
 21
3.7998200386
  0
LINE
  5
34C
100
AcDbEntity
  8
0
100
AcDbLine
 62
7
  6
CONTINUOUS
 10
6.8681964168
 20
3.8115058089
 11
6.8681964168
 21
3.8142123165
  0
LINE
  5
34D
100
AcDbEntity
  8
0
100
AcDbLine
 62
7
  6
CONTINUOUS
 10
6.8681964168
 20
3.8261005229
 11
6.8681964168
 21
3.8288534552
  0
LINE
  5
34E
100
AcDbEntity
  8
0
100
AcDbLine
 62
7
  6
CONTINUOUS
 10
6.8681964168
 20
3.8409440979
 11
6.8681964168
 21
3.8437276052
  0
LINE
  5
34F
100
AcDbEntity
  8
0
100
AcDbLine
 62
7
  6
CONTINUOUS
 10
6.8681964168
 20
3.8559712296
 11
6.8681964168
 21
3.8587858963
  0
LINE
  5
350
100
AcDbEntity
  8
0
100
AcDbLine
 62
7
  6
CONTINUOUS
 10
6.8681964168
 20
3.8711489437
 11
6.8681964168
 21
3.8739870549
  0
LINE
  5
351
100
AcDbEntity
  8
0
100
AcDbLine
 62
7
  6
CONTINUOUS
 10
6.8681964168
 20
3.886435639
 11
6.8681964168
 21
3.8892894157
  0
LINE
  5
352
100
AcDbEntity
  8
0
100
AcDbLine
 62
7
  6
CONTINUOUS
 10
6.8681964168
 20
3.9017894157
 11
6.8681964168
 21
3.9046596131
  0
LINE
  5
353
100
AcDbEntity
  8
0
100
AcDbLine
 62
7
  6
CONTINUOUS
 10
6.8681964168
 20
3.9171596131
 11
6.8681964168
 21
3.9200298105
  0
LINE
  5
354
100
AcDbEntity
  8
0
100
AcDbLine
 62
7
  6
CONTINUOUS
 10
6.8681964168
 20
3.9325298105
 11
6.8681964168
 21
3.9353835873
  0
LINE
  5
355
100
AcDbEntity
  8
0
100
AcDbLine
 62
7
  6
CONTINUOUS
 10
6.8681964168
 20
3.9478321713
 11
6.8681964168
 21
3.9506702826
  0
LINE
  5
356
100
AcDbEntity
  8
0
100
AcDbLine
 62
7
  6
CONTINUOUS
 10
6.8681964168
 20
3.9630333299
 11
6.8681964168
 21
3.9658479966
  0
LINE
  5
357
100
AcDbEntity
  8
0
100
AcDbLine
 62
7
  6
CONTINUOUS
 10
6.8681964168
 20
3.9780916211
 11
6.8681964168
 21
3.9808751284
  0
LINE
  5
358
100
AcDbEntity
  8
0
100
AcDbLine
 62
7
  6
CONTINUOUS
 10
6.8681964168
 20
3.992965771
 11
6.8681964168
 21
3.9957187033
  0
LINE
  5
359
100
AcDbEntity
  8
0
100
AcDbLine
 62
7
  6
CONTINUOUS
 10
6.8681964168
 20
4.0076069098
 11
6.8681964168
 21
4.0103134173
  0
LINE
  5
35A
100
AcDbEntity
  8
0
100
AcDbLine
 62
7
  6
CONTINUOUS
 10
6.8681964168
 20
4.0219991876
 11
6.8681964168
 21
4.0246438863
  0
LINE
  5
35B
100
AcDbEntity
  8
0
100
AcDbLine
 62
7
  6
CONTINUOUS
 10
6.8681964168
 20
4.0360788757
 11
6.8681964168
 21
4.0386626175
  0
LINE
  5
35C
100
AcDbEntity
  8
0
100
AcDbLine
 62
7
  6
CONTINUOUS
 10
6.8681964168
 20
4.0498154836
 11
6.8681964168
 21
4.0523311865
  0
LINE
  5
35D
100
AcDbEntity
  8
0
100
AcDbLine
 62
7
  6
CONTINUOUS
 10
6.8681964168
 20
4.0631713602
 11
6.8681964168
 21
4.0656121289
  0
LINE
  5
35E
100
AcDbEntity
  8
0
100
AcDbLine
 62
7
  6
CONTINUOUS
 10
6.8681964168
 20
4.0761098978
 11
6.8681964168
 21
4.0784760889
  0
LINE
  5
35F
100
AcDbEntity
  8
0
100
AcDbLine
 62
7
  6
CONTINUOUS
 10
6.8681964168
 20
4.0885888013
 11
6.8681964168
 21
4.0908666872
  0
LINE
  5
360
100
AcDbEntity
  8
0
100
AcDbLine
 62
7
  6
CONTINUOUS
 10
6.8681964168
 20
4.1005943432
 11
6.8681964168
 21
4.1027710822
  0
LINE
  5
361
100
AcDbEntity
  8
0
100
AcDbLine
 62
7
  6
CONTINUOUS
 10
6.8681964168
 20
4.1120731406
 11
6.8681964168
 21
4.1141495982
  0
LINE
  5
362
100
AcDbEntity
  8
0
100
AcDbLine
 62
7
  6
CONTINUOUS
 10
6.8681964168
 20
4.1230005629
 11
6.8681964168
 21
4.1249710475
  0
LINE
  5
363
100
AcDbEntity
  8
0
100
AcDbLine
 62
7
  6
CONTINUOUS
 10
6.8681964168
 20
4.1333466586
 11
6.8681964168
 21
4.1352057693
  0
LINE
  5
364
100
AcDbEntity
  8
0
100
AcDbLine
 62
7
  6
CONTINUOUS
 10
6.8681964168
 20
4.1430830698
 11
6.8681964168
 21
4.1448309003
  0
LINE
  5
365
100
AcDbEntity
  8
0
100
AcDbLine
 62
7
  6
CONTINUOUS
 10
6.8681964168
 20
4.1521782159
 11
6.8681964168
 21
4.1538045049
  0
LINE
  5
366
100
AcDbEntity
  8
0
100
AcDbLine
 62
7
  6
CONTINUOUS
 10
6.8681964168
 20
4.1606218357
 11
6.8681964168
 21
4.1621175407
  0
LINE
  5
367
100
AcDbEntity
  8
0
100
AcDbLine
 62
7
  6
CONTINUOUS
 10
6.8681964168
 20
4.1683761179
 11
6.8681964168
 21
4.1697420331
  0
LINE
  5
368
100
AcDbEntity
  8
0
100
AcDbLine
 62
7
  6
CONTINUOUS
 10
6.8681964168
 20
4.1754247023
 11
6.8681964168
 21
4.1766570838
  0
LINE
  5
369
100
AcDbEntity
  8
0
100
AcDbLine
 62
7
  6
CONTINUOUS
 10
6.8681964168
 20
4.1817482692
 11
6.8681964168
 21
4.1828437392
  0
LINE
  5
36A
100
AcDbEntity
  8
0
100
AcDbLine
 62
7
  6
CONTINUOUS
 10
6.8681964168
 20
4.1873294861
 11
6.8681964168
 21
4.1882878663
  0
LINE
  5
36B
100
AcDbEntity
  8
0
100
AcDbLine
 62
7
  6
CONTINUOUS
 10
6.8681964168
 20
4.1921505787
 11
6.8681964168
 21
4.1929660781
  0
LINE
  5
36C
100
AcDbEntity
  8
0
100
AcDbLine
 62
7
  6
CONTINUOUS
 10
6.8681964168
 20
4.1962057561
 11
6.8681964168
 21
4.196874017
  0
LINE
  5
36D
100
AcDbEntity
  8
0
100
AcDbLine
 62
7
  6
CONTINUOUS
 10
6.8681964168
 20
4.1994764798
 11
6.8681964168
 21
4.1999981474
  0
LINE
  5
36E
100
AcDbEntity
  8
0
100
AcDbLine
 62
7
  6
CONTINUOUS
 10
6.8681964168
 20
4.2019562617
 11
6.8681964168
 21
4.2023299062
  0
LINE
  5
36F
100
AcDbEntity
  8
0
100
AcDbLine
 62
7
  6
CONTINUOUS
 10
6.8681964168
 20
4.2036383051
 11
6.8681964168
 21
4.2038629022
  0
LINE
  5
370
100
AcDbEntity
  8
0
100
AcDbLine
 62
7
  6
CONTINUOUS
 10
6.8738866864
 20
4.8516946255
 11
6.8738866864
 21
5.4701246008
  0
LINE
  5
371
100
AcDbEntity
  8
0
100
AcDbLine
 62
7
  6
CONTINUOUS
 10
6.8781964168
 20
3.6271596131
 11
6.8781964168
 21
4.1946596131
  0
LINE
  5
372
100
AcDbEntity
  8
0
100
AcDbLine
 62
7
  6
CONTINUOUS
 10
6.8981099802
 20
4.8538368738
 11
6.8981099802
 21
5.4679823524
  0
LINE
  5
373
100
AcDbEntity
  8
0
100
AcDbLine
 62
7
  6
CONTINUOUS
 10
7.4340025304
 20
5.5934096131
 11
7.0712092008
 21
5.5934096131
  0
LINE
  5
374
100
AcDbEntity
  8
0
100
AcDbLine
 62
7
  6
CONTINUOUS
 10
7.4316058656
 20
5.6024096131
 11
7.0736058656
 21
5.6024096131
  0
LINE
  5
375
100
AcDbEntity
  8
0
100
AcDbLine
 62
7
  6
CONTINUOUS
 10
7.4045807408
 20
5.6535436576
 11
7.1006309904
 21
5.6535436576
  0
LINE
  5
376
100
AcDbEntity
  8
0
100
AcDbLine
 62
7
  6
CONTINUOUS
 10
7.4070701767
 20
5.73442839
 11
7.0981415545
 21
5.73442839
  0
LINE
  5
377
100
AcDbEntity
  8
0
100
AcDbLine
 62
7
  6
CONTINUOUS
 10
5.9938996785
 20
5.4432467572
 11
4.0241735753
 21
6.3202253205
  0
LWPOLYLINE
  5
378
100
AcDbEntity
  8
0
100
AcDbPolyline
 62
7
  6
CONTINUOUS
 90
42
 70
0
 10
7.5059758141
 20
3.6483581713
 10
7.5058294496
 20
3.6485333221
 10
7.5056911621
 20
3.6487150657
 10
7.5055612532
 20
3.6489030326
 10
7.5054400227
 20
3.6490968134
 10
7.505327735
 20
3.6492960082
 10
7.5052246344
 20
3.6495002076
 10
7.505130957
 20
3.6497089669
 10
7.5050469077
 20
3.6499218502
 10
7.5049726696
 20
3.6501384168
 10
7.504908411
 20
3.6503581984
 10
7.5048542724
 20
3.650580737
 10
7.5048103739
 20
3.6508055661
 10
7.5047768163
 20
3.6510321946
 10
7.5047536732
 20
3.6512601473
 10
7.5047409969
 20
3.6514889458
 10
7.5047388169
 20
3.6517180894
 10
7.5047471385
 20
3.6519470954
 10
7.5047659448
 20
3.6521754842
 10
7.5047951944
 20
3.6524027595
 10
7.5048348231
 20
3.652628439
 10
7.5048847468
 20
3.6528520545
 10
7.5049448589
 20
3.6530731363
 10
7.5050150311
 20
3.6532912196
 10
7.5050951149
 20
3.6535058483
 10
7.5051849422
 20
3.653716576
 10
7.5052843233
 20
3.6539229607
 10
7.5053930487
 20
3.6541245699
 10
7.5055108912
 20
3.6543209842
 10
7.5056376031
 20
3.6545117917
 10
7.5057729178
 20
3.6546965924
 10
7.5059165535
 20
3.6548750017
 10
7.5060682088
 20
3.6550466454
 10
7.5062275652
 20
3.6552111634
 10
7.5063942911
 20
3.6553682128
 10
7.506568037
 20
3.655517464
 10
7.5067484386
 20
3.6556586033
 10
7.5069351205
 20
3.6557913362
 10
7.5071276915
 20
3.6559153835
 10
7.507325748
 20
3.6560304839
 10
7.5075288779
 20
3.6561363966
 10
7.5075997707
 20
3.6561706278
  0
LINE
  5
379
100
AcDbEntity
  8
0
100
AcDbLine
 62
7
  6
CONTINUOUS
 10
6.9258558656
 20
4.7555277892
 11
6.9258558656
 21
4.7739096131
  0
LINE
  5
37A
100
AcDbEntity
  8
0
100
AcDbLine
 62
7
  6
CONTINUOUS
 10
6.9626058656
 20
5.8724096131
 11
6.9626058656
 21
5.9024096131
  0
LINE
  5
37B
100
AcDbEntity
  8
0
100
AcDbLine
 62
7
  6
CONTINUOUS
 10
6.9804252942
 20
3.1143296385
 11
6.9804252942
 21
3.331989241
  0
LINE
  5
37C
100
AcDbEntity
  8
0
100
AcDbLine
 62
7
  6
CONTINUOUS
 10
6.9956058656
 20
3.1331594397
 11
6.9956058656
 21
3.3131594397
  0
LINE
  5
37D
100
AcDbEntity
  8
0
100
AcDbLine
 62
7
  6
CONTINUOUS
 10
7.1131058656
 20
5.6024096131
 11
7.1131058656
 21
5.5934096131
  0
LINE
  5
37E
100
AcDbEntity
  8
0
100
AcDbLine
 62
7
  6
CONTINUOUS
 10
6.9177470843
 20
2.336205649
 11
6.9188719144
 21
2.5196353892
  0
LINE
  5
37F
100
AcDbEntity
  8
0
100
AcDbLine
 62
7
  6
CONTINUOUS
 10
7.8791838629
 20
3.0185449506
 11
7.8602734914
 21
3.0120335875
  0
LINE
  5
380
100
AcDbEntity
  8
0
100
AcDbLine
 62
7
  6
CONTINUOUS
 10
7.9057842552
 20
3.018080639
 11
7.9246946267
 21
3.0245920021
  0
LINE
  5
381
100
AcDbEntity
  8
0
100
AcDbLine
 62
7
  6
CONTINUOUS
 10
7.5109178287
 20
5.8373658657
 11
6.9942939026
 21
5.8373658657
  0
LINE
  5
382
100
AcDbEntity
  8
0
100
AcDbLine
 62
7
  6
CONTINUOUS
 10
7.5310084012
 20
5.8542603047
 11
6.9742033301
 21
5.8542603047
  0
LINE
  5
383
100
AcDbEntity
  8
0
100
AcDbLine
 62
7
  6
CONTINUOUS
 10
7.5426058656
 20
5.8724096131
 11
6.9626058656
 21
5.8724096131
  0
LINE
  5
384
100
AcDbEntity
  8
0
100
AcDbLine
 62
7
  6
CONTINUOUS
 10
7.5426058656
 20
5.9024096131
 11
6.9626058656
 21
5.9024096131
  0
LINE
  5
385
100
AcDbEntity
  8
0
100
AcDbLine
 62
7
  6
CONTINUOUS
 10
7.527120921
 20
5.9218933056
 11
6.9780908102
 21
5.9218933056
  0
LINE
  5
386
100
AcDbEntity
  8
0
100
AcDbLine
 62
7
  6
CONTINUOUS
 10
7.5040097623
 20
5.9286665245
 11
7.0012019689
 21
5.9286665245
  0
LINE
  5
387
100
AcDbEntity
  8
0
100
AcDbLine
 62
7
  6
CONTINUOUS
 10
7.2773407741
 20
5.9678629622
 11
7.2278709571
 21
5.9678629622
  0
LINE
  5
388
100
AcDbEntity
  8
0
100
AcDbLine
 62
7
  6
CONTINUOUS
 10
7.6201930436
 20
3.7092778354
 11
7.881061235
 21
2.9516615964
  0
LINE
  5
389
100
AcDbEntity
  8
0
100
AcDbLine
 62
7
  6
CONTINUOUS
 10
7.5795658251
 20
4.1070966469
 11
7.6006759906
 21
3.8052072157
  0
LINE
  5
38A
100
AcDbEntity
  8
0
100
AcDbLine
 62
7
  6
CONTINUOUS
 10
7.6115961857
 20
3.9357528912
 11
7.6206272716
 21
3.8066023452
  0
LINE
  5
38B
100
AcDbEntity
  8
0
100
AcDbLine
 62
7
  6
CONTINUOUS
 10
7.5998661532
 20
4.1284887619
 11
7.611596169
 21
3.9357528915
  0
LINE
  5
38C
100
AcDbEntity
  8
0
100
AcDbLine
 62
7
  6
CONTINUOUS
 10
7.5874646469
 20
2.336205649
 11
7.5863398168
 21
2.5196353892
  0
LINE
  5
38D
100
AcDbEntity
  8
0
100
AcDbLine
 62
7
  6
CONTINUOUS
 10
7.3921058656
 20
5.6024096131
 11
7.3921058656
 21
5.5934096131
  0
LINE
  5
38E
100
AcDbEntity
  8
0
100
AcDbLine
 62
7
  6
CONTINUOUS
 10
7.5096058656
 20
3.3131594397
 11
7.5096058656
 21
3.1331594397
  0
LINE
  5
38F
100
AcDbEntity
  8
0
100
AcDbLine
 62
7
  6
CONTINUOUS
 10
7.524786437
 20
3.331989241
 11
7.524786437
 21
3.1143296385
  0
LINE
  5
390
100
AcDbEntity
  8
0
100
AcDbLine
 62
7
  6
CONTINUOUS
 10
7.5426058656
 20
5.8724096131
 11
7.5426058656
 21
5.9024096131
  0
LINE
  5
391
100
AcDbEntity
  8
0
100
AcDbLine
 62
7
  6
CONTINUOUS
 10
7.56794903
 20
4.1612461956
 11
7.56794902
 21
3.9109096131
  0
LINE
  5
392
100
AcDbEntity
  8
0
100
AcDbLine
 62
7
  6
CONTINUOUS
 10
7.5776058656
 20
4.1512518462
 11
7.5776058656
 21
3.670569053
  0
LINE
  5
393
100
AcDbEntity
  8
0
100
AcDbLine
 62
7
  6
CONTINUOUS
 10
7.5793558656
 20
4.7555277892
 11
7.5793558656
 21
4.7739096131
  0
LINE
  5
394
100
AcDbEntity
  8
0
100
AcDbLine
 62
7
  6
CONTINUOUS
 10
7.5031390426
 20
3.9109096131
 11
7.5031512762
 21
3.9111691568
  0
LINE
  5
395
100
AcDbEntity
  8
0
100
AcDbLine
 62
7
  6
CONTINUOUS
 10
7.6391034151
 20
3.7157891985
 11
7.8791826997
 21
3.0185483288
  0
LINE
  5
396
100
AcDbEntity
  8
0
100
AcDbLine
 62
7
  6
CONTINUOUS
 10
7.9057830917
 20
3.0180840182
 11
7.6920049289
 21
3.638940884
  0
LINE
  5
397
100
AcDbEntity
  8
0
100
AcDbLine
 62
7
  6
CONTINUOUS
 10
7.9454823703
 20
2.964220011
 11
7.7109153004
 21
3.6454522471
  0
LINE
  5
398
100
AcDbEntity
  8
0
100
AcDbLine
 62
7
  6
CONTINUOUS
 10
7.8791830112
 20
3.0185483234
 11
7.8996225588
 21
2.9381760053
  0
LINE
  5
399
100
AcDbEntity
  8
0
100
AcDbLine
 62
7
  6
CONTINUOUS
 10
7.9262229507
 20
2.937711694
 11
7.9057834033
 21
3.0180840127
  0
LINE
  5
39A
100
AcDbEntity
  8
0
100
AcDbLine
 62
7
  6
CONTINUOUS
 10
7.6389185447
 20
3.8998687983
 11
7.6364396088
 21
3.9353192336
  0
LINE
  5
39B
100
AcDbEntity
  8
0
100
AcDbLine
 62
7
  6
CONTINUOUS
 10
7.6588698257
 20
3.9012639278
 11
7.6443118093
 21
4.1094532624
  0
LINE
  5
39C
100
AcDbEntity
  8
0
100
AcDbLine
 62
7
  6
CONTINUOUS
 10
7.636439592
 20
3.9353192338
 11
7.6247095753
 21
4.1280551184
  0
LINE
  5
39D
100
AcDbEntity
  8
0
100
AcDbLine
 62
7
  6
CONTINUOUS
 10
7.7767151482
 20
3.0699696739
 11
7.7767151482
 21
3.2547046367
  0
LINE
  5
39E
100
AcDbEntity
  8
0
100
AcDbLine
 62
7
  6
CONTINUOUS
 10
7.7929209551
 20
3.207639556
 11
7.7929209551
 21
3.0581159797
  0
LINE
  5
39F
100
AcDbEntity
  8
0
100
AcDbLine
 62
7
  6
CONTINUOUS
 10
7.815814817
 20
3.4031594397
 11
7.815814817
 21
3.34080193
  0
LINE
  5
3A0
100
AcDbEntity
  8
0
100
AcDbLine
 62
7
  6
CONTINUOUS
 10
7.815814817
 20
3.1411509533
 11
7.815814817
 21
3.0431594397
  0
LINE
  5
3A1
100
AcDbEntity
  8
0
100
AcDbLine
 62
7
  6
CONTINUOUS
 10
7.8232993052
 20
3.4031594397
 11
7.8232993052
 21
3.3190653979
  0
LINE
  5
3A2
100
AcDbEntity
  8
0
100
AcDbLine
 62
7
  6
CONTINUOUS
 10
7.8232993052
 20
3.1194144213
 11
7.8232993052
 21
3.0431594397
  0
LINE
  5
3A3
100
AcDbEntity
  8
0
100
AcDbLine
 62
7
  6
CONTINUOUS
 10
7.8482603079
 20
3.3795552708
 11
7.8482603079
 21
3.2465733824
  0
LINE
  5
3A4
100
AcDbEntity
  8
0
100
AcDbLine
 62
7
  6
CONTINUOUS
 10
7.8599755379
 20
3.2125498839
 11
7.8599755379
 21
3.3332831266
  0
ARC
  5
3A5
100
AcDbEntity
  8
0
100
AcDbCircle
 62
7
  6
CONTINUOUS
 10
-15.529184464
 20
4.0007808055
 40
22.5
100
AcDbArc
 50
356.5102378959
 51
357.7253948494
  0
ARC
  5
3A6
100
AcDbEntity
  8
0
100
AcDbCircle
 62
7
  6
CONTINUOUS
 10
-15.529184464
 20
4.0007808055
 40
22.5
100
AcDbArc
 50
358.3086450992
 51
358.566954776
  0
ARC
  5
3A7
100
AcDbEntity
  8
0
100
AcDbCircle
 62
7
  6
CONTINUOUS
 10
-15.529184464
 20
4.0007808055
 40
22.5
100
AcDbArc
 50
358.6631336918
 51
359.1198488072
  0
ARC
  5
3A8
100
AcDbEntity
  8
0
100
AcDbCircle
 62
7
  6
CONTINUOUS
 10
-15.529184464
 20
4.0007808055
 40
22.5
100
AcDbArc
 50
0.4234458847
 51
1.7811663206
  0
ARC
  5
3A9
100
AcDbEntity
  8
0
100
AcDbCircle
 62
7
  6
CONTINUOUS
 10
6.5318059831
 20
1.5217501093
 40
1.865
100
AcDbArc
 50
76.0811997271
 51
83.9460923514
  0
ARC
  5
3AA
100
AcDbEntity
  8
0
100
AcDbCircle
 62
7
  6
CONTINUOUS
 10
7.0467799767
 20
1.654679114
 40
0.825
100
AcDbArc
 50
27.7184983878
 51
45.977526257
  0
ARC
  5
3AB
100
AcDbEntity
  8
0
100
AcDbCircle
 62
7
  6
CONTINUOUS
 10
7.2116058656
 20
1.5924096131
 40
0.6335
100
AcDbArc
 50
37.1932966364
 51
51.353381435
  0
ARC
  5
3AC
100
AcDbEntity
  8
0
100
AcDbCircle
 62
7
  6
CONTINUOUS
 10
6.9589519359
 20
1.5533753196
 40
0.45
100
AcDbArc
 50
128.8148632765
 51
140.323525851
  0
ARC
  5
3AD
100
AcDbEntity
  8
0
100
AcDbCircle
 62
7
  6
CONTINUOUS
 10
6.9364072637
 20
1.6279096131
 40
0.326
100
AcDbArc
 50
133.3959580377
 51
143.0393905811
  0
ARC
  5
3AE
100
AcDbEntity
  8
0
100
AcDbCircle
 62
7
  6
CONTINUOUS
 10
6.479811234
 20
2.0859096131
 40
0.3035
100
AcDbArc
 50
322.0112797187
 51
335.6081627402
  0
ARC
  5
3AF
100
AcDbEntity
  8
0
100
AcDbCircle
 62
7
  6
CONTINUOUS
 10
6.4071669294
 20
2.0664260261
 40
0.3
100
AcDbArc
 50
336.6349592663
 51
349.9208448392
  0
ARC
  5
3B0
100
AcDbEntity
  8
0
100
AcDbCircle
 62
7
  6
CONTINUOUS
 10
6.8428053823
 20
2.2995082159
 40
0.13
100
AcDbArc
 50
323.0058837041
 51
353.2343948461
  0
ARC
  5
3B1
100
AcDbEntity
  8
0
100
AcDbCircle
 62
7
  6
CONTINUOUS
 10
6.8542593716
 20
2.1418519742
 40
0.07
100
AcDbArc
 50
308.646618565
 51
353.4624504845
  0
ARC
  5
3B2
100
AcDbEntity
  8
0
100
AcDbCircle
 62
7
  6
CONTINUOUS
 10
6.8688728545
 20
2.5199419941
 40
0.05
100
AcDbArc
 50
359.6486545051
 51
38.3561557507
  0
ARC
  5
3B3
100
AcDbEntity
  8
0
100
AcDbCircle
 62
7
  6
CONTINUOUS
 10
6.9173558656
 20
2.2724083376
 40
0.0405
100
AcDbArc
 50
114.8329910391
 51
217.2221338961
  0
ARC
  5
3B4
100
AcDbEntity
  8
0
100
AcDbCircle
 62
7
  6
CONTINUOUS
 10
6.9394480237
 20
2.5757913047
 40
0.04
100
AcDbArc
 50
125.1484803012
 51
218.35615575
  0
ARC
  5
3B5
100
AcDbEntity
  8
0
100
AcDbCircle
 62
7
  6
CONTINUOUS
 10
6.9785839243
 20
2.1972136046
 40
0.04
100
AcDbArc
 50
143.0058837041
 51
168.480329994
  0
ARC
  5
3B6
100
AcDbEntity
  8
0
100
AcDbCircle
 62
7
  6
CONTINUOUS
 10
7.0286058656
 20
2.1334096131
 40
0.04
100
AcDbArc
 50
43.4325365578
 51
89.9999999996
  0
ARC
  5
3B7
100
AcDbEntity
  8
0
100
AcDbCircle
 62
7
  6
CONTINUOUS
 10
6.9541058656
 20
2.1304096131
 40
0.0305
100
AcDbArc
 50
90.0
 51
173.4624504845
  0
ARC
  5
3B8
100
AcDbEntity
  8
0
100
AcDbCircle
 62
7
  6
CONTINUOUS
 10
6.7320740115
 20
2.0086732081
 40
0.03
100
AcDbArc
 50
97.6008753253
 51
169.9208459864
  0
ARC
  5
3B9
100
AcDbEntity
  8
0
100
AcDbCircle
 62
7
  6
CONTINUOUS
 10
6.7101058656
 20
1.9355520374
 40
0.03
100
AcDbArc
 50
156.6349592663
 51
170.2993260341
  0
ARC
  5
3BA
100
AcDbEntity
  8
0
100
AcDbCircle
 62
7
  6
CONTINUOUS
 10
6.8877476483
 20
2.3363896119
 40
0.03
100
AcDbArc
 50
294.8329910382
 51
359.6486545051
  0
ARC
  5
3BB
100
AcDbEntity
  8
0
100
AcDbCircle
 62
7
  6
CONTINUOUS
 10
6.8991492116
 20
2.6330277069
 40
0.03
100
AcDbArc
 50
305.1484802999
 51
356.5102378957
  0
ARC
  5
3BC
100
AcDbEntity
  8
0
100
AcDbCircle
 62
7
  6
CONTINUOUS
 10
7.0215534762
 20
2.1609096131
 40
0.028
100
AcDbArc
 50
153.4839316724
 51
180.0000264356
  0
ARC
  5
3BD
100
AcDbEntity
  8
0
100
AcDbCircle
 62
7
  6
CONTINUOUS
 10
6.9653558656
 20
2.1999096131
 40
0.0265
100
AcDbArc
 50
168.480329994
 51
270.0
  0
ARC
  5
3BE
100
AcDbEntity
  8
0
100
AcDbCircle
 62
7
  6
CONTINUOUS
 10
6.7002488506
 20
1.9372370461
 40
0.02
100
AcDbArc
 50
170.2993230527
 51
206.1825355109
  0
ARC
  5
3BF
100
AcDbEntity
  8
0
100
AcDbCircle
 62
7
  6
CONTINUOUS
 10
6.6279973746
 20
1.8279096131
 40
0.02
100
AcDbArc
 50
140.323525851
 51
270.0
  0
ARC
  5
3C0
100
AcDbEntity
  8
0
100
AcDbCircle
 62
7
  6
CONTINUOUS
 10
6.6643531344
 20
1.9195877526
 40
0.02
100
AcDbArc
 50
308.8148632744
 51
26.1825355012
  0
ARC
  5
3C1
100
AcDbEntity
  8
0
100
AcDbCircle
 62
7
  6
CONTINUOUS
 10
6.6986927203
 20
1.8793212196
 40
0.02
100
AcDbArc
 50
313.3959580377
 51
21.8359643631
  0
ARC
  5
3C2
100
AcDbEntity
  8
0
100
AcDbCircle
 62
7
  6
CONTINUOUS
 10
6.7730273421
 20
1.9874542319
 40
0.02
100
AcDbArc
 50
282.2207456717
 51
322.8067033636
  0
ARC
  5
3C3
100
AcDbEntity
  8
0
100
AcDbCircle
 62
7
  6
CONTINUOUS
 10
7.0836058656
 20
1.8134096131
 40
0.015
100
AcDbArc
 50
201.5101882669
 51
270.0
  0
ARC
  5
3C4
100
AcDbEntity
  8
0
100
AcDbCircle
 62
7
  6
CONTINUOUS
 10
6.7676058656
 20
1.9554096131
 40
0.0125
100
AcDbArc
 50
90.0
 51
155.6081627402
  0
ARC
  5
3C5
100
AcDbEntity
  8
0
100
AcDbCircle
 62
7
  6
CONTINUOUS
 10
6.7288609278
 20
1.8914096131
 40
0.0125
100
AcDbArc
 50
142.0112797187
 51
201.8359643631
  0
ARC
  5
3C6
100
AcDbEntity
  8
0
100
AcDbCircle
 62
7
  6
CONTINUOUS
 10
6.6839077587
 20
1.8179096131
 40
0.01
100
AcDbArc
 50
143.0393905811
 51
270.0
  0
ARC
  5
3C7
100
AcDbEntity
  8
0
100
AcDbCircle
 62
7
  6
CONTINUOUS
 10
1.5236058656
 20
2.930546053
 40
5.4865
100
AcDbArc
 50
353.2343948461
 51
4.6951455564
  0
ARC
  5
3C8
100
AcDbEntity
  8
0
100
AcDbCircle
 62
7
  6
CONTINUOUS
 10
6.507341721
 20
3.4707937327
 40
1.4336158804
100
AcDbArc
 50
79.9786617007
 51
93.9127655787
  0
ARC
  5
3C9
100
AcDbEntity
  8
0
100
AcDbCircle
 62
7
  6
CONTINUOUS
 10
6.8791058656
 20
3.2231594397
 40
0.2585
100
AcDbArc
 50
154.7853651812
 51
205.2146348188
  0
ARC
  5
3CA
100
AcDbEntity
  8
0
100
AcDbCircle
 62
7
  6
CONTINUOUS
 10
6.5321464098
 20
3.0597844537
 40
0.125
100
AcDbArc
 50
3.2006734286
 51
25.2146348188
  0
ARC
  5
3CB
100
AcDbEntity
  8
0
100
AcDbCircle
 62
7
  6
CONTINUOUS
 10
6.5321464098
 20
3.3865344258
 40
0.125
100
AcDbArc
 50
334.7853651812
 51
356.7993265714
  0
ARC
  5
3CC
100
AcDbEntity
  8
0
100
AcDbCircle
 62
7
  6
CONTINUOUS
 10
6.9019969685
 20
3.3722715267
 40
0.09
100
AcDbArc
 50
4.6951455564
 51
44.7556219147
  0
ARC
  5
3CD
100
AcDbEntity
  8
0
100
AcDbCircle
 62
7
  6
CONTINUOUS
 10
6.9868558656
 20
3.4564096131
 40
0.0295
100
AcDbArc
 50
90.0
 51
224.7556219146
  0
ARC
  5
3CE
100
AcDbEntity
  8
0
100
AcDbCircle
 62
7
  6
CONTINUOUS
 10
6.6819124261
 20
3.3781594397
 40
0.025
100
AcDbArc
 50
90.0
 51
176.7993265714
  0
ARC
  5
3CF
100
AcDbEntity
  8
0
100
AcDbCircle
 62
7
  6
CONTINUOUS
 10
6.6819124261
 20
3.0681594397
 40
0.025
100
AcDbArc
 50
183.2006734286
 51
270.0
  0
ARC
  5
3D0
100
AcDbEntity
  8
0
100
AcDbCircle
 62
7
  6
CONTINUOUS
 10
6.6893969143
 20
3.0681594397
 40
0.025
100
AcDbArc
 50
270.0
 51
336.3131006371
  0
ARC
  5
3D1
100
AcDbEntity
  8
0
100
AcDbCircle
 62
7
  6
CONTINUOUS
 10
6.6893969143
 20
3.3781594397
 40
0.025
100
AcDbArc
 50
23.6868993629
 51
90.0
  0
ARC
  5
3D2
100
AcDbEntity
  8
0
100
AcDbCircle
 62
7
  6
CONTINUOUS
 10
6.9756143632
 20
3.1337423906
 40
0.02
100
AcDbArc
 50
283.9188002729
 51
358.3297322854
  0
ARC
  5
3D3
100
AcDbEntity
  8
0
100
AcDbCircle
 62
7
  6
CONTINUOUS
 10
6.9756143632
 20
3.3125764889
 40
0.02
100
AcDbArc
 50
1.6702677144
 51
76.0811997271
  0
ARC
  5
3D4
100
AcDbEntity
  8
0
100
AcDbCircle
 62
7
  6
CONTINUOUS
 10
6.7306058656
 20
3.0500812117
 40
0.02
100
AcDbArc
 50
96.0539076486
 51
156.3131006371
  0
ARC
  5
3D5
100
AcDbEntity
  8
0
100
AcDbCircle
 62
7
  6
CONTINUOUS
 10
6.7306058656
 20
3.3962376678
 40
0.02
100
AcDbArc
 50
203.6868993629
 51
263.9460923514
  0
ARC
  5
3D6
100
AcDbEntity
  8
0
100
AcDbCircle
 62
7
  6
CONTINUOUS
 10
7.0003478457
 20
3.4959096131
 40
0.01
100
AcDbArc
 50
148.9576599277
 51
270.0
  0
ARC
  5
3D7
100
AcDbEntity
  8
0
100
AcDbCircle
 62
7
  6
CONTINUOUS
 10
7.2489628737
 20
3.9109096131
 40
0.6655302365
100
AcDbArc
 50
162.1759428058
 51
165.3102062657
  0
ARC
  5
3D8
100
AcDbEntity
  8
0
100
AcDbCircle
 62
7
  6
CONTINUOUS
 10
7.2489628737
 20
3.9109096131
 40
0.6655302365
100
AcDbArc
 50
167.1481751459
 51
170.7147267369
  0
ARC
  5
3D9
100
AcDbEntity
  8
0
100
AcDbCircle
 62
7
  6
CONTINUOUS
 10
7.2489628737
 20
3.9109096131
 40
0.6655302365
100
AcDbArc
 50
172.4196365177
 51
187.5803634823
  0
ARC
  5
3DA
100
AcDbEntity
  8
0
100
AcDbCircle
 62
7
  6
CONTINUOUS
 10
7.2489628737
 20
3.9109096131
 40
0.6655302365
100
AcDbArc
 50
189.2852732631
 51
192.8518248541
  0
ARC
  5
3DB
100
AcDbEntity
  8
0
100
AcDbCircle
 62
7
  6
CONTINUOUS
 10
7.2489628737
 20
3.9109096131
 40
0.6655302365
100
AcDbArc
 50
194.6897937343
 51
197.8240571942
  0
ARC
  5
3DC
100
AcDbEntity
  8
0
100
AcDbCircle
 62
7
  6
CONTINUOUS
 10
6.8333653307
 20
3.5964108507
 40
0.1848939688
100
AcDbArc
 50
328.957659928
 51
344.9651429501
  0
ARC
  5
3DD
100
AcDbEntity
  8
0
100
AcDbCircle
 62
7
  6
CONTINUOUS
 10
6.944326271
 20
3.5666065926
 40
0.07
100
AcDbArc
 50
344.9651429501
 51
41.3826298641
  0
ARC
  5
3DE
100
AcDbEntity
  8
0
100
AcDbCircle
 62
7
  6
CONTINUOUS
 10
6.6421149317
 20
3.9109119715
 40
0.0420098048
100
AcDbArc
 50
177.412938526
 51
180.0032165323
  0
ARC
  5
3DF
100
AcDbEntity
  8
0
100
AcDbCircle
 62
7
  6
CONTINUOUS
 10
6.5636247891
 20
3.9109062404
 40
0.041562075
100
AcDbArc
 50
357.0490043431
 51
0.004649529
  0
ARC
  5
3E0
100
AcDbEntity
  8
0
100
AcDbCircle
 62
7
  6
CONTINUOUS
 10
7.0156058656
 20
3.6294096131
 40
0.025
100
AcDbArc
 50
137.2533923981
 51
221.382629864
  0
ARC
  5
3E1
100
AcDbEntity
  8
0
100
AcDbCircle
 62
7
  6
CONTINUOUS
 10
6.8660146142
 20
3.6309182889
 40
0.0121760501
100
AcDbArc
 50
345.054713071
 51
347.142914437
  0
ARC
  5
3E2
100
AcDbEntity
  8
0
100
AcDbCircle
 62
7
  6
CONTINUOUS
 10
6.8681964168
 20
3.6271596131
 40
0.01
100
AcDbArc
 50
345.610977056
 51
360.0
  0
ARC
  5
3E3
100
AcDbEntity
  8
0
100
AcDbCircle
 62
7
  6
CONTINUOUS
 10
6.8706271495
 20
3.6303738531
 40
0.0075742431
100
AcDbArc
 50
340.7688075283
 51
343.3912754644
  0
ARC
  5
3E4
100
AcDbEntity
  8
0
100
AcDbCircle
 62
7
  6
CONTINUOUS
 10
6.6201374583
 20
3.7087245737
 40
0.005
100
AcDbArc
 50
197.8240571942
 51
247.1516185425
  0
ARC
  5
3E5
100
AcDbEntity
  8
0
100
AcDbCircle
 62
7
  6
CONTINUOUS
 10
6.6201374583
 20
4.1130946525
 40
0.005
100
AcDbArc
 50
112.8483814575
 51
162.1759428058
  0
ARC
  5
3E6
100
AcDbEntity
  8
0
100
AcDbCircle
 62
7
  6
CONTINUOUS
 10
6.6231964168
 20
4.1332574695
 40
0.005
100
AcDbArc
 50
124.1144729456
 51
180.0
  0
ARC
  5
3E7
100
AcDbEntity
  8
0
100
AcDbCircle
 62
7
  6
CONTINUOUS
 10
6.6231964168
 20
3.6885617567
 40
0.005
100
AcDbArc
 50
180.0
 51
235.8855270544
  0
ARC
  5
3E8
100
AcDbEntity
  8
0
100
AcDbCircle
 62
7
  6
CONTINUOUS
 10
6.6972305336
 20
4.1834096131
 40
0.005
100
AcDbArc
 50
90.0
 51
124.1144729461
  0
ARC
  5
3E9
100
AcDbEntity
  8
0
100
AcDbCircle
 62
7
  6
CONTINUOUS
 10
6.6972305336
 20
3.6384096131
 40
0.005
100
AcDbArc
 50
235.8855270539
 51
270.0
  0
ARC
  5
3EA
100
AcDbEntity
  8
0
100
AcDbCircle
 62
7
  6
CONTINUOUS
 10
3.5857759467
 20
5.3355681251
 40
1.077841488
100
AcDbArc
 50
66.0
 51
180.0
  0
ARC
  5
3EB
100
AcDbEntity
  8
0
100
AcDbCircle
 62
7
  6
CONTINUOUS
 10
3.5857759467
 20
5.3355681251
 40
0.642841488
100
AcDbArc
 50
66.0
 51
180.0
  0
ARC
  5
3EC
100
AcDbEntity
  8
0
100
AcDbCircle
 62
7
  6
CONTINUOUS
 10
3.0803244234
 20
5.0952172365
 40
0.09
100
AcDbArc
 50
140.4987388129
 51
175.0
  0
ARC
  5
3ED
100
AcDbEntity
  8
0
100
AcDbCircle
 62
7
  6
CONTINUOUS
 10
2.3705444939
 20
5.0952172365
 40
0.09
100
AcDbArc
 50
5.0
 51
39.5012611871
  0
ARC
  5
3EE
100
AcDbEntity
  8
0
100
AcDbCircle
 62
7
  6
CONTINUOUS
 10
3.064582053
 20
4.9152811199
 40
0.09
100
AcDbArc
 50
175.0
 51
210.4655828497
  0
ARC
  5
3EF
100
AcDbEntity
  8
0
100
AcDbCircle
 62
7
  6
CONTINUOUS
 10
2.3862868642
 20
4.9152811199
 40
0.09
100
AcDbArc
 50
329.5344171503
 51
5.0
  0
ARC
  5
3F0
100
AcDbEntity
  8
0
100
AcDbCircle
 62
7
  6
CONTINUOUS
 10
2.9487017026
 20
4.8479096131
 40
0.04
100
AcDbArc
 50
270.0
 51
321.7927154688
  0
ARC
  5
3F1
100
AcDbEntity
  8
0
100
AcDbCircle
 62
7
  6
CONTINUOUS
 10
2.5021672147
 20
4.8479096131
 40
0.04
100
AcDbArc
 50
218.2072845312
 51
270.0
  0
ARC
  5
3F2
100
AcDbEntity
  8
0
100
AcDbCircle
 62
7
  6
CONTINUOUS
 10
2.9800150477
 20
5.1779096131
 40
0.04
100
AcDbArc
 50
320.4987388129
 51
90.0
  0
ARC
  5
3F3
100
AcDbEntity
  8
0
100
AcDbCircle
 62
7
  6
CONTINUOUS
 10
2.4708538695
 20
5.1779096131
 40
0.04
100
AcDbArc
 50
90.0
 51
219.5012611871
  0
ARC
  5
3F4
100
AcDbEntity
  8
0
100
AcDbCircle
 62
7
  6
CONTINUOUS
 10
6.5318059831
 20
4.9245687702
 40
1.865
100
AcDbArc
 50
276.0539076486
 51
283.9188002729
  0
ARC
  5
3F5
100
AcDbEntity
  8
0
100
AcDbCircle
 62
7
  6
CONTINUOUS
 10
7.2278709571
 20
5.2928629622
 40
0.675
100
AcDbArc
 50
90.0
 51
109.6215522579
  0
ARC
  5
3F6
100
AcDbEntity
  8
0
100
AcDbCircle
 62
7
  6
CONTINUOUS
 10
6.9560697893
 20
4.416657788
 40
0.2499981749
100
AcDbArc
 50
270.0
 51
300.2858658987
  0
ARC
  5
3F7
100
AcDbEntity
  8
0
100
AcDbCircle
 62
7
  6
CONTINUOUS
 10
6.4142918809
 20
4.8312311611
 40
0.07
100
AcDbArc
 50
93.9127655791
 51
127.7557621284
  0
ARC
  5
3F8
100
AcDbEntity
  8
0
100
AcDbCircle
 62
7
  6
CONTINUOUS
 10
6.4142918809
 20
5.4905880651
 40
0.07
100
AcDbArc
 50
232.2442378682
 51
266.0872344213
  0
ARC
  5
3F9
100
AcDbEntity
  8
0
100
AcDbCircle
 62
7
  6
CONTINUOUS
 10
6.7446312447
 20
5.5082142815
 40
0.07
100
AcDbArc
 50
280.0213382993
 51
327.8179170183
  0
ARC
  5
3FA
100
AcDbEntity
  8
0
100
AcDbCircle
 62
7
  6
CONTINUOUS
 10
6.7446312447
 20
4.8136049448
 40
0.07
100
AcDbArc
 50
32.1820829817
 51
79.9786617007
  0
ARC
  5
3FB
100
AcDbEntity
  8
0
100
AcDbCircle
 62
7
  6
CONTINUOUS
 10
6.8403844586
 20
4.8716596131
 40
0.039
100
AcDbArc
 50
270.0
 51
329.208011109
  0
ARC
  5
3FC
100
AcDbEntity
  8
0
100
AcDbCircle
 62
7
  6
CONTINUOUS
 10
6.8403844586
 20
5.4501596131
 40
0.039
100
AcDbArc
 50
30.791988891
 51
90.0
  0
ARC
  5
3FD
100
AcDbEntity
  8
0
100
AcDbCircle
 62
7
  6
CONTINUOUS
 10
6.8368844586
 20
4.8716596131
 40
0.039
100
AcDbArc
 50
212.1820829817
 51
270.0
  0
ARC
  5
3FE
100
AcDbEntity
  8
0
100
AcDbCircle
 62
7
  6
CONTINUOUS
 10
6.8368844586
 20
5.4501596131
 40
0.039
100
AcDbArc
 50
90.0
 51
147.8179170183
  0
ARC
  5
3FF
100
AcDbEntity
  8
0
100
AcDbCircle
 62
7
  6
CONTINUOUS
 10
6.3475515302
 20
5.4044096131
 40
0.039
100
AcDbArc
 50
52.2442378722
 51
90.00000062
  0
ARC
  5
400
100
AcDbEntity
  8
0
100
AcDbCircle
 62
7
  6
CONTINUOUS
 10
6.3475515302
 20
4.9174096131
 40
0.039
100
AcDbArc
 50
269.9999993932
 51
307.7557621323
  0
ARC
  5
401
100
AcDbEntity
  8
0
100
AcDbCircle
 62
7
  6
CONTINUOUS
 10
6.3393844586
 20
4.9174096131
 40
0.039
100
AcDbArc
 50
180.0
 51
270.0
  0
ARC
  5
402
100
AcDbEntity
  8
0
100
AcDbCircle
 62
7
  6
CONTINUOUS
 10
6.3393844586
 20
5.4044096131
 40
0.039
100
AcDbArc
 50
90.0
 51
180.0
  0
ARC
  5
403
100
AcDbEntity
  8
0
100
AcDbCircle
 62
7
  6
CONTINUOUS
 10
6.9224837504
 20
4.6984096131
 40
0.0375
100
AcDbArc
 50
2.6302873871
 51
49.4641978887
  0
ARC
  5
404
100
AcDbEntity
  8
0
100
AcDbCircle
 62
7
  6
CONTINUOUS
 10
6.9558558656
 20
4.7555277887
 40
0.03
100
AcDbArc
 50
179.9999991883
 51
252.5423966333
  0
ARC
  5
405
100
AcDbEntity
  8
0
100
AcDbCircle
 62
7
  6
CONTINUOUS
 10
6.9558554123
 20
4.7740745338
 40
0.03
100
AcDbArc
 50
120.5518721988
 51
180.3149767916
  0
ARC
  5
406
100
AcDbEntity
  8
0
100
AcDbCircle
 62
7
  6
CONTINUOUS
 10
6.8867721587
 20
4.8440157841
 40
0.015
100
AcDbArc
 50
40.8998864831
 51
149.208011109
  0
ARC
  5
407
100
AcDbEntity
  8
0
100
AcDbCircle
 62
7
  6
CONTINUOUS
 10
6.8867721587
 20
5.4778034422
 40
0.015
100
AcDbArc
 50
210.791988891
 51
319.1001135169
  0
ARC
  5
408
100
AcDbEntity
  8
0
100
AcDbCircle
 62
7
  6
CONTINUOUS
 10
6.8660318308
 20
4.1909051981
 40
0.0121583171
100
AcDbArc
 50
12.8555635595
 51
14.947741127
  0
ARC
  5
409
100
AcDbEntity
  8
0
100
AcDbCircle
 62
7
  6
CONTINUOUS
 10
6.8681964168
 20
4.1946596131
 40
0.01
100
AcDbArc
 50
0.0
 51
14.389022944
  0
ARC
  5
40A
100
AcDbEntity
  8
0
100
AcDbCircle
 62
7
  6
CONTINUOUS
 10
6.8706374894
 20
4.1914487167
 40
0.0075633788
100
AcDbArc
 50
16.606841167
 51
19.231905648
  0
ARC
  5
40B
100
AcDbEntity
  8
0
100
AcDbCircle
 62
7
  6
CONTINUOUS
 10
7.2506516209
 20
6.5736466714
 40
2.8222094905
100
AcDbArc
 50
274.9885650896
 51
276.454549377
  0
ARC
  5
40C
100
AcDbEntity
  8
0
100
AcDbCircle
 62
7
  6
CONTINUOUS
 10
6.507341721
 20
6.8510254935
 40
1.4336158804
100
AcDbArc
 50
266.0872344213
 51
280.0213382993
  0
ARC
  5
40D
100
AcDbEntity
  8
0
100
AcDbCircle
 62
7
  6
CONTINUOUS
 10
6.2989344586
 20
6.1283660907
 40
1.1849564775
100
AcDbArc
 50
246.0
 51
270.0
  0
ARC
  5
40E
100
AcDbEntity
  8
0
100
AcDbCircle
 62
7
  6
CONTINUOUS
 10
6.2989344586
 20
6.1283660907
 40
0.7499564775
100
AcDbArc
 50
246.0
 51
270.0
  0
ARC
  5
40F
100
AcDbEntity
  8
0
100
AcDbCircle
 62
7
  6
CONTINUOUS
 10
7.1821425376
 20
6.065196522
 40
0.4
100
AcDbArc
 50
304.2163310183
 51
325.2792910921
  0
ARC
  5
410
100
AcDbEntity
  8
0
100
AcDbCircle
 62
7
  6
CONTINUOUS
 10
6.9306827282
 20
6.1264720772
 40
0.21
100
AcDbArc
 50
283.0471477631
 51
289.6215522579
  0
ARC
  5
411
100
AcDbEntity
  8
0
100
AcDbCircle
 62
7
  6
CONTINUOUS
 10
7.1434785374
 20
5.5981894553
 40
0.07
100
AcDbArc
 50
127.742068257
 51
176.5436578978
  0
ARC
  5
412
100
AcDbEntity
  8
0
100
AcDbCircle
 62
7
  6
CONTINUOUS
 10
6.9531969912
 20
5.8088870336
 40
0.05
100
AcDbArc
 50
34.7207089079
 51
65.1574082513
  0
ARC
  5
413
100
AcDbEntity
  8
0
100
AcDbCircle
 62
7
  6
CONTINUOUS
 10
7.0700255996
 20
5.6930823735
 40
0.05
100
AcDbArc
 50
307.742068257
 51
55.7836689817
  0
ARC
  5
414
100
AcDbEntity
  8
0
100
AcDbCircle
 62
7
  6
CONTINUOUS
 10
6.9826058656
 20
5.8724096131
 40
0.02
100
AcDbArc
 50
180.0
 51
245.1574082513
  0
ARC
  5
415
100
AcDbEntity
  8
0
100
AcDbCircle
 62
7
  6
CONTINUOUS
 10
6.9826058656
 20
5.9024096131
 40
0.02
100
AcDbArc
 50
103.0471477631
 51
180.0
  0
ARC
  5
416
100
AcDbEntity
  8
0
100
AcDbCircle
 62
7
  6
CONTINUOUS
 10
7.9734057481
 20
1.5217501093
 40
1.865
100
AcDbArc
 50
97.299197348
 51
103.9188002729
  0
ARC
  5
417
100
AcDbEntity
  8
0
100
AcDbCircle
 62
7
  6
CONTINUOUS
 10
7.4584317545
 20
1.654679114
 40
0.825
100
AcDbArc
 50
134.022473743
 51
152.2815016122
  0
ARC
  5
418
100
AcDbEntity
  8
0
100
AcDbCircle
 62
7
  6
CONTINUOUS
 10
7.2936058656
 20
1.5924096131
 40
0.6335
100
AcDbArc
 50
128.646618565
 51
142.8067033636
  0
ARC
  5
419
100
AcDbEntity
  8
0
100
AcDbCircle
 62
7
  6
CONTINUOUS
 10
7.5462597953
 20
1.5533753196
 40
0.45
100
AcDbArc
 50
39.676474149
 51
51.1851367235
  0
ARC
  5
41A
100
AcDbEntity
  8
0
100
AcDbCircle
 62
7
  6
CONTINUOUS
 10
7.5688044675
 20
1.6279096131
 40
0.326
100
AcDbArc
 50
36.9606094189
 51
46.6040419623
  0
ARC
  5
41B
100
AcDbEntity
  8
0
100
AcDbCircle
 62
7
  6
CONTINUOUS
 10
8.0254004972
 20
2.0859096131
 40
0.3035
100
AcDbArc
 50
204.3918372598
 51
217.9887202813
  0
ARC
  5
41C
100
AcDbEntity
  8
0
100
AcDbCircle
 62
7
  6
CONTINUOUS
 10
8.0980448018
 20
2.0664260261
 40
0.3
100
AcDbArc
 50
190.0791551608
 51
203.3650407337
  0
ARC
  5
41D
100
AcDbEntity
  8
0
100
AcDbCircle
 62
7
  6
CONTINUOUS
 10
7.6624063489
 20
2.2995082159
 40
0.13
100
AcDbArc
 50
186.7656051539
 51
216.9941162959
  0
ARC
  5
41E
100
AcDbEntity
  8
0
100
AcDbCircle
 62
7
  6
CONTINUOUS
 10
7.6509523596
 20
2.1418519742
 40
0.07
100
AcDbArc
 50
186.5375495155
 51
231.353381435
  0
ARC
  5
41F
100
AcDbEntity
  8
0
100
AcDbCircle
 62
7
  6
CONTINUOUS
 10
7.6363388767
 20
2.5199419941
 40
0.05
100
AcDbArc
 50
141.6438442493
 51
180.3513454949
  0
ARC
  5
420
100
AcDbEntity
  8
0
100
AcDbCircle
 62
7
  6
CONTINUOUS
 10
7.5878558656
 20
2.2724083376
 40
0.0405
100
AcDbArc
 50
322.7778661039
 51
65.1670089609
  0
ARC
  5
421
100
AcDbEntity
  8
0
100
AcDbCircle
 62
7
  6
CONTINUOUS
 10
7.5657637075
 20
2.5757913047
 40
0.04
100
AcDbArc
 50
321.64384425
 51
54.8515196988
  0
ARC
  5
422
100
AcDbEntity
  8
0
100
AcDbCircle
 62
7
  6
CONTINUOUS
 10
7.5266278069
 20
2.1972136046
 40
0.04
100
AcDbArc
 50
11.519670006
 51
36.9941162959
  0
ARC
  5
423
100
AcDbEntity
  8
0
100
AcDbCircle
 62
7
  6
CONTINUOUS
 10
7.4766058656
 20
2.1334096131
 40
0.04
100
AcDbArc
 50
90.0000000004
 51
136.5674634422
  0
ARC
  5
424
100
AcDbEntity
  8
0
100
AcDbCircle
 62
7
  6
CONTINUOUS
 10
7.5511058656
 20
2.1304096131
 40
0.0305
100
AcDbArc
 50
6.5375495155
 51
90.0
  0
ARC
  5
425
100
AcDbEntity
  8
0
100
AcDbCircle
 62
7
  6
CONTINUOUS
 10
7.7731377197
 20
2.0086732081
 40
0.03
100
AcDbArc
 50
10.0791539986
 51
82.3991246701
  0
ARC
  5
426
100
AcDbEntity
  8
0
100
AcDbCircle
 62
7
  6
CONTINUOUS
 10
7.7951058656
 20
1.9355520374
 40
0.03
100
AcDbArc
 50
9.7006739659
 51
23.3650407337
  0
ARC
  5
427
100
AcDbEntity
  8
0
100
AcDbCircle
 62
7
  6
CONTINUOUS
 10
7.6174640829
 20
2.3363896119
 40
0.03
100
AcDbArc
 50
180.3513454949
 51
245.1670089618
  0
ARC
  5
428
100
AcDbEntity
  8
0
100
AcDbCircle
 62
7
  6
CONTINUOUS
 10
7.6060625196
 20
2.6330277069
 40
0.03
100
AcDbArc
 50
183.4897621043
 51
234.8515197001
  0
ARC
  5
429
100
AcDbEntity
  8
0
100
AcDbCircle
 62
7
  6
CONTINUOUS
 10
7.483658255
 20
2.1609096131
 40
0.028
100
AcDbArc
 50
359.9999735644
 51
26.5160683276
  0
ARC
  5
42A
100
AcDbEntity
  8
0
100
AcDbCircle
 62
7
  6
CONTINUOUS
 10
7.5398558656
 20
2.1999096131
 40
0.0265
100
AcDbArc
 50
270.0
 51
11.519670006
  0
ARC
  5
42B
100
AcDbEntity
  8
0
100
AcDbCircle
 62
7
  6
CONTINUOUS
 10
7.8049628807
 20
1.937237046
 40
0.02
100
AcDbArc
 50
333.817464522
 51
9.7006770149
  0
ARC
  5
42C
100
AcDbEntity
  8
0
100
AcDbCircle
 62
7
  6
CONTINUOUS
 10
7.8772143566
 20
1.8279096131
 40
0.02
100
AcDbArc
 50
270.0
 51
39.676474149
  0
ARC
  5
42D
100
AcDbEntity
  8
0
100
AcDbCircle
 62
7
  6
CONTINUOUS
 10
7.8408585969
 20
1.9195877526
 40
0.02
100
AcDbArc
 50
153.8174645119
 51
231.1851367238
  0
ARC
  5
42E
100
AcDbEntity
  8
0
100
AcDbCircle
 62
7
  6
CONTINUOUS
 10
7.8065190109
 20
1.8793212196
 40
0.02
100
AcDbArc
 50
158.1640356369
 51
226.6040419623
  0
ARC
  5
42F
100
AcDbEntity
  8
0
100
AcDbCircle
 62
7
  6
CONTINUOUS
 10
7.7321843891
 20
1.9874542319
 40
0.02
100
AcDbArc
 50
217.1932966364
 51
257.7792543283
  0
ARC
  5
430
100
AcDbEntity
  8
0
100
AcDbCircle
 62
7
  6
CONTINUOUS
 10
7.4216058656
 20
1.8134096131
 40
0.015
100
AcDbArc
 50
270.0
 51
338.4898117331
  0
ARC
  5
431
100
AcDbEntity
  8
0
100
AcDbCircle
 62
7
  6
CONTINUOUS
 10
7.7376058656
 20
1.9554096131
 40
0.0125
100
AcDbArc
 50
24.3918372598
 51
90.0
  0
ARC
  5
432
100
AcDbEntity
  8
0
100
AcDbCircle
 62
7
  6
CONTINUOUS
 10
7.7763508034
 20
1.8914096131
 40
0.0125
100
AcDbArc
 50
338.1640356369
 51
37.9887202813
  0
ARC
  5
433
100
AcDbEntity
  8
0
100
AcDbCircle
 62
7
  6
CONTINUOUS
 10
7.8213039725
 20
1.8179096131
 40
0.01
100
AcDbArc
 50
270.0
 51
36.9606094189
  0
ARC
  5
434
100
AcDbEntity
  8
0
100
AcDbCircle
 62
7
  6
CONTINUOUS
 10
12.9816058656
 20
2.930546053
 40
5.4865
100
AcDbArc
 50
175.3048544436
 51
186.7656051539
  0
ARC
  5
435
100
AcDbEntity
  8
0
100
AcDbCircle
 62
7
  6
CONTINUOUS
 10
8.656433876
 20
3.9710204015
 40
1.02
100
AcDbArc
 50
184.0
 51
199.0
  0
ARC
  5
436
100
AcDbEntity
  8
0
100
AcDbCircle
 62
7
  6
CONTINUOUS
 10
8.656433876
 20
3.9710204015
 40
1.0
100
AcDbArc
 50
184.0
 51
199.0
  0
ARC
  5
437
100
AcDbEntity
  8
0
100
AcDbCircle
 62
7
  6
CONTINUOUS
 10
7.9747625095
 20
3.8313658933
 40
0.375
100
AcDbArc
 50
184.0
 51
199.0
  0
ARC
  5
438
100
AcDbEntity
  8
0
100
AcDbCircle
 62
7
  6
CONTINUOUS
 10
7.9747625095
 20
3.8313658933
 40
0.355
100
AcDbArc
 50
184.0
 51
199.0
  0
ARC
  5
439
100
AcDbEntity
  8
0
100
AcDbCircle
 62
7
  6
CONTINUOUS
 10
7.2526058656
 20
3.9089096131
 40
0.338
100
AcDbArc
 50
54.9314345069
 51
120.2858658987
  0
ARC
  5
43A
100
AcDbEntity
  8
0
100
AcDbCircle
 62
7
  6
CONTINUOUS
 10
7.6261058656
 20
3.2231594397
 40
0.2585
100
AcDbArc
 50
346.3617449359
 51
25.2146348188
  0
ARC
  5
43B
100
AcDbEntity
  8
0
100
AcDbCircle
 62
7
  6
CONTINUOUS
 10
7.6718464005
 20
3.5964108507
 40
0.1848939688
100
AcDbArc
 50
195.0348570499
 51
211.042340072
  0
ARC
  5
43C
100
AcDbEntity
  8
0
100
AcDbCircle
 62
7
  6
CONTINUOUS
 10
7.9730653214
 20
3.3865344258
 40
0.125
100
AcDbArc
 50
183.2006734286
 51
205.2146348188
  0
ARC
  5
43D
100
AcDbEntity
  8
0
100
AcDbCircle
 62
7
  6
CONTINUOUS
 10
7.6032147627
 20
3.3722715267
 40
0.09
100
AcDbArc
 50
135.2443780853
 51
175.3048544436
  0
ARC
  5
43E
100
AcDbEntity
  8
0
100
AcDbCircle
 62
7
  6
CONTINUOUS
 10
7.5608854602
 20
3.5666065926
 40
0.07
100
AcDbArc
 50
138.6173701359
 51
195.0348570499
  0
ARC
  5
43F
100
AcDbEntity
  8
0
100
AcDbCircle
 62
7
  6
CONTINUOUS
 10
7.5183558656
 20
3.4564096131
 40
0.0295
100
AcDbArc
 50
315.2443780854
 51
90.0
  0
ARC
  5
440
100
AcDbEntity
  8
0
100
AcDbCircle
 62
7
  6
CONTINUOUS
 10
7.4896058656
 20
3.6294096131
 40
0.025
100
AcDbArc
 50
318.617370136
 51
47.8492454758
  0
ARC
  5
441
100
AcDbEntity
  8
0
100
AcDbCircle
 62
7
  6
CONTINUOUS
 10
7.8232993052
 20
3.3781594397
 40
0.025
100
AcDbArc
 50
3.2006734286
 51
90.0
  0
ARC
  5
442
100
AcDbEntity
  8
0
100
AcDbCircle
 62
7
  6
CONTINUOUS
 10
7.8232993052
 20
3.0681594397
 40
0.025
100
AcDbArc
 50
270.0
 51
330.8768374855
  0
ARC
  5
443
100
AcDbEntity
  8
0
100
AcDbCircle
 62
7
  6
CONTINUOUS
 10
7.815814817
 20
3.0681594397
 40
0.025
100
AcDbArc
 50
203.6868993629
 51
270.0
  0
ARC
  5
444
100
AcDbEntity
  8
0
100
AcDbCircle
 62
7
  6
CONTINUOUS
 10
7.815814817
 20
3.3781594397
 40
0.025
100
AcDbArc
 50
90.0
 51
138.1135252746
  0
ARC
  5
445
100
AcDbEntity
  8
0
100
AcDbCircle
 62
7
  6
CONTINUOUS
 10
7.5995171061
 20
4.1084917764
 40
0.02
100
AcDbArc
 50
88.9999977482
 51
184.0
  0
ARC
  5
446
100
AcDbEntity
  8
0
100
AcDbCircle
 62
7
  6
CONTINUOUS
 10
7.6243605283
 20
4.1080581329
 40
0.02
100
AcDbArc
 50
4.0
 51
88.9999977491
  0
ARC
  5
447
100
AcDbEntity
  8
0
100
AcDbCircle
 62
7
  6
CONTINUOUS
 10
7.529597368
 20
3.1337423906
 40
0.02
100
AcDbArc
 50
181.6702677146
 51
256.0811997271
  0
ARC
  5
448
100
AcDbEntity
  8
0
100
AcDbCircle
 62
7
  6
CONTINUOUS
 10
7.529597368
 20
3.3125764889
 40
0.02
100
AcDbArc
 50
103.9188002729
 51
178.3297322856
  0
ARC
  5
449
100
AcDbEntity
  8
0
100
AcDbCircle
 62
7
  6
CONTINUOUS
 10
7.7746058656
 20
3.0500812117
 40
0.02
100
AcDbArc
 50
23.6868993629
 51
83.9460923514
  0
ARC
  5
44A
100
AcDbEntity
  8
0
100
AcDbCircle
 62
7
  6
CONTINUOUS
 10
7.9265719988
 20
2.9577086479
 40
0.02
100
AcDbArc
 50
269.0
 51
19.0
  0
ARC
  5
44B
100
AcDbEntity
  8
0
100
AcDbCircle
 62
7
  6
CONTINUOUS
 10
7.8999716065
 20
2.9581729595
 40
0.02
100
AcDbArc
 50
199.0
 51
269.0
  0
ARC
  5
44C
100
AcDbEntity
  8
0
100
AcDbCircle
 62
7
  6
CONTINUOUS
 10
7.5676058656
 20
4.1512518225
 40
0.01
100
AcDbArc
 50
0.0
 51
88.0334758127
  0
ARC
  5
44D
100
AcDbEntity
  8
0
100
AcDbCircle
 62
7
  6
CONTINUOUS
 10
7.5676058656
 20
3.670569053
 40
0.01
100
AcDbArc
 50
271.9671106637
 51
360.0
  0
ARC
  5
44E
100
AcDbEntity
  8
0
100
AcDbCircle
 62
7
  6
CONTINUOUS
 10
7.5048638855
 20
3.4959096131
 40
0.01
100
AcDbArc
 50
270.0
 51
31.0423400722
  0
ARC
  5
44F
100
AcDbEntity
  8
0
100
AcDbCircle
 62
7
  6
CONTINUOUS
 10
30.0343961952
 20
4.0007808055
 40
22.5
100
AcDbArc
 50
182.2746051506
 51
183.4897621041
  0
ARC
  5
450
100
AcDbEntity
  8
0
100
AcDbCircle
 62
7
  6
CONTINUOUS
 10
30.0343961952
 20
4.0007808055
 40
22.5
100
AcDbArc
 50
181.433045224
 51
181.6913549008
  0
ARC
  5
451
100
AcDbEntity
  8
0
100
AcDbCircle
 62
7
  6
CONTINUOUS
 10
30.0343961952
 20
4.0007808055
 40
22.5
100
AcDbArc
 50
180.868933004
 51
181.3368663082
  0
ARC
  5
452
100
AcDbEntity
  8
0
100
AcDbCircle
 62
7
  6
CONTINUOUS
 10
30.0343961952
 20
4.0007808055
 40
22.5
100
AcDbArc
 50
178.2188336794
 51
179.5886459666
  0
ARC
  5
453
100
AcDbEntity
  8
0
100
AcDbCircle
 62
7
  6
CONTINUOUS
 10
7.9734057481
 20
4.9245687702
 40
1.865
100
AcDbArc
 50
256.0811997271
 51
263.9460923514
  0
ARC
  5
454
100
AcDbEntity
  8
0
100
AcDbCircle
 62
7
  6
CONTINUOUS
 10
7.2773407741
 20
5.2928629622
 40
0.675
100
AcDbArc
 50
70.3784477421
 51
90.0
  0
ARC
  5
455
100
AcDbEntity
  8
0
100
AcDbCircle
 62
7
  6
CONTINUOUS
 10
7.2526058656
 20
5.1609096131
 40
0.469
100
AcDbArc
 50
220.8998864832
 51
228.2681829602
  0
ARC
  5
456
100
AcDbEntity
  8
0
100
AcDbCircle
 62
7
  6
CONTINUOUS
 10
7.2526058656
 20
5.1609096131
 40
0.469
100
AcDbArc
 50
311.7318170398
 51
67.2461286101
  0
ARC
  5
457
100
AcDbEntity
  8
0
100
AcDbCircle
 62
7
  6
CONTINUOUS
 10
7.2526058656
 20
5.1609096131
 40
0.469
100
AcDbArc
 50
112.7538713899
 51
139.1001135168
  0
ARC
  5
458
100
AcDbEntity
  8
0
100
AcDbCircle
 62
7
  6
CONTINUOUS
 10
7.3230691936
 20
6.065196522
 40
0.4
100
AcDbArc
 50
214.7207089079
 51
235.7836689817
  0
ARC
  5
459
100
AcDbEntity
  8
0
100
AcDbCircle
 62
7
  6
CONTINUOUS
 10
7.574529003
 20
6.1264720772
 40
0.21
100
AcDbArc
 50
250.3784477421
 51
256.9528522369
  0
ARC
  5
45A
100
AcDbEntity
  8
0
100
AcDbCircle
 62
7
  6
CONTINUOUS
 10
7.5186249533
 20
4.2878582101
 40
0.1249991695
100
AcDbArc
 50
234.9314226994
 51
268.3632156551
  0
ARC
  5
45B
100
AcDbEntity
  8
0
100
AcDbCircle
 62
7
  6
CONTINUOUS
 10
7.3617331938
 20
5.5981894553
 40
0.07
100
AcDbArc
 50
3.4563421022
 51
52.257931743
  0
ARC
  5
45C
100
AcDbEntity
  8
0
100
AcDbCircle
 62
7
  6
CONTINUOUS
 10
7.55201474
 20
5.8088870336
 40
0.05
100
AcDbArc
 50
114.8425917487
 51
145.2792910921
  0
ARC
  5
45D
100
AcDbEntity
  8
0
100
AcDbCircle
 62
7
  6
CONTINUOUS
 10
7.4351861316
 20
5.6930823735
 40
0.05
100
AcDbArc
 50
124.2163310183
 51
232.257931743
  0
ARC
  5
45E
100
AcDbEntity
  8
0
100
AcDbCircle
 62
7
  6
CONTINUOUS
 10
7.5827279808
 20
4.6984096131
 40
0.0375
100
AcDbArc
 50
130.5358021113
 51
177.3697126129
  0
ARC
  5
45F
100
AcDbEntity
  8
0
100
AcDbCircle
 62
7
  6
CONTINUOUS
 10
7.5493558656
 20
4.7555277887
 40
0.03
100
AcDbArc
 50
287.4576033724
 51
0.0000008304
  0
ARC
  5
460
100
AcDbEntity
  8
0
100
AcDbCircle
 62
7
  6
CONTINUOUS
 10
7.5493563189
 20
4.7740745338
 40
0.03
100
AcDbArc
 50
359.6850232084
 51
59.4481278012
  0
ARC
  5
461
100
AcDbEntity
  8
0
100
AcDbCircle
 62
7
  6
CONTINUOUS
 10
7.5226058656
 20
5.8724096131
 40
0.02
100
AcDbArc
 50
294.8425917487
 51
360.0
  0
ARC
  5
462
100
AcDbEntity
  8
0
100
AcDbCircle
 62
7
  6
CONTINUOUS
 10
7.5226058656
 20
5.9024096131
 40
0.02
100
AcDbArc
 50
0.0
 51
76.9528522369
  0
SPLINE
  5
463
100
AcDbEntity
  8
0
100
AcDbSpline
 62
7
  6
CONTINUOUS
 70
0
 71
3
 72
29
 73
25
 74
0
 42
0.0000001
 43
0.0000001
 44
0.0000000001
 40
0.0
 40
0.0
 40
0.0
 40
0.0
 40
0.0023551838
 40
0.0047790048
 40
0.0074301766
 40
0.0104311304
 40
0.0177813657
 40
0.0272325583
 40
0.0389438342
 40
0.0529772465
 40
0.06934622
 40
0.0880346081
 40
0.1090072051
 40
0.1322127748
 40
0.1575887589
 40
0.1850606086
 40
0.2459492468
 40
0.3141120802
 40
0.3886640161
 40
0.4686249682
 40
0.5529384096
 40
0.6404927894
 40
0.820712965
 40
1.0
 40
1.0
 40
1.0
 40
1.0
 10
6.5917203779
 20
3.9897094038
 30
0.0
 10
6.591730074
 20
3.9897099815
 30
0.0
 10
6.5917500273
 20
3.9897084829
 30
0.0
 10
6.5917790826
 20
3.9896977168
 30
0.0
 10
6.5918068414
 20
3.9896788355
 30
0.0
 10
6.5918447624
 20
3.9896405715
 30
0.0
 10
6.5918881789
 20
3.9895704285
 30
0.0
 10
6.5919332178
 20
3.9894615987
 30
0.0
 10
6.5919745382
 20
3.9893222244
 30
0.0
 10
6.5920119478
 20
3.9891525254
 30
0.0
 10
6.5920452811
 20
3.9889527538
 30
0.0
 10
6.5920743695
 20
3.9887234671
 30
0.0
 10
6.5920990724
 20
3.9884653367
 30
0.0
 10
6.5921192801
 20
3.9881791674
 30
0.0
 10
6.5921349017
 20
3.9878658753
 30
0.0
 10
6.5921500332
 20
3.9873970238
 30
0.0
 10
6.5921558888
 20
3.986751424
 30
0.0
 10
6.5921441049
 20
3.9859117433
 30
0.0
 10
6.5921137104
 20
3.98499383
 30
0.0
 10
6.5920650895
 20
3.9840100169
 30
0.0
 10
6.5919988841
 20
3.9829734939
 30
0.0
 10
6.5918872499
 20
3.981525662
 30
0.0
 10
6.5917114719
 20
3.9796900908
 30
0.0
 10
6.5915360969
 20
3.9782176444
 30
0.0
 10
6.591439445
 20
3.9774845661
 30
0.0
  0
SPLINE
  5
464
100
AcDbEntity
  8
0
100
AcDbSpline
 62
7
  6
CONTINUOUS
 70
0
 71
3
 72
19
 73
15
 74
0
 42
0.0000001
 43
0.0000001
 44
0.0000000001
 40
0.0
 40
0.0
 40
0.0
 40
0.0
 40
0.019074761
 40
0.0391826928
 40
0.0631240533
 40
0.0926194384
 40
0.1285922397
 40
0.171521067
 40
0.2216555209
 40
0.279126917
 40
0.416171996
 40
0.5825025231
 40
0.7774782417
 40
1.0
 40
1.0
 40
1.0
 40
1.0
 10
6.604987341
 20
4.0676204863
 30
0.0
 10
6.6049993408
 20
4.0676211826
 30
0.0
 10
6.6050246857
 20
4.0676176149
 30
0.0
 10
6.6050587337
 20
4.0675951921
 30
0.0
 10
6.605087573
 20
4.0675582608
 30
0.0
 10
6.6051124255
 20
4.0675074188
 30
0.0
 10
6.6051336942
 20
4.0674423529
 30
0.0
 10
6.6051514748
 20
4.0673629214
 30
0.0
 10
6.6051657504
 20
4.0672690851
 30
0.0
 10
6.6051809094
 20
4.0671156124
 30
0.0
 10
6.6051890277
 20
4.0668881777
 30
0.0
 10
6.6051842876
 20
4.0665741052
 30
0.0
 10
6.6051652029
 20
4.0662066337
 30
0.0
 10
6.6051443156
 20
4.0659443497
 30
0.0
 10
6.60513175
 20
4.0658046915
 30
0.0
  0
SPLINE
  5
465
100
AcDbEntity
  8
0
100
AcDbSpline
 62
7
  6
CONTINUOUS
 70
0
 71
3
 72
24
 73
20
 74
0
 42
0.0000001
 43
0.0000001
 44
0.0000000001
 40
0.0
 40
0.0
 40
0.0
 40
0.0
 40
0.0112228172
 40
0.0225248832
 40
0.0342858522
 40
0.0468440107
 40
0.0604771158
 40
0.0753979306
 40
0.1096617407
 40
0.1504608683
 40
0.1981293721
 40
0.2527300744
 40
0.3141419932
 40
0.3821060779
 40
0.456253031
 40
0.5361200086
 40
0.6211634164
 40
0.8042503799
 40
1.0
 40
1.0
 40
1.0
 40
1.0
 10
6.6035826526
 20
3.9818921008
 30
0.0
 10
6.6036162346
 20
3.9818940719
 30
0.0
 10
6.6036842005
 20
3.9818917072
 30
0.0
 10
6.6037848647
 20
3.9818682137
 30
0.0
 10
6.6038831197
 20
3.9818250184
 30
0.0
 10
6.6039786541
 20
3.9817624402
 30
0.0
 10
6.6040713899
 20
3.9816807555
 30
0.0
 10
6.6041970565
 20
3.9815400471
 30
0.0
 10
6.604344545
 20
3.9813124903
 30
0.0
 10
6.6045013077
 20
3.980978944
 30
0.0
 10
6.6046446898
 20
3.9805741947
 30
0.0
 10
6.6047735468
 20
3.9801004436
 30
0.0
 10
6.6048867777
 20
3.9795604702
 30
0.0
 10
6.6049833198
 20
3.9789579167
 30
0.0
 10
6.6050622395
 20
3.9782970962
 30
0.0
 10
6.6051227692
 20
3.9775829725
 30
0.0
 10
6.6051794777
 20
3.9765412828
 30
0.0
 10
6.60519801
 20
3.9751503383
 30
0.0
 10
6.605162076
 20
3.9740149888
 30
0.0
 10
6.60513175
 20
3.9734290251
 30
0.0
  0
SPLINE
  5
466
100
AcDbEntity
  8
0
100
AcDbSpline
 62
7
  6
CONTINUOUS
 70
0
 71
3
 72
38
 73
34
 74
0
 42
0.0000001
 43
0.0000001
 44
0.0000000001
 40
0.0
 40
0.0
 40
0.0
 40
0.0
 40
0.0050366178
 40
0.0067694286
 40
0.0087231459
 40
0.0133254849
 40
0.018886242
 40
0.0254199371
 40
0.032926212
 40
0.0413966937
 40
0.0611691137
 40
0.0845822984
 40
0.1114358817
 40
0.1414989834
 40
0.1745168998
 40
0.2102154917
 40
0.2884784603
 40
0.3738118397
 40
0.4635631738
 40
0.5549341254
 40
0.6450106705
 40
0.7308077642
 40
0.8093494664
 40
0.8450022345
 40
0.8777933579
 40
0.9074152652
 40
0.9335920974
 40
0.9560876136
 40
0.9747145845
 40
0.9825377928
 40
0.9893566733
 40
0.995172612
 40
1.0
 40
1.0
 40
1.0
 40
1.0
 10
6.6002925242
 20
3.7749326035
 30
0.0
 10
6.6003282312
 20
3.7749347055
 30
0.0
 10
6.6003753611
 20
3.774908106
 30
0.0
 10
6.6004214396
 20
3.7748677949
 30
0.0
 10
6.600462666
 20
3.7748254294
 30
0.0
 10
6.6005161804
 20
3.7747579522
 30
0.0
 10
6.6005820719
 20
3.7746592269
 30
0.0
 10
6.6006523495
 20
3.7745390121
 30
0.0
 10
6.6007269291
 20
3.7743975642
 30
0.0
 10
6.6008376119
 20
3.7741690388
 30
0.0
 10
6.600983637
 20
3.7738323497
 30
0.0
 10
6.601165186
 20
3.773369199
 30
0.0
 10
6.6013591559
 20
3.7728326447
 30
0.0
 10
6.6015638188
 20
3.772227594
 30
0.0
 10
6.6017773846
 20
3.771559355
 30
0.0
 10
6.6020810169
 20
3.7705606517
 30
0.0
 10
6.6024673656
 20
3.7691989278
 30
0.0
 10
6.6029249587
 20
3.7674587863
 30
0.0
 10
6.6033749436
 20
3.7656206751
 30
0.0
 10
6.6038028212
 20
3.7637427355
 30
0.0
 10
6.6041944275
 20
3.761885578
 30
0.0
 10
6.6045362399
 20
3.7601113143
 30
0.0
 10
6.6047767824
 20
3.7587113957
 30
0.0
 10
6.604932994
 20
3.7576792629
 30
0.0
 10
6.6050266516
 20
3.7569891164
 30
0.0
 10
6.6050997534
 20
3.7563641936
 30
0.0
 10
6.6051516335
 20
3.7558105217
 30
0.0
 10
6.6051817972
 20
3.7553334588
 30
0.0
 10
6.6051893954
 20
3.7549857473
 30
0.0
 10
6.605182557
 20
3.7547495283
 30
0.0
 10
6.605172193
 20
3.7546045468
 30
0.0
 10
6.6051563926
 20
3.7544814791
 30
0.0
 10
6.6051409157
 20
3.7544073394
 30
0.0
 10
6.60513175
 20
3.7543743045
 30
0.0
  0
SPLINE
  5
467
100
AcDbEntity
  8
0
100
AcDbSpline
 62
7
  6
CONTINUOUS
 70
0
 71
3
 72
25
 73
21
 74
0
 42
0.0000001
 43
0.0000001
 44
0.0000000001
 40
0.0
 40
0.0
 40
0.0
 40
0.0
 40
0.0070907047
 40
0.0147719974
 40
0.0236214066
 40
0.0340158259
 40
0.0461777807
 40
0.0602350361
 40
0.0762544744
 40
0.0942683751
 40
0.1362792124
 40
0.1861453926
 40
0.2435558893
 40
0.3080750191
 40
0.3791658131
 40
0.4562040294
 40
0.5384900547
 40
0.6252570342
 40
0.8088841159
 40
1.0
 40
1.0
 40
1.0
 40
1.0
 10
6.5906862487
 20
3.920703103
 30
0.0
 10
6.5907100974
 20
3.9207045476
 30
0.0
 10
6.5907606427
 20
3.9206989309
 30
0.0
 10
6.5908339135
 20
3.9206653435
 30
0.0
 10
6.5909053475
 20
3.9206083725
 30
0.0
 10
6.5909755243
 20
3.9205286622
 30
0.0
 10
6.5910448208
 20
3.9204263026
 30
0.0
 10
6.5911132584
 20
3.9203013348
 30
0.0
 10
6.5911807827
 20
3.9201539127
 30
0.0
 10
6.5912742114
 20
3.9199152062
 30
0.0
 10
6.5913849421
 20
3.9195614463
 30
0.0
 10
6.5915061752
 20
3.9190730579
 30
0.0
 10
6.5916202228
 20
3.9185053636
 30
0.0
 10
6.5917258823
 20
3.9178635081
 30
0.0
 10
6.5918219803
 20
3.9171533694
 30
0.0
 10
6.5919074818
 20
3.9163816324
 30
0.0
 10
6.5919814695
 20
3.9155556679
 30
0.0
 10
6.5920652515
 20
3.9143701942
 30
0.0
 10
6.5921345819
 20
3.9128163742
 30
0.0
 10
6.592152933
 20
3.9115535875
 30
0.0
 10
6.592152933
 20
3.9109096131
 30
0.0
  0
LINE
  5
468
100
AcDbEntity
  8
0
100
AcDbLine
 62
7
  6
CONTINUOUS
 10
6.58966688
 20
3.8516977575
 11
6.5899364602
 21
3.8514356492
  0
SPLINE
  5
469
100
AcDbEntity
  8
0
100
AcDbSpline
 62
7
  6
CONTINUOUS
 70
0
 71
3
 72
22
 73
18
 74
0
 42
0.0000001
 43
0.0000001
 44
0.0000000001
 40
0.0
 40
0.0
 40
0.0
 40
0.0
 40
0.011174962
 40
0.0222529825
 40
0.0335955342
 40
0.0455424945
 40
0.072306979
 40
0.1042995915
 40
0.1424738526
 40
0.1873328884
 40
0.2391108302
 40
0.2978789723
 40
0.3635891888
 40
0.4361164447
 40
0.6007676229
 40
0.7896720635
 40
1.0
 40
1.0
 40
1.0
 40
1.0
 10
6.6044219602
 20
4.0332823187
 30
0.0
 10
6.6044404797
 20
4.0332833871
 30
0.0
 10
6.6044776425
 20
4.0332823143
 30
0.0
 10
6.6045324276
 20
4.033270343
 30
0.0
 10
6.6045852838
 20
4.0332480766
 30
0.0
 10
6.6046555836
 20
4.0332031352
 30
0.0
 10
6.6047383763
 20
4.033117902
 30
0.0
 10
6.6048242979
 20
4.0329810412
 30
0.0
 10
6.604901595
 20
4.032805905
 30
0.0
 10
6.6049701713
 20
4.0325925879
 30
0.0
 10
6.6050298924
 20
4.0323414226
 30
0.0
 10
6.6050804365
 20
4.0320531017
 30
0.0
 10
6.6051215754
 20
4.0317285724
 30
0.0
 10
6.6051653648
 20
4.031227592
 30
0.0
 10
6.6051918482
 20
4.0305203782
 30
0.0
 10
6.6051833936
 20
4.0295841586
 30
0.0
 10
6.6051529069
 20
4.0289219872
 30
0.0
 10
6.60513175
 20
4.0285734874
 30
0.0
  0
SPLINE
  5
46A
100
AcDbEntity
  8
0
100
AcDbSpline
 62
7
  6
CONTINUOUS
 70
0
 71
3
 72
34
 73
30
 74
0
 42
0.0000001
 43
0.0000001
 44
0.0000000001
 40
0.0
 40
0.0
 40
0.0
 40
0.0
 40
0.0036619605
 40
0.0075984442
 40
0.0119537962
 40
0.0168312101
 40
0.022300542
 40
0.028407556
 40
0.0426290242
 40
0.0596092905
 40
0.0793480392
 40
0.1017870781
 40
0.1268316528
 40
0.1543605549
 40
0.1842320109
 40
0.2162878284
 40
0.250355261
 40
0.3237642385
 40
0.4028292989
 40
0.4857392385
 40
0.5705248468
 40
0.6550879621
 40
0.7372492549
 40
0.8148174193
 40
0.8856839936
 40
0.9179979741
 40
0.9479409434
 40
0.9753300631
 40
1.0
 40
1.0
 40
1.0
 40
1.0
 10
6.6008287635
 20
3.8092687135
 30
0.0
 10
6.6008530604
 20
3.8092701383
 30
0.0
 10
6.6009039843
 20
3.8092668837
 30
0.0
 10
6.6009807991
 20
3.8092447856
 30
0.0
 10
6.6010596472
 20
3.8092059337
 30
0.0
 10
6.6011405435
 20
3.8091506799
 30
0.0
 10
6.6012235613
 20
3.8090792206
 30
0.0
 10
6.601343157
 20
3.8089561108
 30
0.0
 10
6.6014957128
 20
3.8087597793
 30
0.0
 10
6.6016776697
 20
3.8084739288
 30
0.0
 10
6.6018657717
 20
3.8081283753
 30
0.0
 10
6.6020588532
 20
3.8077253049
 30
0.0
 10
6.6022557051
 20
3.8072671297
 30
0.0
 10
6.6024551061
 20
3.8067566508
 30
0.0
 10
6.6026558344
 20
3.8061969322
 30
0.0
 10
6.6028566764
 20
3.8055912963
 30
0.0
 10
6.6031298237
 20
3.8047049954
 30
0.0
 10
6.6034605729
 20
3.8035098157
 30
0.0
 10
6.603829945
 20
3.8019893786
 30
0.0
 10
6.6041715536
 20
3.8003850759
 30
0.0
 10
6.6044763764
 20
3.7987362162
 30
0.0
 10
6.6047360049
 20
3.7970846692
 30
0.0
 10
6.604943025
 20
3.795474026
 30
0.0
 10
6.6050912762
 20
3.7939483351
 30
0.0
 10
6.6051645275
 20
3.7927488743
 30
0.0
 10
6.6051876321
 20
3.7918643101
 30
0.0
 10
6.6051875235
 20
3.7912684068
 30
0.0
 10
6.6051705944
 20
3.7907235647
 30
0.0
 10
6.6051469733
 20
3.7903782453
 30
0.0
 10
6.60513175
 20
3.7902149885
 30
0.0
  0
SPLINE
  5
46B
100
AcDbEntity
  8
0
100
AcDbSpline
 62
7
  6
CONTINUOUS
 70
0
 71
3
 72
25
 73
21
 74
0
 42
0.0000001
 43
0.0000001
 44
0.0000000001
 40
0.0
 40
0.0
 40
0.0
 40
0.0
 40
0.011158129
 40
0.0226084864
 40
0.0347316884
 40
0.0478449458
 40
0.0621937855
 40
0.0779581694
 40
0.0952638228
 40
0.1141968265
 40
0.157117981
 40
0.2069157181
 40
0.2635101099
 40
0.3266482766
 40
0.3959426124
 40
0.4708913848
 40
0.5508929672
 40
0.635256192
 40
0.8139077951
 40
1.0
 40
1.0
 40
1.0
 40
1.0
 10
6.6026044926
 20
3.9212740458
 30
0.0
 10
6.6026458094
 20
3.9212764653
 30
0.0
 10
6.6027302575
 20
3.921272933
 30
0.0
 10
6.6028561099
 20
3.9212421094
 30
0.0
 10
6.602980888
 20
3.921186185
 30
0.0
 10
6.6031042737
 20
3.9211056728
 30
0.0
 10
6.603226178
 20
3.9210009365
 30
0.0
 10
6.603346489
 20
3.9208722439
 30
0.0
 10
6.6034650891
 20
3.9207198463
 30
0.0
 10
6.60362748
 20
3.9204749507
 30
0.0
 10
6.6038219234
 20
3.9201082316
 30
0.0
 10
6.6040359859
 20
3.919596898
 30
0.0
 10
6.6042376053
 20
3.9190008232
 30
0.0
 10
6.6044247187
 20
3.9183248119
 30
0.0
 10
6.6045953153
 20
3.9175745089
 30
0.0
 10
6.6047474921
 20
3.9167565911
 30
0.0
 10
6.6048795168
 20
3.91587864
 30
0.0
 10
6.6050294064
 20
3.9146150133
 30
0.0
 10
6.6051538753
 20
3.9129529882
 30
0.0
 10
6.605186864
 20
3.9115998651
 30
0.0
 10
6.605186864
 20
3.9109096131
 30
0.0
  0
SPLINE
  5
46C
100
AcDbEntity
  8
0
100
AcDbSpline
 62
7
  6
CONTINUOUS
 70
0
 71
3
 72
28
 73
24
 74
0
 42
0.0000001
 43
0.0000001
 44
0.0000000001
 40
0.0
 40
0.0
 40
0.0
 40
0.0
 40
0.0093716578
 40
0.0195776215
 40
0.0311822145
 40
0.0445499717
 40
0.0598945199
 40
0.0773278552
 40
0.0968974734
 40
0.118606992
 40
0.1424287492
 40
0.1683127783
 40
0.2259677556
 40
0.290853195
 40
0.3620399762
 40
0.4384247616
 40
0.5187476461
 40
0.6016133703
 40
0.6855177574
 40
0.7688848361
 40
0.8501161085
 40
0.9276435692
 40
1.0
 40
1.0
 40
1.0
 40
1.0
 10
6.601638445
 20
3.8606568401
 30
0.0
 10
6.6016918444
 20
3.8606599686
 30
0.0
 10
6.6018049573
 20
3.8606488238
 30
0.0
 10
6.6019720978
 20
3.8605828943
 30
0.0
 10
6.6021398177
 20
3.8604703963
 30
0.0
 10
6.6023083958
 20
3.8603126974
 30
0.0
 10
6.602477929
 20
3.8601104952
 30
0.0
 10
6.6026480698
 20
3.8598644847
 30
0.0
 10
6.6028182497
 20
3.859575524
 30
0.0
 10
6.6029877969
 20
3.8592446879
 30
0.0
 10
6.6031560198
 20
3.8588732532
 30
0.0
 10
6.6033858773
 20
3.8583050626
 30
0.0
 10
6.6036612012
 20
3.8575032415
 30
0.0
 10
6.6039644041
 20
3.8564394868
 30
0.0
 10
6.6042453572
 20
3.8552594802
 30
0.0
 10
6.6044985634
 20
3.8539833241
 30
0.0
 10
6.604718837
 20
3.8526335112
 30
0.0
 10
6.6049015161
 20
3.8512348201
 30
0.0
 10
6.6050425957
 20
3.849813863
 30
0.0
 10
6.6051389006
 20
3.8483985159
 30
0.0
 10
6.6051882436
 20
3.8470171445
 30
0.0
 10
6.6051895501
 20
3.8456977343
 30
0.0
 10
6.6051571771
 20
3.8448425427
 30
0.0
 10
6.60513175
 20
3.844430335
 30
0.0
  0
SPLINE
  5
46D
100
AcDbEntity
  8
0
100
AcDbSpline
 62
7
  6
CONTINUOUS
 70
0
 71
3
 72
22
 73
18
 74
0
 42
0.0000001
 43
0.0000001
 44
0.0000000001
 40
0.0
 40
0.0
 40
0.0
 40
0.0
 40
0.061251641
 40
0.1207547836
 40
0.1788948755
 40
0.2360849307
 40
0.2927587376
 40
0.3493619548
 40
0.4063418972
 40
0.4641371333
 40
0.5231680628
 40
0.5838293996
 40
0.7113871035
 40
0.7789885404
 40
0.8494743173
 40
0.9230767704
 40
1.0
 40
1.0
 40
1.0
 40
1.0
 10
2.9870080039
 20
4.8696492571
 30
0.0
 10
2.987528884
 20
4.8687637622
 30
0.0
 10
2.9884930429
 20
4.8669800334
 30
0.0
 10
2.9897098149
 20
4.8642339177
 30
0.0
 10
2.9906733257
 20
4.8614606305
 30
0.0
 10
2.9913830601
 20
4.8586606005
 30
0.0
 10
2.9918387182
 20
4.8558341759
 30
0.0
 10
2.9920401194
 20
4.8529818738
 30
0.0
 10
2.9919872719
 20
4.8501042142
 30
0.0
 10
2.9916803848
 20
4.8472017223
 30
0.0
 10
2.9911197137
 20
4.8442746129
 30
0.0
 10
2.9900162774
 20
4.8402734081
 30
0.0
 10
2.988403402
 20
4.8362791293
 30
0.0
 10
2.9863477217
 20
4.8323243785
 30
0.0
 10
2.9845237604
 20
4.8292755566
 30
0.0
 10
2.9824480319
 20
4.8262024589
 30
0.0
 10
2.9809308231
 20
4.8241830801
 30
0.0
 10
2.9801328331
 20
4.823169281
 30
0.0
  0
SPLINE
  5
46E
100
AcDbEntity
  8
0
100
AcDbSpline
 62
7
  6
CONTINUOUS
 70
0
 71
3
 72
22
 73
18
 74
0
 42
0.0000001
 43
0.0000001
 44
0.0000000001
 40
0.0
 40
0.0
 40
0.0
 40
0.0
 40
0.061251641
 40
0.1207547836
 40
0.1788948755
 40
0.2360849307
 40
0.2927587376
 40
0.3493619548
 40
0.4063418972
 40
0.4641371333
 40
0.5231680628
 40
0.5838293996
 40
0.7113871035
 40
0.7789885404
 40
0.8494743173
 40
0.9230767704
 40
1.0
 40
1.0
 40
1.0
 40
1.0
 10
2.4638609134
 20
4.8696492571
 30
0.0
 10
2.4633400332
 20
4.8687637622
 30
0.0
 10
2.4623758743
 20
4.8669800334
 30
0.0
 10
2.4611591024
 20
4.8642339177
 30
0.0
 10
2.4601955916
 20
4.8614606305
 30
0.0
 10
2.4594858572
 20
4.8586606005
 30
0.0
 10
2.459030199
 20
4.8558341759
 30
0.0
 10
2.4588287979
 20
4.8529818738
 30
0.0
 10
2.4588816453
 20
4.8501042142
 30
0.0
 10
2.4591885325
 20
4.8472017223
 30
0.0
 10
2.4597492036
 20
4.8442746129
 30
0.0
 10
2.4608526399
 20
4.8402734081
 30
0.0
 10
2.4624655153
 20
4.8362791293
 30
0.0
 10
2.4645211956
 20
4.8323243785
 30
0.0
 10
2.4663451568
 20
4.8292755566
 30
0.0
 10
2.4684208854
 20
4.8262024589
 30
0.0
 10
2.4699380942
 20
4.8241830801
 30
0.0
 10
2.4707360841
 20
4.823169281
 30
0.0
  0
SPLINE
  5
46F
100
AcDbEntity
  8
0
100
AcDbSpline
 62
7
  6
CONTINUOUS
 70
0
 71
3
 72
17
 73
13
 74
0
 42
0.0000001
 43
0.0000001
 44
0.0000000001
 40
0.0
 40
0.0
 40
0.0
 40
0.0
 40
0.2026691657
 40
0.382050767
 40
0.5377698921
 40
0.6699420428
 40
0.7792509991
 40
0.8674187536
 40
0.9047492477
 40
0.9385165568
 40
0.9698108304
 40
1.0
 40
1.0
 40
1.0
 40
1.0
 10
6.591439445
 20
3.9024820069
 30
0.0
 10
6.5914125793
 20
3.9023748455
 30
0.0
 10
6.5913584802
 20
3.9021736682
 30
0.0
 10
6.5912696543
 20
3.9018941717
 30
0.0
 10
6.5911784678
 20
3.9016561516
 30
0.0
 10
6.5910853019
 20
3.9014603244
 30
0.0
 10
6.590990557
 20
3.9013071823
 30
0.0
 10
6.5909056178
 20
3.9012099071
 30
0.0
 10
6.5908360995
 20
3.9011573786
 30
0.0
 10
6.590786329
 20
3.9011314239
 30
0.0
 10
6.5907360734
 20
3.9011169317
 30
0.0
 10
6.5907022551
 20
3.9011151238
 30
0.0
 10
6.5906858306
 20
3.9011161485
 30
0.0
  0
SPLINE
  5
470
100
AcDbEntity
  8
0
100
AcDbSpline
 62
7
  6
CONTINUOUS
 70
0
 71
3
 72
14
 73
10
 74
0
 42
0.0000001
 43
0.0000001
 44
0.0000000001
 40
0.0
 40
0.0
 40
0.0
 40
0.0
 40
0.2969892623
 40
0.439244599
 40
0.5741589082
 40
0.6995432076
 40
0.8134158864
 40
0.9140440958
 40
1.0
 40
1.0
 40
1.0
 40
1.0
 10
6.592152933
 20
3.9109096131
 30
0.0
 10
6.592152933
 20
3.9100707414
 30
0.0
 10
6.5921297133
 20
3.9088298455
 30
0.0
 10
6.5920494808
 20
3.9072099817
 30
0.0
 10
6.5919679698
 20
3.9060757468
 30
0.0
 10
6.5918658655
 20
3.9050236901
 30
0.0
 10
6.591745103
 20
3.9040710978
 30
0.0
 10
6.5916079715
 20
3.9032333957
 30
0.0
 10
6.591498486
 20
3.9027175086
 30
0.0
 10
6.591439445
 20
3.9024820069
 30
0.0
  0
SPLINE
  5
471
100
AcDbEntity
  8
0
100
AcDbSpline
 62
7
  6
CONTINUOUS
 70
0
 71
3
 72
23
 73
19
 74
0
 42
0.0000001
 43
0.0000001
 44
0.0000000001
 40
0.0
 40
0.0
 40
0.0
 40
0.0
 40
0.1931151909
 40
0.3733356515
 40
0.4570473392
 40
0.5357593051
 40
0.6090083704
 40
0.6764047049
 40
0.7376409292
 40
0.7925056367
 40
0.8409082428
 40
0.8829178547
 40
0.9188375374
 40
0.9347233764
 40
0.9493838142
 40
0.975719498
 40
0.987970568
 40
1.0
 40
1.0
 40
1.0
 40
1.0
 10
6.60513175
 20
3.908766549
 30
0.0
 10
6.6051017162
 20
3.9081889819
 30
0.0
 10
6.6050193845
 20
3.907073502
 30
0.0
 10
6.6048525437
 20
3.9057142287
 30
0.0
 10
6.6046829907
 20
3.9047020245
 30
0.0
 10
6.604544145
 20
3.9040098765
 30
0.0
 10
6.6043917074
 20
3.9033707007
 30
0.0
 10
6.6042269349
 20
3.9027887721
 30
0.0
 10
6.6040511598
 20
3.9022678122
 30
0.0
 10
6.6038657492
 20
3.9018109898
 30
0.0
 10
6.6036720308
 20
3.9014208045
 30
0.0
 10
6.603471272
 20
3.901099309
 30
0.0
 10
6.6032920092
 20
3.9008813051
 30
0.0
 10
6.6031448795
 20
3.900746663
 30
0.0
 10
6.60300749
 20
3.9006456929
 30
0.0
 10
6.602861458
 20
3.9005751906
 30
0.0
 10
6.6027122516
 20
3.9005450136
 30
0.0
 10
6.6026391197
 20
3.9005430763
 30
0.0
 10
6.6026031599
 20
3.900545261
 30
0.0
  0
LINE
  5
472
100
AcDbEntity
  8
0
100
AcDbLine
 62
7
  6
CONTINUOUS
 10
6.60513175
 20
3.7543743045
 11
6.6049868874
 21
3.7541987629
  0
SPLINE
  5
473
100
AcDbEntity
  8
0
100
AcDbSpline
 62
7
  6
CONTINUOUS
 70
0
 71
3
 72
18
 73
14
 74
0
 42
0.0000001
 43
0.0000001
 44
0.0000000001
 40
0.0
 40
0.0
 40
0.0
 40
0.0
 40
0.2035343685
 40
0.3826884392
 40
0.5371528543
 40
0.667282707
 40
0.7742740574
 40
0.8199339335
 40
0.8610484427
 40
0.8984180562
 40
0.9331191934
 40
0.966484585
 40
1.0
 40
1.0
 40
1.0
 40
1.0
 10
6.60513175
 20
3.7902149885
 30
0.0
 10
6.6051194784
 20
3.7900833875
 30
0.0
 10
6.6050914759
 20
3.7898363486
 30
0.0
 10
6.6050338392
 20
3.7894921331
 30
0.0
 10
6.6049636136
 20
3.7891989213
 30
0.0
 10
6.6048812818
 20
3.7889579036
 30
0.0
 10
6.6047988618
 20
3.7887926514
 30
0.0
 10
6.6047252388
 20
3.788690273
 30
0.0
 10
6.604669974
 20
3.7886312068
 30
0.0
 10
6.6046116724
 20
3.7885858554
 30
0.0
 10
6.6045502959
 20
3.7885544649
 30
0.0
 10
6.6044860594
 20
3.7885373665
 30
0.0
 10
6.6044422699
 20
3.7885356453
 30
0.0
 10
6.6044205475
 20
3.7885369951
 30
0.0
  0
SPLINE
  5
474
100
AcDbEntity
  8
0
100
AcDbSpline
 62
7
  6
CONTINUOUS
 70
0
 71
3
 72
20
 73
16
 74
0
 42
0.0000001
 43
0.0000001
 44
0.0000000001
 40
0.0
 40
0.0
 40
0.0
 40
0.0
 40
0.2023477838
 40
0.3841267295
 40
0.5431808685
 40
0.6137185999
 40
0.6781065046
 40
0.7363238444
 40
0.7884350585
 40
0.8346320995
 40
0.875273104
 40
0.9109648752
 40
0.9426586796
 40
0.9717412845
 40
1.0
 40
1.0
 40
1.0
 40
1.0
 10
6.60513175
 20
3.844430335
 30
0.0
 10
6.6051108545
 20
3.8440915915
 30
0.0
 10
6.6050586331
 20
3.8434491737
 30
0.0
 10
6.6049404051
 20
3.8425454482
 30
0.0
 10
6.6048092634
 20
3.8418673603
 30
0.0
 10
6.6046849287
 20
3.8413900534
 30
0.0
 10
6.6045879223
 20
3.8410808076
 30
0.0
 10
6.6044838556
 20
3.8408066473
 30
0.0
 10
6.6043730893
 20
3.8405683167
 30
0.0
 10
6.6042560009
 20
3.8403663544
 30
0.0
 10
6.6041327937
 20
3.8402011444
 30
0.0
 10
6.6040034884
 20
3.8400730088
 30
0.0
 10
6.6038677743
 20
3.8399825754
 30
0.0
 10
6.6037257939
 20
3.8399312844
 30
0.0
 10
6.6036284525
 20
3.8399243076
 30
0.0
 10
6.6035811448
 20
3.8399272134
 30
0.0
  0
SPLINE
  5
475
100
AcDbEntity
  8
0
100
AcDbSpline
 62
7
  6
CONTINUOUS
 70
0
 71
3
 72
37
 73
33
 74
0
 42
0.0000001
 43
0.0000001
 44
0.0000000001
 40
0.0
 40
0.0
 40
0.0
 40
0.0
 40
0.0063955967
 40
0.0137161303
 40
0.031114458
 40
0.0521229994
 40
0.0766090469
 40
0.1043962789
 40
0.1352764299
 40
0.2053434996
 40
0.2846444618
 40
0.3706958002
 40
0.4607657321
 40
0.5519478707
 40
0.6412483706
 40
0.7256899071
 40
0.7651922188
 40
0.8024312712
 40
0.8370938942
 40
0.8688914621
 40
0.8975641194
 40
0.9228854593
 40
0.9446681542
 40
0.9627722681
 40
0.9704197288
 40
0.9771261661
 40
0.9829002226
 40
0.9877633895
 40
0.9917620495
 40
0.9949888729
 40
0.9976258397
 40
1.0
 40
1.0
 40
1.0
 40
1.0
 10
6.5899364602
 20
3.8514356492
 30
0.0
 10
6.5899565931
 20
3.8513989105
 30
0.0
 10
6.5899969075
 20
3.8513185448
 30
0.0
 10
6.5900789429
 20
3.8511319112
 30
0.0
 10
6.5901825824
 20
3.8508506195
 30
0.0
 10
6.5903056387
 20
3.8504573625
 30
0.0
 10
6.5904322579
 20
3.8499942492
 30
0.0
 10
6.5905613715
 20
3.8494650354
 30
0.0
 10
6.5907430628
 20
3.8486415285
 30
0.0
 10
6.5909650928
 20
3.8474816765
 30
0.0
 10
6.5912148458
 20
3.8459598232
 30
0.0
 10
6.5914493045
 20
3.8443030986
 30
0.0
 10
6.591660627
 20
3.8425648596
 30
0.0
 10
6.5918416196
 20
3.8408018024
 30
0.0
 10
6.5919860813
 20
3.8390723722
 30
0.0
 10
6.59207386
 20
3.8376781752
 30
0.0
 10
6.59212081
 20
3.8366233873
 30
0.0
 10
6.5921434201
 20
3.8358939757
 30
0.0
 10
6.5921540597
 20
3.8352147611
 30
0.0
 10
6.5921526641
 20
3.8345915676
 30
0.0
 10
6.5921392939
 20
3.8340297108
 30
0.0
 10
6.5921141784
 20
3.8335338973
 30
0.0
 10
6.5920776103
 20
3.8331082388
 30
0.0
 10
6.5920361954
 20
3.8327994129
 30
0.0
 10
6.5919958546
 20
3.8325906019
 30
0.0
 10
6.5919646946
 20
3.8324624264
 30
0.0
 10
6.5919310251
 20
3.8323538221
 30
0.0
 10
6.591894903
 20
3.832264847
 30
0.0
 10
6.5918562899
 20
3.8321953952
 30
0.0
 10
6.5918148392
 20
3.8321451636
 30
0.0
 10
6.5917691504
 20
3.8321143491
 30
0.0
 10
6.5917354922
 20
3.832108869
 30
0.0
 10
6.5917199714
 20
3.8321098471
 30
0.0
  0
SPLINE
  5
476
100
AcDbEntity
  8
0
100
AcDbSpline
 62
7
  6
CONTINUOUS
 70
0
 71
3
 72
25
 73
21
 74
0
 42
0.0000001
 43
0.0000001
 44
0.0000000001
 40
0.0
 40
0.0
 40
0.0
 40
0.0
 40
0.2018831377
 40
0.3897961099
 40
0.4769633907
 40
0.5588349121
 40
0.6348821876
 40
0.7046160406
 40
0.7675944389
 40
0.8234264756
 40
0.8717809024
 40
0.9124047308
 40
0.9297709463
 40
0.9451631263
 40
0.9585948627
 40
0.9701042095
 40
0.9797682298
 40
0.9877402156
 40
0.9943095998
 40
1.0
 40
1.0
 40
1.0
 40
1.0
 10
6.591439445
 20
3.9774845661
 30
0.0
 10
6.5913719742
 20
3.9769728183
 30
0.0
 10
6.591233001
 20
3.9759858565
 30
0.0
 10
6.5910389529
 20
3.9747817826
 30
0.0
 10
6.590877316
 20
3.97388353
 30
0.0
 10
6.5907580561
 20
3.9732683231
 30
0.0
 10
6.5906385342
 20
3.972698636
 30
0.0
 10
6.5905195702
 20
3.9721782686
 30
0.0
 10
6.5904019976
 20
3.9717107096
 30
0.0
 10
6.5902866758
 20
3.9712990791
 30
0.0
 10
6.590174423
 20
3.9709461715
 30
0.0
 10
6.590079916
 20
3.9706910275
 30
0.0
 10
6.5900051557
 20
3.9705188889
 30
0.0
 10
6.5899532808
 20
3.9704127373
 30
0.0
 10
6.589902725
 20
3.9703227714
 30
0.0
 10
6.5898535528
 20
3.9702490776
 30
0.0
 10
6.5898057588
 20
3.9701916529
 30
0.0
 10
6.5897591311
 20
3.9701504428
 30
0.0
 10
6.5897130991
 20
3.9701254674
 30
0.0
 10
6.5896812215
 20
3.9701205809
 30
0.0
 10
6.5896667002
 20
3.9701214833
 30
0.0
  0
SPLINE
  5
477
100
AcDbEntity
  8
0
100
AcDbSpline
 62
7
  6
CONTINUOUS
 70
0
 71
3
 72
33
 73
29
 74
0
 42
0.0000001
 43
0.0000001
 44
0.0000000001
 40
0.0
 40
0.0
 40
0.0
 40
0.0
 40
0.0256313189
 40
0.0539760346
 40
0.1179822748
 40
0.1902525092
 40
0.268830197
 40
0.3516649136
 40
0.4366806644
 40
0.5218254538
 40
0.6051013163
 40
0.6845848156
 40
0.7584408886
 40
0.8249383585
 40
0.8549212059
 40
0.8824750742
 40
0.9074257759
 40
0.9296140479
 40
0.9488987339
 40
0.965162045
 40
0.972133811
 40
0.9783232461
 40
0.9837297944
 40
0.9883596336
 40
0.992232455
 40
0.9953902222
 40
0.9979200688
 40
1.0
 40
1.0
 40
1.0
 40
1.0
 10
6.60513175
 20
4.0658046915
 30
0.0
 10
6.6051166968
 20
4.0656373859
 30
0.0
 10
6.6050806671
 20
4.0652854478
 30
0.0
 10
6.6049875706
 20
4.064517814
 30
0.0
 10
6.6048322779
 20
4.0634500123
 30
0.0
 10
6.6045985243
 20
4.062061366
 30
0.0
 10
6.6043167239
 20
4.0605559386
 30
0.0
 10
6.6039945756
 20
4.0589733035
 30
0.0
 10
6.6036404636
 20
4.0573534329
 30
0.0
 10
6.6032632861
 20
4.0557358099
 30
0.0
 10
6.6028722081
 20
4.0541588196
 30
0.0
 10
6.6024765677
 20
4.0526593512
 30
0.0
 10
6.602085722
 20
4.0512725467
 30
0.0
 10
6.6017616405
 20
4.050204164
 30
0.0
 10
6.601510194
 20
4.0494311147
 30
0.0
 10
6.6013351108
 20
4.048919622
 30
0.0
 10
6.6011680697
 20
4.0484594512
 30
0.0
 10
6.6010101944
 20
4.0480537066
 30
0.0
 10
6.6008625626
 20
4.0477052422
 30
0.0
 10
6.6007436736
 20
4.0474530633
 30
0.0
 10
6.6006533764
 20
4.0472826291
 30
0.0
 10
6.6005923444
 20
4.0471773102
 30
0.0
 10
6.600534593
 20
4.0470879538
 30
0.0
 10
6.600480196
 20
4.0470146999
 30
0.0
 10
6.6004292271
 20
4.0469575686
 30
0.0
 10
6.6003815261
 20
4.0469165363
 30
0.0
 10
6.6003366956
 20
4.0468914041
 30
0.0
 10
6.6003060603
 20
4.0468858192
 30
0.0
 10
6.600292453
 20
4.0468866291
 30
0.0
  0
SPLINE
  5
478
100
AcDbEntity
  8
0
100
AcDbSpline
 62
7
  6
CONTINUOUS
 70
0
 71
3
 72
30
 73
26
 74
0
 42
0.0000001
 43
0.0000001
 44
0.0000000001
 40
0.0
 40
0.0
 40
0.0
 40
0.0
 40
0.0736668422
 40
0.1522545245
 40
0.2342604052
 40
0.3181406725
 40
0.4023651341
 40
0.4854487004
 40
0.5659773715
 40
0.6426250816
 40
0.7141637063
 40
0.7794725711
 40
0.837549421
 40
0.8636024844
 40
0.8875368868
 40
0.9092738728
 40
0.9287504922
 40
0.945927327
 40
0.9607974651
 40
0.9734058794
 40
0.9838879057
 40
0.988423284
 40
0.9925606533
 40
0.9963835239
 40
1.0
 40
1.0
 40
1.0
 40
1.0
 10
6.60513175
 20
4.0285734874
 30
0.0
 10
6.6051065936
 20
4.0281591089
 30
0.0
 10
6.6050396636
 20
4.0273035431
 30
0.0
 10
6.6048992574
 20
4.0259907375
 30
0.0
 10
6.6047179347
 20
4.0246248744
 30
0.0
 10
6.6044995068
 20
4.0232323059
 30
0.0
 10
6.60424843
 20
4.0218390838
 30
0.0
 10
6.6039696439
 20
4.0204704097
 30
0.0
 10
6.6036684337
 20
4.0191502457
 30
0.0
 10
6.6033503154
 20
4.0179010717
 30
0.0
 10
6.6030209815
 20
4.0167437016
 30
0.0
 10
6.6026861806
 20
4.0156972765
 30
0.0
 10
6.6023980718
 20
4.0149055896
 30
0.0
 10
6.6021669741
 20
4.0143420742
 30
0.0
 10
6.6020021363
 20
4.0139729347
 30
0.0
 10
6.6018401813
 20
4.0136433429
 30
0.0
 10
6.601681798
 20
4.0133547531
 30
0.0
 10
6.6015276977
 20
4.0131084405
 30
0.0
 10
6.6013784722
 20
4.0129053867
 30
0.0
 10
6.6012346761
 20
4.0127464532
 30
0.0
 10
6.6011139726
 20
4.0126465671
 30
0.0
 10
6.6010201629
 20
4.012592648
 30
0.0
 10
6.6009547386
 20
4.012565919
 30
0.0
 10
6.6008908921
 20
4.012551093
 30
0.0
 10
6.6008486918
 20
4.0125493141
 30
0.0
 10
6.6008283483
 20
4.0125505377
 30
0.0
  0
SPLINE
  5
479
100
AcDbEntity
  8
0
100
AcDbSpline
 62
7
  6
CONTINUOUS
 70
0
 71
3
 72
26
 73
22
 74
0
 42
0.0000001
 43
0.0000001
 44
0.0000000001
 40
0.0
 40
0.0
 40
0.0
 40
0.0
 40
0.1767077529
 40
0.3518671989
 40
0.4362182787
 40
0.5171097563
 40
0.5936595379
 40
0.665072664
 40
0.7306499314
 40
0.7897964146
 40
0.8420368991
 40
0.865463224
 40
0.8870566838
 40
0.9068093396
 40
0.9247352287
 40
0.9408749238
 40
0.9553088187
 40
0.9681715545
 40
0.9796766299
 40
0.9901409557
 40
1.0
 40
1.0
 40
1.0
 40
1.0
 10
6.60513175
 20
3.9734290251
 30
0.0
 10
6.6050916778
 20
3.9726547438
 30
0.0
 10
6.6049711269
 20
3.9711148549
 30
0.0
 10
6.6047276108
 20
3.9692156063
 30
0.0
 10
6.6044790264
 20
3.9677427359
 30
0.0
 10
6.604273223
 20
3.966701853
 30
0.0
 10
6.6040485374
 20
3.9657230232
 30
0.0
 10
6.6038078772
 20
3.9648173264
 30
0.0
 10
6.6035543001
 20
3.963994686
 30
0.0
 10
6.6032909075
 20
3.9632639551
 30
0.0
 10
6.6030582149
 20
3.9627195869
 30
0.0
 10
6.6028674672
 20
3.9623377248
 30
0.0
 10
6.6027290827
 20
3.9620893695
 30
0.0
 10
6.6025905075
 20
3.9618691336
 30
0.0
 10
6.6024521053
 20
3.9616775743
 30
0.0
 10
6.6023141858
 20
3.9615151762
 30
0.0
 10
6.6021770101
 20
3.9613823356
 30
0.0
 10
6.6020407117
 20
3.9612794441
 30
0.0
 10
6.6019052707
 20
3.9612069789
 30
0.0
 10
6.6017707952
 20
3.9611657599
 30
0.0
 10
6.6016807927
 20
3.9611598388
 30
0.0
 10
6.6016376133
 20
3.961162434
 30
0.0
  0
SPLINE
  5
47A
100
AcDbEntity
  8
0
100
AcDbSpline
 62
7
  6
CONTINUOUS
 70
0
 71
3
 72
15
 73
11
 74
0
 42
0.0000001
 43
0.0000001
 44
0.0000000001
 40
0.0
 40
0.0
 40
0.0
 40
0.0
 40
0.140651563
 40
0.2783037771
 40
0.4109549509
 40
0.5378940005
 40
0.6593882647
 40
0.7762312875
 40
0.8894227477
 40
1.0
 40
1.0
 40
1.0
 40
1.0
 10
6.8681964168
 20
3.61722611
 30
0.0
 10
6.868812544
 20
3.61722611
 30
0.0
 10
6.8700345964
 20
3.6173373925
 30
0.0
 10
6.8717777666
 20
3.61782238
 30
0.0
 10
6.8733543847
 20
3.6185796564
 30
0.0
 10
6.8747204429
 20
3.6195527587
 30
0.0
 10
6.8758582846
 20
3.6206877103
 30
0.0
 10
6.8767658938
 20
3.621939539
 30
0.0
 10
6.8774487442
 20
3.6232722938
 30
0.0
 10
6.8777623527
 20
3.6242053787
 30
0.0
 10
6.8778827247
 20
3.62467457
 30
0.0
  0
SPLINE
  5
47B
100
AcDbEntity
  8
0
100
AcDbSpline
 62
7
  6
CONTINUOUS
 70
0
 71
3
 72
18
 73
14
 74
0
 42
0.0000001
 43
0.0000001
 44
0.0000000001
 40
0.0
 40
0.0
 40
0.0
 40
0.0
 40
0.0718854853
 40
0.1433055531
 40
0.2138413457
 40
0.2831506589
 40
0.4170859427
 40
0.5443834239
 40
0.605648368
 40
0.6654114181
 40
0.7808630203
 40
0.8919881039
 40
1.0
 40
1.0
 40
1.0
 40
1.0
 10
6.8681964168
 20
3.6179563241
 30
0.0
 10
6.8685059419
 20
3.6179563241
 30
0.0
 10
6.8691233306
 20
3.6179832276
 30
0.0
 10
6.8700373343
 20
3.6181032385
 30
0.0
 10
6.8709268007
 20
3.6182995278
 30
0.0
 10
6.8720529949
 20
3.6186519007
 30
0.0
 10
6.8733534432
 20
3.6192478825
 30
0.0
 10
6.8745072505
 20
3.6200325812
 30
0.0
 10
6.8753107491
 20
3.6207396345
 30
0.0
 10
6.8760189622
 20
3.621472527
 30
0.0
 10
6.8767678886
 20
3.6224590743
 30
0.0
 10
6.8774510727
 20
3.6237336129
 30
0.0
 10
6.8777651956
 20
3.6246279562
 30
0.0
 10
6.877885388
 20
3.6250772354
 30
0.0
  0
SPLINE
  5
47C
100
AcDbEntity
  8
0
100
AcDbSpline
 62
7
  6
CONTINUOUS
 70
0
 71
3
 72
18
 73
14
 74
0
 42
0.0000001
 43
0.0000001
 44
0.0000000001
 40
0.0
 40
0.0
 40
0.0
 40
0.0
 40
0.0732920293
 40
0.1460558304
 40
0.2178147056
 40
0.2881773958
 40
0.4235769294
 40
0.5513491034
 40
0.6124700357
 40
0.6718459004
 40
0.7858522236
 40
0.8947697492
 40
1.0
 40
1.0
 40
1.0
 40
1.0
 10
6.8681964168
 20
3.6194893201
 30
0.0
 10
6.8685059131
 20
3.6194893201
 30
0.0
 10
6.8691229847
 20
3.6195148515
 30
0.0
 10
6.8700366794
 20
3.6196287601
 30
0.0
 10
6.8709258765
 20
3.6198150734
 30
0.0
 10
6.8720502889
 20
3.6201491261
 30
0.0
 10
6.8733480966
 20
3.6207132639
 30
0.0
 10
6.8745042597
 20
3.6214590537
 30
0.0
 10
6.8753095777
 20
3.6221319165
 30
0.0
 10
6.8760165473
 20
3.6228265817
 30
0.0
 10
6.8767649245
 20
3.6237617133
 30
0.0
 10
6.8774493692
 20
3.6249729482
 30
0.0
 10
6.8777649179
 20
3.6258252202
 30
0.0
 10
6.877885388
 20
3.626252943
 30
0.0
  0
SPLINE
  5
47D
100
AcDbEntity
  8
0
100
AcDbSpline
 62
7
  6
CONTINUOUS
 70
0
 71
3
 72
17
 73
13
 74
0
 42
0.0000001
 43
0.0000001
 44
0.0000000001
 40
0.0
 40
0.0
 40
0.0
 40
0.0
 40
0.1479480249
 40
0.2917725493
 40
0.4285704789
 40
0.4939299322
 40
0.5571764272
 40
0.6774809152
 40
0.7904751046
 40
0.8446725218
 40
0.8975457975
 40
1.0
 40
1.0
 40
1.0
 40
1.0
 10
6.8681964168
 20
3.6218210789
 30
0.0
 10
6.8687913909
 20
3.6218210789
 30
0.0
 10
6.8699667558
 20
3.621909337
 30
0.0
 10
6.8716526627
 20
3.6222954262
 30
0.0
 10
6.8729524145
 20
3.6228082349
 30
0.0
 10
6.8738942363
 20
3.6233123257
 30
0.0
 10
6.8747389147
 20
3.6238509873
 30
0.0
 10
6.8756694731
 20
3.6246047755
 30
0.0
 10
6.8764475616
 20
3.6254667494
 30
0.0
 10
6.8769582953
 20
3.626190562
 30
0.0
 10
6.8773885586
 20
3.6269157372
 30
0.0
 10
6.8776430236
 20
3.6274900127
 30
0.0
 10
6.8777787285
 20
3.6278790434
 30
0.0
  0
SPLINE
  5
47E
100
AcDbEntity
  8
0
100
AcDbSpline
 62
7
  6
CONTINUOUS
 70
0
 71
3
 72
16
 73
12
 74
0
 42
0.0000001
 43
0.0000001
 44
0.0000000001
 40
0.0
 40
0.0
 40
0.0
 40
0.0
 40
0.1520794552
 40
0.2992155767
 40
0.3698272444
 40
0.4380775421
 40
0.5670445022
 40
0.6863827652
 40
0.7972168817
 40
0.9011520889
 40
1.0
 40
1.0
 40
1.0
 40
1.0
 10
6.8681964168
 20
3.6249452092
 30
0.0
 10
6.8688122008
 20
3.6249452092
 30
0.0
 10
6.8700255449
 20
3.6250335575
 30
0.0
 10
6.8714927992
 20
3.6253600334
 30
0.0
 10
6.8725886872
 20
3.6257373848
 30
0.0
 10
6.8735855166
 20
3.6261665486
 30
0.0
 10
6.8747038864
 20
3.6268038132
 30
0.0
 10
6.8758450811
 20
3.6277146659
 30
0.0
 10
6.8767574281
 20
3.6287219017
 30
0.0
 10
6.8774448926
 20
3.6297964519
 30
0.0
 10
6.8777641667
 20
3.6305582236
 30
0.0
 10
6.877885388
 20
3.6309396696
 30
0.0
  0
SPLINE
  5
47F
100
AcDbEntity
  8
0
100
AcDbSpline
 62
7
  6
CONTINUOUS
 70
0
 71
3
 72
15
 73
11
 74
0
 42
0.0000001
 43
0.0000001
 44
0.0000000001
 40
0.0
 40
0.0
 40
0.0
 40
0.0
 40
0.1554317007
 40
0.3053893047
 40
0.4460387717
 40
0.5757232454
 40
0.6945356345
 40
0.8036440725
 40
0.9047903661
 40
1.0
 40
1.0
 40
1.0
 40
1.0
 10
6.8681964168
 20
3.6288531481
 30
0.0
 10
6.8688119829
 20
3.6288531481
 30
0.0
 10
6.8700231123
 20
3.6289352286
 30
0.0
 10
6.8717581595
 20
3.6292943172
 30
0.0
 10
6.8733308804
 20
3.6298563788
 30
0.0
 10
6.8746975138
 20
3.6305807563
 30
0.0
 10
6.8758392793
 20
3.6314282416
 30
0.0
 10
6.8767528042
 20
3.6323660486
 30
0.0
 10
6.8774419222
 20
3.6333673947
 30
0.0
 10
6.8777636542
 20
3.6340809689
 30
0.0
 10
6.877885388
 20
3.6344378425
 30
0.0
  0
SPLINE
  5
480
100
AcDbEntity
  8
0
100
AcDbSpline
 62
7
  6
CONTINUOUS
 70
0
 71
3
 72
15
 73
11
 74
0
 42
0.0000001
 43
0.0000001
 44
0.0000000001
 40
0.0
 40
0.0
 40
0.0
 40
0.0
 40
0.1588951072
 40
0.3117873373
 40
0.4544293981
 40
0.5849129194
 40
0.703225702
 40
0.8105470461
 40
0.9087286656
 40
1.0
 40
1.0
 40
1.0
 40
1.0
 10
6.8681964168
 20
3.63353136
 30
0.0
 10
6.8688112163
 20
3.63353136
 30
0.0
 10
6.8700190196
 20
3.633606822
 30
0.0
 10
6.8717506526
 20
3.6339371534
 30
0.0
 10
6.8733209248
 20
3.6344543459
 30
0.0
 10
6.8746863361
 20
3.6351211514
 30
0.0
 10
6.875828156
 20
3.6359016818
 30
0.0
 10
6.8767430021
 20
3.6367660879
 30
0.0
 10
6.8774344957
 20
3.6376900164
 30
0.0
 10
6.8777599261
 20
3.6383527993
 30
0.0
 10
6.8778827247
 20
3.6386839101
 30
0.0
  0
SPLINE
  5
481
100
AcDbEntity
  8
0
100
AcDbSpline
 62
7
  6
CONTINUOUS
 70
0
 71
3
 72
15
 73
11
 74
0
 42
0.0000001
 43
0.0000001
 44
0.0000000001
 40
0.0
 40
0.0
 40
0.0
 40
0.0
 40
0.162580173
 40
0.3186012275
 40
0.4633821489
 40
0.5947476296
 40
0.7125637144
 40
0.8180006993
 40
0.9130022734
 40
1.0
 40
1.0
 40
1.0
 40
1.0
 10
6.8681964168
 20
3.638975487
 30
0.0
 10
6.8688115738
 20
3.638975487
 30
0.0
 10
6.8700182733
 20
3.6390444392
 30
0.0
 10
6.8717492978
 20
3.6393464072
 30
0.0
 10
6.8733190382
 20
3.6398191877
 30
0.0
 10
6.8746841291
 20
3.6404287477
 30
0.0
 10
6.8758259607
 20
3.6411423609
 30
0.0
 10
6.8767413344
 20
3.6419330493
 30
0.0
 10
6.8774338863
 20
3.6427789488
 30
0.0
 10
6.8777621973
 20
3.643390639
 30
0.0
 10
6.877885388
 20
3.6436958929
 30
0.0
  0
SPLINE
  5
482
100
AcDbEntity
  8
0
100
AcDbSpline
 62
7
  6
CONTINUOUS
 70
0
 71
3
 72
15
 73
11
 74
0
 42
0.0000001
 43
0.0000001
 44
0.0000000001
 40
0.0
 40
0.0
 40
0.0
 40
0.0
 40
0.1663297245
 40
0.3255577807
 40
0.4725715902
 40
0.6049148754
 40
0.7223022672
 40
0.8258524988
 40
0.917552852
 40
1.0
 40
1.0
 40
1.0
 40
1.0
 10
6.8681964168
 20
3.6451621424
 30
0.0
 10
6.868811387
 20
3.6451621424
 30
0.0
 10
6.8700160563
 20
3.6452243147
 30
0.0
 10
6.8717451416
 20
3.6454967018
 30
0.0
 10
6.8733132605
 20
3.6459231562
 30
0.0
 10
6.8746772169
 20
3.6464729655
 30
0.0
 10
6.8758185495
 20
3.6471166224
 30
0.0
 10
6.8767343437
 20
3.6478300508
 30
0.0
 10
6.8774284667
 20
3.6485939638
 30
0.0
 10
6.8777611485
 20
3.6491520302
 30
0.0
 10
6.877885388
 20
3.6494303946
 30
0.0
  0
SPLINE
  5
483
100
AcDbEntity
  8
0
100
AcDbSpline
 62
7
  6
CONTINUOUS
 70
0
 71
3
 72
18
 73
14
 74
0
 42
0.0000001
 43
0.0000001
 44
0.0000000001
 40
0.0
 40
0.0
 40
0.0
 40
0.0
 40
0.1700943058
 40
0.3325562491
 40
0.4818464331
 40
0.6152203353
 40
0.6757592743
 40
0.7322817781
 40
0.7849561465
 40
0.8340087317
 40
0.8797121751
 40
0.922383827
 40
1.0
 40
1.0
 40
1.0
 40
1.0
 10
6.8681964168
 20
3.6520771931
 30
0.0
 10
6.8688112148
 20
3.6520771931
 30
0.0
 10
6.8700139982
 20
3.6521324639
 30
0.0
 10
6.8717412819
 20
3.6523747072
 30
0.0
 10
6.873307605
 20
3.6527538949
 30
0.0
 10
6.8744781122
 20
3.653173691
 30
0.0
 10
6.8752983318
 20
3.6535578742
 30
0.0
 10
6.8758361003
 20
3.6538541491
 30
0.0
 10
6.876316713
 20
3.6541652507
 30
0.0
 10
6.8767407781
 20
3.6544888437
 30
0.0
 10
6.8771092619
 20
3.6548231003
 30
0.0
 10
6.8775145768
 20
3.6552660065
 30
0.0
 10
6.8777597787
 20
3.6556307441
 30
0.0
 10
6.877885388
 20
3.6558815927
 30
0.0
  0
SPLINE
  5
484
100
AcDbEntity
  8
0
100
AcDbSpline
 62
7
  6
CONTINUOUS
 70
0
 71
3
 72
20
 73
16
 74
0
 42
0.0000001
 43
0.0000001
 44
0.0000000001
 40
0.0
 40
0.0
 40
0.0
 40
0.0
 40
0.1738765399
 40
0.2582195593
 40
0.3396455566
 40
0.4912768938
 40
0.5607747309
 40
0.6258184013
 40
0.6863945668
 40
0.7425834627
 40
0.7945388482
 40
0.8424755658
 40
0.8866588637
 40
0.9274049733
 40
1.0
 40
1.0
 40
1.0
 40
1.0
 10
6.8681964168
 20
3.6597016855
 30
0.0
 10
6.8688110592
 20
3.6597016855
 30
0.0
 10
6.8697244587
 20
3.6597383624
 30
0.0
 10
6.8709190629
 20
3.6598612313
 30
0.0
 10
6.872029521
 20
3.6600232988
 30
0.0
 10
6.8730776233
 20
3.6602450843
 30
0.0
 10
6.874049503
 20
3.6605270511
 30
0.0
 10
6.8747014918
 20
3.6607531021
 30
0.0
 10
6.8752964898
 20
3.6609969692
 30
0.0
 10
6.8758341127
 20
3.6612560816
 30
0.0
 10
6.8763146233
 20
3.6615281573
 30
0.0
 10
6.8767386318
 20
3.6618111338
 30
0.0
 10
6.8771071731
 20
3.6621034617
 30
0.0
 10
6.8775100026
 20
3.662488312
 30
0.0
 10
6.8777579646
 20
3.6628090573
 30
0.0
 10
6.877885388
 20
3.6630318049
 30
0.0
  0
SPLINE
  5
485
100
AcDbEntity
  8
0
100
AcDbSpline
 62
7
  6
CONTINUOUS
 70
0
 71
3
 72
20
 73
16
 74
0
 42
0.0000001
 43
0.0000001
 44
0.0000000001
 40
0.0
 40
0.0
 40
0.0
 40
0.0
 40
0.1775788914
 40
0.2636146242
 40
0.34655763
 40
0.5005295939
 40
0.5707714498
 40
0.6362409529
 40
0.6969017184
 40
0.7528131018
 40
0.8041092233
 40
0.8509861042
 40
0.893691668
 40
0.9325283381
 40
1.0
 40
1.0
 40
1.0
 40
1.0
 10
6.8681964168
 20
3.6680147214
 30
0.0
 10
6.8688109219
 20
3.6680147214
 30
0.0
 10
6.8697235976
 20
3.6680460191
 30
0.0
 10
6.8709184486
 20
3.668151041
 30
0.0
 10
6.8720275785
 20
3.6682893949
 30
0.0
 10
6.8730748654
 20
3.6684786147
 30
0.0
 10
6.8740481091
 20
3.6687198986
 30
0.0
 10
6.8746998991
 20
3.6689130028
 30
0.0
 10
6.8752947014
 20
3.6691213044
 30
0.0
 10
6.875832131
 20
3.6693426001
 30
0.0
 10
6.8763124672
 20
3.6695749348
 30
0.0
 10
6.8767363216
 20
3.6698165366
 30
0.0
 10
6.8771048173
 20
3.6700661042
 30
0.0
 10
6.8775045002
 20
3.6703921098
 30
0.0
 10
6.8777555354
 20
3.6706673899
 30
0.0
 10
6.877885388
 20
3.6708614329
 30
0.0
  0
SPLINE
  5
486
100
AcDbEntity
  8
0
100
AcDbSpline
 62
7
  6
CONTINUOUS
 70
0
 71
3
 72
20
 73
16
 74
0
 42
0.0000001
 43
0.0000001
 44
0.0000000001
 40
0.0
 40
0.0
 40
0.0
 40
0.0
 40
0.180966709
 40
0.3528848234
 40
0.5090533563
 40
0.5800149027
 40
0.6459183343
 40
0.7067031158
 40
0.7624050674
 40
0.8131340699
 40
0.8590601113
 40
0.9004029918
 40
0.9374357958
 40
0.970498211
 40
1.0
 40
1.0
 40
1.0
 40
1.0
 10
6.8681964168
 20
3.676988326
 30
0.0
 10
6.8688102501
 20
3.676988326
 30
0.0
 10
6.8700075392
 20
3.6770222719
 30
0.0
 10
6.8717287229
 20
3.6771711965
 30
0.0
 10
6.8730685666
 20
3.6773710746
 30
0.0
 10
6.8740425
 20
3.677570587
 30
0.0
 10
6.8746938709
 20
3.6777300282
 30
0.0
 10
6.8752883525
 20
3.6779020044
 30
0.0
 10
6.8758255557
 20
3.6780846913
 30
0.0
 10
6.876305739
 20
3.6782764471
 30
0.0
 10
6.8767295872
 20
3.678475843
 30
0.0
 10
6.8770980308
 20
3.6786816354
 30
0.0
 10
6.8774121673
 20
3.6788928172
 30
0.0
 10
6.8776729847
 20
3.6791084757
 30
0.0
 10
6.8778196279
 20
3.6792629289
 30
0.0
 10
6.8778827247
 20
3.6793405988
 30
0.0
  0
SPLINE
  5
487
100
AcDbEntity
  8
0
100
AcDbSpline
 62
7
  6
CONTINUOUS
 70
0
 71
3
 72
20
 73
16
 74
0
 42
0.0000001
 43
0.0000001
 44
0.0000000001
 40
0.0
 40
0.0
 40
0.0
 40
0.0
 40
0.1842050865
 40
0.3589573715
 40
0.517227047
 40
0.5888831387
 40
0.6552138657
 40
0.7161368006
 40
0.7716655945
 40
0.8218859017
 40
0.8669396177
 40
0.9070130932
 40
0.9423396669
 40
0.9732134421
 40
1.0
 40
1.0
 40
1.0
 40
1.0
 10
6.8681964168
 20
3.6866134569
 30
0.0
 10
6.8688107078
 20
3.6866134569
 30
0.0
 10
6.8700079638
 20
3.6866402363
 30
0.0
 10
6.8717293922
 20
3.6867577444
 30
0.0
 10
6.8730703729
 20
3.6869155404
 30
0.0
 10
6.8740457928
 20
3.6870732657
 30
0.0
 10
6.8746971875
 20
3.6871991329
 30
0.0
 10
6.8752915599
 20
3.6873348686
 30
0.0
 10
6.8758285176
 20
3.6874790224
 30
0.0
 10
6.8763083185
 20
3.6876302829
 30
0.0
 10
6.8767316511
 20
3.6877875019
 30
0.0
 10
6.8770994573
 20
3.68794967
 30
0.0
 10
6.8774128781
 20
3.6881159654
 30
0.0
 10
6.8776729776
 20
3.6882856453
 30
0.0
 10
6.8778214365
 20
3.6884089232
 30
0.0
 10
6.877885388
 20
3.6884712911
 30
0.0
  0
SPLINE
  5
488
100
AcDbEntity
  8
0
100
AcDbSpline
 62
7
  6
CONTINUOUS
 70
0
 71
3
 72
19
 73
15
 74
0
 42
0.0000001
 43
0.0000001
 44
0.0000000001
 40
0.0
 40
0.0
 40
0.0
 40
0.0
 40
0.1868516855
 40
0.3639372304
 40
0.5239673854
 40
0.6629308692
 40
0.7240077886
 40
0.7794375516
 40
0.8292821791
 40
0.8736546019
 40
0.9127041517
 40
0.9466156874
 40
0.9756192404
 40
1.0
 40
1.0
 40
1.0
 40
1.0
 10
6.8681964168
 20
3.6968481787
 30
0.0
 10
6.8688106335
 20
3.6968481787
 30
0.0
 10
6.8700070613
 20
3.6968676971
 30
0.0
 10
6.8717276494
 20
3.6969532838
 30
0.0
 10
6.8732872239
 20
3.6970871729
 30
0.0
 10
6.8744618817
 20
3.6972362363
 30
0.0
 10
6.8752903533
 20
3.6973741428
 30
0.0
 10
6.8758270792
 20
3.6974792084
 30
0.0
 10
6.8763065963
 20
3.6975894111
 30
0.0
 10
6.8767295773
 20
3.6977039058
 30
0.0
 10
6.877096946
 20
3.6978219225
 30
0.0
 10
6.8774098383
 20
3.6979428076
 30
0.0
 10
6.8776693373
 20
3.6980659576
 30
0.0
 10
6.8778200807
 20
3.6981567993
 30
0.0
 10
6.877885388
 20
3.698203254
 30
0.0
  0
SPLINE
  5
489
100
AcDbEntity
  8
0
100
AcDbSpline
 62
7
  6
CONTINUOUS
 70
0
 71
3
 72
18
 73
14
 74
0
 42
0.0000001
 43
0.0000001
 44
0.0000000001
 40
0.0
 40
0.0
 40
0.0
 40
0.0
 40
0.1888164384
 40
0.3676399386
 40
0.5289931699
 40
0.6687225738
 40
0.7853054409
 40
0.8348932828
 40
0.8787802477
 40
0.9170831658
 40
0.9499412694
 40
0.9775179672
 40
1.0
 40
1.0
 40
1.0
 40
1.0
 10
6.8681964168
 20
3.7076696281
 30
0.0
 10
6.8688105821
 20
3.7076696281
 30
0.0
 10
6.8700064486
 20
3.7076818385
 30
0.0
 10
6.8717264017
 20
3.7077354109
 30
0.0
 10
6.8732853082
 20
3.7078191412
 30
0.0
 10
6.8746397306
 20
3.7079268504
 30
0.0
 10
6.8756289447
 20
3.7080363574
 30
0.0
 10
6.8763053013
 20
3.7081336112
 30
0.0
 10
6.8767279674
 20
3.7082052269
 30
0.0
 10
6.8770949122
 20
3.7082789869
 30
0.0
 10
6.8774072096
 20
3.708354437
 30
0.0
 10
6.8776658946
 20
3.7084311497
 30
0.0
 10
6.8778185884
 20
3.7084884737
 30
0.0
 10
6.877885388
 20
3.7085182302
 30
0.0
  0
SPLINE
  5
48A
100
AcDbEntity
  8
0
100
AcDbSpline
 62
7
  6
CONTINUOUS
 70
0
 71
3
 72
17
 73
13
 74
0
 42
0.0000001
 43
0.0000001
 44
0.0000000001
 40
0.0
 40
0.0
 40
0.0
 40
0.0
 40
0.1899355918
 40
0.3697513275
 40
0.5318645475
 40
0.6720416898
 40
0.788691144
 40
0.8817601089
 40
0.9196442912
 40
0.9519024937
 40
0.9786512465
 40
1.0
 40
1.0
 40
1.0
 40
1.0
 10
6.8681964168
 20
3.7190481441
 30
0.0
 10
6.8688105543
 20
3.7190481441
 30
0.0
 10
6.8700061139
 20
3.7190530324
 30
0.0
 10
6.8717257313
 20
3.7190744716
 30
0.0
 10
6.8732842349
 20
3.7191079962
 30
0.0
 10
6.8746381814
 20
3.7191510566
 30
0.0
 10
6.8757684479
 20
3.7192012491
 30
0.0
 10
6.8765676425
 20
3.7192497546
 30
0.0
 10
6.8770936888
 20
3.7192920382
 30
0.0
 10
6.8774055438
 20
3.7193221848
 30
0.0
 10
6.8776635756
 20
3.719352786
 30
0.0
 10
6.8778174316
 20
3.7193758255
 30
0.0
 10
6.877885388
 20
3.7193879471
 30
0.0
  0
SPLINE
  5
48B
100
AcDbEntity
  8
0
100
AcDbSpline
 62
7
  6
CONTINUOUS
 70
0
 71
3
 72
17
 73
13
 74
0
 42
0.0000001
 43
0.0000001
 44
0.0000000001
 40
0.0
 40
0.0
 40
0.0
 40
0.0
 40
0.0213487468
 40
0.0480974754
 40
0.0803556218
 40
0.1182396533
 40
0.2113083642
 40
0.3279575877
 40
0.468134686
 40
0.6302478741
 40
0.810063782
 40
1.0
 40
1.0
 40
1.0
 40
1.0
 10
6.877885388
 20
4.1024312791
 30
0.0
 10
6.8778174316
 20
4.1024434008
 30
0.0
 10
6.8776635757
 20
4.1024664402
 30
0.0
 10
6.8774055442
 20
4.1024970414
 30
0.0
 10
6.8770936899
 20
4.1025271879
 30
0.0
 10
6.8765676452
 20
4.1025694714
 30
0.0
 10
6.8757684525
 20
4.1026179769
 30
0.0
 10
6.8746381878
 20
4.1026681694
 30
0.0
 10
6.8732842423
 20
4.1027112298
 30
0.0
 10
6.8717257384
 20
4.1027447545
 30
0.0
 10
6.8700061185
 20
4.1027661938
 30
0.0
 10
6.8688105563
 20
4.1027710822
 30
0.0
 10
6.8681964168
 20
4.1027710822
 30
0.0
  0
SPLINE
  5
48C
100
AcDbEntity
  8
0
100
AcDbSpline
 62
7
  6
CONTINUOUS
 70
0
 71
3
 72
18
 73
14
 74
0
 42
0.0000001
 43
0.0000001
 44
0.0000000001
 40
0.0
 40
0.0
 40
0.0
 40
0.0
 40
0.0224820259
 40
0.0500586988
 40
0.0829167458
 40
0.1212195125
 40
0.1651063263
 40
0.2146940665
 40
0.3312767055
 40
0.4710060668
 40
0.6323592673
 40
0.8111829392
 40
1.0
 40
1.0
 40
1.0
 40
1.0
 10
6.877885388
 20
4.113300996
 30
0.0
 10
6.8778185884
 20
4.1133307525
 30
0.0
 10
6.8776658947
 20
4.1133880765
 30
0.0
 10
6.87740721
 20
4.1134647891
 30
0.0
 10
6.8770949133
 20
4.1135402391
 30
0.0
 10
6.8767279697
 20
4.1136139989
 30
0.0
 10
6.8763053049
 20
4.1136856145
 30
0.0
 10
6.8756289499
 20
4.1137828681
 30
0.0
 10
6.874639737
 20
4.1138923753
 30
0.0
 10
6.8732853156
 20
4.1140000846
 30
0.0
 10
6.8717264088
 20
4.114083815
 30
0.0
 10
6.8700064532
 20
4.1141373877
 30
0.0
 10
6.8688105841
 20
4.1141495982
 30
0.0
 10
6.8681964168
 20
4.1141495982
 30
0.0
  0
SPLINE
  5
48D
100
AcDbEntity
  8
0
100
AcDbSpline
 62
7
  6
CONTINUOUS
 70
0
 71
3
 72
19
 73
15
 74
0
 42
0.0000001
 43
0.0000001
 44
0.0000000001
 40
0.0
 40
0.0
 40
0.0
 40
0.0
 40
0.0243807524
 40
0.0533842794
 40
0.0872957572
 40
0.1263451547
 40
0.1707174271
 40
0.2205619542
 40
0.2759916253
 40
0.3370684127
 40
0.4760318567
 40
0.6360619827
 40
0.8131476986
 40
1.0
 40
1.0
 40
1.0
 40
1.0
 10
6.877885388
 20
4.1236159722
 30
0.0
 10
6.8778200807
 20
4.1236624269
 30
0.0
 10
6.8776693374
 20
4.1237532686
 30
0.0
 10
6.8774098387
 20
4.1238764185
 30
0.0
 10
6.8770969471
 20
4.1239973032
 30
0.0
 10
6.8767295796
 20
4.1241153198
 30
0.0
 10
6.8763065999
 20
4.1242298142
 30
0.0
 10
6.8758270839
 20
4.1243400169
 30
0.0
 10
6.8752903591
 20
4.1244450824
 30
0.0
 10
6.8744618884
 20
4.124582989
 30
0.0
 10
6.8732872313
 20
4.1247320526
 30
0.0
 10
6.8717276564
 20
4.124865942
 30
0.0
 10
6.8700070659
 20
4.1249515291
 30
0.0
 10
6.8688106355
 20
4.1249710475
 30
0.0
 10
6.8681964168
 20
4.1249710475
 30
0.0
  0
SPLINE
  5
48E
100
AcDbEntity
  8
0
100
AcDbSpline
 62
7
  6
CONTINUOUS
 70
0
 71
3
 72
20
 73
16
 74
0
 42
0.0000001
 43
0.0000001
 44
0.0000000001
 40
0.0
 40
0.0
 40
0.0
 40
0.0
 40
0.0267865503
 40
0.057660298
 40
0.092986812
 40
0.133060134
 40
0.1781137005
 40
0.228333909
 40
0.2838626135
 40
0.3447854196
 40
0.4111161534
 40
0.4827722021
 40
0.6410418511
 40
0.8157943059
 40
1.0
 40
1.0
 40
1.0
 40
1.0
 10
6.877885388
 20
4.1333479351
 30
0.0
 10
6.8778214365
 20
4.1334103031
 30
0.0
 10
6.8776729777
 20
4.1335335809
 30
0.0
 10
6.8774128784
 20
4.1337032606
 30
0.0
 10
6.8770994584
 20
4.1338695557
 30
0.0
 10
6.8767316533
 20
4.1340317234
 30
0.0
 10
6.8763083221
 20
4.1341889421
 30
0.0
 10
6.8758285224
 20
4.1343402024
 30
0.0
 10
6.8752915657
 20
4.1344843562
 30
0.0
 10
6.8746971941
 20
4.1346200921
 30
0.0
 10
6.8740457999
 20
4.1347459592
 30
0.0
 10
6.8730703803
 20
4.1349036849
 30
0.0
 10
6.8717293993
 20
4.1350614812
 30
0.0
 10
6.8700079684
 20
4.1351789899
 30
0.0
 10
6.8688107098
 20
4.1352057693
 30
0.0
 10
6.8681964168
 20
4.1352057693
 30
0.0
  0
SPLINE
  5
48F
100
AcDbEntity
  8
0
100
AcDbSpline
 62
7
  6
CONTINUOUS
 70
0
 71
3
 72
20
 73
16
 74
0
 42
0.0000001
 43
0.0000001
 44
0.0000000001
 40
0.0
 40
0.0
 40
0.0
 40
0.0
 40
0.029501781
 40
0.0625641667
 40
0.0995969092
 40
0.1409396346
 40
0.1868655278
 40
0.237594434
 40
0.2932962995
 40
0.3540809563
 40
0.4199843968
 40
0.4909459031
 40
0.6471144134
 40
0.8190326958
 40
1.0
 40
1.0
 40
1.0
 40
1.0
 10
6.8778827247
 20
4.1424786274
 30
0.0
 10
6.8778196279
 20
4.1425562973
 30
0.0
 10
6.8776729849
 20
4.1427107504
 30
0.0
 10
6.8774121677
 20
4.1429264087
 30
0.0
 10
6.8770980319
 20
4.14313759
 30
0.0
 10
6.8767295895
 20
4.143343382
 30
0.0
 10
6.8763057426
 20
4.1435427776
 30
0.0
 10
6.8758255604
 20
4.1437345332
 30
0.0
 10
6.8752883583
 20
4.14391722
 30
0.0
 10
6.8746938775
 20
4.1440891964
 30
0.0
 10
6.8740425071
 20
4.1442486376
 30
0.0
 10
6.873068574
 20
4.1444481504
 30
0.0
 10
6.87172873
 20
4.1446480289
 30
0.0
 10
6.8700075438
 20
4.1447969542
 30
0.0
 10
6.8688102521
 20
4.1448309003
 30
0.0
 10
6.8681964168
 20
4.1448309003
 30
0.0
  0
SPLINE
  5
490
100
AcDbEntity
  8
0
100
AcDbSpline
 62
7
  6
CONTINUOUS
 70
0
 71
3
 72
20
 73
16
 74
0
 42
0.0000001
 43
0.0000001
 44
0.0000000001
 40
0.0
 40
0.0
 40
0.0
 40
0.0
 40
0.0674716221
 40
0.1063082283
 40
0.1490136345
 40
0.1958903674
 40
0.2471863944
 40
0.303097695
 40
0.3637583397
 40
0.4292278533
 40
0.4994696722
 40
0.6534416166
 40
0.7363846684
 40
0.8224205226
 40
1.0
 40
1.0
 40
1.0
 40
1.0
 10
6.877885388
 20
4.1509577934
 30
0.0
 10
6.8777555355
 20
4.1511518362
 30
0.0
 10
6.8775045005
 20
4.1514271161
 30
0.0
 10
6.8771048184
 20
4.1517531212
 30
0.0
 10
6.8767363239
 20
4.1520026882
 30
0.0
 10
6.8763124709
 20
4.1522442895
 30
0.0
 10
6.8758321358
 20
4.1524766239
 30
0.0
 10
6.8752947072
 20
4.1526979196
 30
0.0
 10
6.8746999057
 20
4.1529062214
 30
0.0
 10
6.8740481162
 20
4.1530993256
 30
0.0
 10
6.8730748728
 20
4.15334061
 30
0.0
 10
6.872027586
 20
4.1535298302
 30
0.0
 10
6.8709184556
 20
4.1536681845
 30
0.0
 10
6.8697236021
 20
4.153773207
 30
0.0
 10
6.8688109239
 20
4.1538045049
 30
0.0
 10
6.8681964168
 20
4.1538045049
 30
0.0
  0
SPLINE
  5
491
100
AcDbEntity
  8
0
100
AcDbSpline
 62
7
  6
CONTINUOUS
 70
0
 71
3
 72
20
 73
16
 74
0
 42
0.0000001
 43
0.0000001
 44
0.0000000001
 40
0.0
 40
0.0
 40
0.0
 40
0.0
 40
0.072594985
 40
0.1133410283
 40
0.1575241659
 40
0.2054607359
 40
0.257416029
 40
0.3136048461
 40
0.3741808953
 40
0.4392245785
 40
0.5087223824
 40
0.6603537034
 40
0.7417797465
 40
0.8261228855
 40
1.0
 40
1.0
 40
1.0
 40
1.0
 10
6.877885388
 20
4.1587874214
 30
0.0
 10
6.8777579647
 20
4.1590101688
 30
0.0
 10
6.877510003
 20
4.1593309138
 30
0.0
 10
6.8771071742
 20
4.1597157635
 30
0.0
 10
6.8767386341
 20
4.1600080908
 30
0.0
 10
6.8763146269
 20
4.1602910667
 30
0.0
 10
6.8758341174
 20
4.1605631421
 30
0.0
 10
6.8752964956
 20
4.1608222544
 30
0.0
 10
6.8747014984
 20
4.1610661217
 30
0.0
 10
6.8740495101
 20
4.1612921728
 30
0.0
 10
6.8730776307
 20
4.1615741402
 30
0.0
 10
6.8720295285
 20
4.1617959261
 30
0.0
 10
6.87091907
 20
4.1619579941
 30
0.0
 10
6.8697244632
 20
4.1620808636
 30
0.0
 10
6.8688110613
 20
4.1621175407
 30
0.0
 10
6.8681964168
 20
4.1621175407
 30
0.0
  0
SPLINE
  5
492
100
AcDbEntity
  8
0
100
AcDbSpline
 62
7
  6
CONTINUOUS
 70
0
 71
3
 72
18
 73
14
 74
0
 42
0.0000001
 43
0.0000001
 44
0.0000000001
 40
0.0
 40
0.0
 40
0.0
 40
0.0
 40
0.0776161283
 40
0.1202877113
 40
0.1659909919
 40
0.21504343
 40
0.2677177082
 40
0.3242401364
 40
0.3847789637
 40
0.5181528512
 40
0.6674430241
 40
0.8299051325
 40
1.0
 40
1.0
 40
1.0
 40
1.0
 10
6.877885388
 20
4.1659376335
 30
0.0
 10
6.8777597788
 20
4.166188482
 30
0.0
 10
6.8775145771
 20
4.1665532193
 30
0.0
 10
6.8771092629
 20
4.1669961247
 30
0.0
 10
6.8767407804
 20
4.1673303807
 30
0.0
 10
6.8763167166
 20
4.167653973
 30
0.0
 10
6.875836105
 20
4.1679650742
 30
0.0
 10
6.8752983376
 20
4.1682613491
 30
0.0
 10
6.8744781189
 20
4.1686455326
 30
0.0
 10
6.8733076124
 20
4.1690653291
 30
0.0
 10
6.871741289
 20
4.1694445177
 30
0.0
 10
6.8700140029
 20
4.1696867621
 30
0.0
 10
6.8688112169
 20
4.1697420331
 30
0.0
 10
6.8681964168
 20
4.1697420331
 30
0.0
  0
SPLINE
  5
493
100
AcDbEntity
  8
0
100
AcDbSpline
 62
7
  6
CONTINUOUS
 70
0
 71
3
 72
15
 73
11
 74
0
 42
0.0000001
 43
0.0000001
 44
0.0000000001
 40
0.0
 40
0.0
 40
0.0
 40
0.0
 40
0.0824471007
 40
0.1741472177
 40
0.2776972141
 40
0.3950844269
 40
0.5274277034
 40
0.6744415061
 40
0.8336697262
 40
1.0
 40
1.0
 40
1.0
 40
1.0
 10
6.877885388
 20
4.1723888316
 30
0.0
 10
6.8777611485
 20
4.1726671959
 30
0.0
 10
6.8774284673
 20
4.1732252614
 30
0.0
 10
6.8767343459
 20
4.1739891733
 30
0.0
 10
6.875818554
 20
4.1747026007
 30
0.0
 10
6.8746772234
 20
4.1753462577
 30
0.0
 10
6.8733132679
 20
4.1758960675
 30
0.0
 10
6.8717451487
 20
4.176322523
 30
0.0
 10
6.8700160609
 20
4.1765949113
 30
0.0
 10
6.868811389
 20
4.1766570838
 30
0.0
 10
6.8681964168
 20
4.1766570838
 30
0.0
  0
SPLINE
  5
494
100
AcDbEntity
  8
0
100
AcDbSpline
 62
7
  6
CONTINUOUS
 70
0
 71
3
 72
15
 73
11
 74
0
 42
0.0000001
 43
0.0000001
 44
0.0000000001
 40
0.0
 40
0.0
 40
0.0
 40
0.0
 40
0.086997677
 40
0.1819990096
 40
0.2874357612
 40
0.4052516747
 40
0.5366171529
 40
0.6813980721
 40
0.8374192897
 40
1.0
 40
1.0
 40
1.0
 40
1.0
 10
6.877885388
 20
4.1781233333
 30
0.0
 10
6.8777621973
 20
4.1784285871
 30
0.0
 10
6.8774338869
 20
4.1790402762
 30
0.0
 10
6.8767413367
 20
4.1798861745
 30
0.0
 10
6.8758259653
 20
4.1806768618
 30
0.0
 10
6.8746841356
 20
4.1813904752
 30
0.0
 10
6.8733190457
 20
4.1820000358
 30
0.0
 10
6.871749305
 20
4.1824728174
 30
0.0
 10
6.870018278
 20
4.1827747868
 30
0.0
 10
6.8688115758
 20
4.1828437392
 30
0.0
 10
6.8681964168
 20
4.1828437392
 30
0.0
  0
SPLINE
  5
495
100
AcDbEntity
  8
0
100
AcDbSpline
 62
7
  6
CONTINUOUS
 70
0
 71
3
 72
15
 73
11
 74
0
 42
0.0000001
 43
0.0000001
 44
0.0000000001
 40
0.0
 40
0.0
 40
0.0
 40
0.0
 40
0.0912712826
 40
0.1894526559
 40
0.2967737691
 40
0.4150863883
 40
0.5455699134
 40
0.6882119771
 40
0.8411043689
 40
1.0
 40
1.0
 40
1.0
 40
1.0
 10
6.8778827247
 20
4.1831353161
 30
0.0
 10
6.8777599262
 20
4.1834664268
 30
0.0
 10
6.8774344963
 20
4.1841292086
 30
0.0
 10
6.8767430043
 20
4.1850531357
 30
0.0
 10
6.8758281605
 20
4.1859175406
 30
0.0
 10
6.8746863426
 20
4.1866980712
 30
0.0
 10
6.8733209322
 20
4.1873648773
 30
0.0
 10
6.8717506598
 20
4.187882071
 30
0.0
 10
6.8700190243
 20
4.1882124039
 30
0.0
 10
6.8688112183
 20
4.1882878663
 30
0.0
 10
6.8681964168
 20
4.1882878663
 30
0.0
  0
SPLINE
  5
496
100
AcDbEntity
  8
0
100
AcDbSpline
 62
7
  6
CONTINUOUS
 70
0
 71
3
 72
15
 73
11
 74
0
 42
0.0000001
 43
0.0000001
 44
0.0000000001
 40
0.0
 40
0.0
 40
0.0
 40
0.0
 40
0.0952095801
 40
0.196355622
 40
0.3054638294
 40
0.4242760621
 40
0.5539605452
 40
0.6946100193
 40
0.844567785
 40
1.0
 40
1.0
 40
1.0
 40
1.0
 10
6.877885388
 20
4.1873813837
 30
0.0
 10
6.8777636543
 20
4.1877382571
 30
0.0
 10
6.8774419228
 20
4.1884518302
 30
0.0
 10
6.8767528064
 20
4.1894531748
 30
0.0
 10
6.8758392838
 20
4.1903909805
 30
0.0
 10
6.8746975203
 20
4.191238466
 30
0.0
 10
6.8733308879
 20
4.1919628441
 30
0.0
 10
6.8717581668
 20
4.1925249071
 30
0.0
 10
6.870023117
 20
4.1928839973
 30
0.0
 10
6.868811985
 20
4.1929660781
 30
0.0
 10
6.8681964168
 20
4.1929660781
 30
0.0
  0
SPLINE
  5
497
100
AcDbEntity
  8
0
100
AcDbSpline
 62
7
  6
CONTINUOUS
 70
0
 71
3
 72
16
 73
12
 74
0
 42
0.0000001
 43
0.0000001
 44
0.0000000001
 40
0.0
 40
0.0
 40
0.0
 40
0.0
 40
0.0988478555
 40
0.2027828062
 40
0.3136166932
 40
0.4329548064
 40
0.5619217818
 40
0.6301718869
 40
0.7007837583
 40
0.847920041
 40
1.0
 40
1.0
 40
1.0
 40
1.0
 10
6.877885388
 20
4.1908795567
 30
0.0
 10
6.8777641667
 20
4.1912610024
 30
0.0
 10
6.8774448931
 20
4.192022773
 30
0.0
 10
6.8767574302
 20
4.1930973215
 30
0.0
 10
6.8758450856
 20
4.1941045559
 30
0.0
 10
6.8747038929
 20
4.1950154088
 30
0.0
 10
6.8735855247
 20
4.1956526736
 30
0.0
 10
6.8725886956
 20
4.1960818381
 30
0.0
 10
6.8714928072
 20
4.1964591908
 30
0.0
 10
6.8700255497
 20
4.1967856684
 30
0.0
 10
6.8688122028
 20
4.196874017
 30
0.0
 10
6.8681964168
 20
4.196874017
 30
0.0
  0
SPLINE
  5
498
100
AcDbEntity
  8
0
100
AcDbSpline
 62
7
  6
CONTINUOUS
 70
0
 71
3
 72
17
 73
13
 74
0
 42
0.0000001
 43
0.0000001
 44
0.0000000001
 40
0.0
 40
0.0
 40
0.0
 40
0.0
 40
0.1024539776
 40
0.1553270381
 40
0.2095241415
 40
0.3225179445
 40
0.4428220557
 40
0.506068577
 40
0.5714279345
 40
0.7082260778
 40
0.8520510518
 40
1.0
 40
1.0
 40
1.0
 40
1.0
 10
6.8777787794
 20
4.1939400368
 30
0.0
 10
6.877643081
 20
4.1943290745
 30
0.0
 10
6.8773886243
 20
4.1949033606
 30
0.0
 10
6.8769583697
 20
4.1956285499
 30
0.0
 10
6.8764476431
 20
4.1963523769
 30
0.0
 10
6.8756695598
 20
4.1972143698
 30
0.0
 10
6.8747390008
 20
4.1979681771
 30
0.0
 10
6.8738943182
 20
4.1985068527
 30
0.0
 10
6.8729524885
 20
4.1990109588
 30
0.0
 10
6.871652721
 20
4.1995237832
 30
0.0
 10
6.8699667877
 20
4.199909886
 30
0.0
 10
6.8687914022
 20
4.1999981474
 30
0.0
 10
6.8681964168
 20
4.1999981474
 30
0.0
  0
SPLINE
  5
499
100
AcDbEntity
  8
0
100
AcDbSpline
 62
7
  6
CONTINUOUS
 70
0
 71
3
 72
18
 73
14
 74
0
 42
0.0000001
 43
0.0000001
 44
0.0000000001
 40
0.0
 40
0.0
 40
0.0
 40
0.0
 40
0.1052301917
 40
0.214147452
 40
0.3281535471
 40
0.3875293573
 40
0.4486502053
 40
0.5764224051
 40
0.7118219586
 40
0.7821847004
 40
0.853943685
 40
0.9267078205
 40
1.0
 40
1.0
 40
1.0
 40
1.0
 10
6.877885388
 20
4.1955662832
 30
0.0
 10
6.877764918
 20
4.1959940058
 30
0.0
 10
6.8774493698
 20
4.1968462765
 30
0.0
 10
6.8767649266
 20
4.1980575096
 30
0.0
 10
6.8760165514
 20
4.1989926398
 30
0.0
 10
6.8753095835
 20
4.1996873044
 30
0.0
 10
6.8745042666
 20
4.2003601678
 30
0.0
 10
6.8733481041
 20
4.2011059583
 30
0.0
 10
6.8720502965
 20
4.2016700973
 30
0.0
 10
6.8709258836
 20
4.2020041511
 30
0.0
 10
6.8700366845
 20
4.2021904655
 30
0.0
 10
6.8691229874
 20
4.2023043745
 30
0.0
 10
6.8685059138
 20
4.2023299062
 30
0.0
 10
6.8681964168
 20
4.2023299062
 30
0.0
  0
SPLINE
  5
49A
100
AcDbEntity
  8
0
100
AcDbSpline
 62
7
  6
CONTINUOUS
 70
0
 71
3
 72
18
 73
14
 74
0
 42
0.0000001
 43
0.0000001
 44
0.0000000001
 40
0.0
 40
0.0
 40
0.0
 40
0.0
 40
0.1080118356
 40
0.2191366497
 40
0.3345880244
 40
0.3943510221
 40
0.4556158849
 40
0.5829133965
 40
0.7168487042
 40
0.7861580698
 40
0.8566939709
 40
0.9281143673
 40
1.0
 40
1.0
 40
1.0
 40
1.0
 10
6.877885388
 20
4.1967419908
 30
0.0
 10
6.8777651957
 20
4.1971912698
 30
0.0
 10
6.8774510732
 20
4.1980856117
 30
0.0
 10
6.8767678907
 20
4.1993601484
 30
0.0
 10
6.8760189662
 20
4.2003466942
 30
0.0
 10
6.8753107548
 20
4.2010795861
 30
0.0
 10
6.8745072573
 20
4.20178664
 30
0.0
 10
6.8733534507
 20
4.2025713394
 30
0.0
 10
6.8720530024
 20
4.2031673226
 30
0.0
 10
6.8709268078
 20
4.2035196966
 30
0.0
 10
6.8700373395
 20
4.203715987
 30
0.0
 10
6.8691233332
 20
4.2038359984
 30
0.0
 10
6.8685059425
 20
4.2038629022
 30
0.0
 10
6.8681964168
 20
4.2038629022
 30
0.0
  0
SPLINE
  5
49B
100
AcDbEntity
  8
0
100
AcDbSpline
 62
7
  6
CONTINUOUS
 70
0
 71
3
 72
15
 73
11
 74
0
 42
0.0000001
 43
0.0000001
 44
0.0000000001
 40
0.0
 40
0.0
 40
0.0
 40
0.0
 40
0.1105772038
 40
0.2237684048
 40
0.3406112088
 40
0.4621053347
 40
0.589044396
 40
0.721695592
 40
0.8593479611
 40
1.0
 40
1.0
 40
1.0
 40
1.0
 10
6.8778827247
 20
4.1971446563
 30
0.0
 10
6.8777623529
 20
4.1976138466
 30
0.0
 10
6.8774487455
 20
4.1985469288
 30
0.0
 10
6.8767658979
 20
4.19987968
 30
0.0
 10
6.8758582931
 20
4.2011315055
 30
0.0
 10
6.8747204562
 20
4.2022664563
 30
0.0
 10
6.8733544022
 20
4.2032395593
 30
0.0
 10
6.8717777874
 20
4.2039968385
 30
0.0
 10
6.8700346182
 20
4.2044818294
 30
0.0
 10
6.8688125651
 20
4.2045931162
 30
0.0
 10
6.8681964367
 20
4.2045931162
 30
0.0
  0
SPLINE
  5
49C
100
AcDbEntity
  8
0
100
AcDbSpline
 62
7
  6
CONTINUOUS
 70
0
 71
3
 72
33
 73
29
 74
0
 42
0.0000001
 43
0.0000001
 44
0.0000000001
 40
0.0
 40
0.0
 40
0.0
 40
0.0
 40
0.0037681904
 40
0.0078781987
 40
0.0124480428
 40
0.0175598848
 40
0.0232689691
 40
0.0296111735
 40
0.0442670282
 40
0.0616111004
 40
0.0816318251
 40
0.1042674597
 40
0.1294238471
 40
0.1569829453
 40
0.1868075623
 40
0.2526266639
 40
0.3255087915
 40
0.4038886137
 40
0.48603254
 40
0.5700576983
 40
0.6539574074
 40
0.7356465546
 40
0.8130250611
 40
0.8840637328
 40
0.9166181268
 40
0.9469107663
 40
0.9747603723
 40
1.0
 40
1.0
 40
1.0
 40
1.0
 10
6.6044205475
 20
3.7885369951
 30
0.0
 10
6.6043957703
 20
3.7885385346
 30
0.0
 10
6.6043442367
 20
3.7885477675
 30
0.0
 10
6.6042674396
 20
3.7885776073
 30
0.0
 10
6.6041886403
 20
3.7886234414
 30
0.0
 10
6.6041078313
 20
3.7886850182
 30
0.0
 10
6.6040249844
 20
3.7887621859
 30
0.0
 10
6.6039061032
 20
3.7888920928
 30
0.0
 10
6.6037546434
 20
3.7890949535
 30
0.0
 10
6.6035740489
 20
3.7893865217
 30
0.0
 10
6.6033878083
 20
3.7897354323
 30
0.0
 10
6.6031970407
 20
3.7901395556
 30
0.0
 10
6.603002907
 20
3.7905965501
 30
0.0
 10
6.6028065609
 20
3.7911037254
 30
0.0
 10
6.6025343501
 20
3.791868467
 30
0.0
 10
6.6022000125
 20
3.7929275688
 30
0.0
 10
6.6018198256
 20
3.7943064975
 30
0.0
 10
6.6014578105
 20
3.7958011956
 30
0.0
 10
6.6011228009
 20
3.797377274
 30
0.0
 10
6.6008232875
 20
3.7989974725
 30
0.0
 10
6.6005671229
 20
3.8006220568
 30
0.0
 10
6.600361259
 20
3.8022096621
 30
0.0
 10
6.6002114986
 20
3.803718429
 30
0.0
 10
6.6001346642
 20
3.8049085344
 30
0.0
 10
6.60010694
 20
3.8057902115
 30
0.0
 10
6.6001029387
 20
3.8063877834
 30
0.0
 10
6.6001150837
 20
3.80693705
 30
0.0
 10
6.6001348365
 20
3.8072863497
 30
0.0
 10
6.6001479438
 20
3.8074521114
 30
0.0
  0
LINE
  5
49D
100
AcDbEntity
  8
0
100
AcDbLine
 62
7
  6
CONTINUOUS
 10
6.6001479438
 20
3.7747083733
 11
6.6002925242
 21
3.7749326035
  0
SPLINE
  5
49E
100
AcDbEntity
  8
0
100
AcDbSpline
 62
7
  6
CONTINUOUS
 70
0
 71
3
 72
17
 73
13
 74
0
 42
0.0000001
 43
0.0000001
 44
0.0000000001
 40
0.0
 40
0.0
 40
0.0
 40
0.0
 40
0.2020308485
 40
0.3807877854
 40
0.5358254732
 40
0.6672876498
 40
0.7760065764
 40
0.8640518481
 40
0.9016712175
 40
0.9360658196
 40
0.9683844716
 40
1.0
 40
1.0
 40
1.0
 40
1.0
 10
6.6001479438
 20
3.8074521114
 30
0.0
 10
6.6001588099
 20
3.8075895297
 30
0.0
 10
6.6001841055
 20
3.8078482041
 30
0.0
 10
6.6002374825
 20
3.8082100716
 30
0.0
 10
6.600303601
 20
3.8085208207
 30
0.0
 10
6.6003820562
 20
3.8087793315
 30
0.0
 10
6.6004723684
 20
3.8089849031
 30
0.0
 10
6.6005624051
 20
3.8091190315
 30
0.0
 10
6.600641745
 20
3.8091947098
 30
0.0
 10
6.6007012601
 20
3.8092345292
 30
0.0
 10
6.600763801
 20
3.8092601232
 30
0.0
 10
6.600807229
 20
3.8092674506
 30
0.0
 10
6.6008287635
 20
3.8092687135
 30
0.0
  0
SPLINE
  5
49F
100
AcDbEntity
  8
0
100
AcDbSpline
 62
7
  6
CONTINUOUS
 70
0
 71
3
 72
20
 73
16
 74
0
 42
0.0000001
 43
0.0000001
 44
0.0000000001
 40
0.0
 40
0.0
 40
0.0
 40
0.0
 40
0.1996706015
 40
0.3799638715
 40
0.5386782604
 40
0.6094425191
 40
0.6742951359
 40
0.7331841695
 40
0.786130722
 40
0.8332645514
 40
0.8748508873
 40
0.9113617293
 40
0.9435538829
 40
0.9725760675
 40
1.0
 40
1.0
 40
1.0
 40
1.0
 10
6.6001479438
 20
3.8559463163
 30
0.0
 10
6.600166287
 20
3.8562900734
 30
0.0
 10
6.6002134736
 20
3.8569436985
 30
0.0
 10
6.6003234668
 20
3.857866232
 30
0.0
 10
6.6004473865
 20
3.8585623753
 30
0.0
 10
6.600565813
 20
3.8590559542
 30
0.0
 10
6.600658809
 20
3.8593782853
 30
0.0
 10
6.6007589685
 20
3.8596661589
 30
0.0
 10
6.6008659354
 20
3.8599187589
 30
0.0
 10
6.6009793137
 20
3.8601354715
 30
0.0
 10
6.6010988542
 20
3.8603158477
 30
0.0
 10
6.6012244162
 20
3.8604595833
 30
0.0
 10
6.601356239
 20
3.8605662373
 30
0.0
 10
6.6014944198
 20
3.8606347942
 30
0.0
 10
6.6015912452
 20
3.8606540748
 30
0.0
 10
6.601638445
 20
3.8606568401
 30
0.0
  0
LINE
  5
4A0
100
AcDbEntity
  8
0
100
AcDbLine
 62
7
  6
CONTINUOUS
 10
6.591439445
 20
3.8324162251
 11
6.5912894292
 21
3.8327621308
  0
SPLINE
  5
4A1
100
AcDbEntity
  8
0
100
AcDbSpline
 62
7
  6
CONTINUOUS
 70
0
 71
3
 72
27
 73
23
 74
0
 42
0.0000001
 43
0.0000001
 44
0.0000000001
 40
0.0
 40
0.0
 40
0.0
 40
0.0
 40
0.0163482221
 40
0.0352001009
 40
0.0564760257
 40
0.0800763725
 40
0.1337763707
 40
0.1952376236
 40
0.2632216438
 40
0.3363447764
 40
0.4131042696
 40
0.4919026127
 40
0.5710763069
 40
0.6489304499
 40
0.7237775025
 40
0.7939797591
 40
0.8579967535
 40
0.9144324154
 40
0.9394231189
 40
0.9620856945
 40
0.9823082774
 40
1.0
 40
1.0
 40
1.0
 40
1.0
 10
6.5912894292
 20
3.8327621308
 30
0.0
 10
6.5912542844
 20
3.8328551499
 30
0.0
 10
6.5911841188
 20
3.8330575189
 30
0.0
 10
6.5910837
 20
3.8333860768
 30
0.0
 10
6.5909811024
 20
3.8337599219
 30
0.0
 10
6.590835855
 20
3.8343416883
 30
0.0
 10
6.5906555111
 20
3.835166381
 30
0.0
 10
6.5904473202
 20
3.836260818
 30
0.0
 10
6.5902437514
 20
3.8374760821
 30
0.0
 10
6.5900491794
 20
3.8387869456
 30
0.0
 10
6.5898678422
 20
3.840166071
 30
0.0
 10
6.5897036812
 20
3.8415843962
 30
0.0
 10
6.5895603001
 20
3.843011664
 30
0.0
 10
6.5894408664
 20
3.8444170199
 30
0.0
 10
6.5893480354
 20
3.8457696975
 30
0.0
 10
6.5892838288
 20
3.8470397902
 30
0.0
 10
6.5892496377
 20
3.8481990213
 30
0.0
 10
6.589246319
 20
3.8490838215
 30
0.0
 10
6.5892610914
 20
3.8497167991
 30
0.0
 10
6.5892794414
 20
3.8501292812
 30
0.0
 10
6.5893053449
 20
3.8504968676
 30
0.0
 10
6.5893291076
 20
3.8507263215
 30
0.0
 10
6.5893427194
 20
3.8508330659
 30
0.0
  0
LINE
  5
4A2
100
AcDbEntity
  8
0
100
AcDbLine
 62
7
  6
CONTINUOUS
 10
6.5893427194
 20
3.8508330659
 11
6.58966688
 21
3.8516977575
  0
SPLINE
  5
4A3
100
AcDbEntity
  8
0
100
AcDbSpline
 62
7
  6
CONTINUOUS
 70
0
 71
3
 72
28
 73
24
 74
0
 42
0.0000001
 43
0.0000001
 44
0.0000000001
 40
0.0
 40
0.0
 40
0.0
 40
0.0
 40
0.0095659943
 40
0.0201655459
 40
0.032260735
 40
0.0461418004
 40
0.0619765733
 40
0.0798511708
 40
0.0997980515
 40
0.1218135258
 40
0.1458662809
 40
0.171905696
 40
0.2296519846
 40
0.2943588369
 40
0.3651390348
 40
0.4409440073
 40
0.5205802123
 40
0.6027285991
 40
0.6859685015
 40
0.76881105
 40
0.8497432127
 40
0.9272743669
 40
1.0
 40
1.0
 40
1.0
 40
1.0
 10
6.6035811448
 20
3.8399272134
 30
0.0
 10
6.6035275125
 20
3.8399305078
 30
0.0
 10
6.6034151445
 20
3.8399546297
 30
0.0
 10
6.6032515902
 20
3.840035693
 30
0.0
 10
6.6030872923
 20
3.840160608
 30
0.0
 10
6.6029221491
 20
3.8403284267
 30
0.0
 10
6.6027562235
 20
3.8405385355
 30
0.0
 10
6.6025899422
 20
3.8407902449
 30
0.0
 10
6.6024238607
 20
3.8410826916
 30
0.0
 10
6.6022586298
 20
3.8414148292
 30
0.0
 10
6.6020948907
 20
3.8417854257
 30
0.0
 10
6.6018717419
 20
3.8423486992
 30
0.0
 10
6.6016045464
 20
3.8431394282
 30
0.0
 10
6.6013102433
 20
3.8441845497
 30
0.0
 10
6.6010375554
 20
3.845339981
 30
0.0
 10
6.6007915161
 20
3.8465869069
 30
0.0
 10
6.6005768642
 20
3.8479043344
 30
0.0
 10
6.6003978611
 20
3.8492691922
 30
0.0
 10
6.60025818
 20
3.8506567322
 30
0.0
 10
6.6001607584
 20
3.8520410333
 30
0.0
 10
6.6001076663
 20
3.8533956767
 30
0.0
 10
6.600099997
 20
3.8546945122
 30
0.0
 10
6.6001261763
 20
3.8555383876
 30
0.0
 10
6.6001479438
 20
3.8559463163
 30
0.0
  0
SPLINE
  5
4A4
100
AcDbEntity
  8
0
100
AcDbSpline
 62
7
  6
CONTINUOUS
 70
0
 71
3
 72
22
 73
18
 74
0
 42
0.0000001
 43
0.0000001
 44
0.0000000001
 40
0.0
 40
0.0
 40
0.0
 40
0.0
 40
0.1900795424
 40
0.3683496582
 40
0.4515052285
 40
0.529939509
 40
0.6031831055
 40
0.6708348886
 40
0.732570552
 40
0.7881546526
 40
0.8374600454
 40
0.8804989005
 40
0.9174817117
 40
0.9489261573
 40
0.9758367655
 40
0.9881325222
 40
1.0
 40
1.0
 40
1.0
 40
1.0
 10
6.6001479438
 20
3.9128081849
 30
0.0
 10
6.600174297
 20
3.9133874538
 30
0.0
 10
6.6002493304
 20
3.9145090767
 30
0.0
 10
6.6004060208
 20
3.9158781819
 30
0.0
 10
6.6005673178
 20
3.9169024927
 30
0.0
 10
6.6007004565
 20
3.9176065391
 30
0.0
 10
6.6008474172
 20
3.9182594549
 30
0.0
 10
6.601007006
 20
3.9188568525
 30
0.0
 10
6.6011779485
 20
3.9193948769
 30
0.0
 10
6.6013589243
 20
3.9198702325
 30
0.0
 10
6.601548622
 20
3.9202802094
 30
0.0
 10
6.6017457651
 20
3.9206227154
 30
0.0
 10
6.6019495268
 20
3.9208962958
 30
0.0
 10
6.6021593507
 20
3.9210999417
 30
0.0
 10
6.6023461384
 20
3.9212131267
 30
0.0
 10
6.6024950015
 20
3.9212611426
 30
0.0
 10
6.6025683508
 20
3.9212719294
 30
0.0
 10
6.6026044926
 20
3.9212740458
 30
0.0
  0
SPLINE
  5
4A5
100
AcDbEntity
  8
0
100
AcDbSpline
 62
7
  6
CONTINUOUS
 70
0
 71
3
 72
17
 73
13
 74
0
 42
0.0000001
 43
0.0000001
 44
0.0000000001
 40
0.0
 40
0.0
 40
0.0
 40
0.0
 40
0.2004424438
 40
0.3786503416
 40
0.5341823819
 40
0.6670394831
 40
0.777695175
 40
0.8674590129
 40
0.9054262211
 40
0.9395287832
 40
0.970660553
 40
1.0
 40
1.0
 40
1.0
 40
1.0
 10
6.5899364602
 20
3.9192413263
 30
0.0
 10
6.5899630474
 20
3.9193522603
 30
0.0
 10
6.5900166687
 20
3.9195610396
 30
0.0
 10
6.5901046929
 20
3.9198521496
 30
0.0
 10
6.5901952295
 20
3.9201019528
 30
0.0
 10
6.5902878654
 20
3.9203096304
 30
0.0
 10
6.5903821842
 20
3.9204745737
 30
0.0
 10
6.5904665484
 20
3.9205820424
 30
0.0
 10
6.5905358115
 20
3.9206431463
 30
0.0
 10
6.59058534
 20
3.9206752128
 30
0.0
 10
6.5906353713
 20
3.920695948
 30
0.0
 10
6.5906695816
 20
3.9207020935
 30
0.0
 10
6.5906862487
 20
3.920703103
 30
0.0
  0
SPLINE
  5
4A6
100
AcDbEntity
  8
0
100
AcDbSpline
 62
7
  6
CONTINUOUS
 70
0
 71
3
 72
14
 73
10
 74
0
 42
0.0000001
 43
0.0000001
 44
0.0000000001
 40
0.0
 40
0.0
 40
0.0
 40
0.0
 40
0.295102447
 40
0.4366786463
 40
0.5712191707
 40
0.6966168983
 40
0.8109564042
 40
0.9125520972
 40
1.0
 40
1.0
 40
1.0
 40
1.0
 10
6.589248833
 20
3.9109096131
 30
0.0
 10
6.589248833
 20
3.9117334201
 30
0.0
 10
6.5892711537
 20
3.9129526483
 30
0.0
 10
6.5893481984
 20
3.9145454818
 30
0.0
 10
6.5894265861
 20
3.9156637079
 30
0.0
 10
6.5895249041
 20
3.916704017
 30
0.0
 10
6.5896413807
 20
3.9176499013
 30
0.0
 10
6.5897739114
 20
3.9184865643
 30
0.0
 10
6.589879564
 20
3.91900393
 30
0.0
 10
6.5899364602
 20
3.9192413263
 30
0.0
  0
SPLINE
  5
4A7
100
AcDbEntity
  8
0
100
AcDbSpline
 62
7
  6
CONTINUOUS
 70
0
 71
3
 72
25
 73
21
 74
0
 42
0.0000001
 43
0.0000001
 44
0.0000000001
 40
0.0
 40
0.0
 40
0.0
 40
0.0
 40
0.1996618667
 40
0.3860850256
 40
0.4727774285
 40
0.554351462
 40
0.6302753465
 40
0.7000556052
 40
0.7632441394
 40
0.8194437019
 40
0.8683151755
 40
0.9095919294
 40
0.9273288511
 40
0.9431169935
 40
0.9569643954
 40
0.968897798
 40
0.9789802297
 40
0.9873347933
 40
0.9941954908
 40
1.0
 40
1.0
 40
1.0
 40
1.0
 10
6.5899364602
 20
3.9821663989
 30
0.0
 10
6.5900034376
 20
3.9826838358
 30
0.0
 10
6.5901417625
 20
3.9836832861
 30
0.0
 10
6.5903353156
 20
3.9849035926
 30
0.0
 10
6.5904969876
 20
3.9858162764
 30
0.0
 10
6.5906165954
 20
3.9864431031
 30
0.0
 10
6.5907366759
 20
3.9870247836
 30
0.0
 10
6.590856398
 20
3.987557403
 30
0.0
 10
6.5909749181
 20
3.9880373601
 30
0.0
 10
6.5910913659
 20
3.9884614234
 30
0.0
 10
6.5912049052
 20
3.988826693
 30
0.0
 10
6.5913005403
 20
3.989092079
 30
0.0
 10
6.5913762147
 20
3.9892723548
 30
0.0
 10
6.5914288679
 20
3.9893844414
 30
0.0
 10
6.5914802172
 20
3.9894802395
 30
0.0
 10
6.5915302041
 20
3.9895596317
 30
0.0
 10
6.5915787808
 20
3.9896225973
 30
0.0
 10
6.591626099
 20
3.9896691806
 30
0.0
 10
6.5916725349
 20
3.9896994572
 30
0.0
 10
6.5917052365
 20
3.9897085016
 30
0.0
 10
6.5917203779
 20
3.9897094038
 30
0.0
  0
SPLINE
  5
4A8
100
AcDbEntity
  8
0
100
AcDbSpline
 62
7
  6
CONTINUOUS
 70
0
 71
3
 72
31
 73
27
 74
0
 42
0.0000001
 43
0.0000001
 44
0.0000000001
 40
0.0
 40
0.0
 40
0.0
 40
0.0
 40
0.0247573929
 40
0.0522907559
 40
0.1148783274
 40
0.1860182124
 40
0.2637579735
 40
0.346037781
 40
0.4307629791
 40
0.5158580436
 40
0.5992997345
 40
0.6791398745
 40
0.7535199091
 40
0.820684954
 40
0.8790071447
 40
0.9043879401
 40
0.9270257327
 40
0.9467747281
 40
0.9635117878
 40
0.9771470403
 40
0.9827890592
 40
0.9876499417
 40
0.9917444478
 40
0.9951073797
 40
0.9978100783
 40
1.0
 40
1.0
 40
1.0
 40
1.0
 10
6.6001479438
 20
4.0485639568
 30
0.0
 10
6.600161291
 20
4.04872674
 30
0.0
 10
6.6001940269
 20
4.0490701912
 30
0.0
 10
6.6002808589
 20
4.0498231099
 30
0.0
 10
6.600429116
 20
4.0508767596
 30
0.0
 10
6.6006554685
 20
4.0522534514
 30
0.0
 10
6.6009312113
 20
4.0537534019
 30
0.0
 10
6.6012488085
 20
4.0553365512
 30
0.0
 10
6.6015999777
 20
4.0569622676
 30
0.0
 10
6.6019758484
 20
4.0585903167
 30
0.0
 10
6.6023672198
 20
4.0601815438
 30
0.0
 10
6.6027646891
 20
4.0616982959
 30
0.0
 10
6.6031587033
 20
4.0631047553
 30
0.0
 10
6.6035397437
 20
4.0643671574
 30
0.0
 10
6.6038511745
 20
4.0653126722
 30
0.0
 10
6.6040891179
 20
4.0659726891
 30
0.0
 10
6.6042501603
 20
4.0663897992
 30
0.0
 10
6.6044010195
 20
4.0667495838
 30
0.0
 10
6.6045406326
 20
4.0670494114
 30
0.0
 10
6.6046525962
 20
4.0672592459
 30
0.0
 10
6.6047372711
 20
4.0673941936
 30
0.0
 10
6.6047933137
 20
4.067472604
 30
0.0
 10
6.6048458857
 20
4.0675347331
 30
0.0
 10
6.6048950961
 20
4.0675805895
 30
0.0
 10
6.6049411437
 20
4.0676103643
 30
0.0
 10
6.6049729179
 20
4.0676196492
 30
0.0
 10
6.604987341
 20
4.0676204863
 30
0.0
  0
SPLINE
  5
4A9
100
AcDbEntity
  8
0
100
AcDbSpline
 62
7
  6
CONTINUOUS
 70
0
 71
3
 72
29
 73
25
 74
0
 42
0.0000001
 43
0.0000001
 44
0.0000000001
 40
0.0
 40
0.0
 40
0.0
 40
0.0
 40
0.0720352955
 40
0.1492087692
 40
0.2300377496
 40
0.3129893521
 40
0.3965369645
 40
0.4791932287
 40
0.5595380686
 40
0.636237032
 40
0.7080522764
 40
0.7738530254
 40
0.8326255961
 40
0.8590979835
 40
0.8834964111
 40
0.9057382795
 40
0.925756028
 40
0.943503411
 40
0.9589621202
 40
0.9721594753
 40
0.9831973039
 40
0.9879794589
 40
0.9923285301
 40
1.0
 40
1.0
 40
1.0
 40
1.0
 10
6.6001479438
 20
4.0170521007
 30
0.0
 10
6.6001701507
 20
4.0174615808
 30
0.0
 10
6.6002313726
 20
4.0183089585
 30
0.0
 10
6.6003636168
 20
4.0196119679
 30
0.0
 10
6.6005372693
 20
4.0209727768
 30
0.0
 10
6.6007487222
 20
4.0223649224
 30
0.0
 10
6.6009936944
 20
4.0237621209
 30
0.0
 10
6.6012673904
 20
4.0251388514
 30
0.0
 10
6.6015646343
 20
4.0264707803
 30
0.0
 10
6.6018799872
 20
4.0277350346
 30
0.0
 10
6.6022078062
 20
4.028910408
 30
0.0
 10
6.6025423629
 20
4.0299773863
 30
0.0
 10
6.6028310267
 20
4.0307876974
 30
0.0
 10
6.6030630988
 20
4.0313672053
 30
0.0
 10
6.6032291794
 20
4.0317489274
 30
0.0
 10
6.6033926739
 20
4.032091472
 30
0.0
 10
6.6035528782
 20
4.0323933302
 30
0.0
 10
6.6037090648
 20
4.0326531667
 30
0.0
 10
6.6038605985
 20
4.0328699071
 30
0.0
 10
6.6040068879
 20
4.033042614
 30
0.0
 10
6.6041295732
 20
4.0331544201
 30
0.0
 10
6.6042253237
 20
4.0332182875
 30
0.0
 10
6.6043106369
 20
4.0332616701
 30
0.0
 10
6.6043783607
 20
4.0332798032
 30
0.0
 10
6.6044219602
 20
4.0332823187
 30
0.0
  0
SPLINE
  5
4AA
100
AcDbEntity
  8
0
100
AcDbSpline
 62
7
  6
CONTINUOUS
 70
0
 71
3
 72
25
 73
21
 74
0
 42
0.0000001
 43
0.0000001
 44
0.0000000001
 40
0.0
 40
0.0
 40
0.0
 40
0.0
 40
0.1736083188
 40
0.3466304579
 40
0.4303004707
 40
0.5107739737
 40
0.5871672452
 40
0.6586803189
 40
0.724605597
 40
0.7843357142
 40
0.8373770525
 40
0.8833744188
 40
0.9036770376
 40
0.9221773457
 40
0.9389025148
 40
0.9539114383
 40
0.9673092847
 40
0.9792652773
 40
0.9900388779
 40
1.0
 40
1.0
 40
1.0
 40
1.0
 10
6.6001479438
 20
3.9693810131
 30
0.0
 10
6.6001832066
 20
3.970152397
 30
0.0
 10
6.6002944602
 20
3.9716909065
 30
0.0
 10
6.6005260027
 20
3.9735916177
 30
0.0
 10
6.6007653416
 20
3.9750722291
 30
0.0
 10
6.6009650432
 20
3.9761234565
 30
0.0
 10
6.6011842335
 20
3.9771155006
 30
0.0
 10
6.6014200986
 20
3.9780370936
 30
0.0
 10
6.6016696764
 20
3.9788780622
 30
0.0
 10
6.6019298976
 20
3.9796294409
 30
0.0
 10
6.602197667
 20
3.9802833119
 30
0.0
 10
6.6024332841
 20
3.9807597755
 30
0.0
 10
6.6026256604
 20
3.9810844108
 30
0.0
 10
6.6027639465
 20
3.9812892566
 30
0.0
 10
6.6029019342
 20
3.9814652831
 30
0.0
 10
6.6030393608
 20
3.981612044
 30
0.0
 10
6.6031760033
 20
3.9817291721
 30
0.0
 10
6.6033118423
 20
3.9818162385
 30
0.0
 10
6.6034467789
 20
3.9818726484
 30
0.0
 10
6.6035384229
 20
3.9818895047
 30
0.0
 10
6.6035826526
 20
3.9818921008
 30
0.0
  0
SPLINE
  5
4AB
100
AcDbEntity
  8
0
100
AcDbSpline
 62
7
  6
CONTINUOUS
 70
0
 71
3
 72
25
 73
21
 74
0
 42
0.0000001
 43
0.0000001
 44
0.0000000001
 40
0.0
 40
0.0
 40
0.0
 40
0.0
 40
0.0071613085
 40
0.0151262814
 40
0.0243841666
 40
0.0352422543
 40
0.0478801433
 40
0.0624002744
 40
0.0788548723
 40
0.0972673351
 40
0.1399459439
 40
0.1902894957
 40
0.2479805057
 40
0.3125855564
 40
0.3835757735
 40
0.4603396322
 40
0.5421943569
 40
0.6283932719
 40
0.8105699629
 40
1.0
 40
1.0
 40
1.0
 40
1.0
 10
6.5906858306
 20
3.9011161485
 30
0.0
 10
6.5906618112
 20
3.901117647
 30
0.0
 10
6.5906113895
 20
3.9011296393
 30
0.0
 10
6.5905397714
 20
3.9011711082
 30
0.0
 10
6.5904696877
 20
3.9012350828
 30
0.0
 10
6.5904006852
 20
3.9013212393
 30
0.0
 10
6.5903325146
 20
3.9014295243
 30
0.0
 10
6.590265212
 20
3.9015598704
 30
0.0
 10
6.590198854
 20
3.9017120981
 30
0.0
 10
6.5901073092
 20
3.901956185
 30
0.0
 10
6.589998787
 20
3.9023149745
 30
0.0
 10
6.589879982
 20
3.9028074967
 30
0.0
 10
6.5897683729
 20
3.9033769797
 30
0.0
 10
6.5896651019
 20
3.9040183667
 30
0.0
 10
6.5895712764
 20
3.904725898
 30
0.0
 10
6.589487874
 20
3.9054930544
 30
0.0
 10
6.5894157597
 20
3.9063126661
 30
0.0
 10
6.58933419
 20
3.9074868639
 30
0.0
 10
6.5892666969
 20
3.9090241423
 30
0.0
 10
6.589248833
 20
3.9102730207
 30
0.0
 10
6.589248833
 20
3.9109096131
 30
0.0
  0
SPLINE
  5
4AC
100
AcDbEntity
  8
0
100
AcDbSpline
 62
7
  6
CONTINUOUS
 70
0
 71
3
 72
26
 73
22
 74
0
 42
0.0000001
 43
0.0000001
 44
0.0000000001
 40
0.0
 40
0.0
 40
0.0
 40
0.0
 40
0.0673825878
 40
0.1346483747
 40
0.1682005129
 40
0.2016798534
 40
0.23507119
 40
0.268359528
 40
0.3345701704
 40
0.4001987767
 40
0.4651316971
 40
0.5292538179
 40
0.592452592
 40
0.6546176265
 40
0.7156439449
 40
0.7754252939
 40
0.804814372
 40
0.8338502707
 40
0.8908163122
 40
0.9462336065
 40
1.0
 40
1.0
 40
1.0
 40
1.0
 10
6.985100994
 20
3.9109096131
 30
0.0
 10
6.9855228204
 20
3.9073259043
 30
0.0
 10
6.9863650154
 20
3.900164613
 30
0.0
 10
6.9874236445
 20
3.8912196208
 30
0.0
 10
6.9882751323
 20
3.8840783634
 30
0.0
 10
6.9889148978
 20
3.878738745
 30
0.0
 10
6.9895551006
 20
3.8734134075
 30
0.0
 10
6.9904065249
 20
3.8663480267
 30
0.0
 10
6.9914692391
 20
3.8575692589
 30
0.0
 10
6.9927464379
 20
3.8471094684
 30
0.0
 10
6.9940232755
 20
3.8367623165
 30
0.0
 10
6.9952965721
 20
3.8265458443
 30
0.0
 10
6.9965627295
 20
3.8164778606
 30
0.0
 10
6.9978198241
 20
3.8065758343
 30
0.0
 10
6.9990689285
 20
3.7968572815
 30
0.0
 10
7.0001081352
 20
3.7888814088
 30
0.0
 10
7.0009332146
 20
3.7826052649
 30
0.0
 10
7.001742423
 20
3.7764790975
 30
0.0
 10
7.0027425275
 20
3.7689721848
 30
0.0
 10
7.0039356934
 20
3.7601549484
 30
0.0
 10
7.0047329711
 20
3.7543625883
 30
0.0
 10
7.0051280749
 20
3.7515105463
 30
0.0
  0
LINE
  5
4AD
100
AcDbEntity
  8
0
100
AcDbLine
 62
7
  6
CONTINUOUS
 10
7.0051280749
 20
3.7515105463
 11
7.0102032881
 21
3.7159083935
  0
SPLINE
  5
4AE
100
AcDbEntity
  8
0
100
AcDbSpline
 62
7
  6
CONTINUOUS
 70
0
 71
3
 72
52
 73
48
 74
0
 42
0.0000001
 43
0.0000001
 44
0.0000000001
 40
0.0
 40
0.0
 40
0.0
 40
0.0
 40
0.0558429575
 40
0.1100387299
 40
0.1628586936
 40
0.1888046721
 40
0.2144529095
 40
0.264864278
 40
0.314100636
 40
0.3382688392
 40
0.3621289567
 40
0.4088912633
 40
0.4543247763
 40
0.4983573718
 40
0.5409172185
 40
0.5819298712
 40
0.6590392422
 40
0.7291715415
 40
0.7614768982
 40
0.7918738512
 40
0.8203157805
 40
0.8467614436
 40
0.8711732233
 40
0.8935211131
 40
0.9137786579
 40
0.9319259524
 40
0.9479460597
 40
0.9551547395
 40
0.9618274071
 40
0.9679629986
 40
0.9735610881
 40
0.9786213483
 40
0.9831434532
 40
0.9871272385
 40
0.9905729858
 40
0.9934810632
 40
0.9958518661
 40
0.9968359636
 40
0.9976860559
 40
0.998402344
 40
0.9989850638
 40
0.9994345297
 40
0.9996094513
 40
0.999751299
 40
0.9998602721
 40
0.9999368035
 40
1.0
 40
1.0
 40
1.0
 40
1.0
 10
7.0102032881
 20
3.7159083935
 30
0.0
 10
7.010386437
 20
3.7147115177
 30
0.0
 10
7.010607408
 20
3.7123297945
 30
0.0
 10
7.0105683517
 20
3.7087940536
 30
0.0
 10
7.0102874129
 20
3.7059216242
 30
0.0
 10
7.0099463311
 20
3.7036832059
 30
0.0
 10
7.0095422116
 20
3.701508364
 30
0.0
 10
7.0089299617
 20
3.698860098
 30
0.0
 10
7.0081998178
 20
3.6962757921
 30
0.0
 10
7.0075665161
 20
3.6942640966
 30
0.0
 10
7.0069139316
 20
3.6923150645
 30
0.0
 10
7.0060578811
 20
3.6899483528
 30
0.0
 10
7.0049788296
 20
3.6871984572
 30
0.0
 10
7.0038753421
 20
3.684556851
 30
0.0
 10
7.0027626575
 20
3.6820235371
 30
0.0
 10
7.0013157231
 20
3.6788541475
 30
0.0
 10
6.9995567968
 20
3.6751704674
 30
0.0
 10
6.9978298007
 20
3.6716814291
 30
0.0
 10
6.9965372594
 20
3.6691075744
 30
0.0
 10
6.9956460321
 20
3.6673437216
 30
0.0
 10
6.9948103005
 20
3.6656941804
 30
0.0
 10
6.9940329166
 20
3.6641605556
 30
0.0
 10
6.9933165949
 20
3.6627441181
 30
0.0
 10
6.9926630912
 20
3.6614462687
 30
0.0
 10
6.9920739909
 20
3.6602680714
 30
0.0
 10
6.9915499017
 20
3.6592107715
 30
0.0
 10
6.9911549819
 20
3.6584052342
 30
0.0
 10
6.9908719037
 20
3.6578219631
 30
0.0
 10
6.990683517
 20
3.6574309646
 30
0.0
 10
6.9905114257
 20
3.6570708805
 30
0.0
 10
6.990355531
 20
3.6567418063
 30
0.0
 10
6.9902157293
 20
3.6564438221
 30
0.0
 10
6.9900919134
 20
3.6561770033
 30
0.0
 10
6.9899839688
 20
3.6559414147
 30
0.0
 10
6.9898917376
 20
3.6557371242
 30
0.0
 10
6.9898150625
 20
3.6555641881
 30
0.0
 10
6.9897610799
 20
3.655439579
 30
0.0
 10
6.9897256526
 20
3.6553555696
 30
0.0
 10
6.9897045644
 20
3.6553044445
 30
0.0
 10
6.989687229
 20
3.6552611982
 30
0.0
 10
6.9896736208
 20
3.6552257903
 30
0.0
 10
6.9896647234
 20
3.6552012222
 30
0.0
 10
6.9896595365
 20
3.6551853608
 30
0.0
 10
6.989656904
 20
3.655176669
 30
0.0
 10
6.9896551416
 20
3.655169391
 30
0.0
 10
6.9896542356
 20
3.6551650174
 30
0.0
 10
6.9896541257
 20
3.6551601147
 30
0.0
 10
6.9896554959
 20
3.6551601143
 30
0.0
  0
SPLINE
  5
4AF
100
AcDbEntity
  8
0
100
AcDbSpline
 62
7
  6
CONTINUOUS
 70
0
 71
3
 72
24
 73
20
 74
0
 42
0.0000001
 43
0.0000001
 44
0.0000000001
 40
0.0
 40
0.0
 40
0.0
 40
0.0
 40
0.0111437367
 40
0.0227873915
 40
0.0352620911
 40
0.0488322416
 40
0.0636979924
 40
0.080002978
 40
0.1172746381
 40
0.1611172711
 40
0.2116321499
 40
0.2687071963
 40
0.3320769322
 40
0.4013537876
 40
0.4760453785
 40
0.5555673578
 40
0.6392529176
 40
0.8160846702
 40
1.0
 40
1.0
 40
1.0
 40
1.0
 10
6.6026031599
 20
3.900545261
 30
0.0
 10
6.6025621881
 20
3.9005477503
 30
0.0
 10
6.6024787185
 20
3.9005612149
 30
0.0
 10
6.6023559458
 20
3.9006055177
 30
0.0
 10
6.6022343977
 20
3.9006737114
 30
0.0
 10
6.6021142741
 20
3.9007653721
 30
0.0
 10
6.6019956469
 20
3.9008802241
 30
0.0
 10
6.6018323264
 20
3.9010726959
 30
0.0
 10
6.6016355817
 20
3.901374355
 30
0.0
 10
6.6014179796
 20
3.901808347
 30
0.0
 10
6.601210907
 20
3.902326865
 30
0.0
 10
6.6010162828
 20
3.9029261214
 30
0.0
 10
6.6008360073
 20
3.9036015812
 30
0.0
 10
6.6006719368
 20
3.9043476838
 30
0.0
 10
6.6005258123
 20
3.9051580005
 30
0.0
 10
6.6003992144
 20
3.9060252459
 30
0.0
 10
6.60025576
 20
3.907269678
 30
0.0
 10
6.6001366818
 20
3.9089031775
 30
0.0
 10
6.600105127
 20
3.9102321716
 30
0.0
 10
6.600105127
 20
3.9109096131
 30
0.0
  0
SPLINE
  5
4B0
100
AcDbEntity
  8
0
100
AcDbSpline
 62
7
  6
CONTINUOUS
 70
0
 71
3
 72
20
 73
16
 74
0
 42
0.0000001
 43
0.0000001
 44
0.0000000001
 40
0.0
 40
0.0
 40
0.0
 40
0.0
 40
0.0221792533
 40
0.0461377623
 40
0.0740016834
 40
0.1071390652
 40
0.1463279882
 40
0.1919884756
 40
0.2443136574
 40
0.303362005
 40
0.3690872699
 40
0.4413757384
 40
0.6048763879
 40
0.7919298982
 40
1.0
 40
1.0
 40
1.0
 40
1.0
 10
6.6008283483
 20
4.0125505377
 30
0.0
 10
6.6007934218
 20
4.0125526386
 30
0.0
 10
6.6007209442
 20
4.0125704278
 30
0.0
 10
6.6006224916
 20
4.0126364333
 30
0.0
 10
6.600533783
 20
4.0127383531
 30
0.0
 10
6.6004535453
 20
4.0128752468
 30
0.0
 10
6.6003811791
 20
4.0130471521
 30
0.0
 10
6.6003167194
 20
4.0132539903
 30
0.0
 10
6.6002603327
 20
4.0134953932
 30
0.0
 10
6.6002122874
 20
4.0137707389
 30
0.0
 10
6.6001727794
 20
4.0140791886
 30
0.0
 10
6.6001300443
 20
4.0145530181
 30
0.0
 10
6.600102164
 20
4.0152198782
 30
0.0
 10
6.60010534
 20
4.0161013491
 30
0.0
 10
6.6001301683
 20
4.0167243339
 30
0.0
 10
6.6001479438
 20
4.0170521007
 30
0.0
  0
SPLINE
  5
4B1
100
AcDbEntity
  8
0
100
AcDbSpline
 62
7
  6
CONTINUOUS
 70
0
 71
3
 72
54
 73
50
 74
0
 42
0.0000001
 43
0.0000001
 44
0.0000000001
 40
0.0
 40
0.0
 40
0.0
 40
0.0
 40
0.0000251996
 40
0.0000860551
 40
0.0001831065
 40
0.000316453
 40
0.0004861291
 40
0.00069215
 40
0.0009345231
 40
0.0012132522
 40
0.0018797843
 40
0.00269175
 40
0.003649144
 40
0.0047519565
 40
0.0060001035
 40
0.007393343
 40
0.0106140471
 40
0.0144119626
 40
0.0187849793
 40
0.0237306026
 40
0.02924546
 40
0.0353260597
 40
0.0419689108
 40
0.0491702006
 40
0.0569254682
 40
0.0740798162
 40
0.0933930685
 40
0.1148185774
 40
0.1383075308
 40
0.1638080544
 40
0.1912660621
 40
0.2206188152
 40
0.2518014016
 40
0.2847454878
 40
0.3556395992
 40
0.3934511423
 40
0.4327459071
 40
0.4734525605
 40
0.5155043987
 40
0.558833342
 40
0.6033789804
 40
0.6490806353
 40
0.6958866706
 40
0.7437580324
 40
0.7926809612
 40
0.842670198
 40
0.8937871159
 40
0.9461597013
 40
1.0
 40
1.0
 40
1.0
 40
1.0
 10
7.5195597891
 20
3.6590406708
 30
0.0
 10
7.5195592648
 20
3.6590406584
 30
0.0
 10
7.5195579217
 20
3.659042254
 30
0.0
 10
7.5195552333
 20
3.6590446124
 30
0.0
 10
7.5195511593
 20
3.6590492862
 30
0.0
 10
7.5195456632
 20
3.6590554617
 30
0.0
 10
7.5195387695
 20
3.6590635371
 30
0.0
 10
7.5195304717
 20
3.6590733554
 30
0.0
 10
7.519520774
 20
3.6590849765
 30
0.0
 10
7.5195050118
 20
3.6591040142
 30
0.0
 10
7.519481828
 20
3.6591322996
 30
0.0
 10
7.5194498445
 20
3.6591716331
 30
0.0
 10
7.519412264
 20
3.6592181186
 30
0.0
 10
7.5193690886
 20
3.6592717538
 30
0.0
 10
7.519320325
 20
3.6593325352
 30
0.0
 10
7.5192441102
 20
3.6594278029
 30
0.0
 10
7.5191349961
 20
3.6595647087
 30
0.0
 10
7.5189875677
 20
3.65975038
 30
0.0
 10
7.5188181428
 20
3.6599644248
 30
0.0
 10
7.5186268709
 20
3.660206749
 30
0.0
 10
7.5184139533
 20
3.6604772628
 30
0.0
 10
7.5181795994
 20
3.6607758557
 30
0.0
 10
7.5179240221
 20
3.6611024085
 30
0.0
 10
7.5176474649
 20
3.6614567997
 30
0.0
 10
7.5172371681
 20
3.661984319
 30
0.0
 10
7.5166740711
 20
3.662712337
 30
0.0
 10
7.5159406987
 20
3.6636683214
 30
0.0
 10
7.5151320673
 20
3.6647327167
 30
0.0
 10
7.514251685
 20
3.665904296
 30
0.0
 10
7.5133037656
 20
3.6671821361
 30
0.0
 10
7.5122926569
 20
3.6685650073
 30
0.0
 10
7.511223811
 20
3.670052089
 30
0.0
 10
7.5101028263
 20
3.6716422218
 30
0.0
 10
7.5085077018
 20
3.6739557134
 30
0.0
 10
7.5068770449
 20
3.6764121815
 30
0.0
 10
7.5052295168
 20
3.6790148639
 30
0.0
 10
7.5039525104
 20
3.6811081663
 30
0.0
 10
7.502671455
 20
3.6833018668
 30
0.0
 10
7.5013968884
 20
3.6855959579
 30
0.0
 10
7.5001430196
 20
3.6879920801
 30
0.0
 10
7.4989245539
 20
3.6904913156
 30
0.0
 10
7.4977596006
 20
3.6930955969
 30
0.0
 10
7.4966683992
 20
3.695806628
 30
0.0
 10
7.4956752735
 20
3.6986265924
 30
0.0
 10
7.4948075203
 20
3.7015572222
 30
0.0
 10
7.494099266
 20
3.7046004073
 30
0.0
 10
7.4935903418
 20
3.7077568461
 30
0.0
 10
7.4933284573
 20
3.7110244637
 30
0.0
 10
7.4933553015
 20
3.7132390933
 30
0.0
 10
7.4934263873
 20
3.7143573672
 30
0.0
  0
SPLINE
  5
4B2
100
AcDbEntity
  8
0
100
AcDbSpline
 62
7
  6
CONTINUOUS
 70
0
 71
3
 72
63
 73
59
 74
0
 42
0.0000001
 43
0.0000001
 44
0.0000000001
 40
0.0
 40
0.0
 40
0.0
 40
0.0
 40
0.098033754
 40
0.1951059434
 40
0.2429907482
 40
0.2902878547
 40
0.3368842016
 40
0.3826671482
 40
0.4713587619
 40
0.5140554155
 40
0.5555148757
 40
0.6343226446
 40
0.6714827778
 40
0.7070271371
 40
0.740870929
 40
0.7729317296
 40
0.8031321462
 40
0.8313977593
 40
0.8576598153
 40
0.881857676
 40
0.9039329038
 40
0.9141577913
 40
0.923832352
 40
0.9329503849
 40
0.9415058479
 40
0.9494935541
 40
0.9569092965
 40
0.9637487099
 40
0.9700071482
 40
0.975680615
 40
0.9807662006
 40
0.9852611429
 40
0.9872862885
 40
0.9891627747
 40
0.9908903
 40
0.9924686038
 40
0.9938974288
 40
0.9951765177
 40
0.9963056552
 40
0.9972847065
 40
0.9977179105
 40
0.9981135459
 40
0.998471597
 40
0.9987920481
 40
0.9990748822
 40
0.9993200799
 40
0.9995276215
 40
0.9996974877
 40
0.9997682867
 40
0.9998296599
 40
0.9998816054
 40
0.9999241212
 40
0.9999572064
 40
0.9999808616
 40
0.9999891547
 40
0.9999950946
 40
0.9999986901
 40
1.0
 40
1.0
 40
1.0
 40
1.0
 10
7.5031512917
 20
3.9111691609
 30
0.0
 10
7.5035395008
 20
3.9193955848
 30
0.0
 10
7.5043059189
 20
3.9357680356
 30
0.0
 10
7.5052557396
 20
3.9561589915
 30
0.0
 10
7.5060035643
 20
3.9722924714
 30
0.0
 10
7.5065539108
 20
3.9841901985
 30
0.0
 10
7.5070944113
 20
3.99591162
 30
0.0
 10
7.5077958776
 20
4.0111067667
 30
0.0
 10
7.5084818069
 20
4.0259746779
 30
0.0
 10
7.5091503475
 20
4.0404797994
 30
0.0
 10
7.5097802492
 20
4.0541555023
 30
0.0
 10
7.5103920298
 20
4.067366437
 30
0.0
 10
7.5109838649
 20
4.0800808489
 30
0.0
 10
7.5114020977
 20
4.0890219364
 30
0.0
 10
7.5118017529
 20
4.0975350418
 30
0.0
 10
7.5121826902
 20
4.1055995995
 30
0.0
 10
7.5125437939
 20
4.1131959619
 30
0.0
 10
7.5128847321
 20
4.1203055939
 30
0.0
 10
7.5132055394
 20
4.1269113502
 30
0.0
 10
7.5135034083
 20
4.1329975678
 30
0.0
 10
7.5137377057
 20
4.1377380399
 30
0.0
 10
7.513913064
 20
4.141259868
 30
0.0
 10
7.514034922
 20
4.1436945088
 30
0.0
 10
7.5141504942
 20
4.1459890442
 30
0.0
 10
7.514259955
 20
4.1481419991
 30
0.0
 10
7.5143632206
 20
4.1501520786
 30
0.0
 10
7.5144598266
 20
4.1520181487
 30
0.0
 10
7.5145495406
 20
4.1537391094
 30
0.0
 10
7.5146324869
 20
4.1553138596
 30
0.0
 10
7.5147086263
 20
4.156741429
 30
0.0
 10
7.5147776019
 20
4.1580210226
 30
0.0
 10
7.5148305728
 20
4.1589945472
 30
0.0
 10
7.5148692039
 20
4.1596988644
 30
0.0
 10
7.5148952423
 20
4.1601710389
 30
0.0
 10
7.5149193533
 20
4.1606057245
 30
0.0
 10
7.5149415284
 20
4.1610028527
 30
0.0
 10
7.5149617576
 20
4.1613623588
 30
0.0
 10
7.5149800324
 20
4.1616841818
 30
0.0
 10
7.5149963409
 20
4.1619682711
 30
0.0
 10
7.5150087262
 20
4.1621814079
 30
0.0
 10
7.5150176368
 20
4.1623330228
 30
0.0
 10
7.5150235342
 20
4.162432556
 30
0.0
 10
7.5150289204
 20
4.1625226308
 30
0.0
 10
7.5150337916
 20
4.1626032434
 30
0.0
 10
7.5150381453
 20
4.1626743893
 30
0.0
 10
7.515041983
 20
4.1627360638
 30
0.0
 10
7.5150453061
 20
4.1627882616
 30
0.0
 10
7.5150477749
 20
4.1628258337
 30
0.0
 10
7.5150495051
 20
4.1628511477
 30
0.0
 10
7.5150505938
 20
4.1628665777
 30
0.0
 10
7.5150515556
 20
4.1628796306
 30
0.0
 10
7.5150523854
 20
4.1628903216
 30
0.0
 10
7.515053094
 20
4.1628986086
 30
0.0
 10
7.5150536013
 20
4.1629040924
 30
0.0
 10
7.5150539811
 20
4.1629071941
 30
0.0
 10
7.515054164
 20
4.1629087773
 30
0.0
 10
7.5150543691
 20
4.1629094953
 30
0.0
 10
7.5150544444
 20
4.1629100858
 30
0.0
 10
7.5150545544
 20
4.1629100827
 30
0.0
  0
LINE
  5
4B3
100
AcDbEntity
  8
0
100
AcDbLine
 62
7
  6
CONTINUOUS
 10
7.56794902
 20
3.9109096131
 11
7.5679103415
 21
3.7693261989
  0
LINE
  5
4B4
100
AcDbEntity
  8
0
100
AcDbLine
 62
7
  6
CONTINUOUS
 10
7.496062276
 20
3.7621275058
 11
7.5031390426
 21
3.9109096131
  0
LINE
  5
4B5
100
AcDbEntity
  8
0
100
AcDbLine
 62
7
  6
CONTINUOUS
 10
7.5679103415
 20
3.7693261989
 11
7.5679491179
 21
3.6605751153
  0
LINE
  5
4B6
100
AcDbEntity
  8
0
100
AcDbLine
 62
7
  6
CONTINUOUS
 10
7.4934263873
 20
3.7143573672
 11
7.496062276
 21
3.7621275058
  0
SPLINE
  5
4B7
100
AcDbEntity
  8
0
100
AcDbSpline
 62
7
  6
CONTINUOUS
 70
0
 71
3
 72
67
 73
63
 74
0
 42
0.0000001
 43
0.0000001
 44
0.0000000001
 40
0.0
 40
0.0
 40
0.0
 40
0.0
 40
0.0000011887
 40
0.0000047542
 40
0.0000106962
 40
0.0000190144
 40
0.0000297086
 40
0.0000427785
 40
0.0000760441
 40
0.0001188091
 40
0.0001710711
 40
0.000232828
 40
0.0003040774
 40
0.000475045
 40
0.0006839559
 40
0.0009307922
 40
0.0012155359
 40
0.0015381688
 40
0.0018986723
 40
0.0022970273
 40
0.0027332147
 40
0.0037190105
 40
0.0048559075
 40
0.0061437419
 40
0.0075822677
 40
0.0091712033
 40
0.0109102668
 40
0.0127991723
 40
0.0148375924
 40
0.0193615731
 40
0.0244793576
 40
0.0301877816
 40
0.0364834452
 40
0.0433620982
 40
0.0508190611
 40
0.0588497148
 40
0.0674494032
 40
0.0766125286
 40
0.096604015
 40
0.1187728425
 40
0.1430634793
 40
0.1694156994
 40
0.1977658891
 40
0.2280427957
 40
0.2601712582
 40
0.2940719763
 40
0.3296614353
 40
0.3668534007
 40
0.4055573457
 40
0.4456801402
 40
0.4871246977
 40
0.5297897826
 40
0.5735728572
 40
0.6183688416
 40
0.6640710782
 40
0.7105703522
 40
0.7577549949
 40
0.805513046
 40
0.8537310888
 40
0.9022949231
 40
0.9510898083
 40
1.0
 40
1.0
 40
1.0
 40
1.0
 10
6.9560697893
 20
4.1666596131
 30
0.0
 10
6.9560697215
 20
4.1666595369
 30
0.0
 10
6.9560699687
 20
4.1666590714
 30
0.0
 10
6.9560698944
 20
4.1666582197
 30
0.0
 10
6.9560701943
 20
4.1666566689
 30
0.0
 10
6.9560704152
 20
4.1666545596
 30
0.0
 10
6.9560707791
 20
4.166651823
 30
0.0
 10
6.9560713843
 20
4.1666469714
 30
0.0
 10
6.9560723496
 20
4.1666393854
 30
0.0
 10
6.9560737287
 20
4.166628466
 30
0.0
 10
6.9560754182
 20
4.1666151204
 30
0.0
 10
6.9560774134
 20
4.1665993507
 30
0.0
 10
6.9560806879
 20
4.1665734767
 30
0.0
 10
6.956085548
 20
4.1665350773
 30
0.0
 10
6.956092301
 20
4.1664817322
 30
0.0
 10
6.9561002811
 20
4.1664187029
 30
0.0
 10
6.9561094881
 20
4.1663459939
 30
0.0
 10
6.9561199221
 20
4.16626361
 30
0.0
 10
6.956131578
 20
4.1661715554
 30
0.0
 10
6.9561444496
 20
4.1660698342
 30
0.0
 10
6.9561640389
 20
4.1659148866
 30
0.0
 10
6.9561915288
 20
4.165697068
 30
0.0
 10
6.956228067
 20
4.1654067424
 30
0.0
 10
6.9562693253
 20
4.1650778612
 30
0.0
 10
6.9563152711
 20
4.1647104801
 30
0.0
 10
6.9563658738
 20
4.1643046654
 30
0.0
 10
6.9564211013
 20
4.1638604866
 30
0.0
 10
6.9564809214
 20
4.1633780171
 30
0.0
 10
6.9565698979
 20
4.1626583932
 30
0.0
 10
6.956692348
 20
4.1616637678
 30
0.0
 10
6.9568524147
 20
4.1603565182
 30
0.0
 10
6.9570298181
 20
4.1588982499
 30
0.0
 10
6.957223991
 20
4.1572898299
 30
0.0
 10
6.9574347874
 20
4.1555323072
 30
0.0
 10
6.957662204
 20
4.153626853
 30
0.0
 10
6.957905818
 20
4.1515746233
 30
0.0
 10
6.9581650039
 20
4.1493768299
 30
0.0
 10
6.9585421843
 20
4.1461596277
 30
0.0
 10
6.9590514243
 20
4.1417857326
 30
0.0
 10
6.9597060989
 20
4.1361220974
 30
0.0
 10
6.9604181688
 20
4.1299157281
 30
0.0
 10
6.9611863715
 20
4.1231819736
 30
0.0
 10
6.9620061316
 20
4.1159371635
 30
0.0
 10
6.9628766709
 20
4.1081993499
 30
0.0
 10
6.963796559
 20
4.0999878615
 30
0.0
 10
6.964763566
 20
4.091322996
 30
0.0
 10
6.9657768421
 20
4.0822261598
 30
0.0
 10
6.9668333657
 20
4.0727194862
 30
0.0
 10
6.967931628
 20
4.0628261064
 30
0.0
 10
6.9690693377
 20
4.0525700013
 30
0.0
 10
6.9702435336
 20
4.0419760018
 30
0.0
 10
6.9714540213
 20
4.0310700577
 30
0.0
 10
6.9726987916
 20
4.019878608
 30
0.0
 10
6.9739760162
 20
4.0084285807
 30
0.0
 10
6.9752830986
 20
3.9967473954
 30
0.0
 10
6.9766167167
 20
3.984862959
 30
0.0
 10
6.9779774864
 20
3.9728040798
 30
0.0
 10
6.9793623363
 20
3.9605995178
 30
0.0
 10
6.9807692294
 20
3.9482783687
 30
0.0
 10
6.982196098
 20
3.9358699683
 30
0.0
 10
6.9836396424
 20
3.9234037131
 30
0.0
 10
6.984612053
 20
3.9150774192
 30
0.0
 10
6.985100994
 20
3.9109096131
 30
0.0
  0
LINE
  5
4B8
100
AcDbEntity
  8
0
100
AcDbLine
 62
7
  6
CONTINUOUS
 10
6.5917199714
 20
3.8321098471
 11
6.591439445
 21
3.8324162251
  0
SPLINE
  5
4B9
100
AcDbEntity
  8
0
100
AcDbSpline
 62
7
  6
CONTINUOUS
 70
0
 71
3
 72
23
 73
19
 74
0
 42
0.0000001
 43
0.0000001
 44
0.0000000001
 40
0.0
 40
0.0
 40
0.0
 40
0.0
 40
0.0111671734
 40
0.0226279503
 40
0.0476513858
 40
0.0617961559
 40
0.0772554848
 40
0.11256786
 40
0.1542536646
 40
0.2025744949
 40
0.2575639889
 40
0.319097829
 40
0.3869300226
 40
0.460716455
 40
0.5400297357
 40
0.6243706829
 40
0.8058165335
 40
1.0
 40
1.0
 40
1.0
 40
1.0
 10
6.6016376133
 20
3.961162434
 30
0.0
 10
6.6016053592
 20
3.9611643726
 30
0.0
 10
6.6015402096
 20
3.961174455
 30
0.0
 10
6.6014094837
 20
3.9612203137
 30
0.0
 10
6.601286339
 20
3.9613043771
 30
0.0
 10
6.6011741243
 20
3.9614158489
 30
0.0
 10
6.6010553867
 20
3.9615618607
 30
0.0
 10
6.6009161398
 20
3.9617916138
 30
0.0
 10
6.6007676203
 20
3.9621230508
 30
0.0
 10
6.6006316757
 20
3.9625204565
 30
0.0
 10
6.6005092841
 20
3.962981771
 30
0.0
 10
6.600401427
 20
3.9635044187
 30
0.0
 10
6.6003090222
 20
3.9640851054
 30
0.0
 10
6.6002328823
 20
3.9647199587
 30
0.0
 10
6.6001736777
 20
3.9654045518
 30
0.0
 10
6.6001167045
 20
3.9664015935
 30
0.0
 10
6.6000936833
 20
3.9677328769
 30
0.0
 10
6.6001222854
 20
3.9688197272
 30
0.0
 10
6.6001479438
 20
3.9693810131
 30
0.0
  0
SPLINE
  5
4BA
100
AcDbEntity
  8
0
100
AcDbSpline
 62
7
  6
CONTINUOUS
 70
0
 71
3
 72
19
 73
15
 74
0
 42
0.0000001
 43
0.0000001
 44
0.0000000001
 40
0.0
 40
0.0
 40
0.0
 40
0.0
 40
0.0193419582
 40
0.040427143
 40
0.065611644
 40
0.0963188998
 40
0.1333279482
 40
0.1770543685
 40
0.2277294014
 40
0.2854743635
 40
0.4222762636
 40
0.5873847732
 40
0.7802769044
 40
1.0
 40
1.0
 40
1.0
 40
1.0
 10
6.600292453
 20
4.0468866291
 30
0.0
 10
6.6002812538
 20
4.0468872957
 30
0.0
 10
6.6002578666
 20
4.0468935763
 30
0.0
 10
6.6002272706
 20
4.0469174122
 30
0.0
 10
6.6002008896
 20
4.0469539042
 30
0.0
 10
6.6001779191
 20
4.0470028734
 30
0.0
 10
6.6001580849
 20
4.0470645209
 30
0.0
 10
6.600141327
 20
4.0471389535
 30
0.0
 10
6.6001276669
 20
4.0472261895
 30
0.0
 10
6.6001128107
 20
4.0473676956
 30
0.0
 10
6.6001037572
 20
4.0475762823
 30
0.0
 10
6.6001057722
 20
4.0478633461
 30
0.0
 10
6.6001204373
 20
4.0481981877
 30
0.0
 10
6.6001375288
 20
4.0484369352
 30
0.0
 10
6.6001479438
 20
4.0485639568
 30
0.0
  0
LINE
  5
4BB
100
AcDbEntity
  8
0
100
AcDbLine
 62
7
  6
CONTINUOUS
 10
7.4681400509
 20
3.7069060227
 11
7.465639842
 21
3.7553146555
  0
LINE
  5
4BC
100
AcDbEntity
  8
0
100
AcDbLine
 62
7
  6
CONTINUOUS
 10
7.4681400509
 20
3.7069060227
 11
7.0439113138
 21
3.7069095567
  0
LINE
  5
4BD
100
AcDbEntity
  8
0
100
AcDbLine
 62
7
  6
CONTINUOUS
 10
7.0478465849
 20
3.7423164842
 11
7.0439113138
 21
3.7069095567
  0
SPLINE
  5
4BE
100
AcDbEntity
  8
0
100
AcDbSpline
 62
7
  6
CONTINUOUS
 70
0
 71
3
 72
15
 73
11
 74
0
 42
0.0000001
 43
0.0000001
 44
0.0000000001
 40
0.0
 40
0.0
 40
0.0
 40
0.0
 40
0.1128524498
 40
0.2278733081
 40
0.3459422006
 40
0.4679189599
 40
0.5945022247
 40
0.7259513083
 40
0.8616854922
 40
1.0
 40
1.0
 40
1.0
 40
1.0
 10
6.877885388
 20
3.6250772354
 30
0.0
 10
6.8777656178
 20
3.6245883474
 30
0.0
 10
6.8774537302
 20
3.6236167925
 30
0.0
 10
6.8767725554
 20
3.6222263423
 30
0.0
 10
6.8758663675
 20
3.6209198205
 30
0.0
 10
6.8747293877
 20
3.6197345995
 30
0.0
 10
6.8733632188
 20
3.618717641
 30
0.0
 10
6.8717850606
 20
3.617925546
 30
0.0
 10
6.870038831
 20
3.6174178372
 30
0.0
 10
6.8688133281
 20
3.6173012268
 30
0.0
 10
6.8681964168
 20
3.6173012268
 30
0.0
  0
SPLINE
  5
4BF
100
AcDbEntity
  8
0
100
AcDbSpline
 62
7
  6
CONTINUOUS
 70
0
 71
3
 72
23
 73
19
 74
0
 42
0.0000001
 43
0.0000001
 44
0.0000000001
 40
0.0
 40
0.0
 40
0.0
 40
0.0
 40
0.0686063151
 40
0.1369545151
 40
0.2049220855
 40
0.2723870977
 40
0.4053214472
 40
0.4705536741
 40
0.5348047818
 40
0.5979567979
 40
0.6598953166
 40
0.7205111322
 40
0.7796959685
 40
0.8087169719
 40
0.8373381805
 40
0.8933323988
 40
0.947585712
 40
1.0
 40
1.0
 40
1.0
 40
1.0
 10
7.0627177824
 20
3.9103293113
 30
0.0
 10
7.0624226225
 20
3.9064832294
 30
0.0
 10
7.0618269935
 20
3.8988060279
 30
0.0
 10
7.0609223094
 20
3.8873198523
 30
0.0
 10
7.060011344
 20
3.8758985442
 30
0.0
 10
7.058791282
 20
3.8608590123
 30
0.0
 10
7.0575488004
 20
3.8459756181
 30
0.0
 10
7.0562900913
 20
3.8312749655
 30
0.0
 10
7.0553488727
 20
3.8204850087
 30
0.0
 10
7.0544043957
 20
3.8098812452
 30
0.0
 10
7.0534579658
 20
3.7994828789
 30
0.0
 10
7.0525132476
 20
3.7893083517
 30
0.0
 10
7.0517244372
 20
3.78097811
 30
0.0
 10
7.0510944036
 20
3.7744397911
 30
0.0
 10
7.050473408
 20
3.7680808301
 30
0.0
 10
7.0497004215
 20
3.7603112831
 30
0.0
 10
7.0487754577
 20
3.7512125089
 30
0.0
 10
7.0481556565
 20
3.7452472261
 30
0.0
 10
7.0478465849
 20
3.7423164842
 30
0.0
  0
SPLINE
  5
4C0
100
AcDbEntity
  8
0
100
AcDbSpline
 62
7
  6
CONTINUOUS
 70
0
 71
3
 72
17
 73
13
 74
0
 42
0.0000001
 43
0.0000001
 44
0.0000000001
 40
0.0
 40
0.0
 40
0.0
 40
0.0
 40
0.1148607368
 40
0.2315026297
 40
0.35065987
 40
0.4730584206
 40
0.5992995336
 40
0.7296232564
 40
0.7962812697
 40
0.8637142928
 40
0.9317088827
 40
1.0
 40
1.0
 40
1.0
 40
1.0
 10
6.877885388
 20
3.626252943
 30
0.0
 10
6.8777657785
 20
3.625746125
 30
0.0
 10
6.8774547479
 20
3.6247396252
 30
0.0
 10
6.8767744417
 20
3.6232969293
 30
0.0
 10
6.8758692966
 20
3.6219410206
 30
0.0
 10
6.8747332231
 20
3.6207104847
 30
0.0
 10
6.8733677832
 20
3.6196541052
 30
0.0
 10
6.8720605387
 20
3.6189723037
 30
0.0
 10
6.8709294361
 20
3.6185707508
 30
0.0
 10
6.8700392277
 20
3.6183478146
 30
0.0
 10
6.8691243392
 20
3.6182114957
 30
0.0
 10
6.8685060262
 20
3.6181809212
 30
0.0
 10
6.8681964168
 20
3.6181809212
 30
0.0
  0
SPLINE
  5
4C1
100
AcDbEntity
  8
0
100
AcDbSpline
 62
7
  6
CONTINUOUS
 70
0
 71
3
 72
63
 73
59
 74
0
 42
0.0000001
 43
0.0000001
 44
0.0000000001
 40
0.0
 40
0.0
 40
0.0
 40
0.0
 40
0.0000011927
 40
0.0000047704
 40
0.0000107328
 40
0.0000190797
 40
0.0000298109
 40
0.000042926
 40
0.0000763072
 40
0.0001192214
 40
0.0001716664
 40
0.0002336404
 40
0.0003051412
 40
0.0003861668
 40
0.0004767154
 40
0.0006863729
 40
0.0009340957
 40
0.0012198636
 40
0.0015436559
 40
0.0019054522
 40
0.0023052321
 40
0.0027429747
 40
0.0037322578
 40
0.0048731171
 40
0.0061653644
 40
0.0076087706
 40
0.0092030783
 40
0.0109480187
 40
0.0128432628
 40
0.0148884616
 40
0.0194272821
 40
0.0245615011
 40
0.0302880417
 40
0.0366033526
 40
0.0435032534
 40
0.0509831897
 40
0.0590384268
 40
0.0676640944
 40
0.0768549167
 40
0.0866049508
 40
0.0969078391
 40
0.1191458211
 40
0.1435137509
 40
0.1699508107
 40
0.1983928332
 40
0.2287689985
 40
0.2610032372
 40
0.2950155152
 40
0.3307201611
 40
0.3680282539
 40
0.4470777602
 40
0.5313705407
 40
0.5752179512
 40
0.6200515428
 40
0.7122180996
 40
0.8069229575
 40
0.9031852231
 40
1.0
 40
1.0
 40
1.0
 40
1.0
 10
7.0821475239
 20
4.2007793679
 30
0.0
 10
7.0821476333
 20
4.20077933
 30
0.0
 10
7.0821473164
 20
4.2007786793
 30
0.0
 10
7.082147521
 20
4.2007778228
 30
0.0
 10
7.0821472454
 20
4.2007759871
 30
0.0
 10
7.0821471493
 20
4.200773609
 30
0.0
 10
7.0821469096
 20
4.2007704746
 30
0.0
 10
7.0821465444
 20
4.2007649429
 30
0.0
 10
7.0821459462
 20
4.2007562816
 30
0.0
 10
7.082145102
 20
4.2007438206
 30
0.0
 10
7.0821440662
 20
4.2007285882
 30
0.0
 10
7.0821428462
 20
4.2007105893
 30
0.0
 10
7.0821414404
 20
4.2006898229
 30
0.0
 10
7.0821398503
 20
4.2006662901
 30
0.0
 10
7.0821373605
 20
4.2006293815
 30
0.0
 10
7.0821337919
 20
4.2005763337
 30
0.0
 10
7.0821289677
 20
4.2005043847
 30
0.0
 10
7.0821234192
 20
4.2004213844
 30
0.0
 10
7.0821171502
 20
4.2003273386
 30
0.0
 10
7.0821101645
 20
4.2002222529
 30
0.0
 10
7.0821024659
 20
4.2001061332
 30
0.0
 10
7.0820907698
 20
4.1999292574
 30
0.0
 10
7.0820743883
 20
4.1996806245
 30
0.0
 10
7.0820526365
 20
4.1993492497
 30
0.0
 10
7.0820280768
 20
4.198973899
 30
0.0
 10
7.0820007229
 20
4.1985546372
 30
0.0
 10
7.0819705904
 20
4.1980915367
 30
0.0
 10
7.081937695
 20
4.1975846797
 30
0.0
 10
7.0819020639
 20
4.1970341564
 30
0.0
 10
7.0818490807
 20
4.1962130878
 30
0.0
 10
7.081776195
 20
4.1950783594
 30
0.0
 10
7.0816809104
 20
4.1935871186
 30
0.0
 10
7.0815749583
 20
4.1919238281
 30
0.0
 10
7.0814583774
 20
4.1900895363
 30
0.0
 10
7.0813313661
 20
4.1880854253
 30
0.0
 10
7.0811941114
 20
4.1859127929
 30
0.0
 10
7.0810467157
 20
4.1835730095
 30
0.0
 10
7.0808891505
 20
4.1810675236
 30
0.0
 10
7.0807214167
 20
4.1783978995
 30
0.0
 10
7.0805437323
 20
4.1755658324
 30
0.0
 10
7.0802872634
 20
4.1714702017
 30
0.0
 10
7.0799431627
 20
4.1659588484
 30
0.0
 10
7.0795021463
 20
4.1588849355
 30
0.0
 10
7.0790245211
 20
4.1512101337
 30
0.0
 10
7.0785095435
 20
4.1429535259
 30
0.0
 10
7.0779583216
 20
4.1341355627
 30
0.0
 10
7.0773720188
 20
4.1247782336
 30
0.0
 10
7.0767508517
 20
4.1149050319
 30
0.0
 10
7.0760964376
 20
4.1045406127
 30
0.0
 10
7.0751613763
 20
4.0898150725
 30
0.0
 10
7.0739153181
 20
4.0703850876
 30
0.0
 10
7.0726049161
 20
4.0503234014
 30
0.0
 10
7.0714945826
 20
4.0335758397
 30
0.0
 10
7.0703212563
 20
4.0160667577
 30
0.0
 10
7.0687883894
 20
3.9936358106
 30
0.0
 10
7.0668622586
 20
3.9662298182
 30
0.0
 10
7.0648422722
 20
3.9383783375
 30
0.0
 10
7.0634366484
 20
3.9196960853
 30
0.0
 10
7.0627177824
 20
3.9103293113
 30
0.0
  0
SPLINE
  5
4C2
100
AcDbEntity
  8
0
100
AcDbSpline
 62
7
  6
CONTINUOUS
 70
0
 71
3
 72
19
 73
15
 74
0
 42
0.0000001
 43
0.0000001
 44
0.0000000001
 40
0.0
 40
0.0
 40
0.0
 40
0.0
 40
0.1166955604
 40
0.2349117479
 40
0.2948096152
 40
0.3553041575
 40
0.4164656969
 40
0.4783580323
 40
0.6044112936
 40
0.7337094654
 40
0.7995504877
 40
0.865997972
 40
0.9328840307
 40
1.0
 40
1.0
 40
1.0
 40
1.0
 10
6.8777787794
 20
3.6277781277
 30
0.0
 10
6.8776447029
 20
3.6272759099
 30
0.0
 10
6.8773093304
 20
3.626281127
 30
0.0
 10
6.8767248681
 20
3.6251002481
 30
0.0
 10
6.8761547309
 20
3.624202298
 30
0.0
 10
6.8756718986
 20
3.6235525871
 30
0.0
 10
6.8751352717
 20
3.6229346193
 30
0.0
 10
6.8743434996
 20
3.6221558425
 30
0.0
 10
6.8732164693
 20
3.6212916949
 30
0.0
 10
6.8719391756
 20
3.6206285983
 30
0.0
 10
6.870839332
 20
3.6202394098
 30
0.0
 10
6.8699771878
 20
3.6200240121
 30
0.0
 10
6.8690926949
 20
3.6198924575
 30
0.0
 10
6.8684953771
 20
3.6198629645
 30
0.0
 10
6.8681964168
 20
3.6198629645
 30
0.0
  0
SPLINE
  5
4C3
100
AcDbEntity
  8
0
100
AcDbSpline
 62
7
  6
CONTINUOUS
 70
0
 71
3
 72
21
 73
17
 74
0
 42
0.0000001
 43
0.0000001
 44
0.0000000001
 40
0.0
 40
0.0
 40
0.0
 40
0.0
 40
0.1182483314
 40
0.2376466081
 40
0.2979688765
 40
0.3587650617
 40
0.4200981986
 40
0.4820256969
 40
0.5445976605
 40
0.6078505623
 40
0.6717992784
 40
0.7364285968
 40
0.8016838562
 40
0.8674662981
 40
0.9336317432
 40
1.0
 40
1.0
 40
1.0
 40
1.0
 10
6.877885388
 20
3.6309396696
 30
0.0
 10
6.8777660266
 20
3.6304010144
 30
0.0
 10
6.877456398
 20
3.629332577
 30
0.0
 10
6.8768921863
 20
3.6280568184
 30
0.0
 10
6.8763310488
 20
3.6270839909
 30
0.0
 10
6.8758518117
 20
3.6263794113
 30
0.0
 10
6.8753150593
 20
3.6257079278
 30
0.0
 10
6.8747204719
 20
3.6250755223
 30
0.0
 10
6.874068385
 20
3.6244889659
 30
0.0
 10
6.8733600389
 20
3.6239557376
 30
0.0
 10
6.8725979329
 20
3.6234839365
 30
0.0
 10
6.8717861984
 20
3.6230820214
 30
0.0
 10
6.8709309399
 20
3.6227583812
 30
0.0
 10
6.8700403686
 20
3.6225207296
 30
0.0
 10
6.8691249438
 20
3.6223753563
 30
0.0
 10
6.8685060769
 20
3.6223427465
 30
0.0
 10
6.8681964168
 20
3.6223427465
 30
0.0
  0
SPLINE
  5
4C4
100
AcDbEntity
  8
0
100
AcDbSpline
 62
7
  6
CONTINUOUS
 70
0
 71
3
 72
20
 73
16
 74
0
 42
0.0000001
 43
0.0000001
 44
0.0000000001
 40
0.0
 40
0.0
 40
0.0
 40
0.0
 40
0.1196823079
 40
0.179869349
 40
0.24033107
 40
0.3621913629
 40
0.4857206223
 40
0.5482778924
 40
0.6113741891
 40
0.6750225041
 40
0.7392119606
 40
0.803899985
 40
0.8690086336
 40
0.934423193
 40
1.0
 40
1.0
 40
1.0
 40
1.0
 10
6.877885388
 20
3.6344378425
 30
0.0
 10
6.8777661216
 20
3.6338853761
 30
0.0
 10
6.8775345413
 20
3.6330649557
 30
0.0
 10
6.8771201029
 20
3.632007689
 30
0.0
 10
6.8766304633
 20
3.6309715223
 30
0.0
 10
6.8758760951
 20
3.6297335411
 30
0.0
 10
6.87493462
 20
3.6286163181
 30
0.0
 10
6.8740691678
 20
3.6278171457
 30
0.0
 10
6.8733608564
 20
3.6272697068
 30
0.0
 10
6.8725987726
 20
3.6267853317
 30
0.0
 10
6.8717869954
 20
3.6263726576
 30
0.0
 10
6.8709316286
 20
3.6260403248
 30
0.0
 10
6.8700408768
 20
3.6257962677
 30
0.0
 10
6.8691252188
 20
3.6256469658
 30
0.0
 10
6.8685060999
 20
3.6256134702
 30
0.0
 10
6.8681964168
 20
3.6256134702
 30
0.0
  0
LINE
  5
4C5
100
AcDbEntity
  8
0
100
AcDbLine
 62
7
  6
CONTINUOUS
 10
7.4582331285
 20
3.910540949
 11
7.4468058948
 21
4.1855508043
  0
SPLINE
  5
4C6
100
AcDbEntity
  8
0
100
AcDbSpline
 62
7
  6
CONTINUOUS
 70
0
 71
3
 72
18
 73
14
 74
0
 42
0.0000001
 43
0.0000001
 44
0.0000000001
 40
0.0
 40
0.0
 40
0.0
 40
0.0
 40
0.1209409769
 40
0.2425630633
 40
0.365160849
 40
0.4890316173
 40
0.6144337632
 40
0.6778277277
 40
0.7416391036
 40
0.8058355388
 40
0.8703572712
 40
0.9351157465
 40
1.0
 40
1.0
 40
1.0
 40
1.0
 10
6.8778827247
 20
3.6386839101
 30
0.0
 10
6.8777631324
 20
3.6381197019
 30
0.0
 10
6.8774536879
 20
3.6370014414
 30
0.0
 10
6.8767752033
 20
3.6353923131
 30
0.0
 10
6.8758728367
 20
3.6338793918
 30
0.0
 10
6.8747404727
 20
3.6325052781
 30
0.0
 10
6.8736074073
 20
3.6315229909
 30
0.0
 10
6.8725959117
 20
3.6308659034
 30
0.0
 10
6.871784627
 20
3.6304442796
 30
0.0
 10
6.8709298368
 20
3.6301047672
 30
0.0
 10
6.8700396723
 20
3.6298554171
 30
0.0
 10
6.8691246192
 20
3.6297028744
 30
0.0
 10
6.868505837
 20
3.6296686475
 30
0.0
 10
6.8681964168
 20
3.6296686475
 30
0.0
  0
SPLINE
  5
4C7
100
AcDbEntity
  8
0
100
AcDbSpline
 62
7
  6
CONTINUOUS
 70
0
 71
3
 72
19
 73
15
 74
0
 42
0.0000001
 43
0.0000001
 44
0.0000000001
 40
0.0
 40
0.0
 40
0.0
 40
0.0
 40
0.054201466
 40
0.1099299065
 40
0.1671009845
 40
0.2256325821
 40
0.3464307422
 40
0.4715921178
 40
0.6003422922
 40
0.7318792623
 40
0.7984355514
 40
0.8653768408
 40
0.932600418
 40
1.0
 40
1.0
 40
1.0
 40
1.0
 10
7.465639842
 20
3.7553146555
 30
0.0
 10
7.4654966165
 20
3.7581186977
 30
0.0
 10
7.465205485
 20
3.7638057451
 30
0.0
 10
7.4647632145
 20
3.7724504603
 30
0.0
 10
7.4643101135
 20
3.7813192206
 30
0.0
 10
7.4636881869
 20
3.793554437
 30
0.0
 10
7.4628998916
 20
3.8093077175
 30
0.0
 10
7.4619546473
 20
3.8286950835
 30
0.0
 10
7.4610091609
 20
3.8486393637
 30
0.0
 10
7.460231629
 20
3.8655523686
 30
0.0
 10
7.4596144442
 20
3.8792675808
 30
0.0
 10
7.4591512196
 20
3.8896548418
 30
0.0
 10
7.4586897374
 20
3.9000859068
 30
0.0
 10
7.458385109
 20
3.9070528833
 30
0.0
 10
7.4582331285
 20
3.910540949
 30
0.0
  0
SPLINE
  5
4C8
100
AcDbEntity
  8
0
100
AcDbSpline
 62
7
  6
CONTINUOUS
 70
0
 71
3
 72
18
 73
14
 74
0
 42
0.0000001
 43
0.0000001
 44
0.0000000001
 40
0.0
 40
0.0
 40
0.0
 40
0.0
 40
0.1220005542
 40
0.2444974641
 40
0.3677089619
 40
0.4918545822
 40
0.6171262745
 40
0.6802923993
 40
0.7437691627
 40
0.8075328601
 40
0.871539329
 40
0.9357225863
 40
1.0
 40
1.0
 40
1.0
 40
1.0
 10
6.877885388
 20
3.6436958929
 30
0.0
 10
6.8777662665
 20
3.6431202246
 30
0.0
 10
6.8774578794
 20
3.6419795597
 30
0.0
 10
6.8767804966
 20
3.640337046
 30
0.0
 10
6.8758790013
 20
3.6387925147
 30
0.0
 10
6.8747471886
 20
3.6373893457
 30
0.0
 10
6.8736131131
 20
3.6363849962
 30
0.0
 10
6.8726002058
 20
3.6357131669
 30
0.0
 10
6.8717883423
 20
3.635282393
 30
0.0
 10
6.8709328109
 20
3.6349354643
 30
0.0
 10
6.8700417542
 20
3.6346806361
 30
0.0
 10
6.8691256962
 20
3.6345247269
 30
0.0
 10
6.8685061397
 20
3.6344897401
 30
0.0
 10
6.8681964168
 20
3.6344897401
 30
0.0
  0
SPLINE
  5
4C9
100
AcDbEntity
  8
0
100
AcDbSpline
 62
7
  6
CONTINUOUS
 70
0
 71
3
 72
42
 73
38
 74
0
 42
0.0000001
 43
0.0000001
 44
0.0000000001
 40
0.0
 40
0.0
 40
0.0
 40
0.0
 40
0.0000227424
 40
0.0000835634
 40
0.0001824858
 40
0.0003195069
 40
0.0007078191
 40
0.0012484426
 40
0.0019413162
 40
0.0027863774
 40
0.0037835635
 40
0.0049328116
 40
0.0076872421
 40
0.0110489985
 40
0.0150159976
 40
0.0195854538
 40
0.024754586
 40
0.030520623
 40
0.0368807824
 40
0.0438315537
 40
0.0594873308
 40
0.0774527478
 40
0.0976893512
 40
0.120144034
 40
0.1447603316
 40
0.1714775327
 40
0.2002231185
 40
0.2309235054
 40
0.297856632
 40
0.3715346655
 40
0.4511313302
 40
0.5357468239
 40
0.624428945
 40
0.7161889853
 40
0.8100355344
 40
0.9049748774
 40
1.0
 40
1.0
 40
1.0
 40
1.0
 10
7.5063829562
 20
3.6479441547
 30
0.0
 10
7.5063828056
 20
3.6479442942
 30
0.0
 10
7.5063820181
 20
3.6479444404
 30
0.0
 10
7.5063805324
 20
3.6479450795
 30
0.0
 10
7.5063779539
 20
3.6479458752
 30
0.0
 10
7.5063726277
 20
3.6479476773
 30
0.0
 10
7.5063634634
 20
3.6479506349
 30
0.0
 10
7.5063495444
 20
3.6479551521
 30
0.0
 10
7.5063316822
 20
3.6479608926
 30
0.0
 10
7.5063098936
 20
3.6479678763
 30
0.0
 10
7.5062841732
 20
3.647976091
 30
0.0
 10
7.5062420269
 20
3.6479895179
 30
0.0
 10
7.5061795248
 20
3.648009357
 30
0.0
 10
7.5060927542
 20
3.6480368008
 30
0.0
 10
7.5059903196
 20
3.6480690429
 30
0.0
 10
7.5058722631
 20
3.6481059855
 30
0.0
 10
7.5057386332
 20
3.6481475311
 30
0.0
 10
7.5055894784
 20
3.64819358
 30
0.0
 10
7.5054248549
 20
3.6482440347
 30
0.0
 10
7.5051747187
 20
3.64832009
 30
0.0
 10
7.504823954
 20
3.6484252517
 30
0.0
 10
7.5043575411
 20
3.6485622032
 30
0.0
 10
7.5038313055
 20
3.6487131954
 30
0.0
 10
7.5032461982
 20
3.6488766115
 30
0.0
 10
7.5026033841
 20
3.6490507834
 30
0.0
 10
7.5019042112
 20
3.6492339739
 30
0.0
 10
7.5011501776
 20
3.6494243252
 30
0.0
 10
7.5000415928
 20
3.6496929504
 30
0.0
 10
7.4985333156
 20
3.6500338375
 30
0.0
 10
7.4965853878
 20
3.6504293857
 30
0.0
 10
7.4944716612
 20
3.6508077051
 30
0.0
 10
7.4922154451
 20
3.6511548482
 30
0.0
 10
7.4898423449
 20
3.6514594509
 30
0.0
 10
7.4873793072
 20
3.6517115922
 30
0.0
 10
7.4848540998
 20
3.6519025442
 30
0.0
 10
7.4822951502
 20
3.6520254251
 30
0.0
 10
7.480580496
 20
3.6520554797
 30
0.0
 10
7.479722834
 20
3.6520554735
 30
0.0
  0
SPLINE
  5
4CA
100
AcDbEntity
  8
0
100
AcDbSpline
 62
7
  6
CONTINUOUS
 70
0
 71
3
 72
18
 73
14
 74
0
 42
0.0000001
 43
0.0000001
 44
0.0000000001
 40
0.0
 40
0.0
 40
0.0
 40
0.0
 40
0.1228915291
 40
0.2461267236
 40
0.369859212
 40
0.4942418732
 40
0.6194084156
 40
0.6823836457
 40
0.7455782683
 40
0.8089756541
 40
0.8725447878
 40
0.9362389822
 40
1.0
 40
1.0
 40
1.0
 40
1.0
 10
6.877885388
 20
3.6494303946
 30
0.0
 10
6.87776632
 20
3.6488454045
 30
0.0
 10
6.8774582278
 20
3.6476865738
 30
0.0
 10
6.8767811885
 20
3.6460170819
 30
0.0
 10
6.8758801635
 20
3.6444471267
 30
0.0
 10
6.874748908
 20
3.6430207
 30
0.0
 10
6.873614378
 20
3.6419986899
 30
0.0
 10
6.87260077
 20
3.6413150947
 30
0.0
 10
6.8717888907
 20
3.6408770668
 30
0.0
 10
6.8709332931
 20
3.6405242688
 30
0.0
 10
6.8700421153
 20
3.6402651113
 30
0.0
 10
6.8691258934
 20
3.640106544
 30
0.0
 10
6.8685061562
 20
3.6400709571
 30
0.0
 10
6.8681964168
 20
3.6400709571
 30
0.0
  0
SPLINE
  5
4CB
100
AcDbEntity
  8
0
100
AcDbSpline
 62
7
  6
CONTINUOUS
 70
0
 71
3
 72
18
 73
14
 74
0
 42
0.0000001
 43
0.0000001
 44
0.0000000001
 40
0.0
 40
0.0
 40
0.0
 40
0.0
 40
0.1236203719
 40
0.2474606472
 40
0.371621598
 40
0.4962010583
 40
0.6212839295
 40
0.6841034448
 40
0.7470669812
 40
0.8101635816
 40
0.873372989
 40
0.9366644561
 40
1.0
 40
1.0
 40
1.0
 40
1.0
 10
6.877885388
 20
3.6558815927
 30
0.0
 10
6.8777663628
 20
3.6552888382
 30
0.0
 10
6.8774585066
 20
3.6541148763
 30
0.0
 10
6.8767817449
 20
3.6524229251
 30
0.0
 10
6.8758811052
 20
3.6508318106
 30
0.0
 10
6.8747503143
 20
3.649386034
 30
0.0
 10
6.8736154238
 20
3.6483493165
 30
0.0
 10
6.8726012393
 20
3.6476559147
 30
0.0
 10
6.8717893492
 20
3.6472118459
 30
0.0
 10
6.8709336981
 20
3.6468541589
 30
0.0
 10
6.8700424197
 20
3.646591394
 30
0.0
 10
6.86912606
 20
3.6464306113
 30
0.0
 10
6.8685061701
 20
3.646394524
 30
0.0
 10
6.8681964168
 20
3.646394524
 30
0.0
  0
SPLINE
  5
4CC
100
AcDbEntity
  8
0
100
AcDbSpline
 62
7
  6
CONTINUOUS
 70
0
 71
3
 72
43
 73
39
 74
0
 42
0.0000001
 43
0.0000001
 44
0.0000000001
 40
0.0
 40
0.0
 40
0.0
 40
0.0
 40
0.0946097019
 40
0.1884878442
 40
0.2808965513
 40
0.3711007544
 40
0.4583404162
 40
0.5418282712
 40
0.6207602354
 40
0.6943144876
 40
0.7616792225
 40
0.7927910501
 40
0.8220603513
 40
0.849391242
 40
0.8746946512
 40
0.8978835176
 40
0.9188744095
 40
0.9375929745
 40
0.9539664459
 40
0.9612542533
 40
0.967933301
 40
0.9739964289
 40
0.9794367873
 40
0.9842491408
 40
0.9884286985
 40
0.9919706451
 40
0.994870192
 40
0.9960779502
 40
0.9971241311
 40
0.9980085878
 40
0.9987311739
 40
0.999291743
 40
0.9995112257
 40
0.9996901499
 40
0.9998284982
 40
0.9999262545
 40
0.9999834075
 40
1.0
 40
1.0
 40
1.0
 40
1.0
 10
7.0311776394
 20
3.6520554743
 30
0.0
 10
7.0300865689
 20
3.6520554737
 30
0.0
 10
7.0279127488
 20
3.6520223919
 30
0.0
 10
7.0246759911
 20
3.6518830671
 30
0.0
 10
7.0214947081
 20
3.6516617919
 30
0.0
 10
7.0183967572
 20
3.6513621103
 30
0.0
 10
7.0154102922
 20
3.6509900774
 30
0.0
 10
7.0125642146
 20
3.6505522133
 30
0.0
 10
7.0098874635
 20
3.650059398
 30
0.0
 10
7.0074085279
 20
3.649525559
 30
0.0
 10
7.0054820297
 20
3.6490503888
 30
0.0
 10
7.004059933
 20
3.6486655413
 30
0.0
 10
7.0030873118
 20
3.6483875883
 30
0.0
 10
7.0021827552
 20
3.6481155851
 30
0.0
 10
7.0013487266
 20
3.6478528221
 30
0.0
 10
7.0005874728
 20
3.6476026026
 30
0.0
 10
6.999901031
 20
3.6473681395
 30
0.0
 10
6.9992912379
 20
3.6471525615
 30
0.0
 10
6.9988320049
 20
3.6469852978
 30
0.0
 10
6.9985040336
 20
3.6468633893
 30
0.0
 10
6.998287833
 20
3.6467820562
 30
0.0
 10
6.9980918382
 20
3.6467075255
 30
0.0
 10
6.9979161703
 20
3.6466401091
 30
0.0
 10
6.9977609506
 20
3.6465800389
 30
0.0
 10
6.9976262792
 20
3.646527534
 30
0.0
 10
6.9975122517
 20
3.6464828071
 30
0.0
 10
6.9974301698
 20
3.6464504939
 30
0.0
 10
6.9973748736
 20
3.6464287098
 30
0.0
 10
6.9973412023
 20
3.6464154414
 30
0.0
 10
6.9973127296
 20
3.6464042232
 30
0.0
 10
6.9972894814
 20
3.6463950751
 30
0.0
 10
6.9972733224
 20
3.6463887259
 30
0.0
 10
6.9972630665
 20
3.6463847228
 30
0.0
 10
6.9972572057
 20
3.6463824291
 30
0.0
 10
6.9972529767
 20
3.6463808294
 30
0.0
 10
6.9972492917
 20
3.6463793467
 30
0.0
 10
6.9972483239
 20
3.6463791294
 30
0.0
 10
6.9972466688
 20
3.6463784029
 30
0.0
 10
6.9972467977
 20
3.6463785443
 30
0.0
  0
SPLINE
  5
4CD
100
AcDbEntity
  8
0
100
AcDbSpline
 62
7
  6
CONTINUOUS
 70
0
 71
3
 72
18
 73
14
 74
0
 42
0.0000001
 43
0.0000001
 44
0.0000000001
 40
0.0
 40
0.0
 40
0.0
 40
0.0
 40
0.1241924069
 40
0.2485082885
 40
0.3730069406
 40
0.4977426898
 40
0.6227613959
 40
0.6854589915
 40
0.7482409853
 40
0.811100804
 40
0.8740266305
 40
0.937000327
 40
1.0
 40
1.0
 40
1.0
 40
1.0
 10
6.877885388
 20
3.6630318049
 30
0.0
 10
6.8777663957
 20
3.6624328662
 30
0.0
 10
6.8774587214
 20
3.6612468523
 30
0.0
 10
6.8767821757
 20
3.6595370198
 30
0.0
 10
6.8758818385
 20
3.6579290633
 30
0.0
 10
6.8747514177
 20
3.6564678887
 30
0.0
 10
6.8736162517
 20
3.655419459
 30
0.0
 10
6.8726016126
 20
3.6547182422
 30
0.0
 10
6.8717897154
 20
3.6542693629
 30
0.0
 10
6.8709340228
 20
3.6539077817
 30
0.0
 10
6.8700426644
 20
3.6536421428
 30
0.0
 10
6.8691261942
 20
3.6534795945
 30
0.0
 10
6.8685061814
 20
3.6534431084
 30
0.0
 10
6.8681964168
 20
3.6534431084
 30
0.0
  0
SPLINE
  5
4CE
100
AcDbEntity
  8
0
100
AcDbSpline
 62
7
  6
CONTINUOUS
 70
0
 71
3
 72
18
 73
14
 74
0
 42
0.0000001
 43
0.0000001
 44
0.0000000001
 40
0.0
 40
0.0
 40
0.0
 40
0.0
 40
0.1246118016
 40
0.249276786
 40
0.3740238327
 40
0.4988751836
 40
0.6238476844
 40
0.6864560615
 40
0.7491048738
 40
0.8117907002
 40
0.8745079154
 40
0.9372476786
 40
1.0
 40
1.0
 40
1.0
 40
1.0
 10
6.877885388
 20
3.6708614329
 30
0.0
 10
6.8777664194
 20
3.6702579084
 30
0.0
 10
6.8774588768
 20
3.6690629572
 30
0.0
 10
6.8767824883
 20
3.667339869
 30
0.0
 10
6.8758823729
 20
3.6657194292
 30
0.0
 10
6.8747522265
 20
3.6642468443
 30
0.0
 10
6.8736168627
 20
3.6631897307
 30
0.0
 10
6.8726018891
 20
3.6624827166
 30
0.0
 10
6.8717899875
 20
3.6620302704
 30
0.0
 10
6.8709342648
 20
3.6616658014
 30
0.0
 10
6.8700428472
 20
3.6613980307
 30
0.0
 10
6.8691262946
 20
3.6612341726
 30
0.0
 10
6.8685061897
 20
3.6611973905
 30
0.0
 10
6.8681964168
 20
3.6611973905
 30
0.0
  0
SPLINE
  5
4CF
100
AcDbEntity
  8
0
100
AcDbSpline
 62
7
  6
CONTINUOUS
 70
0
 71
3
 72
18
 73
14
 74
0
 42
0.0000001
 43
0.0000001
 44
0.0000000001
 40
0.0
 40
0.0
 40
0.0
 40
0.0
 40
0.1248816208
 40
0.2497714107
 40
0.3746786756
 40
0.499604945
 40
0.6245482187
 40
0.6870992539
 40
0.7496623081
 40
0.8122359743
 40
0.8748186062
 40
0.9374073766
 40
1.0
 40
1.0
 40
1.0
 40
1.0
 10
6.8778827247
 20
3.6793405988
 30
0.0
 10
6.8777633676
 20
3.6787347567
 30
0.0
 10
6.8774552152
 20
3.6775353629
 30
0.0
 10
6.8767782386
 20
3.6758057813
 30
0.0
 10
6.8758779498
 20
3.6741793757
 30
0.0
 10
6.8747480703
 20
3.6727014788
 30
0.0
 10
6.8736130283
 20
3.6716403537
 30
0.0
 10
6.8725984274
 20
3.670930721
 30
0.0
 10
6.8717870793
 20
3.6704767194
 30
0.0
 10
6.8709319988
 20
3.6701110073
 30
0.0
 10
6.8700412947
 20
3.6698423288
 30
0.0
 10
6.8691255063
 20
3.6696779173
 30
0.0
 10
6.8685059112
 20
3.6696410103
 30
0.0
 10
6.8681964168
 20
3.6696410103
 30
0.0
  0
SPLINE
  5
4D0
100
AcDbEntity
  8
0
100
AcDbSpline
 62
7
  6
CONTINUOUS
 70
0
 71
3
 72
18
 73
14
 74
0
 42
0.0000001
 43
0.0000001
 44
0.0000000001
 40
0.0
 40
0.0
 40
0.0
 40
0.0
 40
0.1250038981
 40
0.2499955564
 40
0.3749754295
 40
0.499935644
 40
0.6248656062
 40
0.6873907066
 40
0.749914937
 40
0.812437796
 40
0.8749594418
 40
0.9374797684
 40
1.0
 40
1.0
 40
1.0
 40
1.0
 10
6.877885388
 20
3.6884712911
 30
0.0
 10
6.8777664414
 20
3.6878634391
 30
0.0
 10
6.8774590205
 20
3.6866600535
 30
0.0
 10
6.8767827781
 20
3.6849244588
 30
0.0
 10
6.8758828701
 20
3.683292243
 30
0.0
 10
6.8747529824
 20
3.6818088961
 30
0.0
 10
6.8736174368
 20
3.6807435885
 30
0.0
 10
6.8726021497
 20
3.6800311016
 30
0.0
 10
6.8717902447
 20
3.6795752898
 30
0.0
 10
6.8709344941
 20
3.6792080954
 30
0.0
 10
6.8700430208
 20
3.6789383125
 30
0.0
 10
6.86912639
 20
3.678773218
 30
0.0
 10
6.8685061977
 20
3.6787361565
 30
0.0
 10
6.8681964168
 20
3.6787361565
 30
0.0
  0
SPLINE
  5
4D1
100
AcDbEntity
  8
0
100
AcDbSpline
 62
7
  6
CONTINUOUS
 70
0
 71
3
 72
18
 73
14
 74
0
 42
0.0000001
 43
0.0000001
 44
0.0000000001
 40
0.0
 40
0.0
 40
0.0
 40
0.0
 40
0.1249794667
 40
0.2499507616
 40
0.3749161103
 40
0.4998695193
 40
0.6248021135
 40
0.687332399
 40
0.7498643938
 40
0.8123974156
 40
0.8749312624
 40
0.937465283
 40
1.0
 40
1.0
 40
1.0
 40
1.0
 10
6.877885388
 20
3.698203254
 30
0.0
 10
6.87776644
 20
3.6975956727
 30
0.0
 10
6.8774590116
 20
3.696392815
 30
0.0
 10
6.8767827601
 20
3.6946580028
 30
0.0
 10
6.8758828392
 20
3.6930265238
 30
0.0
 10
6.8747529353
 20
3.6915438501
 30
0.0
 10
6.873617401
 20
3.6904790553
 30
0.0
 10
6.8726021335
 20
3.6897669108
 30
0.0
 10
6.8717902286
 20
3.6893113097
 30
0.0
 10
6.8709344797
 20
3.6889442858
 30
0.0
 10
6.8700430099
 20
3.6886746288
 30
0.0
 10
6.869126384
 20
3.6885096117
 30
0.0
 10
6.8685061972
 20
3.6884725677
 30
0.0
 10
6.8681964168
 20
3.6884725677
 30
0.0
  0
SPLINE
  5
4D2
100
AcDbEntity
  8
0
100
AcDbSpline
 62
7
  6
CONTINUOUS
 70
0
 71
3
 72
18
 73
14
 74
0
 42
0.0000001
 43
0.0000001
 44
0.0000000001
 40
0.0
 40
0.0
 40
0.0
 40
0.0
 40
0.1248081684
 40
0.249636719
 40
0.374500295
 40
0.4994060714
 40
0.624357189
 40
0.6869238438
 40
0.7495102716
 40
0.812114518
 40
0.8747338545
 40
0.9373638099
 40
1.0
 40
1.0
 40
1.0
 40
1.0
 10
6.877885388
 20
3.7085182302
 30
0.0
 10
6.8777664305
 20
3.7079125433
 30
0.0
 10
6.877458949
 20
3.7067133777
 30
0.0
 10
6.8767826337
 20
3.70498404
 30
0.0
 10
6.8758826222
 20
3.7033577155
 30
0.0
 10
6.8747526051
 20
3.7018797524
 30
0.0
 10
6.8736171499
 20
3.7008185443
 30
0.0
 10
6.8726020194
 20
3.7001087957
 30
0.0
 10
6.871790116
 20
3.6996546678
 30
0.0
 10
6.8709343792
 20
3.699288837
 30
0.0
 10
6.8700429338
 20
3.6990200609
 30
0.0
 10
6.8691263422
 20
3.6988555851
 30
0.0
 10
6.8685061937
 20
3.6988186634
 30
0.0
 10
6.8681964168
 20
3.6988186634
 30
0.0
  0
SPLINE
  5
4D3
100
AcDbEntity
  8
0
100
AcDbSpline
 62
7
  6
CONTINUOUS
 70
0
 71
3
 72
18
 73
14
 74
0
 42
0.0000001
 43
0.0000001
 44
0.0000000001
 40
0.0
 40
0.0
 40
0.0
 40
0.0
 40
0.1244887484
 40
0.2490512711
 40
0.3737253695
 40
0.4985427113
 40
0.6235286929
 40
0.6861632319
 40
0.7488511295
 40
0.8115880411
 40
0.8743665255
 40
0.9371750093
 40
1.0
 40
1.0
 40
1.0
 40
1.0
 10
6.877885388
 20
3.7193879471
 30
0.0
 10
6.8777664125
 20
3.7187857727
 30
0.0
 10
6.8774588314
 20
3.7175934527
 30
0.0
 10
6.8767823969
 20
3.7158742668
 30
0.0
 10
6.8758822164
 20
3.7142575016
 30
0.0
 10
6.8747519893
 20
3.7127882753
 30
0.0
 10
6.8736166831
 20
3.7117337181
 30
0.0
 10
6.8726018078
 20
3.7110284109
 30
0.0
 10
6.8717899074
 20
3.7105770148
 30
0.0
 10
6.8709341934
 20
3.710213396
 30
0.0
 10
6.8700427933
 20
3.7099462529
 30
0.0
 10
6.8691262649
 20
3.7097827806
 30
0.0
 10
6.8685061873
 20
3.7097460856
 30
0.0
 10
6.8681964168
 20
3.7097460856
 30
0.0
  0
SPLINE
  5
4D4
100
AcDbEntity
  8
0
100
AcDbSpline
 62
7
  6
CONTINUOUS
 70
0
 71
3
 72
18
 73
14
 74
0
 42
0.0000001
 43
0.0000001
 44
0.0000000001
 40
0.0
 40
0.0
 40
0.0
 40
0.0
 40
0.1240188675
 40
0.2481904021
 40
0.372586477
 40
0.4972746402
 40
0.6223126682
 40
0.6850472224
 40
0.7478843095
 40
0.8108160271
 40
0.8738280001
 40
0.9368982555
 40
1.0
 40
1.0
 40
1.0
 40
1.0
 10
6.877885388
 20
3.7307826116
 30
0.0
 10
6.8777663858
 20
3.7301855575
 30
0.0
 10
6.8774586566
 20
3.7290032164
 30
0.0
 10
6.8767820456
 20
3.7272988326
 30
0.0
 10
6.8758816166
 20
3.7256960076
 30
0.0
 10
6.8747510831
 20
3.7242395242
 30
0.0
 10
6.8736159999
 20
3.7231946635
 30
0.0
 10
6.8726014989
 20
3.7224958287
 30
0.0
 10
6.8717896037
 20
3.7220484152
 30
0.0
 10
6.8709339237
 20
3.7216880208
 30
0.0
 10
6.8700425896
 20
3.7214232578
 30
0.0
 10
6.8691261531
 20
3.7212612477
 30
0.0
 10
6.8685061779
 20
3.7212248831
 30
0.0
 10
6.8681964168
 20
3.7212248831
 30
0.0
  0
LINE
  5
4D5
100
AcDbEntity
  8
0
100
AcDbLine
 62
7
  6
CONTINUOUS
 10
6.8681964168
 20
3.730952539
 11
6.877885388
 21
3.7307826116
  0
SPLINE
  5
4D6
100
AcDbEntity
  8
0
100
AcDbSpline
 62
7
  6
CONTINUOUS
 70
0
 71
3
 72
18
 73
14
 74
0
 42
0.0000001
 43
0.0000001
 44
0.0000000001
 40
0.0
 40
0.0
 40
0.0
 40
0.0
 40
0.1233950293
 40
0.2470485679
 40
0.3710775659
 40
0.4955967121
 40
0.6207058266
 40
0.6835734699
 40
0.74660832
 40
0.8097976601
 40
0.8731179119
 40
0.9365334291
 40
1.0
 40
1.0
 40
1.0
 40
1.0
 10
6.8778827247
 20
3.7426648761
 30
0.0
 10
6.8777632821
 20
3.7420751728
 30
0.0
 10
6.8774546585
 20
3.740907231
 30
0.0
 10
6.8767771228
 20
3.7392243066
 30
0.0
 10
6.8758760488
 20
3.7376418395
 30
0.0
 10
6.8747452049
 20
3.7362041054
 30
0.0
 10
6.8736108732
 20
3.7351735329
 30
0.0
 10
6.8725974544
 20
3.734484289
 30
0.0
 10
6.8717861235
 20
3.7340428345
 30
0.0
 10
6.8709311504
 20
3.7336872795
 30
0.0
 10
6.8700406547
 20
3.7334260976
 30
0.0
 10
6.8691251551
 20
3.7332662915
 30
0.0
 10
6.8685058818
 20
3.7332304249
 30
0.0
 10
6.8681964168
 20
3.7332304249
 30
0.0
  0
SPLINE
  5
4D7
100
AcDbEntity
  8
0
100
AcDbSpline
 62
7
  6
CONTINUOUS
 70
0
 71
3
 72
18
 73
14
 74
0
 42
0.0000001
 43
0.0000001
 44
0.0000000001
 40
0.0
 40
0.0
 40
0.0
 40
0.0
 40
0.1891744315
 40
0.3683250305
 40
0.5299434933
 40
0.6698458315
 40
0.7864779138
 40
0.8360312161
 40
0.879836386
 40
0.9180012916
 40
0.9506523471
 40
0.9779334454
 40
1.0
 40
1.0
 40
1.0
 40
1.0
 10
6.8681964168
 20
3.7433431374
 30
0.0
 10
6.8688100166
 20
3.7433431374
 30
0.0
 10
6.8700047287
 20
3.7433333831
 30
0.0
 10
6.8717231827
 20
3.7432905846
 30
0.0
 10
6.8732809373
 20
3.7432236909
 30
0.0
 10
6.8746346091
 20
3.7431376347
 30
0.0
 10
6.8756237238
 20
3.7430501292
 30
0.0
 10
6.8763004259
 20
3.7429723773
 30
0.0
 10
6.8767232112
 20
3.7429151494
 30
0.0
 10
6.8770903349
 20
3.7428562149
 30
0.0
 10
6.8774028396
 20
3.7427959528
 30
0.0
 10
6.8776617369
 20
3.7427347132
 30
0.0
 10
6.8778152732
 20
3.7426888173
 30
0.0
 10
6.8778827247
 20
3.7426648761
 30
0.0
  0
SPLINE
  5
4D8
100
AcDbEntity
  8
0
100
AcDbSpline
 62
7
  6
CONTINUOUS
 70
0
 71
3
 72
18
 73
14
 74
0
 42
0.0000001
 43
0.0000001
 44
0.0000000001
 40
0.0
 40
0.0
 40
0.0
 40
0.0
 40
0.122612848
 40
0.2456169543
 40
0.3691861562
 40
0.4934942574
 40
0.6186933523
 40
0.6817282284
 40
0.7450111423
 40
0.808523268
 40
0.8722294772
 40
0.9360770245
 40
1.0
 40
1.0
 40
1.0
 40
1.0
 10
6.877885388
 20
3.7550205021
 30
0.0
 10
6.8777663034
 20
3.7544384475
 30
0.0
 10
6.8774581198
 20
3.7532853373
 30
0.0
 10
6.8767809735
 20
3.7516243394
 30
0.0
 10
6.8758798013
 20
3.7500623878
 30
0.0
 10
6.8747483702
 20
3.7486432819
 30
0.0
 10
6.8736139807
 20
3.7476268329
 30
0.0
 10
6.8726005924
 20
3.7469469438
 30
0.0
 10
6.8717887178
 20
3.7465112
 30
0.0
 10
6.8709331408
 20
3.7461602503
 30
0.0
 10
6.8700420011
 20
3.7459024564
 30
0.0
 10
6.869125831
 20
3.7457447263
 30
0.0
 10
6.868506151
 20
3.7457093284
 30
0.0
 10
6.8681964168
 20
3.7457093284
 30
0.0
  0
SPLINE
  5
4D9
100
AcDbEntity
  8
0
100
AcDbSpline
 62
7
  6
CONTINUOUS
 70
0
 71
3
 72
19
 73
15
 74
0
 42
0.0000001
 43
0.0000001
 44
0.0000000001
 40
0.0
 40
0.0
 40
0.0
 40
0.0
 40
0.187590511
 40
0.365328973
 40
0.5258549156
 40
0.6651032719
 40
0.7262282135
 40
0.7816359273
 40
0.8313814376
 40
0.8755688429
 40
0.9143357537
 40
0.9478508828
 40
0.9763213374
 40
1.0
 40
1.0
 40
1.0
 40
1.0
 10
6.8681964168
 20
3.7562070973
 30
0.0
 10
6.8688106138
 20
3.7562070973
 30
0.0
 10
6.8700068255
 20
3.7561900107
 30
0.0
 10
6.8717271736
 20
3.7561150867
 30
0.0
 10
6.8732864849
 20
3.7559978818
 30
0.0
 10
6.874461245
 20
3.7558673735
 30
0.0
 10
6.8752900221
 20
3.7557465797
 30
0.0
 10
6.8758266796
 20
3.7556545986
 30
0.0
 10
6.87630611
 20
3.7555581291
 30
0.0
 10
6.8767289784
 20
3.7554579175
 30
0.0
 10
6.8770961978
 20
3.7553546475
 30
0.0
 10
6.8774088899
 20
3.7552489151
 30
0.0
 10
6.877668127
 20
3.7551412721
 30
0.0
 10
6.8778195826
 20
3.7550614912
 30
0.0
 10
6.877885388
 20
3.7550205021
 30
0.0
  0
SPLINE
  5
4DA
100
AcDbEntity
  8
0
100
AcDbSpline
 62
7
  6
CONTINUOUS
 70
0
 71
3
 72
18
 73
14
 74
0
 42
0.0000001
 43
0.0000001
 44
0.0000000001
 40
0.0
 40
0.0
 40
0.0
 40
0.0
 40
0.1216664513
 40
0.2438869098
 40
0.3669038321
 40
0.490961569
 40
0.6162734973
 40
0.6795113522
 40
0.7430938058
 40
0.8069944695
 40
0.8711642513
 40
0.9355299871
 40
1.0
 40
1.0
 40
1.0
 40
1.0
 10
6.877885388
 20
3.7677972938
 30
0.0
 10
6.877766246
 20
3.7672250743
 30
0.0
 10
6.8774577465
 20
3.7660911299
 30
0.0
 10
6.8767802339
 20
3.7644586012
 30
0.0
 10
6.8758785624
 20
3.7629234819
 30
0.0
 10
6.8747465439
 20
3.7615289249
 30
0.0
 10
6.8736126427
 20
3.7605311099
 30
0.0
 10
6.8725999968
 20
3.7598636313
 30
0.0
 10
6.8717881399
 20
3.7594355416
 30
0.0
 10
6.8709326336
 20
3.7590907842
 30
0.0
 10
6.8700416218
 20
3.7588375573
 30
0.0
 10
6.8691256241
 20
3.758682631
 30
0.0
 10
6.8685061337
 20
3.7586478661
 30
0.0
 10
6.8681964168
 20
3.7586478661
 30
0.0
  0
SPLINE
  5
4DB
100
AcDbEntity
  8
0
100
AcDbSpline
 62
7
  6
CONTINUOUS
 70
0
 71
3
 72
19
 73
15
 74
0
 42
0.0000001
 43
0.0000001
 44
0.0000000001
 40
0.0
 40
0.0
 40
0.0
 40
0.0
 40
0.1851538635
 40
0.3607416939
 40
0.5196400105
 40
0.6579622136
 40
0.7189375853
 40
0.7744278808
 40
0.8245105645
 40
0.8693176504
 40
0.9090231179
 40
0.9438445578
 40
0.9740561022
 40
1.0
 40
1.0
 40
1.0
 40
1.0
 10
6.8681964168
 20
3.7694880397
 30
0.0
 10
6.8688106805
 20
3.7694880397
 30
0.0
 10
6.8700076239
 20
3.7694636697
 30
0.0
 10
6.8717287815
 20
3.769356809
 30
0.0
 10
6.873288975
 20
3.7691896277
 30
0.0
 10
6.8744633758
 20
3.7690035689
 30
0.0
 10
6.8752911248
 20
3.7688316147
 30
0.0
 10
6.8758280018
 20
3.768700454
 30
0.0
 10
6.8763077061
 20
3.7685628529
 30
0.0
 10
6.8767309219
 20
3.7684198496
 30
0.0
 10
6.8770985881
 20
3.7682723778
 30
0.0
 10
6.87741185
 20
3.7681212021
 30
0.0
 10
6.8776717864
 20
3.7679670185
 30
0.0
 10
6.8778210142
 20
3.7678544274
 30
0.0
 10
6.877885388
 20
3.7677972938
 30
0.0
  0
SPLINE
  5
4DC
100
AcDbEntity
  8
0
100
AcDbSpline
 62
7
  6
CONTINUOUS
 70
0
 71
3
 72
18
 73
14
 74
0
 42
0.0000001
 43
0.0000001
 44
0.0000000001
 40
0.0
 40
0.0
 40
0.0
 40
0.0
 40
0.1205490104
 40
0.2418464765
 40
0.3642158055
 40
0.4879835568
 40
0.6134331708
 40
0.6769114804
 40
0.7408469989
 40
0.805204186
 40
0.869917491
 40
0.9348899411
 40
1.0
 40
1.0
 40
1.0
 40
1.0
 10
6.877885388
 20
3.7809663464
 30
0.0
 10
6.877766176
 20
3.7804054819
 30
0.0
 10
6.877457293
 20
3.7792936642
 30
0.0
 10
6.8767793417
 20
3.777694027
 30
0.0
 10
6.8758770822
 20
3.7761899197
 30
0.0
 10
6.8747443882
 20
3.7748237464
 30
0.0
 10
6.873611085
 20
3.7738474482
 30
0.0
 10
6.8725993085
 20
3.7731942853
 30
0.0
 10
6.8717874764
 20
3.7727750347
 30
0.0
 10
6.8709320544
 20
3.7724374257
 30
0.0
 10
6.8700411906
 20
3.7721894694
 30
0.0
 10
6.8691253895
 20
3.7720377777
 30
0.0
 10
6.8685061141
 20
3.7720037426
 30
0.0
 10
6.8681964168
 20
3.7720037426
 30
0.0
  0
SPLINE
  5
4DD
100
AcDbEntity
  8
0
100
AcDbSpline
 62
7
  6
CONTINUOUS
 70
0
 71
3
 72
20
 73
16
 74
0
 42
0.0000001
 43
0.0000001
 44
0.0000000001
 40
0.0
 40
0.0
 40
0.0
 40
0.0
 40
0.1821509827
 40
0.3550985503
 40
0.5120189472
 40
0.5832233958
 40
0.6492709137
 40
0.7100938411
 40
0.7657209741
 40
0.8162546883
 40
0.8618564649
 40
0.9027362823
 40
0.9391561034
 40
0.9714438583
 40
1.0
 40
1.0
 40
1.0
 40
1.0
 10
6.8681964168
 20
3.7831566088
 30
0.0
 10
6.8688107697
 20
3.7831566088
 30
0.0
 10
6.8700087083
 20
3.7831250069
 30
0.0
 10
6.8717308561
 20
3.7829863587
 30
0.0
 10
6.8730716942
 20
3.7828002428
 30
0.0
 10
6.8740464824
 20
3.782614382
 30
0.0
 10
6.8746980028
 20
3.7824659359
 30
0.0
 10
6.8752925171
 20
3.7823058358
 30
0.0
 10
6.8758296389
 20
3.7821357842
 30
0.0
 10
6.8763096306
 20
3.7819573156
 30
0.0
 10
6.8767331831
 20
3.7817717667
 30
0.0
 10
6.8771012362
 20
3.7815803037
 30
0.0
 10
6.8774149077
 20
3.7813838684
 30
0.0
 10
6.8776752153
 20
3.7811833114
 30
0.0
 10
6.8778221812
 20
3.7810390178
 30
0.0
 10
6.877885388
 20
3.7809663464
 30
0.0
  0
SPLINE
  5
4DE
100
AcDbEntity
  8
0
100
AcDbSpline
 62
7
  6
CONTINUOUS
 70
0
 71
3
 72
18
 73
14
 74
0
 42
0.0000001
 43
0.0000001
 44
0.0000000001
 40
0.0
 40
0.0
 40
0.0
 40
0.0
 40
0.1192524717
 40
0.2394821462
 40
0.3611062312
 40
0.4845451436
 40
0.6101604434
 40
0.6739187376
 40
0.7382629939
 40
0.803146809
 40
0.8684855801
 40
0.9341551221
 40
1.0
 40
1.0
 40
1.0
 40
1.0
 10
6.877885388
 20
3.7944915644
 30
0.0
 10
6.8777660918
 20
3.7939435413
 30
0.0
 10
6.8774567488
 20
3.7928567458
 30
0.0
 10
6.8767782805
 20
3.7912943367
 30
0.0
 10
6.8758753415
 20
3.7898253465
 30
0.0
 10
6.874741889
 20
3.7884913273
 30
0.0
 10
6.8736093076
 20
3.7875393647
 30
0.0
 10
6.8725985295
 20
3.7869023741
 30
0.0
 10
6.8717867309
 20
3.7864931225
 30
0.0
 10
6.8709314078
 20
3.7861635968
 30
0.0
 10
6.8700407116
 20
3.785921598
 30
0.0
 10
6.8691251297
 20
3.7857735612
 30
0.0
 10
6.8685060924
 20
3.7857403505
 30
0.0
 10
6.8681964168
 20
3.7857403505
 30
0.0
  0
SPLINE
  5
4DF
100
AcDbEntity
  8
0
100
AcDbSpline
 62
7
  6
CONTINUOUS
 70
0
 71
3
 72
21
 73
17
 74
0
 42
0.0000001
 43
0.0000001
 44
0.0000000001
 40
0.0
 40
0.0
 40
0.0
 40
0.0
 40
0.1787511426
 40
0.2653234295
 40
0.3487479586
 40
0.5034653912
 40
0.5739457542
 40
0.6395531111
 40
0.7002432066
 40
0.7560679131
 40
0.8071538539
 40
0.8536892624
 40
0.895914029
 40
0.9341227909
 40
0.9686765512
 40
1.0
 40
1.0
 40
1.0
 40
1.0
 10
6.8681964168
 20
3.79717534
 30
0.0
 10
6.8688108804
 20
3.79717534
 30
0.0
 10
6.8697233374
 20
3.7971458492
 30
0.0
 10
6.8709182621
 20
3.7970468418
 30
0.0
 10
6.8720269871
 20
3.7969164605
 30
0.0
 10
6.8730740147
 20
3.7967381797
 30
0.0
 10
6.8740476745
 20
3.7965106353
 30
0.0
 10
6.874699397
 20
3.7963286241
 30
0.0
 10
6.8752941279
 20
3.796132298
 30
0.0
 10
6.8758314878
 20
3.7959237316
 30
0.0
 10
6.8763117379
 20
3.7957047885
 30
0.0
 10
6.8767355609
 20
3.795477088
 30
0.0
 10
6.8771038756
 20
3.7952420363
 30
0.0
 10
6.8774177461
 20
3.7950007825
 30
0.0
 10
6.8776781089
 20
3.7947543804
 30
0.0
 10
6.8778230627
 20
3.7945793686
 30
0.0
 10
6.877885388
 20
3.7944915644
 30
0.0
  0
SPLINE
  5
4E0
100
AcDbEntity
  8
0
100
AcDbSpline
 62
7
  6
CONTINUOUS
 70
0
 71
3
 72
21
 73
17
 74
0
 42
0.0000001
 43
0.0000001
 44
0.0000000001
 40
0.0
 40
0.0
 40
0.0
 40
0.0
 40
0.1177319346
 40
0.2367069039
 40
0.2968643121
 40
0.3575328491
 40
0.418780029
 40
0.480667337
 40
0.5432482175
 40
0.6065613328
 40
0.6706220848
 40
0.7354135547
 40
0.8008766173
 40
0.8669049691
 40
0.9333438459
 40
1.0
 40
1.0
 40
1.0
 40
1.0
 10
6.877885388
 20
3.8083358763
 30
0.0
 10
6.877765991
 20
3.8078021426
 30
0.0
 10
6.8774561701
 20
3.8067432943
 30
0.0
 10
6.876891934
 20
3.8054797507
 30
0.0
 10
6.8763309061
 20
3.8045163379
 30
0.0
 10
6.8758516343
 20
3.8038183908
 30
0.0
 10
6.8753148462
 20
3.8031532357
 30
0.0
 10
6.8747202249
 20
3.8025267992
 30
0.0
 10
6.8740681092
 20
3.8019457898
 30
0.0
 10
6.8733597441
 20
3.8014176165
 30
0.0
 10
6.8725976342
 20
3.8009503012
 30
0.0
 10
6.871785916
 20
3.8005522198
 30
0.0
 10
6.8709306972
 20
3.8002316772
 30
0.0
 10
6.8700401901
 20
3.7999963072
 30
0.0
 10
6.8691248475
 20
3.7998523331
 30
0.0
 10
6.8685060689
 20
3.7998200386
 30
0.0
 10
6.8681964168
 20
3.7998200386
 30
0.0
  0
SPLINE
  5
4E1
100
AcDbEntity
  8
0
100
AcDbSpline
 62
7
  6
CONTINUOUS
 70
0
 71
3
 72
20
 73
16
 74
0
 42
0.0000001
 43
0.0000001
 44
0.0000000001
 40
0.0
 40
0.0
 40
0.0
 40
0.0
 40
0.1751264274
 40
0.2600402688
 40
0.3419771164
 40
0.4943936973
 40
0.5641390046
 40
0.6293220442
 40
0.6899219437
 40
0.7460122909
 40
0.7977408205
 40
0.845316892
 40
0.889001109
 40
0.9291066253
 40
1.0
 40
1.0
 40
1.0
 40
1.0
 10
6.8681964168
 20
3.8115058089
 30
0.0
 10
6.8688110113
 20
3.8115058089
 30
0.0
 10
6.8697241587
 20
3.8114709176
 30
0.0
 10
6.8709188493
 20
3.8113539632
 30
0.0
 10
6.8720288466
 20
3.8111997642
 30
0.0
 10
6.8730766721
 20
3.8109887888
 30
0.0
 10
6.8740490247
 20
3.8107202892
 30
0.0
 10
6.8747009486
 20
3.8105051614
 30
0.0
 10
6.8752958844
 20
3.8102730858
 30
0.0
 10
6.8758334481
 20
3.810026511
 30
0.0
 10
6.8763139083
 20
3.8097676098
 30
0.0
 10
6.8767378768
 20
3.809498348
 30
0.0
 10
6.8771064158
 20
3.8092201884
 30
0.0
 10
6.8775082748
 20
3.8088548858
 30
0.0
 10
6.8777572331
 20
3.8085491263
 30
0.0
 10
6.877885388
 20
3.8083358763
 30
0.0
  0
SPLINE
  5
4E2
100
AcDbEntity
  8
0
100
AcDbSpline
 62
7
  6
CONTINUOUS
 70
0
 71
3
 72
19
 73
15
 74
0
 42
0.0000001
 43
0.0000001
 44
0.0000000001
 40
0.0
 40
0.0
 40
0.0
 40
0.0
 40
0.1160790628
 40
0.2337113405
 40
0.2933520847
 40
0.3536263133
 40
0.4146156611
 40
0.476394275
 40
0.6024371623
 40
0.7320765706
 40
0.798228128
 40
0.8650659654
 40
0.9324014817
 40
1.0
 40
1.0
 40
1.0
 40
1.0
 10
6.8778827247
 20
3.8224581204
 30
0.0
 10
6.8777628004
 20
3.8219406353
 30
0.0
 10
6.8774516304
 20
3.8209135185
 30
0.0
 10
6.8768867549
 20
3.8196904679
 30
0.0
 10
6.8763258224
 20
3.8187582984
 30
0.0
 10
6.875846343
 20
3.8180824264
 30
0.0
 10
6.8753093986
 20
3.8174383335
 30
0.0
 10
6.8745115972
 20
3.8166245136
 30
0.0
 10
6.8733663218
 20
3.8157184025
 30
0.0
 10
6.8720587926
 20
3.8150210524
 30
0.0
 10
6.8709275579
 20
3.8146105374
 30
0.0
 10
6.8700379568
 20
3.8143828069
 30
0.0
 10
6.8691237001
 20
3.8142435518
 30
0.0
 10
6.8685057601
 20
3.8142123165
 30
0.0
 10
6.8681964168
 20
3.8142123165
 30
0.0
  0
SPLINE
  5
4E3
100
AcDbEntity
  8
0
100
AcDbSpline
 62
7
  6
CONTINUOUS
 70
0
 71
3
 72
18
 73
14
 74
0
 42
0.0000001
 43
0.0000001
 44
0.0000000001
 40
0.0
 40
0.0
 40
0.0
 40
0.0
 40
0.171300382
 40
0.3348106623
 40
0.4848595428
 40
0.6186060781
 40
0.6791631542
 40
0.7355840983
 40
0.7880320886
 40
0.8367294904
 40
0.8819464508
 40
0.9239999776
 40
1.0
 40
1.0
 40
1.0
 40
1.0
 10
6.8681964168
 20
3.8261005229
 30
0.0
 10
6.8688106058
 20
3.8261005229
 30
0.0
 10
6.8700117624
 20
3.8260476673
 30
0.0
 10
6.8717370824
 20
3.8258159824
 30
0.0
 10
6.8733018587
 20
3.8254533005
 30
0.0
 10
6.8744722844
 20
3.825051517
 30
0.0
 10
6.8752930209
 20
3.8246834838
 30
0.0
 10
6.875830746
 20
3.8243999033
 30
0.0
 10
6.876311432
 20
3.8241021218
 30
0.0
 10
6.8767356845
 20
3.8237923738
 30
0.0
 10
6.877104486
 20
3.8234723927
 30
0.0
 10
6.877509528
 20
3.8230492386
 30
0.0
 10
6.8777561298
 20
3.8226994229
 30
0.0
 10
6.8778827247
 20
3.8224581204
 30
0.0
  0
SPLINE
  5
4E4
100
AcDbEntity
  8
0
100
AcDbSpline
 62
7
  6
CONTINUOUS
 70
0
 71
3
 72
17
 73
13
 74
0
 42
0.0000001
 43
0.0000001
 44
0.0000000001
 40
0.0
 40
0.0
 40
0.0
 40
0.0
 40
0.114204908
 40
0.2303141007
 40
0.3491085261
 40
0.4713576301
 40
0.5976948321
 40
0.7283673713
 40
0.7952845176
 40
0.8630222536
 40
0.9313542905
 40
1.0
 40
1.0
 40
1.0
 40
1.0
 10
6.877885388
 20
3.8368292255
 30
0.0
 10
6.877765728
 20
3.8363282396
 30
0.0
 10
6.8774544277
 20
3.8353331058
 30
0.0
 10
6.8767738436
 20
3.8339073927
 30
0.0
 10
6.8758683652
 20
3.8325675351
 30
0.0
 10
6.8747319769
 20
3.8313517196
 30
0.0
 10
6.8733663503
 20
3.8303081734
 30
0.0
 10
6.8720597546
 20
3.8296351014
 30
0.0
 10
6.87092916
 20
3.8292385554
 30
0.0
 10
6.8700390271
 20
3.8290183212
 30
0.0
 10
6.8691242318
 20
3.8288836571
 30
0.0
 10
6.8685060173
 20
3.8288534552
 30
0.0
 10
6.8681964168
 20
3.8288534552
 30
0.0
  0
SPLINE
  5
4E5
100
AcDbEntity
  8
0
100
AcDbSpline
 62
7
  6
CONTINUOUS
 70
0
 71
3
 72
16
 73
12
 74
0
 42
0.0000001
 43
0.0000001
 44
0.0000000001
 40
0.0
 40
0.0
 40
0.0
 40
0.0
 40
0.1675782884
 40
0.3278765801
 40
0.475639341
 40
0.6083148186
 40
0.7255620046
 40
0.8284736392
 40
0.8751956829
 40
0.9191380425
 40
1.0
 40
1.0
 40
1.0
 40
1.0
 10
6.8681964168
 20
3.8409440979
 30
0.0
 10
6.8688113279
 20
3.8409440979
 30
0.0
 10
6.8700153526
 20
3.8408842137
 30
0.0
 10
6.8717438152
 20
3.8406218149
 30
0.0
 10
6.8733113691
 20
3.8402110222
 30
0.0
 10
6.874674947
 20
3.8396813975
 30
0.0
 10
6.8758158781
 20
3.839061511
 30
0.0
 10
6.8766028729
 20
3.8384710864
 30
0.0
 10
6.8771104955
 20
3.8379727873
 30
0.0
 10
6.8775171627
 20
3.8374917732
 30
0.0
 10
6.8777607328
 20
3.8370984848
 30
0.0
 10
6.877885388
 20
3.8368292255
 30
0.0
  0
SPLINE
  5
4E6
100
AcDbEntity
  8
0
100
AcDbSpline
 62
7
  6
CONTINUOUS
 70
0
 71
3
 72
15
 73
11
 74
0
 42
0.0000001
 43
0.0000001
 44
0.0000000001
 40
0.0
 40
0.0
 40
0.0
 40
0.0
 40
0.1121198412
 40
0.2265489113
 40
0.3442185106
 40
0.4660350224
 40
0.5927297498
 40
0.724566619
 40
0.8609239239
 40
1.0
 40
1.0
 40
1.0
 40
1.0
 10
6.877885388
 20
3.8514001645
 30
0.0
 10
6.8777655576
 20
3.8509175381
 30
0.0
 10
6.8774533512
 20
3.8499581888
 30
0.0
 10
6.8767718597
 20
3.8485860082
 30
0.0
 10
6.8758653086
 20
3.847296767
 30
0.0
 10
6.8747280047
 20
3.8461273967
 30
0.0
 10
6.873361676
 20
3.8451242452
 30
0.0
 10
6.8717836762
 20
3.8443431021
 30
0.0
 10
6.870037981
 20
3.8438425384
 30
0.0
 10
6.8688132548
 20
3.8437276052
 30
0.0
 10
6.8681964168
 20
3.8437276052
 30
0.0
  0
SPLINE
  5
4E7
100
AcDbEntity
  8
0
100
AcDbSpline
 62
7
  6
CONTINUOUS
 70
0
 71
3
 72
15
 73
11
 74
0
 42
0.0000001
 43
0.0000001
 44
0.0000000001
 40
0.0
 40
0.0
 40
0.0
 40
0.0
 40
0.1638205185
 40
0.3209004645
 40
0.4664150414
 40
0.5980965257
 40
0.7157631995
 40
0.8205724302
 40
0.9144877139
 40
1.0
 40
1.0
 40
1.0
 40
1.0
 10
6.8681964168
 20
3.8559712296
 30
0.0
 10
6.86881151
 20
3.8559712296
 30
0.0
 10
6.870017517
 20
3.855904523
 30
0.0
 10
6.8717478869
 20
3.855612347
 30
0.0
 10
6.8733170932
 20
3.855154897
 30
0.0
 10
6.8746818312
 20
3.8545650997
 30
0.0
 10
6.8758235393
 20
3.8538746053
 30
0.0
 10
6.8767391013
 20
3.8531094187
 30
0.0
 10
6.8774322014
 20
3.8522905444
 30
0.0
 10
6.8777618773
 20
3.8516965287
 30
0.0
 10
6.877885388
 20
3.8514001645
 30
0.0
  0
SPLINE
  5
4E8
100
AcDbEntity
  8
0
100
AcDbSpline
 62
7
  6
CONTINUOUS
 70
0
 71
3
 72
15
 73
11
 74
0
 42
0.0000001
 43
0.0000001
 44
0.0000000001
 40
0.0
 40
0.0
 40
0.0
 40
0.0
 40
0.1097619096
 40
0.2222947158
 40
0.3386945416
 40
0.4600125607
 40
0.5870774429
 40
0.7201602021
 40
0.8585039131
 40
1.0
 40
1.0
 40
1.0
 40
1.0
 10
6.877885388
 20
3.8661342149
 30
0.0
 10
6.8777653538
 20
3.8656711981
 30
0.0
 10
6.8774520761
 20
3.8647500819
 30
0.0
 10
6.8767695514
 20
3.8634352087
 30
0.0
 10
6.8758618552
 20
3.8622002005
 30
0.0
 10
6.8747235788
 20
3.8610805779
 30
0.0
 10
6.8733568314
 20
3.8601207226
 30
0.0
 10
6.8717793997
 20
3.8593738586
 30
0.0
 10
6.870035385
 20
3.8588956057
 30
0.0
 10
6.8688130316
 20
3.8587858963
 30
0.0
 10
6.8681964168
 20
3.8587858963
 30
0.0
  0
SPLINE
  5
4E9
100
AcDbEntity
  8
0
100
AcDbSpline
 62
7
  6
CONTINUOUS
 70
0
 71
3
 72
15
 73
11
 74
0
 42
0.0000001
 43
0.0000001
 44
0.0000000001
 40
0.0
 40
0.0
 40
0.0
 40
0.0
 40
0.1601362423
 40
0.3140767129
 40
0.4574265393
 40
0.5881906409
 40
0.7063221223
 40
0.8130050312
 40
0.9101298633
 40
1.0
 40
1.0
 40
1.0
 40
1.0
 10
6.8681964168
 20
3.8711489437
 30
0.0
 10
6.8688117054
 20
3.8711489437
 30
0.0
 10
6.870019833
 20
3.871075547
 30
0.0
 10
6.8717521852
 20
3.8707542151
 30
0.0
 10
6.8733229668
 20
3.870251137
 30
0.0
 10
6.8746886829
 20
3.8696025556
 30
0.0
 10
6.8758306392
 20
3.8688433576
 30
0.0
 10
6.8767455157
 20
3.8680024722
 30
0.0
 10
6.8774369314
 20
3.8671034608
 30
0.0
 10
6.8777627623
 20
3.8664570143
 30
0.0
 10
6.877885388
 20
3.8661342149
 30
0.0
  0
SPLINE
  5
4EA
100
AcDbEntity
  8
0
100
AcDbSpline
 62
7
  6
CONTINUOUS
 70
0
 71
3
 72
18
 73
14
 74
0
 42
0.0000001
 43
0.0000001
 44
0.0000000001
 40
0.0
 40
0.0
 40
0.0
 40
0.0
 40
0.1071143225
 40
0.2175247302
 40
0.3325060644
 40
0.3921421084
 40
0.4533586389
 40
0.5808069495
 40
0.7152155052
 40
0.784866538
 40
0.855799702
 40
0.9276569282
 40
1.0
 40
1.0
 40
1.0
 40
1.0
 10
6.877885388
 20
3.8809909915
 30
0.0
 10
6.877765109
 20
3.8805487739
 30
0.0
 10
6.8774505386
 20
3.8796682097
 30
0.0
 10
6.8767669514
 20
3.8784143854
 30
0.0
 10
6.8760181922
 20
3.8774446662
 30
0.0
 10
6.875310377
 20
3.8767242947
 30
0.0
 10
6.8745062872
 20
3.8760284211
 30
0.0
 10
6.8733516978
 20
3.8752564454
 30
0.0
 10
6.8720521079
 20
3.87467091
 30
0.0
 10
6.8709265013
 20
3.8743245436
 30
0.0
 10
6.8700371217
 20
3.8741315212
 30
0.0
 10
6.8691232181
 20
3.874013509
 30
0.0
 10
6.8685059329
 20
3.8739870549
 30
0.0
 10
6.8681964168
 20
3.8739870549
 30
0.0
  0
SPLINE
  5
4EB
100
AcDbEntity
  8
0
100
AcDbSpline
 62
7
  6
CONTINUOUS
 70
0
 71
3
 72
15
 73
11
 74
0
 42
0.0000001
 43
0.0000001
 44
0.0000000001
 40
0.0
 40
0.0
 40
0.0
 40
0.0
 40
0.1565821996
 40
0.3075110645
 40
0.4488142393
 40
0.5787533662
 40
0.6973906595
 40
0.8059031622
 40
0.9060741282
 40
1.0
 40
1.0
 40
1.0
 40
1.0
 10
6.8681964168
 20
3.886435639
 30
0.0
 10
6.868811912
 20
3.886435639
 30
0.0
 10
6.870022275
 20
3.886355702
 30
0.0
 10
6.8717566465
 20
3.8860059231
 30
0.0
 10
6.8733289032
 20
3.8854583916
 30
0.0
 10
6.8746953491
 20
3.8847526622
 30
0.0
 10
6.8758372123
 20
3.8839268656
 30
0.0
 10
6.8767511094
 20
3.8830128351
 30
0.0
 10
6.8774407957
 20
3.8820365752
 30
0.0
 10
6.8777634564
 20
3.8813394811
 30
0.0
 10
6.877885388
 20
3.8809909915
 30
0.0
  0
SPLINE
  5
4EC
100
AcDbEntity
  8
0
100
AcDbSpline
 62
7
  6
CONTINUOUS
 70
0
 71
3
 72
17
 73
13
 74
0
 42
0.0000001
 43
0.0000001
 44
0.0000000001
 40
0.0
 40
0.0
 40
0.0
 40
0.0
 40
0.1042551642
 40
0.2124064736
 40
0.3259214055
 40
0.3851713832
 40
0.4462525835
 40
0.5742139328
 40
0.7101480108
 40
0.7808894015
 40
0.8530856579
 40
1.0
 40
1.0
 40
1.0
 40
1.0
 10
6.877885388
 20
3.895929773
 30
0.0
 10
6.8777648129
 20
3.895509479
 30
0.0
 10
6.8774487309
 20
3.8946717158
 30
0.0
 10
6.8767638361
 20
3.8934823518
 30
0.0
 10
6.8760156831
 20
3.8925649735
 30
0.0
 10
6.8753091672
 20
3.8918834861
 30
0.0
 10
6.8745032179
 20
3.8912224476
 30
0.0
 10
6.873346254
 20
3.890490111
 30
0.0
 10
6.8720494199
 20
3.8899369131
 30
0.0
 10
6.8709255036
 20
3.8896091546
 30
0.0
 10
6.8697338599
 20
3.8893639785
 30
0.0
 10
6.8688125774
 20
3.8892894157
 30
0.0
 10
6.8681964168
 20
3.8892894157
 30
0.0
  0
SPLINE
  5
4ED
100
AcDbEntity
  8
0
100
AcDbSpline
 62
7
  6
CONTINUOUS
 70
0
 71
3
 72
15
 73
11
 74
0
 42
0.0000001
 43
0.0000001
 44
0.0000000001
 40
0.0
 40
0.0
 40
0.0
 40
0.0
 40
0.1531870829
 40
0.3012550047
 40
0.4406416224
 40
0.569846496
 40
0.6890156833
 40
0.7992909107
 40
0.9023247293
 40
1.0
 40
1.0
 40
1.0
 40
1.0
 10
6.8681964168
 20
3.9017894157
 30
0.0
 10
6.8688121274
 20
3.9017894157
 30
0.0
 10
6.8700248154
 20
3.9017031071
 30
0.0
 10
6.8717612114
 20
3.9013256782
 30
0.0
 10
6.8733348141
 20
3.9007350222
 30
0.0
 10
6.8747017405
 20
3.8999739967
 30
0.0
 10
6.8758432242
 20
3.8990839508
 30
0.0
 10
6.8767559578
 20
3.8980995407
 30
0.0
 10
6.8774439664
 20
3.8970490436
 30
0.0
 10
6.8777640081
 20
3.8963031277
 30
0.0
 10
6.877885388
 20
3.895929773
 30
0.0
  0
SPLINE
  5
4EE
100
AcDbEntity
  8
0
100
AcDbSpline
 62
7
  6
CONTINUOUS
 70
0
 71
3
 72
18
 73
14
 74
0
 42
0.0000001
 43
0.0000001
 44
0.0000000001
 40
0.0
 40
0.0
 40
0.0
 40
0.0
 40
0.1010999707
 40
0.1533079137
 40
0.2068751339
 40
0.3188112472
 40
0.4385018362
 40
0.5016685572
 40
0.567124658
 40
0.6348641905
 40
0.7047874525
 40
0.8500993315
 40
1.0
 40
1.0
 40
1.0
 40
1.0
 10
6.8778827247
 20
3.9109096131
 30
0.0
 10
6.8777613733
 20
3.9105127118
 30
0.0
 10
6.8775249922
 20
3.909925248
 30
0.0
 10
6.8771124201
 20
3.9091821622
 30
0.0
 10
6.8766149582
 20
3.9084384837
 30
0.0
 10
6.8758439443
 20
3.9075500656
 30
0.0
 10
6.8749099312
 20
3.9067720342
 30
0.0
 10
6.8740555566
 20
3.9062144526
 30
0.0
 10
6.8733473488
 20
3.9058276188
 30
0.0
 10
6.8725859308
 20
3.9054856143
 30
0.0
 10
6.8714917138
 20
3.9050925233
 30
0.0
 10
6.8700256498
 20
3.9047518877
 30
0.0
 10
6.868811793
 20
3.9046596131
 30
0.0
 10
6.8681964168
 20
3.9046596131
 30
0.0
  0
SPLINE
  5
4EF
100
AcDbEntity
  8
0
100
AcDbSpline
 62
7
  6
CONTINUOUS
 70
0
 71
3
 72
18
 73
14
 74
0
 42
0.0000001
 43
0.0000001
 44
0.0000000001
 40
0.0
 40
0.0
 40
0.0
 40
0.0
 40
0.1499001714
 40
0.2952118885
 40
0.3651349506
 40
0.4328746728
 40
0.4983307801
 40
0.5614974735
 40
0.6811882062
 40
0.7931245493
 40
0.8466919485
 40
0.8988999723
 40
1.0
 40
1.0
 40
1.0
 40
1.0
 10
6.8681964168
 20
3.9171596131
 30
0.0
 10
6.8688117909
 20
3.9171596131
 30
0.0
 10
6.870025645
 20
3.917067339
 30
0.0
 10
6.8714917058
 20
3.916726705
 30
0.0
 10
6.8725859226
 20
3.9163336155
 30
0.0
 10
6.8733473407
 20
3.9159916114
 30
0.0
 10
6.8740555496
 20
3.9156047781
 30
0.0
 10
6.8749099248
 20
3.9150471966
 30
0.0
 10
6.8758439399
 20
3.9142691654
 30
0.0
 10
6.8766149557
 20
3.9133807459
 30
0.0
 10
6.8771124192
 20
3.9126370659
 30
0.0
 10
6.8775249919
 20
3.9118939789
 30
0.0
 10
6.8777613733
 20
3.9113065146
 30
0.0
 10
6.8778827247
 20
3.9109096131
 30
0.0
  0
SPLINE
  5
4F0
100
AcDbEntity
  8
0
100
AcDbSpline
 62
7
  6
CONTINUOUS
 70
0
 71
3
 72
15
 73
11
 74
0
 42
0.0000001
 43
0.0000001
 44
0.0000000001
 40
0.0
 40
0.0
 40
0.0
 40
0.0
 40
0.0976752157
 40
0.2007087792
 40
0.3109837768
 40
0.4301528121
 40
0.5593576991
 40
0.6987443268
 40
0.8468124101
 40
1.0
 40
1.0
 40
1.0
 40
1.0
 10
6.877885388
 20
3.9258894533
 30
0.0
 10
6.8777640082
 20
3.9255160988
 30
0.0
 10
6.877443967
 20
3.9247701841
 30
0.0
 10
6.8767559599
 20
3.9237196885
 30
0.0
 10
6.8758432287
 20
3.9227352798
 30
0.0
 10
6.8747017471
 20
3.9218452337
 30
0.0
 10
6.8733348216
 20
3.9210842075
 30
0.0
 10
6.8717612186
 20
3.9204935501
 30
0.0
 10
6.8700248202
 20
3.9201161195
 30
0.0
 10
6.8688121295
 20
3.9200298105
 30
0.0
 10
6.8681964168
 20
3.9200298105
 30
0.0
  0
SPLINE
  5
4F1
100
AcDbEntity
  8
0
100
AcDbSpline
 62
7
  6
CONTINUOUS
 70
0
 71
3
 72
17
 73
13
 74
0
 42
0.0000001
 43
0.0000001
 44
0.0000000001
 40
0.0
 40
0.0
 40
0.0
 40
0.0
 40
0.1469138551
 40
0.2191100017
 40
0.2898513409
 40
0.4257854002
 40
0.5537467254
 40
0.6148280109
 40
0.6740780439
 40
0.7875932039
 40
0.8957447773
 40
1.0
 40
1.0
 40
1.0
 40
1.0
 10
6.8681964168
 20
3.9325298105
 30
0.0
 10
6.8688125753
 20
3.9325298105
 30
0.0
 10
6.8697338554
 20
3.9324552481
 30
0.0
 10
6.8709254965
 20
3.9322100733
 30
0.0
 10
6.8720494124
 20
3.9318823159
 30
0.0
 10
6.8733462466
 20
3.9313291192
 30
0.0
 10
6.874503211
 20
3.9305967833
 30
0.0
 10
6.8753091615
 20
3.9299357454
 30
0.0
 10
6.876015679
 20
3.9292542574
 30
0.0
 10
6.876763834
 20
3.9283368778
 30
0.0
 10
6.8774487303
 20
3.927147512
 30
0.0
 10
6.8777648128
 20
3.9263097474
 30
0.0
 10
6.877885388
 20
3.9258894533
 30
0.0
  0
SPLINE
  5
4F2
100
AcDbEntity
  8
0
100
AcDbSpline
 62
7
  6
CONTINUOUS
 70
0
 71
3
 72
15
 73
11
 74
0
 42
0.0000001
 43
0.0000001
 44
0.0000000001
 40
0.0
 40
0.0
 40
0.0
 40
0.0
 40
0.0939258186
 40
0.1940965346
 40
0.3026088063
 40
0.4212459409
 40
0.5511850752
 40
0.6924882555
 40
0.8434172823
 40
1.0
 40
1.0
 40
1.0
 40
1.0
 10
6.877885388
 20
3.9408282347
 30
0.0
 10
6.8777634565
 20
3.9404797454
 30
0.0
 10
6.8774407963
 20
3.9397826524
 30
0.0
 10
6.8767511116
 20
3.9388063939
 30
0.0
 10
6.8758372168
 20
3.9378923647
 30
0.0
 10
6.8746953557
 20
3.9370665679
 30
0.0
 10
6.8733289107
 20
3.9363608379
 30
0.0
 10
6.8717566537
 20
3.935813305
 30
0.0
 10
6.8700222798
 20
3.9354635246
 30
0.0
 10
6.868811914
 20
3.9353835873
 30
0.0
 10
6.8681964168
 20
3.9353835873
 30
0.0
  0
SPLINE
  5
4F3
100
AcDbEntity
  8
0
100
AcDbSpline
 62
7
  6
CONTINUOUS
 70
0
 71
3
 72
18
 73
14
 74
0
 42
0.0000001
 43
0.0000001
 44
0.0000000001
 40
0.0
 40
0.0
 40
0.0
 40
0.0
 40
0.0723429235
 40
0.1441998193
 40
0.2151328746
 40
0.2847838551
 40
0.4191923883
 40
0.54664067
 40
0.6078572827
 40
0.6674933798
 40
0.7824749416
 40
0.8928856175
 40
1.0
 40
1.0
 40
1.0
 40
1.0
 10
6.8681964168
 20
3.9478321713
 30
0.0
 10
6.8685059323
 20
3.9478321713
 30
0.0
 10
6.8691232154
 20
3.9478057174
 30
0.0
 10
6.8700371165
 20
3.9476877057
 30
0.0
 10
6.8709264942
 20
3.9474946844
 30
0.0
 10
6.8720521003
 20
3.9471483191
 30
0.0
 10
6.8733516904
 20
3.946562785
 30
0.0
 10
6.8745062803
 20
3.9457908101
 30
0.0
 10
6.8753103713
 20
3.9450949371
 30
0.0
 10
6.8760181881
 20
3.944374565
 30
0.0
 10
6.8767669493
 20
3.9434048444
 30
0.0
 10
6.877450538
 20
3.9421510182
 30
0.0
 10
6.8777651089
 20
3.9412704526
 30
0.0
 10
6.877885388
 20
3.9408282347
 30
0.0
  0
SPLINE
  5
4F4
100
AcDbEntity
  8
0
100
AcDbSpline
 62
7
  6
CONTINUOUS
 70
0
 71
3
 72
15
 73
11
 74
0
 42
0.0000001
 43
0.0000001
 44
0.0000000001
 40
0.0
 40
0.0
 40
0.0
 40
0.0
 40
0.0898700857
 40
0.1869946728
 40
0.2936773494
 40
0.4118086648
 40
0.5425727678
 40
0.6859225952
 40
0.8398632283
 40
1.0
 40
1.0
 40
1.0
 40
1.0
 10
6.877885388
 20
3.9556850113
 30
0.0
 10
6.8777627624
 20
3.9553622121
 30
0.0
 10
6.877436932
 20
3.9547157667
 30
0.0
 10
6.8767455179
 20
3.9538167566
 30
0.0
 10
6.8758306437
 20
3.9529758724
 30
0.0
 10
6.8746886894
 20
3.9522166742
 30
0.0
 10
6.8733229743
 20
3.9515680922
 30
0.0
 10
6.8717521924
 20
3.9510650129
 30
0.0
 10
6.8700198377
 20
3.9507436795
 30
0.0
 10
6.8688117075
 20
3.9506702826
 30
0.0
 10
6.8681964168
 20
3.9506702826
 30
0.0
  0
SPLINE
  5
4F5
100
AcDbEntity
  8
0
100
AcDbSpline
 62
7
  6
CONTINUOUS
 70
0
 71
3
 72
15
 73
11
 74
0
 42
0.0000001
 43
0.0000001
 44
0.0000000001
 40
0.0
 40
0.0
 40
0.0
 40
0.0
 40
0.1414956173
 40
0.2798391676
 40
0.4129219003
 40
0.539986749
 40
0.6613048979
 40
0.777704951
 40
0.890238029
 40
1.0
 40
1.0
 40
1.0
 40
1.0
 10
6.8681964168
 20
3.9630333299
 30
0.0
 10
6.8688130295
 20
3.9630333299
 30
0.0
 10
6.8700353802
 20
3.962923621
 30
0.0
 10
6.8717793925
 20
3.9624453702
 30
0.0
 10
6.8733568239
 20
3.961698508
 30
0.0
 10
6.8747235723
 20
3.9607386536
 30
0.0
 10
6.8758618508
 20
3.9596190312
 30
0.0
 10
6.8767695493
 20
3.9583840211
 30
0.0
 10
6.8774520756
 20
3.957069146
 30
0.0
 10
6.8777653538
 20
3.9561480284
 30
0.0
 10
6.877885388
 20
3.9556850113
 30
0.0
  0
SPLINE
  5
4F6
100
AcDbEntity
  8
0
100
AcDbSpline
 62
7
  6
CONTINUOUS
 70
0
 71
3
 72
15
 73
11
 74
0
 42
0.0000001
 43
0.0000001
 44
0.0000000001
 40
0.0
 40
0.0
 40
0.0
 40
0.0
 40
0.0855122372
 40
0.1794272813
 40
0.284236278
 40
0.401902778
 40
0.5335842578
 40
0.679098831
 40
0.8361789402
 40
1.0
 40
1.0
 40
1.0
 40
1.0
 10
6.877885388
 20
3.9704190617
 30
0.0
 10
6.8777618774
 20
3.9701226977
 30
0.0
 10
6.877432202
 20
3.969528683
 30
0.0
 10
6.8767391036
 20
3.9687098099
 30
0.0
 10
6.8758235439
 20
3.9679446244
 30
0.0
 10
6.8746818377
 20
3.9672541297
 30
0.0
 10
6.8733171007
 20
3.966664332
 30
0.0
 10
6.871747894
 20
3.9662068808
 30
0.0
 10
6.8700175217
 20
3.9659147035
 30
0.0
 10
6.868811512
 20
3.9658479966
 30
0.0
 10
6.8681964168
 20
3.9658479966
 30
0.0
  0
SPLINE
  5
4F7
100
AcDbEntity
  8
0
100
AcDbSpline
 62
7
  6
CONTINUOUS
 70
0
 71
3
 72
15
 73
11
 74
0
 42
0.0000001
 43
0.0000001
 44
0.0000000001
 40
0.0
 40
0.0
 40
0.0
 40
0.0
 40
0.1390756141
 40
0.2754327583
 40
0.4072695974
 40
0.5339642871
 40
0.6557809244
 40
0.7734507507
 40
0.8878800962
 40
1.0
 40
1.0
 40
1.0
 40
1.0
 10
6.8681964168
 20
3.9780916211
 30
0.0
 10
6.8688132528
 20
3.9780916211
 30
0.0
 10
6.8700379761
 20
3.9779766884
 30
0.0
 10
6.8717836689
 20
3.9774761269
 30
0.0
 10
6.8733616685
 20
3.9766949856
 30
0.0
 10
6.8747279982
 20
3.975691835
 30
0.0
 10
6.8758653043
 20
3.9745224649
 30
0.0
 10
6.8767718576
 20
3.9732332218
 30
0.0
 10
6.8774533507
 20
3.9718610391
 30
0.0
 10
6.8777655575
 20
3.9709016884
 30
0.0
 10
6.877885388
 20
3.9704190617
 30
0.0
  0
SPLINE
  5
4F8
100
AcDbEntity
  8
0
100
AcDbSpline
 62
7
  6
CONTINUOUS
 70
0
 71
3
 72
16
 73
12
 74
0
 42
0.0000001
 43
0.0000001
 44
0.0000000001
 40
0.0
 40
0.0
 40
0.0
 40
0.0
 40
0.0808619111
 40
0.1248042002
 40
0.1715260791
 40
0.2744374779
 40
0.3916844822
 40
0.5243599491
 40
0.6721227019
 40
0.8324211579
 40
1.0
 40
1.0
 40
1.0
 40
1.0
 10
6.877885388
 20
3.9849900008
 30
0.0
 10
6.8777607328
 20
3.9847207416
 30
0.0
 10
6.8775171631
 20
3.9843274535
 30
0.0
 10
6.8771104965
 20
3.9838464402
 30
0.0
 10
6.8766028754
 20
3.983348142
 30
0.0
 10
6.8758158826
 20
3.9827577184
 30
0.0
 10
6.8746749535
 20
3.9821378316
 30
0.0
 10
6.8733113765
 20
3.9816082065
 30
0.0
 10
6.8717438224
 20
3.9811974127
 30
0.0
 10
6.8700153573
 20
3.9809350128
 30
0.0
 10
6.8688113299
 20
3.9808751284
 30
0.0
 10
6.8681964168
 20
3.9808751284
 30
0.0
  0
SPLINE
  5
4F9
100
AcDbEntity
  8
0
100
AcDbSpline
 62
7
  6
CONTINUOUS
 70
0
 71
3
 72
17
 73
13
 74
0
 42
0.0000001
 43
0.0000001
 44
0.0000000001
 40
0.0
 40
0.0
 40
0.0
 40
0.0
 40
0.0686455687
 40
0.1369772908
 40
0.2047149201
 40
0.271632012
 40
0.4023045181
 40
0.5286416787
 40
0.6508909044
 40
0.7696855568
 40
0.8857950282
 40
1.0
 40
1.0
 40
1.0
 40
1.0
 10
6.8681964168
 20
3.992965771
 30
0.0
 10
6.8685060166
 20
3.992965771
 30
0.0
 10
6.8691242291
 20
3.9929355694
 30
0.0
 10
6.8700390219
 20
3.9928009059
 30
0.0
 10
6.8709291529
 20
3.9925806729
 30
0.0
 10
6.872059747
 20
3.9921841282
 30
0.0
 10
6.8733663428
 20
3.9915110577
 30
0.0
 10
6.8747319703
 20
3.9904675124
 30
0.0
 10
6.8758683608
 20
3.989251697
 30
0.0
 10
6.8767738415
 20
3.9879118374
 30
0.0
 10
6.8774544272
 20
3.9864861222
 30
0.0
 10
6.8777657279
 20
3.9854909869
 30
0.0
 10
6.877885388
 20
3.9849900008
 30
0.0
  0
SPLINE
  5
4FA
100
AcDbEntity
  8
0
100
AcDbSpline
 62
7
  6
CONTINUOUS
 70
0
 71
3
 72
18
 73
14
 74
0
 42
0.0000001
 43
0.0000001
 44
0.0000000001
 40
0.0
 40
0.0
 40
0.0
 40
0.0
 40
0.0759999784
 40
0.1180534373
 40
0.1632702362
 40
0.2119674912
 40
0.264415391
 40
0.3208362584
 40
0.3813932215
 40
0.5151397404
 40
0.665188609
 40
0.8286990541
 40
1.0
 40
1.0
 40
1.0
 40
1.0
 10
6.8778827247
 20
3.9993611058
 30
0.0
 10
6.8777561299
 20
3.9991198035
 30
0.0
 10
6.8775095283
 20
3.9987699881
 30
0.0
 10
6.8771044871
 20
3.9983468346
 30
0.0
 10
6.8767356867
 20
3.9980268543
 30
0.0
 10
6.8763114356
 20
3.9977171069
 30
0.0
 10
6.8758307507
 20
3.9974193257
 30
0.0
 10
6.8752930267
 20
3.9971357453
 30
0.0
 10
6.8744722912
 20
3.9967677118
 30
0.0
 10
6.8733018661
 20
3.9963659279
 30
0.0
 10
6.8717370895
 20
3.9960032451
 30
0.0
 10
6.870011767
 20
3.9957715592
 30
0.0
 10
6.8688106078
 20
3.9957187033
 30
0.0
 10
6.8681964168
 20
3.9957187033
 30
0.0
  0
SPLINE
  5
4FB
100
AcDbEntity
  8
0
100
AcDbSpline
 62
7
  6
CONTINUOUS
 70
0
 71
3
 72
19
 73
15
 74
0
 42
0.0000001
 43
0.0000001
 44
0.0000000001
 40
0.0
 40
0.0
 40
0.0
 40
0.0
 40
0.0675983801
 40
0.1349335866
 40
0.2017713183
 40
0.2679228209
 40
0.3975621925
 40
0.5236050348
 40
0.5853837212
 40
0.6463731153
 40
0.7066474197
 40
0.7662883141
 40
0.8839208724
 40
1.0
 40
1.0
 40
1.0
 40
1.0
 10
6.8681964168
 20
4.0076069098
 30
0.0
 10
6.8685057595
 20
4.0076069098
 30
0.0
 10
6.8691236974
 20
4.0075756747
 30
0.0
 10
6.8700379516
 20
4.0074364202
 30
0.0
 10
6.8709275508
 20
4.007208691
 30
0.0
 10
6.872058785
 20
4.0067981773
 30
0.0
 10
6.8733663144
 20
4.0061008287
 30
0.0
 10
6.8745115903
 20
4.0051947184
 30
0.0
 10
6.8753093929
 20
4.0043808992
 30
0.0
 10
6.8758463384
 20
4.003736806
 30
0.0
 10
6.8763258189
 20
4.0030609332
 30
0.0
 10
6.8768867531
 20
4.0021287621
 30
0.0
 10
6.8774516298
 20
4.0009057095
 30
0.0
 10
6.8777628004
 20
3.9998785912
 30
0.0
 10
6.8778827247
 20
3.9993611058
 30
0.0
  0
SPLINE
  5
4FC
100
AcDbEntity
  8
0
100
AcDbSpline
 62
7
  6
CONTINUOUS
 70
0
 71
3
 72
20
 73
16
 74
0
 42
0.0000001
 43
0.0000001
 44
0.0000000001
 40
0.0
 40
0.0
 40
0.0
 40
0.0
 40
0.0708933332
 40
0.110998784
 40
0.1546828419
 40
0.2022587657
 40
0.2539872022
 40
0.3100774691
 40
0.3706772508
 40
0.4358603024
 40
0.5056055748
 40
0.6580221389
 40
0.7399590328
 40
0.8248729945
 40
1.0
 40
1.0
 40
1.0
 40
1.0
 10
6.877885388
 20
4.01348335
 30
0.0
 10
6.8777572332
 20
4.0132701001
 30
0.0
 10
6.8775082751
 20
4.0129643408
 30
0.0
 10
6.8771064169
 20
4.0125990389
 30
0.0
 10
6.8767378791
 20
4.0123208798
 30
0.0
 10
6.876313912
 20
4.0120516185
 30
0.0
 10
6.8758334528
 20
4.0117927177
 30
0.0
 10
6.8752958902
 20
4.011546143
 30
0.0
 10
6.8747009552
 20
4.0113140671
 30
0.0
 10
6.8740490318
 20
4.0110989393
 30
0.0
 10
6.8730766795
 20
4.0108304391
 30
0.0
 10
6.8720288541
 20
4.0106194634
 30
0.0
 10
6.8709188564
 20
4.0104652638
 30
0.0
 10
6.8697241632
 20
4.0103483088
 30
0.0
 10
6.8688110134
 20
4.0103134173
 30
0.0
 10
6.8681964168
 20
4.0103134173
 30
0.0
  0
SPLINE
  5
4FD
100
AcDbEntity
  8
0
100
AcDbSpline
 62
7
  6
CONTINUOUS
 70
0
 71
3
 72
21
 73
17
 74
0
 42
0.0000001
 43
0.0000001
 44
0.0000000001
 40
0.0
 40
0.0
 40
0.0
 40
0.0
 40
0.0666560172
 40
0.1330945871
 40
0.1991228331
 40
0.26458584
 40
0.3293771061
 40
0.3934380233
 40
0.4567511309
 40
0.5193319719
 40
0.5812193505
 40
0.6424665753
 40
0.7031351878
 40
0.763292747
 40
0.882268
 40
1.0
 40
1.0
 40
1.0
 40
1.0
 10
6.8681964168
 20
4.0219991876
 30
0.0
 10
6.8685060682
 20
4.0219991876
 30
0.0
 10
6.8691248448
 20
4.0219668934
 30
0.0
 10
6.8700401849
 20
4.0218229199
 30
0.0
 10
6.8709306901
 20
4.0215875513
 30
0.0
 10
6.8717859076
 20
4.02126701
 30
0.0
 10
6.8725976259
 20
4.0208689299
 30
0.0
 10
6.873359736
 20
4.0204016152
 30
0.0
 10
6.8740681022
 20
4.0198734425
 30
0.0
 10
6.8747202182
 20
4.0192924332
 30
0.0
 10
6.8753148405
 20
4.0186659972
 30
0.0
 10
6.8758516296
 20
4.0180008419
 30
0.0
 10
6.8763309025
 20
4.0173028939
 30
0.0
 10
6.8768919322
 20
4.0163394794
 30
0.0
 10
6.8774561696
 20
4.0150759338
 30
0.0
 10
6.8777659909
 20
4.014017084
 30
0.0
 10
6.877885388
 20
4.01348335
 30
0.0
  0
SPLINE
  5
4FE
100
AcDbEntity
  8
0
100
AcDbSpline
 62
7
  6
CONTINUOUS
 70
0
 71
3
 72
21
 73
17
 74
0
 42
0.0000001
 43
0.0000001
 44
0.0000000001
 40
0.0
 40
0.0
 40
0.0
 40
0.0
 40
0.0313234404
 40
0.0658771701
 40
0.1040858688
 40
0.1463104787
 40
0.192845739
 40
0.2439315845
 40
0.299756207
 40
0.3604461804
 40
0.4260535471
 40
0.4965338719
 40
0.6512512836
 40
0.7346758584
 40
0.8212482674
 40
1.0
 40
1.0
 40
1.0
 40
1.0
 10
6.877885388
 20
4.0273276618
 30
0.0
 10
6.8778230627
 20
4.0272398577
 30
0.0
 10
6.877678109
 20
4.0270648459
 30
0.0
 10
6.8774177465
 20
4.026818444
 30
0.0
 10
6.8771038766
 20
4.0265771908
 30
0.0
 10
6.8767355632
 20
4.0263421396
 30
0.0
 10
6.8763117415
 20
4.0261144396
 30
0.0
 10
6.8758314925
 20
4.0258954967
 30
0.0
 10
6.8752941337
 20
4.0256869303
 30
0.0
 10
6.8746994035
 20
4.025490604
 30
0.0
 10
6.8740476816
 20
4.0253085929
 30
0.0
 10
6.8730740221
 20
4.025081048
 30
0.0
 10
6.8720269946
 20
4.0249027668
 30
0.0
 10
6.8709182691
 20
4.0247723851
 30
0.0
 10
6.8697233419
 20
4.0246733771
 30
0.0
 10
6.8688108824
 20
4.0246438863
 30
0.0
 10
6.8681964168
 20
4.0246438863
 30
0.0
  0
SPLINE
  5
4FF
100
AcDbEntity
  8
0
100
AcDbSpline
 62
7
  6
CONTINUOUS
 70
0
 71
3
 72
18
 73
14
 74
0
 42
0.0000001
 43
0.0000001
 44
0.0000000001
 40
0.0
 40
0.0
 40
0.0
 40
0.0
 40
0.0658447428
 40
0.1315139815
 40
0.1968526474
 40
0.2617364062
 40
0.3260804585
 40
0.3898389159
 40
0.5154541647
 40
0.6388931895
 40
0.7605175011
 40
0.8807474619
 40
1.0
 40
1.0
 40
1.0
 40
1.0
 10
6.8681964168
 20
4.0360788757
 30
0.0
 10
6.8685060918
 20
4.0360788757
 30
0.0
 10
6.869125127
 20
4.0360456653
 30
0.0
 10
6.8700407064
 20
4.0358976291
 30
0.0
 10
6.8709314007
 20
4.0356556317
 30
0.0
 10
6.8717867224
 20
4.0353261074
 30
0.0
 10
6.8725985212
 20
4.034916857
 30
0.0
 10
6.8736092995
 20
4.0342798676
 30
0.0
 10
6.8747418825
 20
4.0333279052
 30
0.0
 10
6.8758753372
 20
4.0319938861
 30
0.0
 10
6.8767782784
 20
4.0305248937
 30
0.0
 10
6.8774567483
 20
4.0289624823
 30
0.0
 10
6.8777660917
 20
4.0278756852
 30
0.0
 10
6.877885388
 20
4.0273276618
 30
0.0
  0
SPLINE
  5
500
100
AcDbEntity
  8
0
100
AcDbSpline
 62
7
  6
CONTINUOUS
 70
0
 71
3
 72
20
 73
16
 74
0
 42
0.0000001
 43
0.0000001
 44
0.0000000001
 40
0.0
 40
0.0
 40
0.0
 40
0.0
 40
0.0285561339
 40
0.06084386
 40
0.0972636202
 40
0.1381432828
 40
0.1837449104
 40
0.2342785273
 40
0.289905573
 40
0.3507283741
 40
0.4167758999
 40
0.4879803073
 40
0.6449006799
 40
0.8178484165
 40
1.0
 40
1.0
 40
1.0
 40
1.0
 10
6.877885388
 20
4.0408528799
 30
0.0
 10
6.8778221812
 20
4.0407802084
 30
0.0
 10
6.8776752154
 20
4.0406359149
 30
0.0
 10
6.8774149081
 20
4.0404353581
 30
0.0
 10
6.8771012373
 20
4.0402389233
 30
0.0
 10
6.8767331854
 20
4.0400474606
 30
0.0
 10
6.8763096342
 20
4.0398619121
 30
0.0
 10
6.8758296437
 20
4.0396834437
 30
0.0
 10
6.8752925229
 20
4.0395133922
 30
0.0
 10
6.8746980093
 20
4.0393532918
 30
0.0
 10
6.8740464895
 20
4.0392048458
 30
0.0
 10
6.8730717016
 20
4.0390189845
 30
0.0
 10
6.8717308632
 20
4.0388328683
 30
0.0
 10
6.8700087129
 20
4.0386942195
 30
0.0
 10
6.8688107718
 20
4.0386626175
 30
0.0
 10
6.8681964168
 20
4.0386626175
 30
0.0
  0
SPLINE
  5
501
100
AcDbEntity
  8
0
100
AcDbSpline
 62
7
  6
CONTINUOUS
 70
0
 71
3
 72
18
 73
14
 74
0
 42
0.0000001
 43
0.0000001
 44
0.0000000001
 40
0.0
 40
0.0
 40
0.0
 40
0.0
 40
0.0651099252
 40
0.1300820751
 40
0.1947952751
 40
0.2591524055
 40
0.3230877198
 40
0.3865661906
 40
0.5120157511
 40
0.6357836125
 40
0.7581531682
 40
0.8794509226
 40
1.0
 40
1.0
 40
1.0
 40
1.0
 10
6.8681964168
 20
4.0498154836
 30
0.0
 10
6.8685061135
 20
4.0498154836
 30
0.0
 10
6.8691253868
 20
4.0497814488
 30
0.0
 10
6.8700411854
 20
4.0496297578
 30
0.0
 10
6.8709320473
 20
4.0493818029
 30
0.0
 10
6.8717874679
 20
4.0490441952
 30
0.0
 10
6.8725993001
 20
4.048624946
 30
0.0
 10
6.8736110769
 20
4.0479717841
 30
0.0
 10
6.8747443816
 20
4.0469954862
 30
0.0
 10
6.8758770779
 20
4.0456293131
 30
0.0
 10
6.8767793397
 20
4.0441252036
 30
0.0
 10
6.8774572925
 20
4.042525564
 30
0.0
 10
6.877766176
 20
4.0414137446
 30
0.0
 10
6.877885388
 20
4.0408528799
 30
0.0
  0
SPLINE
  5
502
100
AcDbEntity
  8
0
100
AcDbSpline
 62
7
  6
CONTINUOUS
 70
0
 71
3
 72
19
 73
15
 74
0
 42
0.0000001
 43
0.0000001
 44
0.0000000001
 40
0.0
 40
0.0
 40
0.0
 40
0.0
 40
0.0259438901
 40
0.0561554074
 40
0.0909767885
 40
0.1306821026
 40
0.1754890376
 40
0.2255716219
 40
0.2810618293
 40
0.3420370696
 40
0.480359237
 40
0.639257523
 40
0.8148455248
 40
1.0
 40
1.0
 40
1.0
 40
1.0
 10
6.877885388
 20
4.0540219324
 30
0.0
 10
6.8778210142
 20
4.0539647989
 30
0.0
 10
6.8776717865
 20
4.0538522078
 30
0.0
 10
6.8774118504
 20
4.0536980243
 30
0.0
 10
6.8770985893
 20
4.053546849
 30
0.0
 10
6.8767309242
 20
4.0533993775
 30
0.0
 10
6.8763077097
 20
4.0532563744
 30
0.0
 10
6.8758280065
 20
4.0531187735
 30
0.0
 10
6.8752911307
 20
4.0529876129
 30
0.0
 10
6.8744633825
 20
4.0528156585
 30
0.0
 10
6.8732889824
 20
4.0526295995
 30
0.0
 10
6.8717287886
 20
4.0524624178
 30
0.0
 10
6.8700076285
 20
4.0523555567
 30
0.0
 10
6.8688106826
 20
4.0523311865
 30
0.0
 10
6.8681964168
 20
4.0523311865
 30
0.0
  0
SPLINE
  5
503
100
AcDbEntity
  8
0
100
AcDbSpline
 62
7
  6
CONTINUOUS
 70
0
 71
3
 72
18
 73
14
 74
0
 42
0.0000001
 43
0.0000001
 44
0.0000000001
 40
0.0
 40
0.0
 40
0.0
 40
0.0
 40
0.0644698794
 40
0.1288353164
 40
0.1930049939
 40
0.2569055987
 40
0.3204878524
 40
0.3837258684
 40
0.5090377376
 40
0.6330955798
 40
0.7561127321
 40
0.8783334809
 40
1.0
 40
1.0
 40
1.0
 40
1.0
 10
6.8681964168
 20
4.0631713602
 30
0.0
 10
6.8685061331
 20
4.0631713602
 30
0.0
 10
6.8691256214
 20
4.0631365955
 30
0.0
 10
6.8700416166
 20
4.0629816698
 30
0.0
 10
6.8709326265
 20
4.0627284445
 30
0.0
 10
6.8717881315
 20
4.0623836884
 30
0.0
 10
6.8725999885
 20
4.0619556001
 30
0.0
 10
6.8736126346
 20
4.0612881226
 30
0.0
 10
6.8747465373
 20
4.0602903079
 30
0.0
 10
6.8758785581
 20
4.058895751
 30
0.0
 10
6.8767802318
 20
4.0573606295
 30
0.0
 10
6.877457746
 20
4.0557280984
 30
0.0
 10
6.8777662459
 20
4.0545941523
 30
0.0
 10
6.877885388
 20
4.0540219324
 30
0.0
  0
SPLINE
  5
504
100
AcDbEntity
  8
0
100
AcDbSpline
 62
7
  6
CONTINUOUS
 70
0
 71
3
 72
19
 73
15
 74
0
 42
0.0000001
 43
0.0000001
 44
0.0000000001
 40
0.0
 40
0.0
 40
0.0
 40
0.0
 40
0.0236786556
 40
0.0521490846
 40
0.0856641562
 40
0.1244309151
 40
0.1686181698
 40
0.2183635791
 40
0.2737712002
 40
0.334896009
 40
0.4741443244
 40
0.6346702373
 40
0.8124088705
 40
1.0
 40
1.0
 40
1.0
 40
1.0
 10
6.877885388
 20
4.0667987241
 30
0.0
 10
6.8778195826
 20
4.066757735
 30
0.0
 10
6.8776681271
 20
4.0666779542
 30
0.0
 10
6.8774088903
 20
4.0665703113
 30
0.0
 10
6.877096199
 20
4.0664645792
 30
0.0
 10
6.8767289807
 20
4.0663613093
 30
0.0
 10
6.8763061136
 20
4.066261098
 30
0.0
 10
6.8758266844
 20
4.0661646285
 30
0.0
 10
6.8752900279
 20
4.0660726475
 30
0.0
 10
6.8744612517
 20
4.0659518535
 30
0.0
 10
6.8732864923
 20
4.0658213452
 30
0.0
 10
6.8717271806
 20
4.06570414
 30
0.0
 10
6.8700068302
 20
4.0656292157
 30
0.0
 10
6.8688106158
 20
4.0656121289
 30
0.0
 10
6.8681964168
 20
4.0656121289
 30
0.0
  0
SPLINE
  5
505
100
AcDbEntity
  8
0
100
AcDbSpline
 62
7
  6
CONTINUOUS
 70
0
 71
3
 72
18
 73
14
 74
0
 42
0.0000001
 43
0.0000001
 44
0.0000000001
 40
0.0
 40
0.0
 40
0.0
 40
0.0
 40
0.0639228442
 40
0.1277700963
 40
0.191476201
 40
0.2549882691
 40
0.3182709785
 40
0.3813060125
 40
0.5065050499
 40
0.6308132574
 40
0.7543826861
 40
0.8773870838
 40
1.0
 40
1.0
 40
1.0
 40
1.0
 10
6.8681964168
 20
4.0761098978
 30
0.0
 10
6.8685061503
 20
4.0761098978
 30
0.0
 10
6.8691258283
 20
4.0760745002
 30
0.0
 10
6.8700419959
 20
4.0759167708
 30
0.0
 10
6.8709331337
 20
4.0756589783
 30
0.0
 10
6.8717887093
 20
4.0753080301
 30
0.0
 10
6.8726005841
 20
4.0748722877
 30
0.0
 10
6.8736139726
 20
4.0741923997
 30
0.0
 10
6.8747483637
 20
4.073175951
 30
0.0
 10
6.875879797
 20
4.0717568452
 30
0.0
 10
6.8767809714
 20
4.0701948914
 30
0.0
 10
6.8774581193
 20
4.0685338909
 30
0.0
 10
6.8777663034
 20
4.0673807791
 30
0.0
 10
6.877885388
 20
4.0667987241
 30
0.0
  0
SPLINE
  5
506
100
AcDbEntity
  8
0
100
AcDbSpline
 62
7
  6
CONTINUOUS
 70
0
 71
3
 72
18
 73
14
 74
0
 42
0.0000001
 43
0.0000001
 44
0.0000000001
 40
0.0
 40
0.0
 40
0.0
 40
0.0
 40
0.0220665477
 40
0.0493476214
 40
0.0819986205
 40
0.1201633753
 40
0.1639683944
 40
0.2135215951
 40
0.3301534488
 40
0.4700557443
 40
0.6316741766
 40
0.8108249468
 40
1.0
 40
1.0
 40
1.0
 40
1.0
 10
6.8778827247
 20
4.0791543502
 30
0.0
 10
6.8778152732
 20
4.079130409
 30
0.0
 10
6.877661737
 20
4.0790845131
 30
0.0
 10
6.87740284
 20
4.0790232735
 30
0.0
 10
6.8770903361
 20
4.0789630115
 30
0.0
 10
6.8767232135
 20
4.0789040772
 30
0.0
 10
6.8763004295
 20
4.0788468494
 30
0.0
 10
6.875623729
 20
4.0787690976
 30
0.0
 10
6.8746346155
 20
4.078681592
 30
0.0
 10
6.8732809447
 20
4.0785955357
 30
0.0
 10
6.8717231897
 20
4.0785286418
 30
0.0
 10
6.8700047333
 20
4.0784858432
 30
0.0
 10
6.8688100186
 20
4.0784760889
 30
0.0
 10
6.8681964168
 20
4.0784760889
 30
0.0
  0
SPLINE
  5
507
100
AcDbEntity
  8
0
100
AcDbSpline
 62
7
  6
CONTINUOUS
 70
0
 71
3
 72
18
 73
14
 74
0
 42
0.0000001
 43
0.0000001
 44
0.0000000001
 40
0.0
 40
0.0
 40
0.0
 40
0.0
 40
0.063466441
 40
0.1268816656
 40
0.1902018135
 40
0.2533910959
 40
0.3164257417
 40
0.3792935411
 40
0.5044025966
 40
0.6289218476
 40
0.7529510715
 40
0.876604902
 40
1.0
 40
1.0
 40
1.0
 40
1.0
 10
6.8681964168
 20
4.0885888013
 30
0.0
 10
6.8685058812
 20
4.0885888013
 30
0.0
 10
6.8691251524
 20
4.0885529351
 30
0.0
 10
6.8700406495
 20
4.0883931295
 30
0.0
 10
6.8709311434
 20
4.0881319492
 30
0.0
 10
6.8717861151
 20
4.0877763957
 30
0.0
 10
6.8725974461
 20
4.0873349425
 30
0.0
 10
6.8736108651
 20
4.0866456998
 30
0.0
 10
6.8747451984
 20
4.0856151276
 30
0.0
 10
6.8758760446
 20
4.0841773936
 30
0.0
 10
6.8767771207
 20
4.0825949242
 30
0.0
 10
6.877454658
 20
4.0809119972
 30
0.0
 10
6.8777632821
 20
4.0797440538
 30
0.0
 10
6.8778827247
 20
4.0791543502
 30
0.0
  0
LINE
  5
508
100
AcDbEntity
  8
0
100
AcDbLine
 62
7
  6
CONTINUOUS
 10
6.877885388
 20
4.0910366146
 11
6.8681964168
 21
4.0908666872
  0
SPLINE
  5
509
100
AcDbEntity
  8
0
100
AcDbSpline
 62
7
  6
CONTINUOUS
 70
0
 71
3
 72
18
 73
14
 74
0
 42
0.0000001
 43
0.0000001
 44
0.0000000001
 40
0.0
 40
0.0
 40
0.0
 40
0.0
 40
0.0631016148
 40
0.1261715782
 40
0.1891834471
 40
0.2521151065
 40
0.3149519889
 40
0.3776866988
 40
0.5027246666
 40
0.6274129336
 40
0.7518092352
 40
0.8759810636
 40
1.0
 40
1.0
 40
1.0
 40
1.0
 10
6.8681964168
 20
4.1005943432
 30
0.0
 10
6.8685061773
 20
4.1005943432
 30
0.0
 10
6.8691261504
 20
4.1005579789
 30
0.0
 10
6.8700425844
 20
4.1003959694
 30
0.0
 10
6.8709339166
 20
4.1001312079
 30
0.0
 10
6.8717895953
 20
4.099770815
 30
0.0
 10
6.8726014906
 20
4.0993234029
 30
0.0
 10
6.8736159918
 20
4.0986245693
 30
0.0
 10
6.8747510765
 20
4.097579709
 30
0.0
 10
6.8758816123
 20
4.0961232256
 30
0.0
 10
6.8767820435
 20
4.0945203983
 30
0.0
 10
6.8774586561
 20
4.0928160119
 30
0.0
 10
6.8777663857
 20
4.0916336691
 30
0.0
 10
6.877885388
 20
4.0910366146
 30
0.0
  0
SPLINE
  5
50A
100
AcDbEntity
  8
0
100
AcDbSpline
 62
7
  6
CONTINUOUS
 70
0
 71
3
 72
18
 73
14
 74
0
 42
0.0000001
 43
0.0000001
 44
0.0000000001
 40
0.0
 40
0.0
 40
0.0
 40
0.0
 40
0.0628248617
 40
0.1256330546
 40
0.1884114351
 40
0.2511482882
 40
0.313835981
 40
0.376470675
 40
0.5014565954
 40
0.6262740401
 40
0.7509483652
 40
0.8755111824
 40
1.0
 40
1.0
 40
1.0
 40
1.0
 10
6.8681964168
 20
4.1120731406
 30
0.0
 10
6.8685061866
 20
4.1120731406
 30
0.0
 10
6.8691262622
 20
4.112036446
 30
0.0
 10
6.8700427881
 20
4.1118729743
 30
0.0
 10
6.8709341863
 20
4.1116058327
 30
0.0
 10
6.8717898989
 20
4.1112422154
 30
0.0
 10
6.8726017995
 20
4.1107908207
 30
0.0
 10
6.873616675
 20
4.1100855147
 30
0.0
 10
6.8747519828
 20
4.1090309579
 30
0.0
 10
6.8758822122
 20
4.1075617316
 30
0.0
 10
6.8767823949
 20
4.1059449641
 30
0.0
 10
6.8774588309
 20
4.1042257756
 30
0.0
 10
6.8777664124
 20
4.1030334539
 30
0.0
 10
6.877885388
 20
4.1024312791
 30
0.0
  0
SPLINE
  5
50B
100
AcDbEntity
  8
0
100
AcDbSpline
 62
7
  6
CONTINUOUS
 70
0
 71
3
 72
18
 73
14
 74
0
 42
0.0000001
 43
0.0000001
 44
0.0000000001
 40
0.0
 40
0.0
 40
0.0
 40
0.0
 40
0.0626360615
 40
0.1252657268
 40
0.1878849594
 40
0.2504891472
 40
0.3130753701
 40
0.3756421793
 40
0.5005932351
 40
0.6254991139
 40
0.7503629167
 40
0.8751917623
 40
1.0
 40
1.0
 40
1.0
 40
1.0
 10
6.8681964168
 20
4.1230005629
 30
0.0
 10
6.8685061931
 20
4.1230005629
 30
0.0
 10
6.8691263395
 20
4.1229636414
 30
0.0
 10
6.8700429286
 20
4.1227991663
 30
0.0
 10
6.8709343721
 20
4.1225303918
 30
0.0
 10
6.8717901075
 20
4.1221645625
 30
0.0
 10
6.8726020111
 20
4.121710436
 30
0.0
 10
6.8736171417
 20
4.1210006886
 30
0.0
 10
6.8747525986
 20
4.1199394809
 30
0.0
 10
6.875882618
 20
4.1184615178
 30
0.0
 10
6.8767826317
 20
4.1168351909
 30
0.0
 10
6.8774589485
 20
4.1151058506
 30
0.0
 10
6.8777664304
 20
4.1139066832
 30
0.0
 10
6.877885388
 20
4.113300996
 30
0.0
  0
SPLINE
  5
50C
100
AcDbEntity
  8
0
100
AcDbSpline
 62
7
  6
CONTINUOUS
 70
0
 71
3
 72
18
 73
14
 74
0
 42
0.0000001
 43
0.0000001
 44
0.0000000001
 40
0.0
 40
0.0
 40
0.0
 40
0.0
 40
0.0625345885
 40
0.1250683193
 40
0.1876020623
 40
0.2501350255
 40
0.3126668153
 40
0.375197255
 40
0.5001297871
 40
0.6250832982
 40
0.7500488737
 40
0.8750204639
 40
1.0
 40
1.0
 40
1.0
 40
1.0
 10
6.8681964168
 20
4.1333466586
 30
0.0
 10
6.8685061966
 20
4.1333466586
 30
0.0
 10
6.8691263813
 20
4.1333096148
 30
0.0
 10
6.8700430046
 20
4.1331445984
 30
0.0
 10
6.8709344726
 20
4.1328749429
 30
0.0
 10
6.8717902201
 20
4.1325079206
 30
0.0
 10
6.8726021252
 20
4.1320523209
 30
0.0
 10
6.8736173929
 20
4.1313401776
 30
0.0
 10
6.8747529288
 20
4.1302753831
 30
0.0
 10
6.875882835
 20
4.1287927095
 30
0.0
 10
6.876782758
 20
4.1271612282
 30
0.0
 10
6.8774590111
 20
4.1254264134
 30
0.0
 10
6.87776644
 20
4.1242235539
 30
0.0
 10
6.877885388
 20
4.1236159722
 30
0.0
  0
SPLINE
  5
50D
100
AcDbEntity
  8
0
100
AcDbSpline
 62
7
  6
CONTINUOUS
 70
0
 71
3
 72
18
 73
14
 74
0
 42
0.0000001
 43
0.0000001
 44
0.0000000001
 40
0.0
 40
0.0
 40
0.0
 40
0.0
 40
0.0625201032
 40
0.1250401403
 40
0.1875616822
 40
0.2500844825
 40
0.3126085079
 40
0.3751337625
 40
0.5000636625
 40
0.6250239789
 40
0.7500040789
 40
0.8749960325
 40
1.0
 40
1.0
 40
1.0
 40
1.0
 10
6.8681964168
 20
4.1430830698
 30
0.0
 10
6.8685061971
 20
4.1430830698
 30
0.0
 10
6.8691263873
 20
4.1430460085
 30
0.0
 10
6.8700430155
 20
4.1428809147
 30
0.0
 10
6.8709344869
 20
4.1426111334
 30
0.0
 10
6.8717902362
 20
4.1422439405
 30
0.0
 10
6.8726021415
 20
4.1417881301
 30
0.0
 10
6.8736174287
 20
4.1410756444
 30
0.0
 10
6.8747529759
 20
4.1400103371
 30
0.0
 10
6.8758828659
 20
4.1385269902
 30
0.0
 10
6.876782776
 20
4.1368947721
 30
0.0
 10
6.87745902
 20
4.1351591748
 30
0.0
 10
6.8777664413
 20
4.1339557875
 30
0.0
 10
6.877885388
 20
4.1333479351
 30
0.0
  0
SPLINE
  5
50E
100
AcDbEntity
  8
0
100
AcDbSpline
 62
7
  6
CONTINUOUS
 70
0
 71
3
 72
18
 73
14
 74
0
 42
0.0000001
 43
0.0000001
 44
0.0000000001
 40
0.0
 40
0.0
 40
0.0
 40
0.0
 40
0.0625924953
 40
0.1251809766
 40
0.187763505
 40
0.2503371128
 40
0.3128999625
 40
0.3754511514
 40
0.5003943631
 40
0.6253207347
 40
0.7502282255
 40
0.8751183098
 40
1.0
 40
1.0
 40
1.0
 40
1.0
 10
6.8681964168
 20
4.1521782159
 30
0.0
 10
6.8685059105
 20
4.1521782159
 30
0.0
 10
6.8691255036
 20
4.1521413092
 30
0.0
 10
6.8700412895
 20
4.1519768984
 30
0.0
 10
6.8709319917
 20
4.1517082215
 30
0.0
 10
6.8717870709
 20
4.1513425109
 30
0.0
 10
6.8725984192
 20
4.1508885107
 30
0.0
 10
6.8736130202
 20
4.1501788792
 30
0.0
 10
6.8747480638
 20
4.1491177544
 30
0.0
 10
6.8758779455
 20
4.1476398575
 30
0.0
 10
6.8767782365
 20
4.1460134495
 30
0.0
 10
6.8774552147
 20
4.1442838654
 30
0.0
 10
6.8777633675
 20
4.1430844698
 30
0.0
 10
6.8778827247
 20
4.1424786274
 30
0.0
  0
SPLINE
  5
50F
100
AcDbEntity
  8
0
100
AcDbSpline
 62
7
  6
CONTINUOUS
 70
0
 71
3
 72
18
 73
14
 74
0
 42
0.0000001
 43
0.0000001
 44
0.0000000001
 40
0.0
 40
0.0
 40
0.0
 40
0.0
 40
0.0627521924
 40
0.1254916651
 40
0.1882087763
 40
0.2508945442
 40
0.3135431517
 40
0.3761516836
 40
0.501124123
 40
0.6259755766
 40
0.75072285
 40
0.8753881291
 40
1.0
 40
1.0
 40
1.0
 40
1.0
 10
6.8681964168
 20
4.1606218357
 30
0.0
 10
6.8685061891
 20
4.1606218357
 30
0.0
 10
6.8691262919
 20
4.1605850539
 30
0.0
 10
6.870042842
 20
4.1604211966
 30
0.0
 10
6.8709342577
 20
4.1601534274
 30
0.0
 10
6.8717899791
 20
4.1597889598
 30
0.0
 10
6.8726018808
 20
4.1593365151
 30
0.0
 10
6.8736168546
 20
4.1586295021
 30
0.0
 10
6.87475222
 20
4.1575723889
 30
0.0
 10
6.8758823687
 20
4.156099804
 30
0.0
 10
6.8767824863
 20
4.1544793619
 30
0.0
 10
6.8774588763
 20
4.1527562711
 30
0.0
 10
6.8777664194
 20
4.1515613182
 30
0.0
 10
6.877885388
 20
4.1509577934
 30
0.0
  0
SPLINE
  5
510
100
AcDbEntity
  8
0
100
AcDbSpline
 62
7
  6
CONTINUOUS
 70
0
 71
3
 72
18
 73
14
 74
0
 42
0.0000001
 43
0.0000001
 44
0.0000000001
 40
0.0
 40
0.0
 40
0.0
 40
0.0
 40
0.0629995423
 40
0.1259729457
 40
0.1888986686
 40
0.251758427
 40
0.3145402216
 40
0.3772379748
 40
0.5022566158
 40
0.6269924649
 40
0.7514913482
 40
0.8758075243
 40
1.0
 40
1.0
 40
1.0
 40
1.0
 10
6.8681964168
 20
4.1683761179
 30
0.0
 10
6.8685061807
 20
4.1683761179
 30
0.0
 10
6.8691261915
 20
4.168339632
 30
0.0
 10
6.8700426592
 20
4.1681770844
 30
0.0
 10
6.8709340157
 20
4.167911447
 30
0.0
 10
6.8717897069
 20
4.1675498674
 30
0.0
 10
6.8726016043
 20
4.1671009894
 30
0.0
 10
6.8736162436
 20
4.1663997738
 30
0.0
 10
6.8747514112
 20
4.1653513444
 30
0.0
 10
6.8758818342
 20
4.1638901699
 30
0.0
 10
6.8767821737
 20
4.162282211
 30
0.0
 10
6.8774587209
 20
4.160572376
 30
0.0
 10
6.8777663956
 20
4.1593863604
 30
0.0
 10
6.877885388
 20
4.1587874214
 30
0.0
  0
SPLINE
  5
511
100
AcDbEntity
  8
0
100
AcDbSpline
 62
7
  6
CONTINUOUS
 70
0
 71
3
 72
47
 73
43
 74
0
 42
0.0000001
 43
0.0000001
 44
0.0000000001
 40
0.0
 40
0.0
 40
0.0
 40
0.0
 40
0.087377578
 40
0.1753907235
 40
0.2633163217
 40
0.3503859579
 40
0.3933530733
 40
0.4358068179
 40
0.47763645
 40
0.5187280851
 40
0.5589676763
 40
0.5982391137
 40
0.6733877741
 40
0.7431888702
 40
0.7757698331
 40
0.8066329395
 40
0.8356517473
 40
0.8626985963
 40
0.8876487977
 40
0.91038061
 40
0.930774994
 40
0.948722238
 40
0.9567444383
 40
0.9641164867
 40
0.9708274388
 40
0.9768662863
 40
0.9822223245
 40
0.9868872574
 40
0.9908537799
 40
0.9925728492
 40
0.994114568
 40
0.99547805
 40
0.9966627624
 40
0.9976683946
 40
0.9984946403
 40
0.9991411952
 40
0.9993969947
 40
0.9996077599
 40
0.9997734564
 40
0.999894054
 40
0.9999695379
 40
1.0
 40
1.0
 40
1.0
 40
1.0
 10
7.0334973994
 20
3.658257125
 30
0.0
 10
7.0323564154
 20
3.6583785885
 30
0.0
 10
7.0300614965
 20
3.6585803341
 30
0.0
 10
7.0266081933
 20
3.6587679128
 30
0.0
 10
7.0231547972
 20
3.6588479503
 30
0.0
 10
7.0202921217
 20
3.6588268503
 30
0.0
 10
7.0180280144
 20
3.658756345
 30
0.0
 10
7.0163587719
 20
3.6586772938
 30
0.0
 10
7.0147156133
 20
3.6585727606
 30
0.0
 10
7.0131033649
 20
3.6584437164
 30
0.0
 10
7.0115269194
 20
3.6582910752
 30
0.0
 10
7.0095089476
 20
3.6580609753
 30
0.0
 10
7.0071123669
 20
3.6577276043
 30
0.0
 10
7.0048149822
 20
3.6573286358
 30
0.0
 10
7.0030989329
 20
3.6569865063
 30
0.0
 10
7.0019120675
 20
3.6567300212
 30
0.0
 10
7.0008000625
 20
3.6564718582
 30
0.0
 10
6.9997673409
 20
3.6562160739
 30
0.0
 10
6.9988181418
 20
3.6559669011
 30
0.0
 10
6.9979564524
 20
3.6557287504
 30
0.0
 10
6.997186006
 20
3.6555059114
 30
0.0
 10
6.9966029729
 20
3.6553304794
 30
0.0
 10
6.9961846174
 20
3.6552013275
 30
0.0
 10
6.9959076189
 20
3.6551145157
 30
0.0
 10
6.995655785
 20
3.6550345065
 30
0.0
 10
6.9954294337
 20
3.6549617275
 30
0.0
 10
6.9952288436
 20
3.6548966076
 30
0.0
 10
6.9950542752
 20
3.6548394675
 30
0.0
 10
6.9949251826
 20
3.6547969255
 30
0.0
 10
6.9948350725
 20
3.6547671308
 30
0.0
 10
6.9947774238
 20
3.6547480472
 30
0.0
 10
6.9947264355
 20
3.654731172
 30
0.0
 10
6.994682125
 20
3.6547165259
 30
0.0
 10
6.9946445046
 20
3.6547041178
 30
0.0
 10
6.9946135838
 20
3.6546939631
 30
0.0
 10
6.9945920031
 20
3.6546869171
 30
0.0
 10
6.9945780927
 20
3.6546824362
 30
0.0
 10
6.9945701819
 20
3.654679894
 30
0.0
 10
6.9945639582
 20
3.6546779821
 30
0.0
 10
6.9945594057
 20
3.6546764922
 30
0.0
 10
6.9945565632
 20
3.6546758593
 30
0.0
 10
6.9945551932
 20
3.6546753022
 30
0.0
 10
6.9945547994
 20
3.6546753729
 30
0.0
  0
SPLINE
  5
512
100
AcDbEntity
  8
0
100
AcDbSpline
 62
7
  6
CONTINUOUS
 70
0
 71
3
 72
18
 73
14
 74
0
 42
0.0000001
 43
0.0000001
 44
0.0000000001
 40
0.0
 40
0.0
 40
0.0
 40
0.0
 40
0.0633354138
 40
0.126626588
 40
0.1898358912
 40
0.2529324335
 40
0.3158957653
 40
0.3787154369
 40
0.5037982487
 40
0.6283778135
 40
0.7525389909
 40
0.8763795594
 40
1.0
 40
1.0
 40
1.0
 40
1.0
 10
6.8681964168
 20
4.1754247023
 30
0.0
 10
6.8685061695
 20
4.1754247023
 30
0.0
 10
6.8691260573
 20
4.1753886152
 30
0.0
 10
6.8700424145
 20
4.1752278332
 30
0.0
 10
6.870933691
 20
4.1749650698
 30
0.0
 10
6.8717893408
 20
4.1746073843
 30
0.0
 10
6.872601231
 20
4.1741633169
 30
0.0
 10
6.8736154157
 20
4.1734699162
 30
0.0
 10
6.8747503078
 20
4.1724331991
 30
0.0
 10
6.8758811009
 20
4.1709874225
 30
0.0
 10
6.8767817429
 20
4.1693963057
 30
0.0
 10
6.8774585061
 20
4.167704352
 30
0.0
 10
6.8777663627
 20
4.1665303884
 30
0.0
 10
6.877885388
 20
4.1659376335
 30
0.0
  0
SPLINE
  5
513
100
AcDbEntity
  8
0
100
AcDbSpline
 62
7
  6
CONTINUOUS
 70
0
 71
3
 72
15
 73
11
 74
0
 42
0.0000001
 43
0.0000001
 44
0.0000000001
 40
0.0
 40
0.0
 40
0.0
 40
0.0
 40
0.1276672793
 40
0.254852612
 40
0.3813935413
 40
0.5071394464
 40
0.6319623698
 40
0.7557589661
 40
0.8784521106
 40
1.0
 40
1.0
 40
1.0
 40
1.0
 10
7.0102032881
 20
3.7159083935
 30
0.0
 10
7.0117114155
 20
3.7159880106
 30
0.0
 10
7.0147294111
 20
3.716031079
 30
0.0
 10
7.0192363729
 20
3.7157455129
 30
0.0
 10
7.0236850839
 20
3.715111836
 30
0.0
 10
7.0280425363
 20
3.7141345857
 30
0.0
 10
7.0322767558
 20
3.7128208882
 30
0.0
 10
7.0363566555
 20
3.7111802318
 30
0.0
 10
7.04025188
 20
3.7092248214
 30
0.0
 10
7.0427189534
 20
3.7077131332
 30
0.0
 10
7.043911319
 20
3.7069096131
 30
0.0
  0
SPLINE
  5
514
100
AcDbEntity
  8
0
100
AcDbSpline
 62
7
  6
CONTINUOUS
 70
0
 71
3
 72
18
 73
14
 74
0
 42
0.0000001
 43
0.0000001
 44
0.0000000001
 40
0.0
 40
0.0
 40
0.0
 40
0.0
 40
0.0637608868
 40
0.1274547865
 40
0.1910238158
 40
0.2544211439
 40
0.3176155619
 40
0.3805909496
 40
0.505757434
 40
0.6301402009
 40
0.7538729161
 40
0.8771084026
 40
1.0
 40
1.0
 40
1.0
 40
1.0
 10
6.8681964168
 20
4.1817482692
 30
0.0
 10
6.8685061556
 20
4.1817482692
 30
0.0
 10
6.8691258907
 20
4.1817126825
 30
0.0
 10
6.8700421101
 20
4.1815541159
 30
0.0
 10
6.870933286
 20
4.1812949599
 30
0.0
 10
6.8717888823
 20
4.1809421633
 30
0.0
 10
6.8726007617
 20
4.1805041368
 30
0.0
 10
6.8736143698
 20
4.1798205427
 30
0.0
 10
6.8747489015
 20
4.178798533
 30
0.0
 10
6.8758801592
 20
4.1773721064
 30
0.0
 10
6.8767811864
 20
4.1758021488
 30
0.0
 10
6.8774582273
 20
4.1741326545
 30
0.0
 10
6.87776632
 20
4.1729738221
 30
0.0
 10
6.877885388
 20
4.1723888316
 30
0.0
  0
SPLINE
  5
515
100
AcDbEntity
  8
0
100
AcDbSpline
 62
7
  6
CONTINUOUS
 70
0
 71
3
 72
13
 73
9
 74
0
 42
0.0000001
 43
0.0000001
 44
0.0000000001
 40
0.0
 40
0.0
 40
0.0
 40
0.0
 40
0.2577069454
 40
0.5115630189
 40
0.6364371877
 40
0.7595816938
 40
0.8808133228
 40
1.0
 40
1.0
 40
1.0
 40
1.0
 10
7.0051280749
 20
3.7515105463
 30
0.0
 10
7.0089244112
 20
3.7517621192
 30
0.0
 10
7.0165037766
 20
3.7517529946
 30
0.0
 10
7.025841171
 20
3.7504430302
 30
0.0
 10
7.0330298614
 20
3.7486244122
 30
0.0
 10
7.0382067006
 20
3.7468990548
 30
0.0
 10
7.0431595829
 20
3.7448175559
 30
0.0
 10
7.0463175359
 20
3.7431872627
 30
0.0
 10
7.0478465849
 20
3.7423164842
 30
0.0
  0
SPLINE
  5
516
100
AcDbEntity
  8
0
100
AcDbSpline
 62
7
  6
CONTINUOUS
 70
0
 71
3
 72
18
 73
14
 74
0
 42
0.0000001
 43
0.0000001
 44
0.0000000001
 40
0.0
 40
0.0
 40
0.0
 40
0.0
 40
0.0642772818
 40
0.1284602422
 40
0.1924666066
 40
0.2562302466
 40
0.3197068057
 40
0.3828730894
 40
0.5081447254
 40
0.632290453
 40
0.7555021775
 40
0.8779993779
 40
1.0
 40
1.0
 40
1.0
 40
1.0
 10
6.8681964168
 20
4.1873294861
 30
0.0
 10
6.8685061391
 20
4.1873294861
 30
0.0
 10
6.8691256935
 20
4.1872944996
 30
0.0
 10
6.870041749
 20
4.187138591
 30
0.0
 10
6.8709328038
 20
4.1868837644
 30
0.0
 10
6.8717883338
 20
4.186536837
 30
0.0
 10
6.8726001975
 20
4.1861060645
 30
0.0
 10
6.873613105
 20
4.1854342363
 30
0.0
 10
6.8747471821
 20
4.1844298871
 30
0.0
 10
6.875878997
 20
4.1830267182
 30
0.0
 10
6.8767804946
 20
4.1814821847
 30
0.0
 10
6.8774578789
 20
4.1798396686
 30
0.0
 10
6.8777662664
 20
4.1786990019
 30
0.0
 10
6.877885388
 20
4.1781233333
 30
0.0
  0
SPLINE
  5
517
100
AcDbEntity
  8
0
100
AcDbSpline
 62
7
  6
CONTINUOUS
 70
0
 71
3
 72
15
 73
11
 74
0
 42
0.0000001
 43
0.0000001
 44
0.0000000001
 40
0.0
 40
0.0
 40
0.0
 40
0.0
 40
0.1325840645
 40
0.2644285198
 40
0.3948022898
 40
0.5229822445
 40
0.6482622785
 40
0.7699578643
 40
0.8874111734
 40
1.0
 40
1.0
 40
1.0
 40
1.0
 10
6.985100994
 20
3.9109096131
 30
0.0
 10
6.9885259741
 20
3.9111704774
 30
0.0
 10
6.995362288
 20
3.9116217598
 30
0.0
 10
7.0055806099
 20
3.9120880457
 30
0.0
 10
7.0156923871
 20
3.9123403261
 30
0.0
 10
7.0256372046
 20
3.9123771256
 30
0.0
 10
7.0353556668
 20
3.9121982968
 30
0.0
 10
7.0447897785
 20
3.9118049849
 30
0.0
 10
7.0538831783
 20
3.9111996626
 30
0.0
 10
7.0598179941
 20
3.9106445846
 30
0.0
 10
7.0627177824
 20
3.9103293113
 30
0.0
  0
SPLINE
  5
518
100
AcDbEntity
  8
0
100
AcDbSpline
 62
7
  6
CONTINUOUS
 70
0
 71
3
 72
18
 73
14
 74
0
 42
0.0000001
 43
0.0000001
 44
0.0000000001
 40
0.0
 40
0.0
 40
0.0
 40
0.0
 40
0.0648841208
 40
0.1296422976
 40
0.1941639255
 40
0.2583603041
 40
0.3221714762
 40
0.3855656005
 40
0.5109676922
 40
0.6348385697
 40
0.7574365812
 40
0.8790589557
 40
1.0
 40
1.0
 40
1.0
 40
1.0
 10
6.8681964168
 20
4.1921505787
 30
0.0
 10
6.8685058364
 20
4.1921505787
 30
0.0
 10
6.8691246165
 20
4.1921163521
 30
0.0
 10
6.8700396671
 20
4.19196381
 30
0.0
 10
6.8709298298
 20
4.1917144614
 30
0.0
 10
6.8717846186
 20
4.1913749503
 30
0.0
 10
6.8725959034
 20
4.1909533279
 30
0.0
 10
6.8736073992
 20
4.1902962414
 30
0.0
 10
6.8747404662
 20
4.1893139546
 30
0.0
 10
6.8758728325
 20
4.1879398409
 30
0.0
 10
6.8767752012
 20
4.1864269175
 30
0.0
 10
6.8774536874
 20
4.1848177867
 30
0.0
 10
6.8777631323
 20
4.1836995247
 30
0.0
 10
6.8778827247
 20
4.1831353161
 30
0.0
  0
SPLINE
  5
519
100
AcDbEntity
  8
0
100
AcDbSpline
 62
7
  6
CONTINUOUS
 70
0
 71
3
 72
20
 73
16
 74
0
 42
0.0000001
 43
0.0000001
 44
0.0000000001
 40
0.0
 40
0.0
 40
0.0
 40
0.0
 40
0.0655766723
 40
0.1309909293
 40
0.1960994726
 40
0.2607874405
 40
0.3249766929
 40
0.3886251703
 40
0.451721457
 40
0.5142786861
 40
0.6378080568
 40
0.7596685761
 40
0.8201304919
 40
0.8803176257
 40
1.0
 40
1.0
 40
1.0
 40
1.0
 10
6.8681964168
 20
4.1962057561
 30
0.0
 10
6.8685060992
 20
4.1962057561
 30
0.0
 10
6.8691252161
 20
4.1961722607
 30
0.0
 10
6.8700408716
 20
4.1960229594
 30
0.0
 10
6.8709316215
 20
4.1957789037
 30
0.0
 10
6.8717869869
 20
4.1954465723
 30
0.0
 10
6.8725987644
 20
4.1950338995
 30
0.0
 10
6.8733608483
 20
4.194549525
 30
0.0
 10
6.8740691608
 20
4.1940020868
 30
0.0
 10
6.8749346135
 20
4.1932029146
 30
0.0
 10
6.8758760909
 20
4.1920856916
 30
0.0
 10
6.8766304609
 20
4.1908477085
 30
0.0
 10
6.8771201019
 20
4.1898115398
 30
0.0
 10
6.877534541
 20
4.1887542715
 30
0.0
 10
6.8777661215
 20
4.1879338505
 30
0.0
 10
6.877885388
 20
4.1873813837
 30
0.0
  0
SPLINE
  5
51A
100
AcDbEntity
  8
0
100
AcDbSpline
 62
7
  6
CONTINUOUS
 70
0
 71
3
 72
21
 73
17
 74
0
 42
0.0000001
 43
0.0000001
 44
0.0000000001
 40
0.0
 40
0.0
 40
0.0
 40
0.0
 40
0.0663681205
 40
0.13253326
 40
0.1983155963
 40
0.2635707997
 40
0.3281999142
 40
0.3921487948
 40
0.4554016883
 40
0.5179736119
 40
0.5799011803
 40
0.6412343616
 40
0.7020306223
 40
0.7623530417
 40
0.881751603
 40
1.0
 40
1.0
 40
1.0
 40
1.0
 10
6.8681964168
 20
4.1994764798
 30
0.0
 10
6.8685060763
 20
4.1994764798
 30
0.0
 10
6.8691249411
 20
4.1994438702
 30
0.0
 10
6.8700403634
 20
4.1992984975
 30
0.0
 10
6.8709309328
 20
4.1990608473
 30
0.0
 10
6.87178619
 20
4.1987372084
 30
0.0
 10
6.8725979246
 20
4.1983352946
 30
0.0
 10
6.8733600307
 20
4.1978634941
 30
0.0
 10
6.874068378
 20
4.1973302665
 30
0.0
 10
6.8747204652
 20
4.1967437102
 30
0.0
 10
6.8753150535
 20
4.1961113052
 30
0.0
 10
6.8758518071
 20
4.1954398213
 30
0.0
 10
6.8763310452
 20
4.194735241
 30
0.0
 10
6.8768921845
 20
4.1937624118
 30
0.0
 10
6.8774563975
 20
4.1924866511
 30
0.0
 10
6.8777660265
 20
4.1914182122
 30
0.0
 10
6.877885388
 20
4.1908795567
 30
0.0
  0
SPLINE
  5
51B
100
AcDbEntity
  8
0
100
AcDbSpline
 62
7
  6
CONTINUOUS
 70
0
 71
3
 72
14
 73
10
 74
0
 42
0.0000001
 43
0.0000001
 44
0.0000000001
 40
0.0
 40
0.0
 40
0.0
 40
0.0
 40
0.2678321809
 40
0.3992623923
 40
0.5279554029
 40
0.6531242444
 40
0.7740055308
 40
0.889863477
 40
1.0
 40
1.0
 40
1.0
 40
1.0
 10
7.5031390425
 20
3.9109096131
 30
0.0
 10
7.4991309261
 20
3.9110557134
 30
0.0
 10
7.4931533664
 20
3.9112104567
 30
0.0
 10
7.4852474775
 20
3.9112839982
 30
0.0
 10
7.479477613
 20
3.9112716966
 30
0.0
 10
7.4738662671
 20
3.9111924546
 30
0.0
 10
7.4684485008
 20
3.9110467951
 30
0.0
 10
7.4632581728
 20
3.9108356925
 30
0.0
 10
7.4598789974
 20
3.9106471212
 30
0.0
 10
7.4582331275
 20
3.910540949
 30
0.0
  0
SPLINE
  5
51C
100
AcDbEntity
  8
0
100
AcDbSpline
 62
7
  6
CONTINUOUS
 70
0
 71
3
 72
19
 73
15
 74
0
 42
0.0000001
 43
0.0000001
 44
0.0000000001
 40
0.0
 40
0.0
 40
0.0
 40
0.0
 40
0.0671157638
 40
0.1340014395
 40
0.2004487582
 40
0.2662897056
 40
0.3955877394
 40
0.5216410111
 40
0.583533471
 40
0.6446951166
 40
0.7051897186
 40
0.765087737
 40
0.8833043184
 40
1.0
 40
1.0
 40
1.0
 40
1.0
 10
6.8681964168
 20
4.2019562617
 30
0.0
 10
6.8684953718
 20
4.2019562617
 30
0.0
 10
6.8690926781
 20
4.2019267699
 30
0.0
 10
6.869977155
 20
4.20179522
 30
0.0
 10
6.8708392847
 20
4.2015798304
 30
0.0
 10
6.8719391129
 20
4.2011906548
 30
0.0
 10
6.873216392
 20
4.2005275786
 30
0.0
 10
6.8743434144
 20
4.1996634556
 30
0.0
 10
6.8751351849
 20
4.1988846991
 30
0.0
 10
6.8756718124
 20
4.198266746
 30
0.0
 10
6.8761546469
 20
4.1976170499
 30
0.0
 10
6.8767247896
 20
4.1967191187
 30
0.0
 10
6.8773092619
 20
4.1955382631
 30
0.0
 10
6.8776446457
 20
4.194543498
 30
0.0
 10
6.8777787285
 20
4.1940412892
 30
0.0
  0
SPLINE
  5
51D
100
AcDbEntity
  8
0
100
AcDbSpline
 62
7
  6
CONTINUOUS
 70
0
 71
3
 72
13
 73
9
 74
0
 42
0.0000001
 43
0.0000001
 44
0.0000000001
 40
0.0
 40
0.0
 40
0.0
 40
0.0
 40
0.2606538075
 40
0.3893774739
 40
0.5164093107
 40
0.6413446521
 40
0.7638167253
 40
1.0
 40
1.0
 40
1.0
 40
1.0
 10
7.496062276
 20
3.7621275068
 30
0.0
 10
7.4933272097
 20
3.7621637176
 30
0.0
 10
7.4892330261
 20
3.7619878092
 30
0.0
 10
7.4838574719
 20
3.7612843045
 30
0.0
 10
7.479931525
 20
3.7605314253
 30
0.0
 10
7.4761221891
 20
3.7595561614
 30
0.0
 10
7.4712937175
 20
3.7579879399
 30
0.0
 10
7.4678301821
 20
3.7564745769
 30
0.0
 10
7.4656398371
 20
3.7553146591
 30
0.0
  0
SPLINE
  5
51E
100
AcDbEntity
  8
0
100
AcDbSpline
 62
7
  6
CONTINUOUS
 70
0
 71
3
 72
17
 73
13
 74
0
 42
0.0000001
 43
0.0000001
 44
0.0000000001
 40
0.0
 40
0.0
 40
0.0
 40
0.0
 40
0.0682909772
 40
0.1362852536
 40
0.2037181702
 40
0.270376129
 40
0.4006998176
 40
0.5269408881
 40
0.6493395592
 40
0.7684970265
 40
0.885139199
 40
1.0
 40
1.0
 40
1.0
 40
1.0
 10
6.8681964168
 20
4.2036383051
 30
0.0
 10
6.8685060256
 20
4.2036383051
 30
0.0
 10
6.8691243365
 20
4.2036077308
 30
0.0
 10
6.8700392225
 20
4.2034714124
 30
0.0
 10
6.870929429
 20
4.2032484775
 30
0.0
 10
6.8720605311
 20
4.2028469259
 30
0.0
 10
6.8733677757
 20
4.2021651258
 30
0.0
 10
6.8747332166
 20
4.2011087473
 30
0.0
 10
6.8758692923
 20
4.1998782115
 30
0.0
 10
6.8767744396
 20
4.1985223009
 30
0.0
 10
6.8774547473
 20
4.1970796029
 30
0.0
 10
6.8777657784
 20
4.1960731015
 30
0.0
 10
6.877885388
 20
4.1955662832
 30
0.0
  0
SPLINE
  5
51F
100
AcDbEntity
  8
0
100
AcDbSpline
 62
7
  6
CONTINUOUS
 70
0
 71
3
 72
15
 73
11
 74
0
 42
0.0000001
 43
0.0000001
 44
0.0000000001
 40
0.0
 40
0.0
 40
0.0
 40
0.0
 40
0.1282890262
 40
0.2560721769
 40
0.3831083755
 40
0.5091685346
 40
0.6340481633
 40
0.7575704002
 40
0.8795890839
 40
1.0
 40
1.0
 40
1.0
 40
1.0
 10
7.4934263873
 20
3.7143573672
 30
0.0
 10
7.4922826324
 20
3.7143590697
 30
0.0
 10
7.489998677
 20
3.7142818932
 30
0.0
 10
7.4865990902
 20
3.7139242288
 30
0.0
 10
7.4832532156
 20
3.7133273076
 30
0.0
 10
7.4799846179
 20
3.7124952277
 30
0.0
 10
7.4768160859
 20
3.7114337688
 30
0.0
 10
7.4737697215
 20
3.7101502139
 30
0.0
 10
7.4708670413
 20
3.7086536157
 30
0.0
 10
7.4690281533
 20
3.7075125692
 30
0.0
 10
7.46813996
 20
3.7069096131
 30
0.0
  0
SPLINE
  5
520
100
AcDbEntity
  8
0
100
AcDbSpline
 62
7
  6
CONTINUOUS
 70
0
 71
3
 72
15
 73
11
 74
0
 42
0.0000001
 43
0.0000001
 44
0.0000000001
 40
0.0
 40
0.0
 40
0.0
 40
0.0
 40
0.1383140484
 40
0.2740480716
 40
0.4054971239
 40
0.5320803496
 40
0.654057233
 40
0.7721263525
 40
0.8871474873
 40
1.0
 40
1.0
 40
1.0
 40
1.0
 10
6.8681964168
 20
4.2045179994
 30
0.0
 10
6.868813326
 20
4.2045179994
 30
0.0
 10
6.8700388261
 20
4.2044013896
 30
0.0
 10
6.8717850533
 20
4.203893683
 30
0.0
 10
6.8733632114
 20
4.2031015899
 30
0.0
 10
6.8747293812
 20
4.2020846323
 30
0.0
 10
6.8758663631
 20
4.2008994114
 30
0.0
 10
6.8767725533
 20
4.1995928878
 30
0.0
 10
6.8774537296
 20
4.1982024354
 30
0.0
 10
6.8777656177
 20
4.1972308791
 30
0.0
 10
6.877885388
 20
4.1967419908
 30
0.0
  0
SPLINE
  5
521
100
AcDbEntity
  8
0
100
AcDbSpline
 62
7
  6
CONTINUOUS
 70
0
 71
3
 72
44
 73
40
 74
0
 42
0.0000001
 43
0.0000001
 44
0.0000000001
 40
0.0
 40
0.0
 40
0.0
 40
0.0
 40
0.0000227565
 40
0.0000857494
 40
0.0001890255
 40
0.0003325822
 40
0.0005164105
 40
0.0007405002
 40
0.0013094183
 40
0.0020392448
 40
0.0029298859
 40
0.0039812472
 40
0.0051932341
 40
0.0065657519
 40
0.0080987043
 40
0.0116448711
 40
0.0158285917
 40
0.0206464604
 40
0.0260950841
 40
0.0321710768
 40
0.0388702702
 40
0.046186937
 40
0.0626491774
 40
0.0815102926
 40
0.1027104995
 40
0.1261811603
 40
0.1518505937
 40
0.1796333086
 40
0.2094413927
 40
0.2411798722
 40
0.3100047234
 40
0.3851905863
 40
0.465723481
 40
0.5505367667
 40
0.6385122314
 40
0.7285386935
 40
0.8195112076
 40
0.9103467307
 40
1.0
 40
1.0
 40
1.0
 40
1.0
 10
7.507599781
 20
3.6561706208
 30
0.0
 10
7.5075996579
 20
3.6561708168
 30
0.0
 10
7.5075986293
 20
3.6561708719
 30
0.0
 10
7.5075969714
 20
3.6561716232
 30
0.0
 10
7.5075938403
 20
3.6561723825
 30
0.0
 10
7.5075896686
 20
3.6561736179
 30
0.0
 10
7.5075842468
 20
3.6561751002
 30
0.0
 10
7.5075746755
 20
3.6561777454
 30
0.0
 10
7.5075597254
 20
3.6561818095
 30
0.0
 10
7.5075382299
 20
3.6561876203
 30
0.0
 10
7.5075119835
 20
3.6561946683
 30
0.0
 10
7.5074809923
 20
3.6562029534
 30
0.0
 10
7.5074452564
 20
3.6562124691
 30
0.0
 10
7.5074047781
 20
3.656223211
 30
0.0
 10
7.5073413402
 20
3.6562399953
 30
0.0
 10
7.507250232
 20
3.6562639861
 30
0.0
 10
7.5071267533
 20
3.6562962549
 30
0.0
 10
7.5069844769
 20
3.6563331235
 30
0.0
 10
7.5068234775
 20
3.6563744645
 30
0.0
 10
7.5066438389
 20
3.6564201533
 30
0.0
 10
7.5064456635
 20
3.6564700399
 30
0.0
 10
7.5061448306
 20
3.6565448636
 30
0.0
 10
7.5057234489
 20
3.656647505
 30
0.0
 10
7.5051639313
 20
3.6567796739
 30
0.0
 10
7.5045338887
 20
3.6569232835
 30
0.0
 10
7.5038349642
 20
3.6570761817
 30
0.0
 10
7.5030690905
 20
3.6572361803
 30
0.0
 10
7.5022383768
 20
3.6574008128
 30
0.0
 10
7.5013452032
 20
3.6575675554
 30
0.0
 10
7.5000388911
 20
3.6577955344
 30
0.0
 10
7.4982721579
 20
3.6580691516
 30
0.0
 10
7.4960062261
 20
3.6583572227
 30
0.0
 10
7.4935709607
 20
3.6585951494
 30
0.0
 10
7.4909997114
 20
3.6587671629
 30
0.0
 10
7.4883277341
 20
3.6588606984
 30
0.0
 10
7.4855914393
 20
3.6588655752
 30
0.0
 10
7.482827432
 20
3.6587757869
 30
0.0
 10
7.4800723703
 20
3.6585840169
 30
0.0
 10
7.4782471816
 20
3.6583802819
 30
0.0
 10
7.477343654
 20
3.6582571511
 30
0.0
  0
SPLINE
  5
522
100
AcDbEntity
  8
0
100
AcDbSpline
 62
7
  6
CONTINUOUS
 70
0
 71
3
 72
21
 73
17
 74
0
 42
0.0000001
 43
0.0000001
 44
0.0000000001
 40
0.0
 40
0.0
 40
0.0
 40
0.0
 40
0.0446459954
 40
0.0901543149
 40
0.1373025373
 40
0.1867417066
 40
0.2389549672
 40
0.2942603759
 40
0.3528204285
 40
0.4146615177
 40
0.4796938536
 40
0.5477303173
 40
0.618503369
 40
0.6916792732
 40
0.84358757
 40
1.0
 40
1.0
 40
1.0
 40
1.0
 10
7.5776058656
 20
3.774980934
 30
0.0
 10
7.5776058655
 20
3.774799015
 30
0.0
 10
7.577574229
 20
3.7744309253
 30
0.0
 10
7.5774330683
 20
3.7738870957
 30
0.0
 10
7.5771999902
 20
3.7733546033
 30
0.0
 10
7.5768779136
 20
3.7728386416
 30
0.0
 10
7.5764703226
 20
3.7723436808
 30
0.0
 10
7.5759812879
 20
3.7718739574
 30
0.0
 10
7.5754154213
 20
3.771433478
 30
0.0
 10
7.5747779397
 20
3.7710260531
 30
0.0
 10
7.5740746648
 20
3.7706552626
 30
0.0
 10
7.5733120167
 20
3.7703244142
 30
0.0
 10
7.5724969425
 20
3.7700364685
 30
0.0
 10
7.5713359234
 20
3.7697092753
 30
0.0
 10
7.5698035628
 20
3.7694265454
 30
0.0
 10
7.5685475804
 20
3.7693371822
 30
0.0
 10
7.5679103414
 20
3.7693262004
 30
0.0
  0
SPLINE
  5
523
100
AcDbEntity
  8
0
100
AcDbSpline
 62
7
  6
CONTINUOUS
 70
0
 71
3
 72
16
 73
12
 74
0
 42
0.0000001
 43
0.0000001
 44
0.0000000001
 40
0.0
 40
0.0
 40
0.0
 40
0.0
 40
0.1276637773
 40
0.1918717056
 40
0.2561592521
 40
0.3844194182
 40
0.5117056658
 40
0.6372880514
 40
0.7606409131
 40
0.8815144914
 40
1.0
 40
1.0
 40
1.0
 40
1.0
 10
7.0334973751
 20
3.6582571235
 30
0.0
 10
7.0335896167
 20
3.6579665389
 30
0.0
 10
7.0336914824
 20
3.6575169283
 30
0.0
 10
7.0337519378
 20
3.6569077008
 30
0.0
 10
7.0337621374
 20
3.6562940042
 30
0.0
 10
7.0336803805
 20
3.6555308197
 30
0.0
 10
7.0334341497
 20
3.6546502475
 30
0.0
 10
7.0330478769
 20
3.6538341419
 30
0.0
 10
7.0325339764
 20
3.6531100733
 30
0.0
 10
7.0319096644
 20
3.6525028083
 30
0.0
 10
7.0314283805
 20
3.6521865941
 30
0.0
 10
7.0311776394
 20
3.6520554743
 30
0.0
  0
SPLINE
  5
524
100
AcDbEntity
  8
0
100
AcDbSpline
 62
7
  6
CONTINUOUS
 70
0
 71
3
 72
17
 73
13
 74
0
 42
0.0000001
 43
0.0000001
 44
0.0000000001
 40
0.0
 40
0.0
 40
0.0
 40
0.0
 40
0.1270635304
 40
0.190904254
 40
0.2548083339
 40
0.3823404709
 40
0.5091066115
 40
0.5720779483
 40
0.6346561261
 40
0.7583416938
 40
0.8800957091
 40
1.0
 40
1.0
 40
1.0
 40
1.0
 10
7.477343498
 20
3.658257128
 30
0.0
 10
7.4772489902
 20
3.6579668625
 30
0.0
 10
7.4771444433
 20
3.657517289
 30
0.0
 10
7.4770823965
 20
3.6569077635
 30
0.0
 10
7.4770719309
 20
3.6562938954
 30
0.0
 10
7.4771558717
 20
3.6555301684
 30
0.0
 10
7.4773673072
 20
3.6547937059
 30
0.0
 10
7.4776089539
 20
3.6542370289
 30
0.0
 10
7.4778947331
 20
3.6537101251
 30
0.0
 10
7.4783330278
 20
3.6531084558
 30
0.0
 10
7.4789736188
 20
3.6525015605
 30
0.0
 10
7.479466199
 20
3.6521863138
 30
0.0
 10
7.479722834
 20
3.6520554735
 30
0.0
  0
SPLINE
  5
525
100
AcDbEntity
  8
0
100
AcDbSpline
 62
7
  6
CONTINUOUS
 70
0
 71
3
 72
28
 73
24
 74
0
 42
0.0000001
 43
0.0000001
 44
0.0000000001
 40
0.0
 40
0.0
 40
0.0
 40
0.0
 40
0.0023530292
 40
0.0048442614
 40
0.0076139473
 40
0.0107649659
 40
0.0184547632
 40
0.0282457011
 40
0.0402689284
 40
0.0545756579
 40
0.071173332
 40
0.0900445027
 40
0.1111527067
 40
0.1344483044
 40
0.1873425495
 40
0.2481219483
 40
0.3160454119
 40
0.3902615767
 40
0.4698285926
 40
0.5537318506
 40
0.6409027046
 40
0.8206099297
 40
1.0
 40
1.0
 40
1.0
 40
1.0
 10
6.5896667002
 20
3.9701214833
 30
0.0
 10
6.5896571673
 20
3.9701220757
 30
0.0
 10
6.5896376172
 20
3.9701260431
 30
0.0
 10
6.5896097214
 20
3.9701400026
 30
0.0
 10
6.5895830474
 20
3.9701616616
 30
0.0
 10
6.5895465599
 20
3.970203408
 30
0.0
 10
6.5895047651
 20
3.9702767524
 30
0.0
 10
6.5894612244
 20
3.9703885002
 30
0.0
 10
6.5894212936
 20
3.9705297687
 30
0.0
 10
6.5893851576
 20
3.9707003113
 30
0.0
 10
6.5893529671
 20
3.9708998419
 30
0.0
 10
6.5893248855
 20
3.9711278139
 30
0.0
 10
6.589301026
 20
3.971383577
 30
0.0
 10
6.5892738515
 20
3.971777619
 30
0.0
 10
6.5892527402
 20
3.9723333235
 30
0.0
 10
6.5892459521
 20
3.9730704912
 30
0.0
 10
6.5892571327
 20
3.9738941559
 30
0.0
 10
6.5892861928
 20
3.9747936717
 30
0.0
 10
6.589332818
 20
3.9757573869
 30
0.0
 10
6.5893964111
 20
3.9767728204
 30
0.0
 10
6.5895038575
 20
3.9781926698
 30
0.0
 10
6.5896735401
 20
3.9799963495
 30
0.0
 10
6.5898429849
 20
3.9814442514
 30
0.0
 10
6.5899364602
 20
3.9821663989
 30
0.0
  0
SPLINE
  5
526
100
AcDbEntity
  8
0
100
AcDbSpline
 62
7
  6
CONTINUOUS
 70
0
 71
3
 72
15
 73
11
 74
0
 42
0.0000001
 43
0.0000001
 44
0.0000000001
 40
0.0
 40
0.0
 40
0.0
 40
0.0
 40
0.2161689031
 40
0.3339001631
 40
0.4572876512
 40
0.5858507741
 40
0.7192401169
 40
0.8572708348
 40
0.9280473145
 40
1.0
 40
1.0
 40
1.0
 40
1.0
 10
7.477343669
 20
3.658257128
 30
0.0
 10
7.4757728159
 20
3.6615182197
 30
0.0
 10
7.4735589081
 20
3.6666640969
 30
0.0
 10
7.4710964898
 20
3.6739183264
 30
0.0
 10
7.469478039
 20
3.6798982743
 30
0.0
 10
7.4682441191
 20
3.686238162
 30
0.0
 10
7.467508308
 20
3.6929035772
 30
0.0
 10
7.467411688
 20
3.6986430921
 30
0.0
 10
7.4676950764
 20
3.7033375952
 30
0.0
 10
7.4679684275
 20
3.7057134022
 30
0.0
 10
7.4681395517
 20
3.7069060227
 30
0.0
  0
SPLINE
  5
527
100
AcDbEntity
  8
0
100
AcDbSpline
 62
7
  6
CONTINUOUS
 70
0
 71
3
 72
18
 73
14
 74
0
 42
0.0000001
 43
0.0000001
 44
0.0000000001
 40
0.0
 40
0.0
 40
0.0
 40
0.0
 40
0.0712928424
 40
0.1416284631
 40
0.2109727593
 40
0.2792991703
 40
0.4126896627
 40
0.541450976
 40
0.6039638133
 40
0.6651348148
 40
0.7831539207
 40
0.8949662706
 40
1.0
 40
1.0
 40
1.0
 40
1.0
 10
7.0439113259
 20
3.7069095567
 30
0.0
 10
7.0440921865
 20
3.7057172705
 30
0.0
 10
7.0443869663
 20
3.7033383833
 30
0.0
 10
7.0446325023
 20
3.6997765787
 30
0.0
 10
7.0446870337
 20
3.6962568469
 30
0.0
 10
7.0445206345
 20
3.6916731534
 30
0.0
 10
7.0438994718
 20
3.686108068
 30
0.0
 10
7.0427800171
 20
3.680723723
 30
0.0
 10
7.0416393567
 20
3.6766076417
 30
0.0
 10
7.0403857074
 20
3.6727151237
 30
0.0
 10
7.0386041868
 20
3.6681209901
 30
0.0
 10
7.0361831436
 20
3.6629957117
 30
0.0
 10
7.0344045876
 20
3.6597847046
 30
0.0
 10
7.0334973919
 20
3.6582571235
 30
0.0
  0
LINE
  5
528
100
AcDbEntity
  8
0
100
AcDbLine
 62
7
  6
CONTINUOUS
 10
6.6049868874
 20
3.7541987629
 11
6.6044186013
 21
3.755035814
  0
SPLINE
  5
529
100
AcDbEntity
  8
0
100
AcDbSpline
 62
7
  6
CONTINUOUS
 70
0
 71
3
 72
27
 73
23
 74
0
 42
0.0000001
 43
0.0000001
 44
0.0000000001
 40
0.0
 40
0.0
 40
0.0
 40
0.0
 40
0.0181464667
 40
0.0388094658
 40
0.0618735743
 40
0.0872101184
 40
0.1441307949
 40
0.208348502
 40
0.2785245387
 40
0.3532294586
 40
0.4309577642
 40
0.5101371795
 40
0.5891395143
 40
0.6662949748
 40
0.7399145891
 40
0.8083245732
 40
0.8699152111
 40
0.9232009637
 40
0.9463179105
 40
0.9668962494
 40
0.9848203304
 40
1.0
 40
1.0
 40
1.0
 40
1.0
 10
6.6044186013
 20
3.755035814
 30
0.0
 10
6.6043697848
 20
3.7551451141
 30
0.0
 10
6.604270013
 20
3.7553809454
 30
0.0
 10
6.6041214139
 20
3.7557611298
 30
0.0
 10
6.603964831
 20
3.7561889993
 30
0.0
 10
6.6037377108
 20
3.7568456276
 30
0.0
 10
6.6034427713
 20
3.7577658886
 30
0.0
 10
6.6030839469
 20
3.7589759149
 30
0.0
 10
6.602715569
 20
3.7603052373
 30
0.0
 10
6.6023453142
 20
3.7617263265
 30
0.0
 10
6.6019808631
 20
3.7632101433
 30
0.0
 10
6.6016297904
 20
3.764726293
 30
0.0
 10
6.6012995323
 20
3.7662432461
 30
0.0
 10
6.6009972804
 20
3.7677286221
 30
0.0
 10
6.6007298569
 20
3.7691496252
 30
0.0
 10
6.6005034758
 20
3.770473706
 30
0.0
 10
6.6003236412
 20
3.7716694208
 30
0.0
 10
6.6002111005
 20
3.7725729047
 30
0.0
 10
6.6001500739
 20
3.7732097801
 30
0.0
 10
6.600120572
 20
3.7736152398
 30
0.0
 10
6.6001052139
 20
3.773969081
 30
0.0
 10
6.600104281
 20
3.7741875577
 30
0.0
 10
6.6001069544
 20
3.7742876572
 30
0.0
  0
LINE
  5
52A
100
AcDbEntity
  8
0
100
AcDbLine
 62
7
  6
CONTINUOUS
 10
6.6001069544
 20
3.7742876572
 11
6.6001479438
 21
3.7747083733
  0
ENDSEC
  0
SECTION
  2
OBJECTS
  0
DICTIONARY
  5
C
100
AcDbDictionary
280
0
281
1
  3
ACAD_GROUP
350
D
  3
ACAD_MLINESTYLE
350
17
  3
ACAD_LAYOUT
350
1A
  3
ACAD_PLOTSETTINGS
350
19
  3
ACAD_PLOTSTYLENAME
350
E
  0
DICTIONARY
  5
D
102
{ACAD_REACTORS
330
C
102
}
100
AcDbDictionary
280
0
281
1
  0
ACDBDICTIONARYWDFLT
  5
E
102
{ACAD_REACTORS
330
C
102
}
100
AcDbDictionary
281
1
  3
Normal
350
F
100
AcDbDictionaryWithDefault
340
F
  0
DICTIONARY
  5
17
102
{ACAD_REACTORS
330
C
102
}
100
AcDbDictionary
280
0
281
1
  3
Standard
350
18
  0
DICTIONARY
  5
19
102
{ACAD_REACTORS
330
C
102
}
100
AcDbDictionary
281
1
  0
DICTIONARY
  5
1A
102
{ACAD_REACTORS
330
C
102
}
100
AcDbDictionary
281
1
  3
Model
350
52B
  3
Layout1
350
52C
  0
ACDBPLACEHOLDER
  5
F
102
{ACAD_REACTORS
330
E
102
}
  0
MLINESTYLE
  5
18
102
{ACAD_REACTORS
330
17
102
}
100
AcDbMlineStyle
  2
STANDARD
 70
0
  3

 62
256
 51
90.0
 52
90.0
 71
2
 49
0.5
 62
256
  6
BYLAYER
 49
-0.5
 62
256
  6
BYLAYER
  0
LAYOUT
  5
52B
102
{ACAD_REACTORS
330
1A
102
}
100
AcDbPlotSettings
  1

  2
none_device
  4
ANSI_A_(11.00_x_8.50_Inches)
  6

 40
0.0
 41
0.0
 42
0.0
 43
0.0
 44
279.4
 45
215.9
 46
0.0
 47
0.0
 48
0.0
 49
0.0
140
0.0
141
0.0
142
1.0
143
1.0
 70
1024
 72
0
 73
0
 74
0
  7

 75
0
147
1.0
148
0.0
149
0.0
100
AcDbLayout
  1
Model
 70
0
 71
0
 10
0.0
 20
0.0
 11
11.0
 21
8.5
 12
0.0
 22
0.0
 32
0.0
 14
0.0
 24
0.0
 34
0.0
 15
0.0
 25
0.0
 35
0.0
146
0.0
 13
0.0
 23
0.0
 33
0.0
 16
1.0
 26
0.0
 36
0.0
 17
0.0
 27
1.0
 37
0.0
 76
0
330
202
345
0
346
0
  0
LAYOUT
  5
52C
102
{ACAD_REACTORS
330
1A
102
}
100
AcDbPlotSettings
  1

  2
none_device
  4
ANSI_A_(11.00_x_8.50_Inches)
  6

 40
0.0
 41
0.0
 42
0.0
 43
0.0
 44
279.4
 45
215.9
 46
0.0
 47
0.0
 48
0.0
 49
0.0
140
0.0
141
0.0
142
1.0
143
1.0
 70
0
 72
0
 73
0
 74
0
  7

 75
0
147
1.0
148
0.0
149
0.0
100
AcDbLayout
  1
Layout1
 70
0
 71
1
 10
0.0
 20
0.0
 11
11.0
 21
8.5
 12
0.0
 22
0.0
 32
0.0
 14
0.0
 24
0.0
 34
0.0
 15
0.0
 25
0.0
 35
0.0
146
0.0
 13
0.0
 23
0.0
 33
0.0
 16
1.0
 26
0.0
 36
0.0
 17
0.0
 27
1.0
 37
0.0
 76
0
330
203
345
0
346
0
  0
ENDSEC
  0
EOF
