999
DXF file: 2470-5433_front.dxf
999
Pro/ENGINEER 2018400 by Parametric Technology Corporation
  0
SECTION
  2
HEADER
  9
$ACADVER
  1
AC1027
  9
$DWGCODEPAGE
  3
ANSI_1252
  9
$EXTMAX
 10
11.0
 20
8.5
 30
0.0
  9
$EXTMIN
 10
0.0
 20
0.0
 30
0.0
  9
$LIMMIN
 10
0.0
 20
0.0
  9
$LIMMAX
 10
11.0
 20
8.5
  9
$VIEWCTR
 10
5.5
 20
4.25
  9
$VIEWSIZE
 40
8.5
  9
$CLAYER
  8
0
  9
$LTSCALE
 40
0.605
  9
$CELTYPE
  6
BYLAYER
  9
$DIMSCALE
 40
1.0
  9
$DIMASZ
 40
0.1
  9
$DIMEXO
 40
0.0625
  9
$DIMDLI
 40
0.418
  9
$DIMEXE
 40
0.125
  9
$DIMCEN
 40
0.099
  9
$DIMLFAC
 40
1.0
  9
$DIMBLK
  1
_FILLED
  9
$DIMALT
 70
1
  9
$DIMALTD
 70
1
  9
$DIMALTTD
 70
2
  9
$DIMALTF
 40
25.4
  9
$DIMTXT
 40
0.08
  9
$DIMTOL
 70
1
  9
$DIMLIM
 70
0
  9
$DIMTFAC
 40
1.0
  9
$DIMTP
 40
0.01
  9
$DIMTM
 40
0.01
  9
$DIMGAP
 40
0.09
  9
$DIMDSEP
 70
46
  9
$AUNITS
 70
0
  9
$PDMODE
 70
3
  9
$PDSIZE
 40
0.3125
  9
$HANDSEED
  5
551
  9
$TILEMODE
 70
1
  9
$MEASUREMENT
 70
0
  9
$INSUNITS
 70
1
  0
ENDSEC
  0
SECTION
  2
CLASSES
  0
CLASS
  1
ACDBDICTIONARYWDFLT
  2
AcDbDictionaryWithDefault
  3
AutoCAD 2000
 90
0
 91
1
280
0
281
0
  0
CLASS
  1
ACDBPLACEHOLDER
  2
AcDbPlaceHolder
  3
AutoCAD 2000
 90
0
 91
1
280
0
281
0
  0
CLASS
  1
LAYOUT
  2
AcDbLayout
  3
AutoCAD 2000
 90
0
 91
0
280
0
281
0
  0
ENDSEC
  0
SECTION
  2
TABLES
  0
TABLE
  2
VPORT
  5
8
100
AcDbSymbolTable
 70
2
  0
VPORT
  5
1F4
100
AcDbSymbolTableRecord
100
AcDbViewportTableRecord
  2
*ACTIVE
 70
0
 10
0.0
 20
0.0
 11
1.0
 21
1.0
 12
5.5
 22
4.25
 13
0.0
 23
0.0
 14
1.0
 24
1.0
 15
0.0
 25
0.0
 16
0.0
 26
0.0
 36
1.0
 17
0.0
 27
0.0
 37
0.0
 40
8.5
 41
1.2941176471
 42
50.0
 43
0.0
 44
0.0
 50
0.0
 51
0.0
 71
0
 72
100
 73
1
 74
1
 75
0
 76
0
 77
0
 78
0
  0
ENDTAB
  0
TABLE
  2
LTYPE
  5
5
100
AcDbSymbolTable
 70
6
  0
LTYPE
  5
14
100
AcDbSymbolTableRecord
100
AcDbLinetypeTableRecord
  2
BYBLOCK
 70
0
  3

 72
65
 73
0
 40
0.0
  0
LTYPE
  5
15
100
AcDbSymbolTableRecord
100
AcDbLinetypeTableRecord
  2
BYLAYER
 70
0
  3

 72
65
 73
0
 40
0.0
  0
LTYPE
  5
16
100
AcDbSymbolTableRecord
100
AcDbLinetypeTableRecord
  2
CONTINUOUS
 70
64
  3
Solid line
 72
65
 73
0
 40
0.0
  0
LTYPE
  5
1F5
100
AcDbSymbolTableRecord
100
AcDbLinetypeTableRecord
  2
CENTER
 70
64
  3
____ _ ____ _ ____ _ ____ _ ____ _ ____ _ ____
 72
65
 73
4
 40
0.6
 49
0.375
 74
0
 49
-0.075
 74
0
 49
0.075
 74
0
 49
-0.075
 74
0
  0
LTYPE
  5
1F6
100
AcDbSymbolTableRecord
100
AcDbLinetypeTableRecord
  2
HIDDEN
 70
64
  3
- - - - - - - - - - - - - - - - - - - -
 72
65
 73
2
 40
0.2
 49
0.1
 74
0
 49
-0.1
 74
0
  0
LTYPE
  5
1F7
100
AcDbSymbolTableRecord
100
AcDbLinetypeTableRecord
  2
PHANTOM
 70
64
  3
_____ _ _ _____ _ _ _____ _ _ _____
 72
65
 73
6
 40
0.8
 49
0.45
 74
0
 49
-0.05
 74
0
 49
0.1
 74
0
 49
-0.05
 74
0
 49
0.1
 74
0
 49
-0.05
 74
0
  0
LTYPE
  5
1F8
100
AcDbSymbolTableRecord
100
AcDbLinetypeTableRecord
  2
DOT
 70
64
  3
. . . . . . . . . . . . . . . . . . . .
 72
65
 73
2
 40
0.2
 49
0.1
 74
0
 49
-0.1
 74
0
  0
LTYPE
  5
1F9
100
AcDbSymbolTableRecord
100
AcDbLinetypeTableRecord
  2
DASHED
 70
64
  3
- - - - - - - - - - - - - - - - - - - -
 72
65
 73
2
 40
0.2
 49
0.1
 74
0
 49
-0.1
 74
0
  0
ENDTAB
  0
TABLE
  2
LAYER
  5
2
100
AcDbSymbolTable
 70
36
  0
LAYER
  5
10
100
AcDbSymbolTableRecord
100
AcDbLayerTableRecord
  2
0
 70
0
 62
7
  6
CONTINUOUS
370
-3
390
F
  0
LAYER
  5
1FA
100
AcDbSymbolTableRecord
100
AcDbLayerTableRecord
  2
DEFAULT_1
 70
0
 62
7
  6
CENTER
370
-3
390
F
  0
LAYER
  5
1FB
100
AcDbSymbolTableRecord
100
AcDbLayerTableRecord
  2
DEFAULT_2
 70
0
 62
8
  6
HIDDEN
370
-3
390
F
  0
LAYER
  5
1FC
100
AcDbSymbolTableRecord
100
AcDbLayerTableRecord
  2
DEFAULT_3
 70
0
 62
7
  6
PHANTOM
370
-3
390
F
  0
LAYER
  5
1FD
100
AcDbSymbolTableRecord
100
AcDbLayerTableRecord
  2
DEFAULT_COORDINATE_SYSTEM
 70
0
 62
7
  6
CONTINUOUS
370
-3
390
F
  0
LAYER
  5
1FE
100
AcDbSymbolTableRecord
100
AcDbLayerTableRecord
  2
DEFAULT_DATUM_AXES
 70
0
 62
7
  6
CONTINUOUS
370
-3
390
F
  0
LAYER
  5
1FF
100
AcDbSymbolTableRecord
100
AcDbLayerTableRecord
  2
DEFAULT_DATUM_PLANES
 70
0
 62
7
  6
CONTINUOUS
370
-3
390
F
  0
ENDTAB
  0
TABLE
  2
STYLE
  5
3
100
AcDbSymbolTable
 70
1
  0
STYLE
  5
11
100
AcDbSymbolTableRecord
100
AcDbTextStyleTableRecord
  2
STANDARD
 70
0
 40
0.0
 41
0.8
 50
0.0
 71
0
 42
0.2
  3
txt
  4

  0
STYLE
  5
200
100
AcDbSymbolTableRecord
100
AcDbTextStyleTableRecord
  2
TEXTSTYLE_1
 70
0
 40
0.0
 41
0.8
 50
0.0
 71
0
 42
0.2
  3
gdt
  4

  0
ENDTAB
  0
TABLE
  2
VIEW
  5
6
100
AcDbSymbolTable
 70
0
  0
ENDTAB
  0
TABLE
  2
UCS
  5
7
100
AcDbSymbolTable
 70
0
  0
ENDTAB
  0
TABLE
  2
APPID
  5
9
100
AcDbSymbolTable
 70
1
  0
APPID
  5
201
100
AcDbSymbolTableRecord
100
AcDbRegAppTableRecord
  2
ACAD
 70
0
  0
ENDTAB
  0
TABLE
  2
BLOCK_RECORD
  5
1
100
AcDbSymbolTable
 70
0
  0
BLOCK_RECORD
  5
202
100
AcDbSymbolTableRecord
100
AcDbBlockTableRecord
  2
*Model_Space
  0
BLOCK_RECORD
  5
203
100
AcDbSymbolTableRecord
100
AcDbBlockTableRecord
  2
*Paper_Space
  0
BLOCK_RECORD
  5
204
100
AcDbSymbolTableRecord
100
AcDbBlockTableRecord
  2
_FILLED
  0
ENDTAB
  0
TABLE
  2
DIMSTYLE
  5
A
100
AcDbSymbolTable
 70
1
100
AcDbDimStyleTable
 71
0
  0
DIMSTYLE
105
205
100
AcDbSymbolTableRecord
100
AcDbDimStyleTableRecord
  2
STANDARD
 70
0
  3

  4

 40
1.0
 41
0.1
 42
0.0625
 43
0.38
 44
0.125
 45
0.0
 46
0.0
 47
0.01
 48
0.01
140
0.08
141
0.09
142
0.0
143
25.4
144
1.0
145
0.0
146
1.0
147
0.09
 71
1.0
 72
0.0
 73
1
 74
1
 75
0
 76
0
 77
0
 78
4
 79
1
170
1
171
1
172
0
173
0
174
0
175
0
176
0
177
0
178
0
270
2
179
2
271
2
272
2
273
2
274
2
275
0
280
0
281
0
282
0
283
1
284
4
285
0
286
0
287
3
288
0
340
11
278
46
341
204
342
204
343
204
344
204
  0
ENDTAB
  0
ENDSEC
  0
SECTION
  2
BLOCKS
  0
BLOCK
  5
20
100
AcDbEntity
  8
0
100
AcDbBlockBegin
  2
*Model_Space
 70
0
 10
0.0
 20
0.0
 30
0.0
  3
*Model_Space
  1

  0
ENDBLK
  5
21
100
AcDbEntity
  8
0
100
AcDbBlockEnd
  0
BLOCK
  5
1C
100
AcDbEntity
  8
0
100
AcDbBlockBegin
  2
*Paper_Space
 70
0
 10
0.0
 20
0.0
 30
0.0
  3
*Paper_Space
  1

  0
ENDBLK
  5
1D
100
AcDbEntity
  8
0
100
AcDbBlockEnd
  0
BLOCK
  5
206
100
AcDbEntity
  8
0
100
AcDbBlockBegin
  2
_FILLED
 70
64
 10
0.0
 20
0.0
  3
_FILLED
  1

  0
SOLID
  5
207
100
AcDbEntity
  8
0
  6
BYBLOCK
 62
0
100
AcDbTrace
 10
0.0
 20
0.0
 11
-1.0
 21
0.2
 12
-1.0
 22
-0.2
 13
-1.0
 23
-0.2
  0
ENDBLK
  5
208
100
AcDbEntity
  8
0
  6
BYBLOCK
 62
0
100
AcDbBlockEnd
  0
ENDSEC
  0
SECTION
  2
ENTITIES
  0
MTEXT
  5
209
100
AcDbEntity
  8
0
100
AcDbMText
 62
2
  6
CONTINUOUS
  7
STANDARD
 71
3
 72
1
 10
4.9811723602
 20
1.034698433
 30
0.0
 11
1.0
 21
0.0
 31
0.0
 73
2
 44
0.9
  1
SCALE  .500
 40
0.08
 41
0.704
  0
LINE
  5
20A
100
AcDbEntity
  8
0
100
AcDbLine
 62
7
  6
CONTINUOUS
 10
0.0
 20
0.0
 11
0.0
 21
8.5
  0
LINE
  5
20B
100
AcDbEntity
  8
0
100
AcDbLine
 62
7
  6
CONTINUOUS
 10
0.0
 20
0.0
 11
11.0
 21
0.0
  0
LINE
  5
20C
100
AcDbEntity
  8
0
100
AcDbLine
 62
7
  6
CONTINUOUS
 10
0.0
 20
8.5
 11
11.0
 21
8.5
  0
LINE
  5
20D
100
AcDbEntity
  8
0
100
AcDbLine
 62
7
  6
CONTINUOUS
 10
11.0
 20
0.0
 11
11.0
 21
8.5
  0
LINE
  5
20E
100
AcDbEntity
  8
0
100
AcDbLine
 62
7
  6
CONTINUOUS
 10
0.9790913558
 20
3.1084072794
 11
0.9790913558
 21
3.3579116001
  0
LINE
  5
20F
100
AcDbEntity
  8
0
100
AcDbLine
 62
7
  6
CONTINUOUS
 10
0.9903350105
 20
3.0849936186
 11
0.9903350105
 21
3.3813252609
  0
LINE
  5
210
100
AcDbEntity
  8
0
100
AcDbLine
 62
7
  6
CONTINUOUS
 10
1.0391142592
 20
3.009800838
 11
1.0391142592
 21
3.4565180415
  0
LINE
  5
211
100
AcDbEntity
  8
0
100
AcDbLine
 62
7
  6
CONTINUOUS
 10
1.06813992
 20
2.9873844397
 11
1.06813992
 21
3.4789344397
  0
LINE
  5
212
100
AcDbEntity
  8
0
100
AcDbLine
 62
7
  6
CONTINUOUS
 10
1.0790913558
 20
2.9873844397
 11
1.0790913558
 21
3.4789344397
  0
LINE
  5
213
100
AcDbEntity
  8
0
100
AcDbLine
 62
7
  6
CONTINUOUS
 10
1.0990913558
 20
3.0073844397
 11
1.0990913558
 21
3.4589344397
  0
LINE
  5
214
100
AcDbEntity
  8
0
100
AcDbLine
 62
7
  6
CONTINUOUS
 10
2.1865913556
 20
3.0936594397
 11
2.1865913556
 21
3.3726594398
  0
LINE
  5
215
100
AcDbEntity
  8
0
100
AcDbLine
 62
7
  6
CONTINUOUS
 10
2.2267790498
 20
3.0698074522
 11
2.2267790498
 21
3.3965114273
  0
LINE
  5
216
100
AcDbEntity
  8
0
100
AcDbLine
 62
7
  6
CONTINUOUS
 10
2.3605902431
 20
3.0819695812
 11
2.3605902431
 21
3.3843492983
  0
LINE
  5
217
100
AcDbEntity
  8
0
100
AcDbLine
 62
7
  6
CONTINUOUS
 10
2.3840913558
 20
3.101660752
 11
2.3840913558
 21
3.3646581275
  0
LINE
  5
218
100
AcDbEntity
  8
0
100
AcDbLine
 62
7
  6
CONTINUOUS
 10
3.0371388422
 20
2.0315747639
 11
3.0870742967
 21
1.9699096131
  0
LINE
  5
219
100
AcDbEntity
  8
0
100
AcDbLine
 62
7
  6
CONTINUOUS
 10
2.4040913558
 20
2.8579096131
 11
2.4040913558
 21
2.8554900116
  0
LINE
  5
21A
100
AcDbEntity
  8
0
100
AcDbLine
 62
7
  6
CONTINUOUS
 10
2.4350913558
 20
3.1178344397
 11
2.4350913558
 21
3.3484844397
  0
LINE
  5
21B
100
AcDbEntity
  8
0
100
AcDbLine
 62
7
  6
CONTINUOUS
 10
2.4668413558
 20
2.9279096131
 11
2.4668413558
 21
2.8879096131
  0
LINE
  5
21C
100
AcDbEntity
  8
0
100
AcDbLine
 62
7
  6
CONTINUOUS
 10
2.4890913558
 20
3.4167234298
 11
2.4890913558
 21
3.4132954148
  0
LINE
  5
21D
100
AcDbEntity
  8
0
100
AcDbLine
 62
7
  6
CONTINUOUS
 10
2.4998413558
 20
2.9279096131
 11
2.4998413558
 21
3.0529096131
  0
LINE
  5
21E
100
AcDbEntity
  8
0
100
AcDbLine
 62
7
  6
CONTINUOUS
 10
2.7583413558
 20
2.9279096131
 11
2.7583413558
 21
3.0529096131
  0
LINE
  5
21F
100
AcDbEntity
  8
0
100
AcDbLine
 62
7
  6
CONTINUOUS
 10
2.7690913558
 20
3.4167234298
 11
2.7690913558
 21
3.4132954148
  0
LINE
  5
220
100
AcDbEntity
  8
0
100
AcDbLine
 62
7
  6
CONTINUOUS
 10
2.7913413558
 20
2.9279096131
 11
2.7913413558
 21
2.8879096131
  0
LINE
  5
221
100
AcDbEntity
  8
0
100
AcDbLine
 62
7
  6
CONTINUOUS
 10
2.8540913558
 20
2.8579096131
 11
2.8540913558
 21
2.8554900116
  0
LINE
  5
222
100
AcDbEntity
  8
0
100
AcDbLine
 62
7
  6
CONTINUOUS
 10
9.1730913558
 20
1.7984096131
 11
8.8350913558
 21
1.7984096131
  0
LINE
  5
223
100
AcDbEntity
  8
0
100
AcDbLine
 62
7
  6
CONTINUOUS
 10
5.2536998468
 20
1.8079096131
 11
4.0044828648
 21
1.8079096131
  0
LINE
  5
224
100
AcDbEntity
  8
0
100
AcDbLine
 62
7
  6
CONTINUOUS
 10
6.0873737799
 20
1.8079096131
 11
7.1708089316
 21
1.8079096131
  0
LINE
  5
225
100
AcDbEntity
  8
0
100
AcDbLine
 62
7
  6
CONTINUOUS
 10
8.4353932489
 20
1.8079096131
 11
9.5727894626
 21
1.8079096131
  0
LINE
  5
226
100
AcDbEntity
  8
0
100
AcDbLine
 62
7
  6
CONTINUOUS
 10
2.0873737799
 20
1.8179096131
 11
3.1708088881
 21
1.8179096131
  0
LINE
  5
227
100
AcDbEntity
  8
0
100
AcDbLine
 62
7
  6
CONTINUOUS
 10
8.4274027582
 20
1.8239222713
 11
9.5807799533
 21
1.8239222713
  0
LINE
  5
228
100
AcDbEntity
  8
0
100
AcDbLine
 62
7
  6
CONTINUOUS
 10
6.0774799382
 20
1.8341840043
 11
7.1807027734
 21
1.8341840043
  0
LINE
  5
229
100
AcDbEntity
  8
0
100
AcDbLine
 62
7
  6
CONTINUOUS
 10
3.9890896294
 20
1.84067865
 11
5.2690930822
 21
1.84067865
  0
LINE
  5
22A
100
AcDbEntity
  8
0
100
AcDbLine
 62
7
  6
CONTINUOUS
 10
2.0774799382
 20
1.8441840043
 11
3.1807027734
 21
1.8441840043
  0
LINE
  5
22B
100
AcDbEntity
  8
0
100
AcDbLine
 62
7
  6
CONTINUOUS
 10
9.544263776
 20
1.8647887568
 11
8.4639189355
 21
1.8647887568
  0
LINE
  5
22C
100
AcDbEntity
  8
0
100
AcDbLine
 62
7
  6
CONTINUOUS
 10
9.5394394503
 20
1.886760231
 11
8.4687432612
 21
1.886760231
  0
LINE
  5
22D
100
AcDbEntity
  8
0
100
AcDbLine
 62
7
  6
CONTINUOUS
 10
9.5376879429
 20
1.8991034422
 11
8.4704947687
 21
1.8991034422
  0
LINE
  5
22E
100
AcDbEntity
  8
0
100
AcDbLine
 62
7
  6
CONTINUOUS
 10
4.0533747437
 20
1.9040042448
 11
5.2048079678
 21
1.9040042448
  0
LINE
  5
22F
100
AcDbEntity
  8
0
100
AcDbLine
 62
7
  6
CONTINUOUS
 10
7.0964528708
 20
1.9150132856
 11
6.1617298407
 21
1.9150132856
  0
LINE
  5
230
100
AcDbEntity
  8
0
100
AcDbLine
 62
7
  6
CONTINUOUS
 10
3.0964528708
 20
1.9250132856
 11
2.1617298407
 21
1.9250132856
  0
LINE
  5
231
100
AcDbEntity
  8
0
100
AcDbLine
 62
7
  6
CONTINUOUS
 10
4.0587864826
 20
1.9284123993
 11
5.1993962289
 21
1.9284123993
  0
LINE
  5
232
100
AcDbEntity
  8
0
100
AcDbLine
 62
7
  6
CONTINUOUS
 10
7.0918474436
 20
1.934817102
 11
6.166335268
 21
1.934817102
  0
LINE
  5
233
100
AcDbEntity
  8
0
100
AcDbLine
 62
7
  6
CONTINUOUS
 10
4.0570203106
 20
1.9406070634
 11
5.2011624009
 21
1.9406070635
  0
LINE
  5
234
100
AcDbEntity
  8
0
100
AcDbLine
 62
7
  6
CONTINUOUS
 10
3.0918474436
 20
1.944817102
 11
2.166335268
 21
1.944817102
  0
LINE
  5
235
100
AcDbEntity
  8
0
100
AcDbLine
 62
7
  6
CONTINUOUS
 10
4.0590514525
 20
1.9474496727
 11
5.1991312591
 21
1.9474496727
  0
LINE
  5
236
100
AcDbEntity
  8
0
100
AcDbLine
 62
7
  6
CONTINUOUS
 10
6.1711084148
 20
1.9599096131
 11
7.0870742967
 21
1.9599096131
  0
LINE
  5
237
100
AcDbEntity
  8
0
100
AcDbLine
 62
7
  6
CONTINUOUS
 10
9.5004756371
 20
1.9605717967
 11
8.5077070745
 21
1.9605717967
  0
LINE
  5
238
100
AcDbEntity
  8
0
100
AcDbLine
 62
7
  6
CONTINUOUS
 10
9.4890913558
 20
1.9679096131
 11
8.5190913558
 21
1.9679096131
  0
LINE
  5
239
100
AcDbEntity
  8
0
100
AcDbLine
 62
7
  6
CONTINUOUS
 10
2.1711084148
 20
1.9699096131
 11
3.0870742967
 21
1.9699096131
  0
LINE
  5
23A
100
AcDbEntity
  8
0
100
AcDbLine
 62
7
  6
CONTINUOUS
 10
9.4677378663
 20
1.9753641135
 11
8.5404448452
 21
1.9753641135
  0
LINE
  5
23B
100
AcDbEntity
  8
0
100
AcDbLine
 62
7
  6
CONTINUOUS
 10
4.0790224942
 20
2.0139234643
 11
5.1791602173
 21
2.0139234643
  0
LINE
  5
23C
100
AcDbEntity
  8
0
100
AcDbLine
 62
7
  6
CONTINUOUS
 10
6.2210438693
 20
2.0215747639
 11
7.0371388422
 21
2.0215747639
  0
LINE
  5
23D
100
AcDbEntity
  8
0
100
AcDbLine
 62
7
  6
CONTINUOUS
 10
2.2210438693
 20
2.0315747639
 11
3.0371388422
 21
2.0315747639
  0
LINE
  5
23E
100
AcDbEntity
  8
0
100
AcDbLine
 62
7
  6
CONTINUOUS
 10
7.0098455313
 20
2.0345485502
 11
6.248243978
 21
2.0345485502
  0
LINE
  5
23F
100
AcDbEntity
  8
0
100
AcDbLine
 62
7
  6
CONTINUOUS
 10
4.1045913561
 20
2.0384096137
 11
5.1535913554
 21
2.0384096137
  0
LINE
  5
240
100
AcDbEntity
  8
0
100
AcDbLine
 62
7
  6
CONTINUOUS
 10
3.0098455313
 20
2.0445485502
 11
2.248243978
 21
2.0445485502
  0
LINE
  5
241
100
AcDbEntity
  8
0
100
AcDbLine
 62
7
  6
CONTINUOUS
 10
9.3587217808
 20
2.0871810925
 11
8.6494609308
 21
2.0871810925
  0
LINE
  5
242
100
AcDbEntity
  8
0
100
AcDbLine
 62
7
  6
CONTINUOUS
 10
9.3328930281
 20
2.1338821705
 11
8.6752896835
 21
2.1338821705
  0
LINE
  5
243
100
AcDbEntity
  8
0
100
AcDbLine
 62
7
  6
CONTINUOUS
 10
6.8815913558
 20
2.1429096131
 11
6.3765913558
 21
2.1429096131
  0
LINE
  5
244
100
AcDbEntity
  8
0
100
AcDbLine
 62
7
  6
CONTINUOUS
 10
2.8815913558
 20
2.1529096131
 11
2.3765913558
 21
2.1529096131
  0
LINE
  5
245
100
AcDbEntity
  8
0
100
AcDbLine
 62
7
  6
CONTINUOUS
 10
9.3025913558
 20
2.1609096131
 11
8.7055913558
 21
2.1609096131
  0
LINE
  5
246
100
AcDbEntity
  8
0
100
AcDbLine
 62
7
  6
CONTINUOUS
 10
9.2913413558
 20
2.1734096131
 11
8.7168413922
 21
2.1734096131
  0
LINE
  5
247
100
AcDbEntity
  8
0
100
AcDbLine
 62
7
  6
CONTINUOUS
 10
6.8669804028
 20
2.1880621473
 11
6.3912023087
 21
2.1880621473
  0
LINE
  5
248
100
AcDbEntity
  8
0
100
AcDbLine
 62
7
  6
CONTINUOUS
 10
2.8669804028
 20
2.1980621473
 11
2.3912023087
 21
2.1980621473
  0
LINE
  5
249
100
AcDbEntity
  8
0
100
AcDbLine
 62
7
  6
CONTINUOUS
 10
8.6908751664
 20
2.2052017781
 11
9.3173075451
 21
2.2052017781
  0
LINE
  5
24A
100
AcDbEntity
  8
0
100
AcDbLine
 62
7
  6
CONTINUOUS
 10
6.8446966183
 20
2.2123250227
 11
6.4134860932
 21
2.2123250227
  0
LINE
  5
24B
100
AcDbEntity
  8
0
100
AcDbLine
 62
7
  6
CONTINUOUS
 10
9.3100611893
 20
2.2212829249
 11
8.6981215223
 21
2.2212829249
  0
LINE
  5
24C
100
AcDbEntity
  8
0
100
AcDbLine
 62
7
  6
CONTINUOUS
 10
2.8446966183
 20
2.2223250227
 11
2.4134860932
 21
2.2223250227
  0
LINE
  5
24D
100
AcDbEntity
  8
0
100
AcDbLine
 62
7
  6
CONTINUOUS
 10
4.9965913558
 20
2.2479096131
 11
4.2615913558
 21
2.2479096131
  0
LINE
  5
24E
100
AcDbEntity
  8
0
100
AcDbLine
 62
7
  6
CONTINUOUS
 10
9.2847971061
 20
2.2841931933
 11
8.7233856054
 21
2.2841931933
  0
LINE
  5
24F
100
AcDbEntity
  8
0
100
AcDbLine
 62
7
  6
CONTINUOUS
 10
4.9813503317
 20
2.3091635377
 11
4.2768323799
 21
2.3091635377
  0
LINE
  5
250
100
AcDbEntity
  8
0
100
AcDbLine
 62
7
  6
CONTINUOUS
 10
4.9639501371
 20
2.336205649
 11
4.2942325744
 21
2.336205649
  0
LINE
  5
251
100
AcDbEntity
  8
0
100
AcDbLine
 62
7
  6
CONTINUOUS
 10
4.9628253069
 20
2.5196353892
 11
4.2953574046
 21
2.5196353892
  0
LINE
  5
252
100
AcDbEntity
  8
0
100
AcDbLine
 62
7
  6
CONTINUOUS
 10
8.8264121676
 20
3.676988326
 11
8.8358466187
 21
3.6793405988
  0
LINE
  5
253
100
AcDbEntity
  8
0
100
AcDbLine
 62
7
  6
CONTINUOUS
 10
4.9736159395
 20
2.5509693889
 11
4.284566772
 21
2.5509693889
  0
LINE
  5
254
100
AcDbEntity
  8
0
100
AcDbLine
 62
7
  6
CONTINUOUS
 10
4.9652770903
 20
2.6084978202
 11
4.2929056212
 21
2.6084978202
  0
LINE
  5
255
100
AcDbEntity
  8
0
100
AcDbLine
 62
7
  6
CONTINUOUS
 10
4.9526036391
 20
2.6312016013
 11
4.3055790725
 21
2.6312016013
  0
LINE
  5
256
100
AcDbEntity
  8
0
100
AcDbLine
 62
7
  6
CONTINUOUS
 10
6.4309521566
 20
2.7984263526
 11
6.8272305549
 21
2.7984263526
  0
LINE
  5
257
100
AcDbEntity
  8
0
100
AcDbLine
 62
7
  6
CONTINUOUS
 10
2.4309521566
 20
2.8084263526
 11
2.8272305549
 21
2.8084263526
  0
LINE
  5
258
100
AcDbEntity
  8
0
100
AcDbLine
 62
7
  6
CONTINUOUS
 10
6.4175998577
 20
2.8204294751
 11
6.8405828538
 21
2.820429475
  0
LINE
  5
259
100
AcDbEntity
  8
0
100
AcDbLine
 62
7
  6
CONTINUOUS
 10
2.4175998577
 20
2.830429475
 11
2.8405828538
 21
2.8304294751
  0
LINE
  5
25A
100
AcDbEntity
  8
0
100
AcDbLine
 62
7
  6
CONTINUOUS
 10
6.4040913558
 20
2.8454900116
 11
6.8540913558
 21
2.8454900116
  0
LINE
  5
25B
100
AcDbEntity
  8
0
100
AcDbLine
 62
7
  6
CONTINUOUS
 10
4.3023413558
 20
4.7739096131
 11
4.3023413558
 21
4.7555277887
  0
LINE
  5
25C
100
AcDbEntity
  8
0
100
AcDbLine
 62
7
  6
CONTINUOUS
 10
4.3390913558
 20
5.9024096131
 11
4.3390913558
 21
5.8724096131
  0
LINE
  5
25D
100
AcDbEntity
  8
0
100
AcDbLine
 62
7
  6
CONTINUOUS
 10
4.2953574046
 20
2.5196353892
 11
4.2942325744
 21
2.336205649
  0
LINE
  5
25E
100
AcDbEntity
  8
0
100
AcDbLine
 62
7
  6
CONTINUOUS
 10
2.2210438693
 20
2.0315747639
 11
2.1711084148
 21
1.9699096131
  0
LINE
  5
25F
100
AcDbEntity
  8
0
100
AcDbLine
 62
7
  6
CONTINUOUS
 10
9.2591193762
 20
3.7809663464
 11
9.2686064449
 21
3.7831566088
  0
LINE
  5
260
100
AcDbEntity
  8
0
100
AcDbLine
 62
7
  6
CONTINUOUS
 10
8.8144066257
 20
3.6866134569
 11
8.8239643543
 21
3.6884712911
  0
LINE
  5
261
100
AcDbEntity
  8
0
100
AcDbLine
 62
7
  6
CONTINUOUS
 10
9.251969164
 20
3.7677972938
 11
9.2615578605
 21
3.7694880397
  0
LINE
  5
262
100
AcDbEntity
  8
0
100
AcDbLine
 62
7
  6
CONTINUOUS
 10
6.4040913558
 20
2.8479096131
 11
6.8540913558
 21
2.8479096131
  0
LINE
  5
263
100
AcDbEntity
  8
0
100
AcDbLine
 62
7
  6
CONTINUOUS
 10
2.4040913558
 20
2.8554900116
 11
2.8540913558
 21
2.8554900116
  0
LINE
  5
264
100
AcDbEntity
  8
0
100
AcDbLine
 62
7
  6
CONTINUOUS
 10
2.4040913558
 20
2.8579096131
 11
2.8540913558
 21
2.8579096131
  0
LINE
  5
265
100
AcDbEntity
  8
0
100
AcDbLine
 62
7
  6
CONTINUOUS
 10
6.8240913558
 20
2.8779096131
 11
6.4340913558
 21
2.8779096131
  0
LINE
  5
266
100
AcDbEntity
  8
0
100
AcDbLine
 62
7
  6
CONTINUOUS
 10
2.8240913558
 20
2.8879096131
 11
2.4340913558
 21
2.8879096131
  0
LINE
  5
267
100
AcDbEntity
  8
0
100
AcDbLine
 62
7
  6
CONTINUOUS
 10
6.4668412872
 20
2.9179096131
 11
6.7913414244
 21
2.9179096131
  0
LINE
  5
268
100
AcDbEntity
  8
0
100
AcDbLine
 62
7
  6
CONTINUOUS
 10
2.4668413558
 20
2.9279096131
 11
2.7913413558
 21
2.9279096131
  0
LINE
  5
269
100
AcDbEntity
  8
0
100
AcDbLine
 62
7
  6
CONTINUOUS
 10
8.1790913558
 20
2.9773844397
 11
8.1900427916
 21
2.9773844397
  0
LINE
  5
26A
100
AcDbEntity
  8
0
100
AcDbLine
 62
7
  6
CONTINUOUS
 10
1.0790913558
 20
2.9873844397
 11
1.06813992
 21
2.9873844397
  0
LINE
  5
26B
100
AcDbEntity
  8
0
100
AcDbLine
 62
7
  6
CONTINUOUS
 10
6.4935913558
 20
3.0429096131
 11
6.7645913558
 21
3.0429096131
  0
LINE
  5
26C
100
AcDbEntity
  8
0
100
AcDbLine
 62
7
  6
CONTINUOUS
 10
2.7645913558
 20
3.0529096131
 11
2.4935913558
 21
3.0529096131
  0
LINE
  5
26D
100
AcDbEntity
  8
0
100
AcDbLine
 62
7
  6
CONTINUOUS
 10
6.8230913558
 20
3.1078344397
 11
6.8740913558
 21
3.1078344397
  0
LINE
  5
26E
100
AcDbEntity
  8
0
100
AcDbLine
 62
7
  6
CONTINUOUS
 10
2.4350913558
 20
3.1178344397
 11
2.3840913558
 21
3.1178344397
  0
LINE
  5
26F
100
AcDbEntity
  8
0
100
AcDbLine
 62
7
  6
CONTINUOUS
 10
4.3796012842
 20
4.9231251367
 11
4.3638589139
 21
5.1030612533
  0
LINE
  5
270
100
AcDbEntity
  8
0
100
AcDbLine
 62
7
  6
CONTINUOUS
 10
4.4115913558
 20
6.195720926
 11
4.4115913558
 21
5.2179096131
  0
LINE
  5
271
100
AcDbEntity
  8
0
100
AcDbLine
 62
7
  6
CONTINUOUS
 10
9.181770544
 20
4.1448309003
 11
9.1723360928
 21
4.1424786274
  0
LINE
  5
272
100
AcDbEntity
  8
0
100
AcDbLine
 62
7
  6
CONTINUOUS
 10
8.7490633354
 20
4.0408528799
 11
8.7395762666
 21
4.0386626175
  0
LINE
  5
273
100
AcDbEntity
  8
0
100
AcDbLine
 62
7
  6
CONTINUOUS
 10
9.1937760858
 20
4.1352057693
 11
9.1842183573
 21
4.1333479351
  0
LINE
  5
274
100
AcDbEntity
  8
0
100
AcDbLine
 62
7
  6
CONTINUOUS
 10
8.7562135475
 20
4.0540219324
 11
8.746624851
 21
4.0523311865
  0
LINE
  5
275
100
AcDbEntity
  8
0
100
AcDbLine
 62
7
  6
CONTINUOUS
 10
8.8029278282
 20
3.6968481787
 11
8.8125696898
 21
3.698203254
  0
LINE
  5
276
100
AcDbEntity
  8
0
100
AcDbLine
 62
7
  6
CONTINUOUS
 10
9.244139536
 20
3.7550205021
 11
9.2538035784
 21
3.7562070973
  0
LINE
  5
277
100
AcDbEntity
  8
0
100
AcDbLine
 62
7
  6
CONTINUOUS
 10
8.792000406
 20
3.7076696281
 11
8.8016999729
 21
3.7085182302
  0
LINE
  5
278
100
AcDbEntity
  8
0
100
AcDbLine
 62
7
  6
CONTINUOUS
 10
9.2356603701
 20
3.7426648761
 11
9.2453599586
 21
3.7433431374
  0
LINE
  5
279
100
AcDbEntity
  8
0
100
AcDbLine
 62
7
  6
CONTINUOUS
 10
6.8230913558
 20
3.3384844397
 11
6.8740913558
 21
3.3384844397
  0
LINE
  5
27A
100
AcDbEntity
  8
0
100
AcDbLine
 62
7
  6
CONTINUOUS
 10
2.4350913558
 20
3.3484844397
 11
2.3840913558
 21
3.3484844397
  0
LINE
  5
27B
100
AcDbEntity
  8
0
100
AcDbLine
 62
7
  6
CONTINUOUS
 10
9.2650022636
 20
3.3796383928
 11
8.743180448
 21
3.3796383928
  0
LINE
  5
27C
100
AcDbEntity
  8
0
100
AcDbLine
 62
7
  6
CONTINUOUS
 10
6.479660408
 20
3.3920399947
 11
6.7785223036
 21
3.3920399947
  0
LINE
  5
27D
100
AcDbEntity
  8
0
100
AcDbLine
 62
7
  6
CONTINUOUS
 10
6.4829737328
 20
3.3932954148
 11
6.7752089788
 21
3.3932954148
  0
LINE
  5
27E
100
AcDbEntity
  8
0
100
AcDbLine
 62
7
  6
CONTINUOUS
 10
2.479660408
 20
3.4020399947
 11
2.7785223036
 21
3.4020399947
  0
LINE
  5
27F
100
AcDbEntity
  8
0
100
AcDbLine
 62
7
  6
CONTINUOUS
 10
6.7690913558
 20
3.4032954148
 11
6.4890913558
 21
3.4032954148
  0
LINE
  5
280
100
AcDbEntity
  8
0
100
AcDbLine
 62
7
  6
CONTINUOUS
 10
2.4829737328
 20
3.4032954148
 11
2.7752089788
 21
3.4032954148
  0
LINE
  5
281
100
AcDbEntity
  8
0
100
AcDbLine
 62
7
  6
CONTINUOUS
 10
6.7690913558
 20
3.4067234298
 11
6.4890913558
 21
3.4067234298
  0
LINE
  5
282
100
AcDbEntity
  8
0
100
AcDbLine
 62
7
  6
CONTINUOUS
 10
2.7690913558
 20
3.4132954148
 11
2.4890913558
 21
3.4132954148
  0
LINE
  5
283
100
AcDbEntity
  8
0
100
AcDbLine
 62
7
  6
CONTINUOUS
 10
2.7690913558
 20
3.4167234298
 11
2.4890913558
 21
3.4167234298
  0
LINE
  5
284
100
AcDbEntity
  8
0
100
AcDbLine
 62
7
  6
CONTINUOUS
 10
9.2907897864
 20
3.4356391232
 11
8.7173929251
 21
3.4356391232
  0
LINE
  5
285
100
AcDbEntity
  8
0
100
AcDbLine
 62
7
  6
CONTINUOUS
 10
6.7419945816
 20
3.4445851092
 11
6.51618813
 21
3.4445851092
  0
LINE
  5
286
100
AcDbEntity
  8
0
100
AcDbLine
 62
7
  6
CONTINUOUS
 10
2.7419945816
 20
3.4545851092
 11
2.51618813
 21
3.4545851092
  0
LINE
  5
287
100
AcDbEntity
  8
0
100
AcDbLine
 62
7
  6
CONTINUOUS
 10
8.1790913558
 20
3.4689344397
 11
8.1900427916
 21
3.4689344397
  0
LINE
  5
288
100
AcDbEntity
  8
0
100
AcDbLine
 62
7
  6
CONTINUOUS
 10
1.0790913558
 20
3.4789344397
 11
1.06813992
 21
3.4789344397
  0
LINE
  5
289
100
AcDbEntity
  8
0
100
AcDbLine
 62
7
  6
CONTINUOUS
 10
8.7383413558
 20
3.4859096131
 11
9.2698413558
 21
3.4859096131
  0
LINE
  5
28A
100
AcDbEntity
  8
0
100
AcDbLine
 62
7
  6
CONTINUOUS
 10
4.9628253069
 20
2.5196353892
 11
4.9639501371
 21
2.336205649
  0
LINE
  5
28B
100
AcDbEntity
  8
0
100
AcDbLine
 62
7
  6
CONTINUOUS
 10
4.8465913558
 20
6.195720926
 11
4.8465913558
 21
5.2179096131
  0
LINE
  5
28C
100
AcDbEntity
  8
0
100
AcDbLine
 62
7
  6
CONTINUOUS
 10
4.9190913558
 20
5.9024096131
 11
4.9190913558
 21
5.8724096131
  0
LINE
  5
28D
100
AcDbEntity
  8
0
100
AcDbLine
 62
7
  6
CONTINUOUS
 10
4.9558413558
 20
4.7739096131
 11
4.9558413558
 21
4.7555277887
  0
LINE
  5
28E
100
AcDbEntity
  8
0
100
AcDbLine
 62
7
  6
CONTINUOUS
 10
4.8785814273
 20
4.9231251367
 11
4.8943237977
 21
5.1030612533
  0
LINE
  5
28F
100
AcDbEntity
  8
0
100
AcDbLine
 62
7
  6
CONTINUOUS
 10
9.2052548833
 20
4.1249710475
 11
9.1956130218
 21
4.1236159722
  0
LINE
  5
290
100
AcDbEntity
  8
0
100
AcDbLine
 62
7
  6
CONTINUOUS
 10
8.7640431755
 20
4.0667987241
 11
8.7543791332
 21
4.0656121289
  0
LINE
  5
291
100
AcDbEntity
  8
0
100
AcDbLine
 62
7
  6
CONTINUOUS
 10
9.2161823055
 20
4.1141495982
 11
9.2064827387
 21
4.113300996
  0
LINE
  5
292
100
AcDbEntity
  8
0
100
AcDbLine
 62
7
  6
CONTINUOUS
 10
8.7816543103
 20
3.7190481441
 11
8.7913849966
 21
3.7193879471
  0
LINE
  5
293
100
AcDbEntity
  8
0
100
AcDbLine
 62
7
  6
CONTINUOUS
 10
9.2265296778
 20
3.7307826116
 11
9.2362648124
 21
3.730952539
  0
LINE
  5
294
100
AcDbEntity
  8
0
100
AcDbLine
 62
7
  6
CONTINUOUS
 10
8.7432654712
 20
3.5010663267
 11
9.2649172403
 21
3.5010663267
  0
LINE
  5
295
100
AcDbEntity
  8
0
100
AcDbLine
 62
7
  6
CONTINUOUS
 10
8.7634155344
 20
3.5484481279
 11
9.2447671771
 21
3.5484481279
  0
LINE
  5
296
100
AcDbEntity
  8
0
100
AcDbLine
 62
7
  6
CONTINUOUS
 10
8.7483335677
 20
3.6128825025
 11
9.2598491438
 21
3.6128825025
  0
LINE
  5
297
100
AcDbEntity
  8
0
100
AcDbLine
 62
7
  6
CONTINUOUS
 10
9.2516821565
 20
3.6520554723
 11
9.133151293
 21
3.6520554723
  0
LINE
  5
298
100
AcDbEntity
  8
0
100
AcDbLine
 62
7
  6
CONTINUOUS
 10
8.8750314185
 20
3.6520554723
 11
8.756500555
 21
3.6520554723
  0
LINE
  5
299
100
AcDbEntity
  8
0
100
AcDbLine
 62
7
  6
CONTINUOUS
 10
9.2490883306
 20
3.6582571236
 11
9.14636177
 21
3.6582571236
  0
LINE
  5
29A
100
AcDbEntity
  8
0
100
AcDbLine
 62
7
  6
CONTINUOUS
 10
8.8618209416
 20
3.6582571236
 11
8.7590943809
 21
3.6582571236
  0
LINE
  5
29B
100
AcDbEntity
  8
0
100
AcDbLine
 62
7
  6
CONTINUOUS
 10
9.2750895107
 20
3.7069096131
 11
9.2066234745
 21
3.7069096131
  0
LINE
  5
29C
100
AcDbEntity
  8
0
100
AcDbLine
 62
7
  6
CONTINUOUS
 10
8.7330932013
 20
3.7069096131
 11
8.8015526177
 21
3.7069096135
  0
LINE
  5
29D
100
AcDbEntity
  8
0
100
AcDbLine
 62
7
  6
CONTINUOUS
 10
8.7719178991
 20
3.730952539
 11
8.7816530338
 21
3.7307826116
  0
LINE
  5
29E
100
AcDbEntity
  8
0
100
AcDbLine
 62
7
  6
CONTINUOUS
 10
8.7725223415
 20
4.0791543502
 11
8.762822753
 21
4.0784760889
  0
LINE
  5
29F
100
AcDbEntity
  8
0
100
AcDbLine
 62
7
  6
CONTINUOUS
 10
9.2265284012
 20
4.1027710822
 11
9.2167977149
 21
4.1024312791
  0
LINE
  5
2A0
100
AcDbEntity
  8
0
100
AcDbLine
 62
7
  6
CONTINUOUS
 10
8.7816530338
 20
4.0910366146
 11
8.7719178991
 21
4.0908666872
  0
LINE
  5
2A1
100
AcDbEntity
  8
0
100
AcDbLine
 62
7
  6
CONTINUOUS
 10
9.2167977149
 20
3.7193879471
 11
9.2265284012
 21
3.7190481441
  0
LINE
  5
2A2
100
AcDbEntity
  8
0
100
AcDbLine
 62
7
  6
CONTINUOUS
 10
8.762822753
 20
3.7433431374
 11
8.7725223415
 21
3.7426648761
  0
LINE
  5
2A3
100
AcDbEntity
  8
0
100
AcDbLine
 62
7
  6
CONTINUOUS
 10
9.2064827387
 20
3.7085182302
 11
9.2161823055
 21
3.7076696281
  0
LINE
  5
2A4
100
AcDbEntity
  8
0
100
AcDbLine
 62
7
  6
CONTINUOUS
 10
9.2362648124
 20
4.0908666872
 11
9.2265296778
 21
4.0910366146
  0
LINE
  5
2A5
100
AcDbEntity
  8
0
100
AcDbLine
 62
7
  6
CONTINUOUS
 10
8.7913849966
 20
4.1024312791
 11
8.7816543103
 21
4.1027710822
  0
LINE
  5
2A6
100
AcDbEntity
  8
0
100
AcDbLine
 62
7
  6
CONTINUOUS
 10
9.2453599586
 20
4.0784760889
 11
9.2356603701
 21
4.0791543502
  0
LINE
  5
2A7
100
AcDbEntity
  8
0
100
AcDbLine
 62
7
  6
CONTINUOUS
 10
8.8016999729
 20
4.113300996
 11
8.792000406
 21
4.1141495982
  0
LINE
  5
2A8
100
AcDbEntity
  8
0
100
AcDbLine
 62
7
  6
CONTINUOUS
 10
8.7543791332
 20
3.7562070973
 11
8.7640431755
 21
3.7550205021
  0
LINE
  5
2A9
100
AcDbEntity
  8
0
100
AcDbLine
 62
7
  6
CONTINUOUS
 10
9.1956130218
 20
3.698203254
 11
9.2052548833
 21
3.6968481787
  0
LINE
  5
2AA
100
AcDbEntity
  8
0
100
AcDbLine
 62
7
  6
CONTINUOUS
 10
8.746624851
 20
3.7694880397
 11
8.7562135475
 21
3.7677972938
  0
LINE
  5
2AB
100
AcDbEntity
  8
0
100
AcDbLine
 62
7
  6
CONTINUOUS
 10
9.1842183573
 20
3.6884712911
 11
9.1937760858
 21
3.6866134569
  0
LINE
  5
2AC
100
AcDbEntity
  8
0
100
AcDbLine
 62
7
  6
CONTINUOUS
 10
7.0371388422
 20
2.0215747639
 11
7.0870742967
 21
1.9599096131
  0
LINE
  5
2AD
100
AcDbEntity
  8
0
100
AcDbLine
 62
7
  6
CONTINUOUS
 10
4.3364297325
 20
4.7001305276
 11
4.9217529791
 21
4.7001305276
  0
LINE
  5
2AE
100
AcDbEntity
  8
0
100
AcDbLine
 62
7
  6
CONTINUOUS
 10
4.3233413566
 20
4.7269096124
 11
4.934841355
 21
4.7269096124
  0
LINE
  5
2AF
100
AcDbEntity
  8
0
100
AcDbLine
 62
7
  6
CONTINUOUS
 10
4.3023413558
 20
4.7555277887
 11
4.9558413558
 21
4.7555277887
  0
LINE
  5
2B0
100
AcDbEntity
  8
0
100
AcDbLine
 62
7
  6
CONTINUOUS
 10
4.3023413558
 20
4.7739096131
 11
4.9558413558
 21
4.7739096131
  0
LINE
  5
2B1
100
AcDbEntity
  8
0
100
AcDbLine
 62
7
  6
CONTINUOUS
 10
4.3170913558
 20
4.7999096131
 11
4.9410913558
 21
4.7999096131
  0
LINE
  5
2B2
100
AcDbEntity
  8
0
100
AcDbLine
 62
7
  6
CONTINUOUS
 10
9.2538035784
 20
4.0656121289
 11
9.244139536
 21
4.0667987241
  0
LINE
  5
2B3
100
AcDbEntity
  8
0
100
AcDbLine
 62
7
  6
CONTINUOUS
 10
8.8125696898
 20
4.1236159722
 11
8.8029278282
 21
4.1249710475
  0
LINE
  5
2B4
100
AcDbEntity
  8
0
100
AcDbLine
 62
7
  6
CONTINUOUS
 10
9.2615578605
 20
4.0523311865
 11
9.251969164
 21
4.0540219324
  0
LINE
  5
2B5
100
AcDbEntity
  8
0
100
AcDbLine
 62
7
  6
CONTINUOUS
 10
8.7395762666
 20
3.7831566088
 11
8.7490633354
 21
3.7809663464
  0
LINE
  5
2B6
100
AcDbEntity
  8
0
100
AcDbLine
 62
7
  6
CONTINUOUS
 10
9.1723360928
 20
3.6793405988
 11
9.181770544
 21
3.676988326
  0
LINE
  5
2B7
100
AcDbEntity
  8
0
100
AcDbLine
 62
7
  6
CONTINUOUS
 10
8.7332526997
 20
3.79717534
 11
8.7426121373
 21
3.7944915644
  0
LINE
  5
2B8
100
AcDbEntity
  8
0
100
AcDbLine
 62
7
  6
CONTINUOUS
 10
4.4058241118
 20
4.8079096131
 11
4.8523585997
 21
4.8079096131
  0
LINE
  5
2B9
100
AcDbEntity
  8
0
100
AcDbLine
 62
7
  6
CONTINUOUS
 10
4.9412787995
 20
4.8109096131
 11
4.8675504402
 21
4.8109096131
  0
LINE
  5
2BA
100
AcDbEntity
  8
0
100
AcDbLine
 62
7
  6
CONTINUOUS
 10
4.3169039121
 20
4.8109096131
 11
4.3906322713
 21
4.8109096131
  0
LINE
  5
2BB
100
AcDbEntity
  8
0
100
AcDbLine
 62
7
  6
CONTINUOUS
 10
4.3743929813
 20
4.823169281
 11
4.8837897303
 21
4.823169281
  0
LINE
  5
2BC
100
AcDbEntity
  8
0
100
AcDbLine
 62
7
  6
CONTINUOUS
 10
4.890664901
 20
4.8696492571
 11
4.3675178105
 21
4.8696492571
  0
LINE
  5
2BD
100
AcDbEntity
  8
0
100
AcDbLine
 62
7
  6
CONTINUOUS
 10
4.8785814273
 20
4.9231251367
 11
4.3796012842
 21
4.9231251367
  0
LINE
  5
2BE
100
AcDbEntity
  8
0
100
AcDbLine
 62
7
  6
CONTINUOUS
 10
4.8943237977
 20
5.1030612533
 11
4.3638589139
 21
5.1030612533
  0
LINE
  5
2BF
100
AcDbEntity
  8
0
100
AcDbLine
 62
7
  6
CONTINUOUS
 10
8.8239643543
 20
4.1333479351
 11
8.8144066257
 21
4.1352057693
  0
LINE
  5
2C0
100
AcDbEntity
  8
0
100
AcDbLine
 62
7
  6
CONTINUOUS
 10
9.2686064449
 20
4.0386626175
 11
9.2591193762
 21
4.0408528799
  0
LINE
  5
2C1
100
AcDbEntity
  8
0
100
AcDbLine
 62
7
  6
CONTINUOUS
 10
8.8358466187
 20
4.1424786274
 11
8.8264121676
 21
4.1448309003
  0
LINE
  5
2C2
100
AcDbEntity
  8
0
100
AcDbLine
 62
7
  6
CONTINUOUS
 10
9.1599804668
 20
3.6708614329
 11
9.1692916405
 21
3.6680147214
  0
LINE
  5
2C3
100
AcDbEntity
  8
0
100
AcDbLine
 62
7
  6
CONTINUOUS
 10
8.7276714827
 20
3.8115058089
 11
8.7368776356
 21
3.8083358763
  0
LINE
  5
2C4
100
AcDbEntity
  8
0
100
AcDbLine
 62
7
  6
CONTINUOUS
 10
9.1472036751
 20
3.6630318049
 11
9.1563531028
 21
3.6597016855
  0
LINE
  5
2C5
100
AcDbEntity
  8
0
100
AcDbLine
 62
7
  6
CONTINUOUS
 10
6.4040913558
 20
2.8479096131
 11
6.4040913558
 21
2.8454900116
  0
LINE
  5
2C6
100
AcDbEntity
  8
0
100
AcDbLine
 62
7
  6
CONTINUOUS
 10
6.4668413558
 20
2.9179096131
 11
6.4668413558
 21
2.8779096131
  0
LINE
  5
2C7
100
AcDbEntity
  8
0
100
AcDbLine
 62
7
  6
CONTINUOUS
 10
6.4890913558
 20
3.4067234298
 11
6.4890913558
 21
3.4032954148
  0
LINE
  5
2C8
100
AcDbEntity
  8
0
100
AcDbLine
 62
7
  6
CONTINUOUS
 10
6.4998413558
 20
2.9179096131
 11
6.4998413558
 21
3.0429096131
  0
LINE
  5
2C9
100
AcDbEntity
  8
0
100
AcDbLine
 62
7
  6
CONTINUOUS
 10
9.1563531028
 20
4.1621175407
 11
9.1472036751
 21
4.1587874214
  0
LINE
  5
2CA
100
AcDbEntity
  8
0
100
AcDbLine
 62
7
  6
CONTINUOUS
 10
8.7368776356
 20
4.01348335
 11
8.7276714827
 21
4.0103134173
  0
LINE
  5
2CB
100
AcDbEntity
  8
0
100
AcDbLine
 62
7
  6
CONTINUOUS
 10
9.1692916405
 20
4.1538045049
 11
9.1599804668
 21
4.1509577934
  0
LINE
  5
2CC
100
AcDbEntity
  8
0
100
AcDbLine
 62
7
  6
CONTINUOUS
 10
8.7426121373
 20
4.0273276618
 11
8.7332526997
 21
4.0246438863
  0
LINE
  5
2CD
100
AcDbEntity
  8
0
100
AcDbLine
 62
7
  6
CONTINUOUS
 10
4.9145363681
 20
5.1524658049
 11
4.3436463434
 21
5.1524658049
  0
LINE
  5
2CE
100
AcDbEntity
  8
0
100
AcDbLine
 62
7
  6
CONTINUOUS
 10
4.8836719449
 20
5.2179096131
 11
4.3745107667
 21
5.2179096131
  0
LINE
  5
2CF
100
AcDbEntity
  8
0
100
AcDbLine
 62
7
  6
CONTINUOUS
 10
4.8465913558
 20
5.3355681251
 11
4.4115913558
 21
5.3355681251
  0
LINE
  5
2D0
100
AcDbEntity
  8
0
100
AcDbLine
 62
7
  6
CONTINUOUS
 10
9.2749300118
 20
4.0246438863
 11
9.2655705743
 21
4.0273276618
  0
LINE
  5
2D1
100
AcDbEntity
  8
0
100
AcDbLine
 62
7
  6
CONTINUOUS
 10
8.8482022448
 20
4.1509577934
 11
8.8388910711
 21
4.1538045049
  0
LINE
  5
2D2
100
AcDbEntity
  8
0
100
AcDbLine
 62
7
  6
CONTINUOUS
 10
9.2805112288
 20
4.0103134173
 11
9.271305076
 21
4.01348335
  0
LINE
  5
2D3
100
AcDbEntity
  8
0
100
AcDbLine
 62
7
  6
CONTINUOUS
 10
8.8609790365
 20
4.1587874214
 11
8.8518296087
 21
4.1621175407
  0
LINE
  5
2D4
100
AcDbEntity
  8
0
100
AcDbLine
 62
7
  6
CONTINUOUS
 10
8.7228503902
 20
3.8261005229
 11
8.7318656528
 21
3.8224581204
  0
LINE
  5
2D5
100
AcDbEntity
  8
0
100
AcDbLine
 62
7
  6
CONTINUOUS
 10
9.1340346225
 20
3.6558815927
 11
9.1429972263
 21
3.6520771931
  0
LINE
  5
2D6
100
AcDbEntity
  8
0
100
AcDbLine
 62
7
  6
CONTINUOUS
 10
8.7187952128
 20
3.8409440979
 11
8.7276195852
 21
3.8368292255
  0
LINE
  5
2D7
100
AcDbEntity
  8
0
100
AcDbLine
 62
7
  6
CONTINUOUS
 10
9.1205094045
 20
3.6494303946
 11
9.1292606184
 21
3.6451621424
  0
LINE
  5
2D8
100
AcDbEntity
  8
0
100
AcDbLine
 62
7
  6
CONTINUOUS
 10
6.7583413558
 20
2.9179096131
 11
6.7583413558
 21
3.0429096131
  0
LINE
  5
2D9
100
AcDbEntity
  8
0
100
AcDbLine
 62
7
  6
CONTINUOUS
 10
6.7690913558
 20
3.4067234298
 11
6.7690913558
 21
3.4032954148
  0
LINE
  5
2DA
100
AcDbEntity
  8
0
100
AcDbLine
 62
7
  6
CONTINUOUS
 10
6.7913413558
 20
2.9179096131
 11
6.7913413558
 21
2.8779096131
  0
LINE
  5
2DB
100
AcDbEntity
  8
0
100
AcDbLine
 62
7
  6
CONTINUOUS
 10
6.8230913558
 20
3.1078344397
 11
6.8230913558
 21
3.3384844397
  0
LINE
  5
2DC
100
AcDbEntity
  8
0
100
AcDbLine
 62
7
  6
CONTINUOUS
 10
6.8540913558
 20
2.8479096131
 11
6.8540913558
 21
2.8454900116
  0
LINE
  5
2DD
100
AcDbEntity
  8
0
100
AcDbLine
 62
7
  6
CONTINUOUS
 10
6.8740913558
 20
3.3546581275
 11
6.8740913558
 21
3.091660752
  0
LINE
  5
2DE
100
AcDbEntity
  8
0
100
AcDbLine
 62
7
  6
CONTINUOUS
 10
6.8975924684
 20
3.3743492983
 11
6.8975924684
 21
3.0719695812
  0
LINE
  5
2DF
100
AcDbEntity
  8
0
100
AcDbLine
 62
7
  6
CONTINUOUS
 10
9.1292606184
 20
4.1766570838
 11
9.1205094045
 21
4.1723888316
  0
LINE
  5
2E0
100
AcDbEntity
  8
0
100
AcDbLine
 62
7
  6
CONTINUOUS
 10
8.7276195852
 20
3.9849900008
 11
8.7187952128
 21
3.9808751284
  0
LINE
  5
2E1
100
AcDbEntity
  8
0
100
AcDbLine
 62
7
  6
CONTINUOUS
 10
9.1429972263
 20
4.1697420331
 11
9.1340346225
 21
4.1659376335
  0
LINE
  5
2E2
100
AcDbEntity
  8
0
100
AcDbLine
 62
7
  6
CONTINUOUS
 10
8.7318656528
 20
3.9993611058
 11
8.7228503902
 21
3.9957187033
  0
LINE
  5
2E3
100
AcDbEntity
  8
0
100
AcDbLine
 62
7
  6
CONTINUOUS
 10
8.8518296087
 20
3.6597016855
 11
8.8609790365
 21
3.6630318049
  0
LINE
  5
2E4
100
AcDbEntity
  8
0
100
AcDbLine
 62
7
  6
CONTINUOUS
 10
9.271305076
 20
3.8083358763
 11
9.2805112288
 21
3.8115058089
  0
LINE
  5
2E5
100
AcDbEntity
  8
0
100
AcDbLine
 62
7
  6
CONTINUOUS
 10
8.8388910711
 20
3.6680147214
 11
8.8482022448
 21
3.6708614329
  0
LINE
  5
2E6
100
AcDbEntity
  8
0
100
AcDbLine
 62
7
  6
CONTINUOUS
 10
9.2655705743
 20
3.7944915644
 11
9.2749300118
 21
3.79717534
  0
LINE
  5
2E7
100
AcDbEntity
  8
0
100
AcDbLine
 62
7
  6
CONTINUOUS
 10
9.2853323213
 20
3.9957187033
 11
9.2763170588
 21
3.9993611058
  0
LINE
  5
2E8
100
AcDbEntity
  8
0
100
AcDbLine
 62
7
  6
CONTINUOUS
 10
8.874148089
 20
4.1659376335
 11
8.8651854853
 21
4.1697420331
  0
LINE
  5
2E9
100
AcDbEntity
  8
0
100
AcDbLine
 62
7
  6
CONTINUOUS
 10
9.2893874987
 20
3.9808751284
 11
9.2805631263
 21
3.9849900008
  0
LINE
  5
2EA
100
AcDbEntity
  8
0
100
AcDbLine
 62
7
  6
CONTINUOUS
 10
8.8876733071
 20
4.1723888316
 11
8.8789220931
 21
4.1766570838
  0
LINE
  5
2EB
100
AcDbEntity
  8
0
100
AcDbLine
 62
7
  6
CONTINUOUS
 10
8.7155244891
 20
3.8559712296
 11
8.7241214122
 21
3.8514001645
  0
LINE
  5
2EC
100
AcDbEntity
  8
0
100
AcDbLine
 62
7
  6
CONTINUOUS
 10
9.1066650926
 20
3.6436958929
 11
9.1151809303
 21
3.638975487
  0
LINE
  5
2ED
100
AcDbEntity
  8
0
100
AcDbLine
 62
7
  6
CONTINUOUS
 10
8.7130447072
 20
3.8711489437
 11
8.7213906174
 21
3.8661342149
  0
LINE
  5
2EE
100
AcDbEntity
  8
0
100
AcDbLine
 62
7
  6
CONTINUOUS
 10
9.0925428485
 20
3.6386839101
 11
9.1007886524
 21
3.63353136
  0
LINE
  5
2EF
100
AcDbEntity
  8
0
100
AcDbLine
 62
7
  6
CONTINUOUS
 10
7.0314036617
 20
3.3865114273
 11
7.0314036617
 21
3.0598074522
  0
LINE
  5
2F0
100
AcDbEntity
  8
0
100
AcDbLine
 62
7
  6
CONTINUOUS
 10
7.0715913559
 20
3.3626594398
 11
7.0715913559
 21
3.0836594397
  0
LINE
  5
2F1
100
AcDbEntity
  8
0
100
AcDbLine
 62
7
  6
CONTINUOUS
 10
9.1007886524
 20
4.1882878663
 11
9.0925428485
 21
4.1831353161
  0
LINE
  5
2F2
100
AcDbEntity
  8
0
100
AcDbLine
 62
7
  6
CONTINUOUS
 10
8.7213906174
 20
3.9556850113
 11
8.7130447072
 21
3.9506702826
  0
LINE
  5
2F3
100
AcDbEntity
  8
0
100
AcDbLine
 62
7
  6
CONTINUOUS
 10
9.1151809303
 20
4.1828437392
 11
9.1066650926
 21
4.1781233333
  0
LINE
  5
2F4
100
AcDbEntity
  8
0
100
AcDbLine
 62
7
  6
CONTINUOUS
 10
8.7241214122
 20
3.9704190617
 11
8.7155244891
 21
3.9658479966
  0
LINE
  5
2F5
100
AcDbEntity
  8
0
100
AcDbLine
 62
7
  6
CONTINUOUS
 10
8.8789220931
 20
3.6451621424
 11
8.8876733071
 21
3.6494303946
  0
LINE
  5
2F6
100
AcDbEntity
  8
0
100
AcDbLine
 62
7
  6
CONTINUOUS
 10
9.2805631263
 20
3.8368292255
 11
9.2893874987
 21
3.8409440979
  0
LINE
  5
2F7
100
AcDbEntity
  8
0
100
AcDbLine
 62
7
  6
CONTINUOUS
 10
8.8651854853
 20
3.6520771931
 11
8.874148089
 21
3.6558815927
  0
LINE
  5
2F8
100
AcDbEntity
  8
0
100
AcDbLine
 62
7
  6
CONTINUOUS
 10
9.2763170588
 20
3.8224581204
 11
9.2853323213
 21
3.8261005229
  0
LINE
  5
2F9
100
AcDbEntity
  8
0
100
AcDbLine
 62
7
  6
CONTINUOUS
 10
4.8874033188
 20
5.8373658657
 11
4.8465913558
 21
5.8373658657
  0
LINE
  5
2FA
100
AcDbEntity
  8
0
100
AcDbLine
 62
7
  6
CONTINUOUS
 10
4.4115913558
 20
5.8373658657
 11
4.3707793927
 21
5.8373658657
  0
LINE
  5
2FB
100
AcDbEntity
  8
0
100
AcDbLine
 62
7
  6
CONTINUOUS
 10
4.9074938913
 20
5.8542603047
 11
4.8465913558
 21
5.8542603047
  0
LINE
  5
2FC
100
AcDbEntity
  8
0
100
AcDbLine
 62
7
  6
CONTINUOUS
 10
4.4115913558
 20
5.8542603047
 11
4.3506888202
 21
5.8542603047
  0
LINE
  5
2FD
100
AcDbEntity
  8
0
100
AcDbLine
 62
7
  6
CONTINUOUS
 10
4.9190913558
 20
5.8724096131
 11
4.8465913558
 21
5.8724096131
  0
LINE
  5
2FE
100
AcDbEntity
  8
0
100
AcDbLine
 62
7
  6
CONTINUOUS
 10
4.3390913558
 20
5.8724096131
 11
4.4115913558
 21
5.8724096131
  0
LINE
  5
2FF
100
AcDbEntity
  8
0
100
AcDbLine
 62
7
  6
CONTINUOUS
 10
4.9190913558
 20
5.9024096131
 11
4.8465913558
 21
5.9024096131
  0
LINE
  5
300
100
AcDbEntity
  8
0
100
AcDbLine
 62
7
  6
CONTINUOUS
 10
4.3390913558
 20
5.9024096131
 11
4.4115913558
 21
5.9024096131
  0
LINE
  5
301
100
AcDbEntity
  8
0
100
AcDbLine
 62
7
  6
CONTINUOUS
 10
4.9036064112
 20
5.9218933056
 11
4.8465913558
 21
5.9218933056
  0
LINE
  5
302
100
AcDbEntity
  8
0
100
AcDbLine
 62
7
  6
CONTINUOUS
 10
4.4115913558
 20
5.9218933056
 11
4.3545763003
 21
5.9218933056
  0
LINE
  5
303
100
AcDbEntity
  8
0
100
AcDbLine
 62
7
  6
CONTINUOUS
 10
4.8804952524
 20
5.9286665245
 11
4.8465913558
 21
5.9286665245
  0
LINE
  5
304
100
AcDbEntity
  8
0
100
AcDbLine
 62
7
  6
CONTINUOUS
 10
4.4115913558
 20
5.9286665245
 11
4.3776874591
 21
5.9286665245
  0
LINE
  5
305
100
AcDbEntity
  8
0
100
AcDbLine
 62
7
  6
CONTINUOUS
 10
9.2926582224
 20
3.9658479966
 11
9.2840612993
 21
3.9704190617
  0
LINE
  5
306
100
AcDbEntity
  8
0
100
AcDbLine
 62
7
  6
CONTINUOUS
 10
8.9015176189
 20
4.1781233333
 11
8.8930017813
 21
4.1828437392
  0
LINE
  5
307
100
AcDbEntity
  8
0
100
AcDbLine
 62
7
  6
CONTINUOUS
 10
9.2951380044
 20
3.9506702826
 11
9.2867920941
 21
3.9556850113
  0
LINE
  5
308
100
AcDbEntity
  8
0
100
AcDbLine
 62
7
  6
CONTINUOUS
 10
8.9156398631
 20
4.1831353161
 11
8.9073940591
 21
4.1882878663
  0
LINE
  5
309
100
AcDbEntity
  8
0
100
AcDbLine
 62
7
  6
CONTINUOUS
 10
8.7113626638
 20
3.886435639
 11
8.7194346857
 21
3.8809909915
  0
LINE
  5
30A
100
AcDbEntity
  8
0
100
AcDbLine
 62
7
  6
CONTINUOUS
 10
9.0781717434
 20
3.6344378425
 11
9.0861475137
 21
3.6288531481
  0
LINE
  5
30B
100
AcDbEntity
  8
0
100
AcDbLine
 62
7
  6
CONTINUOUS
 10
8.7104829695
 20
3.9017894157
 11
8.7182589781
 21
3.895929773
  0
LINE
  5
30C
100
AcDbEntity
  8
0
100
AcDbLine
 62
7
  6
CONTINUOUS
 10
9.0636008043
 20
3.6309396696
 11
9.0712733637
 21
3.6249452092
  0
LINE
  5
30D
100
AcDbEntity
  8
0
100
AcDbLine
 62
7
  6
CONTINUOUS
 10
6.2210438693
 20
2.0215747639
 11
6.1711084148
 21
1.9599096131
  0
LINE
  5
30E
100
AcDbEntity
  8
0
100
AcDbLine
 62
7
  6
CONTINUOUS
 10
9.0712733637
 20
4.196874017
 11
9.0636008043
 21
4.1908795567
  0
LINE
  5
30F
100
AcDbEntity
  8
0
100
AcDbLine
 62
7
  6
CONTINUOUS
 10
8.7182589781
 20
3.9258894533
 11
8.7104829695
 21
3.9200298105
  0
LINE
  5
310
100
AcDbEntity
  8
0
100
AcDbLine
 62
7
  6
CONTINUOUS
 10
9.0861475137
 20
4.1929660781
 11
9.0781717434
 21
4.1873813837
  0
LINE
  5
311
100
AcDbEntity
  8
0
100
AcDbLine
 62
7
  6
CONTINUOUS
 10
8.7194346857
 20
3.9408282347
 11
8.7113626638
 21
3.9353835873
  0
LINE
  5
312
100
AcDbEntity
  8
0
100
AcDbLine
 62
7
  6
CONTINUOUS
 10
9.2867920941
 20
3.8661342149
 11
9.2951380044
 21
3.8711489437
  0
LINE
  5
313
100
AcDbEntity
  8
0
100
AcDbLine
 62
7
  6
CONTINUOUS
 10
8.8930017813
 20
3.638975487
 11
8.9015176189
 21
3.6436958929
  0
LINE
  5
314
100
AcDbEntity
  8
0
100
AcDbLine
 62
7
  6
CONTINUOUS
 10
9.2840612993
 20
3.8514001645
 11
9.2926582224
 21
3.8559712296
  0
LINE
  5
315
100
AcDbEntity
  8
0
100
AcDbLine
 62
7
  6
CONTINUOUS
 10
9.2968200477
 20
3.9353835873
 11
9.2887480259
 21
3.9408282347
  0
LINE
  5
316
100
AcDbEntity
  8
0
100
AcDbLine
 62
7
  6
CONTINUOUS
 10
8.9300109681
 20
4.1873813837
 11
8.9220351979
 21
4.1929660781
  0
LINE
  5
317
100
AcDbEntity
  8
0
100
AcDbLine
 62
7
  6
CONTINUOUS
 10
9.2976997421
 20
3.9200298105
 11
9.2899237335
 21
3.9258894533
  0
LINE
  5
318
100
AcDbEntity
  8
0
100
AcDbLine
 62
7
  6
CONTINUOUS
 10
8.7104078527
 20
3.9171596131
 11
8.7178563126
 21
3.9109096131
  0
LINE
  5
319
100
AcDbEntity
  8
0
100
AcDbLine
 62
7
  6
CONTINUOUS
 10
9.048866754
 20
3.6282088747
 11
9.0562150726
 21
3.6218210789
  0
LINE
  5
31A
100
AcDbEntity
  8
0
100
AcDbLine
 62
7
  6
CONTINUOUS
 10
8.7111380667
 20
3.9325298105
 11
8.7182589781
 21
3.9258894533
  0
LINE
  5
31B
100
AcDbEntity
  8
0
100
AcDbLine
 62
7
  6
CONTINUOUS
 10
9.0340099774
 20
3.626252943
 11
9.041013914
 21
3.6194893201
  0
LINE
  5
31C
100
AcDbEntity
  8
0
100
AcDbLine
 62
7
  6
CONTINUOUS
 10
8.800527999
 20
4.1134079602
 11
8.8010331769
 21
4.1139386909
  0
LINE
  5
31D
100
AcDbEntity
  8
0
100
AcDbLine
 62
7
  6
CONTINUOUS
 10
8.7194346857
 20
3.8809909915
 11
8.7126710627
 21
3.8739870549
  0
LINE
  5
31E
100
AcDbEntity
  8
0
100
AcDbLine
 62
7
  6
CONTINUOUS
 10
9.041013914
 20
4.2023299062
 11
9.0340099774
 21
4.1955662832
  0
LINE
  5
31F
100
AcDbEntity
  8
0
100
AcDbLine
 62
7
  6
CONTINUOUS
 10
8.7182589781
 20
3.895929773
 11
8.7111380667
 21
3.8892894157
  0
LINE
  5
320
100
AcDbEntity
  8
0
100
AcDbLine
 62
7
  6
CONTINUOUS
 10
9.0562150726
 20
4.1999981474
 11
9.048866754
 21
4.1936103515
  0
LINE
  5
321
100
AcDbEntity
  8
0
100
AcDbLine
 62
7
  6
CONTINUOUS
 10
8.7178563126
 20
3.9109096131
 11
8.7104078527
 21
3.9046596131
  0
LINE
  5
322
100
AcDbEntity
  8
0
100
AcDbLine
 62
7
  6
CONTINUOUS
 10
8.9369093478
 20
3.6249452092
 11
8.9445819072
 21
3.6309396696
  0
LINE
  5
323
100
AcDbEntity
  8
0
100
AcDbLine
 62
7
  6
CONTINUOUS
 10
9.2899237335
 20
3.895929773
 11
9.2976997421
 21
3.9017894157
  0
LINE
  5
324
100
AcDbEntity
  8
0
100
AcDbLine
 62
7
  6
CONTINUOUS
 10
8.9220351979
 20
3.6288531481
 11
8.9300109681
 21
3.6344378425
  0
LINE
  5
325
100
AcDbEntity
  8
0
100
AcDbLine
 62
7
  6
CONTINUOUS
 10
9.2887480259
 20
3.8809909915
 11
9.2968200477
 21
3.886435639
  0
LINE
  5
326
100
AcDbEntity
  8
0
100
AcDbLine
 62
7
  6
CONTINUOUS
 10
8.9073940591
 20
3.63353136
 11
8.9156398631
 21
3.6386839101
  0
LINE
  5
327
100
AcDbEntity
  8
0
100
AcDbLine
 62
7
  6
CONTINUOUS
 10
8.9445819072
 20
4.1908795567
 11
8.9369093478
 21
4.196874017
  0
LINE
  5
328
100
AcDbEntity
  8
0
100
AcDbLine
 62
7
  6
CONTINUOUS
 10
9.2977748589
 20
3.9046596131
 11
9.2903263989
 21
3.9109096131
  0
LINE
  5
329
100
AcDbEntity
  8
0
100
AcDbLine
 62
7
  6
CONTINUOUS
 10
8.9593159575
 20
4.1936103515
 11
8.951967639
 21
4.1999981474
  0
LINE
  5
32A
100
AcDbEntity
  8
0
100
AcDbLine
 62
7
  6
CONTINUOUS
 10
9.2970446448
 20
3.8892894157
 11
9.2899237335
 21
3.895929773
  0
LINE
  5
32B
100
AcDbEntity
  8
0
100
AcDbLine
 62
7
  6
CONTINUOUS
 10
8.9741727341
 20
4.1955662832
 11
8.9671687976
 21
4.2023299062
  0
LINE
  5
32C
100
AcDbEntity
  8
0
100
AcDbLine
 62
7
  6
CONTINUOUS
 10
8.7126710627
 20
3.9478321713
 11
8.7194346857
 21
3.9408282347
  0
LINE
  5
32D
100
AcDbEntity
  8
0
100
AcDbLine
 62
7
  6
CONTINUOUS
 10
9.0190711959
 20
3.6250772354
 11
9.0257115532
 21
3.6179563241
  0
LINE
  5
32E
100
AcDbEntity
  8
0
100
AcDbLine
 62
7
  6
CONTINUOUS
 10
8.7150028215
 20
3.9630333299
 11
8.7213906174
 21
3.9556850113
  0
LINE
  5
32F
100
AcDbEntity
  8
0
100
AcDbLine
 62
7
  6
CONTINUOUS
 10
9.0040913558
 20
3.62467457
 11
9.0103413558
 21
3.61722611
  0
LINE
  5
330
100
AcDbEntity
  8
0
100
AcDbLine
 62
7
  6
CONTINUOUS
 10
8.7181269519
 20
3.9780916211
 11
8.7241214122
 21
3.9704190617
  0
LINE
  5
331
100
AcDbEntity
  8
0
100
AcDbLine
 62
7
  6
CONTINUOUS
 10
8.1590913558
 20
3.4489343909
 11
8.1590913558
 21
2.9973844886
  0
LINE
  5
332
100
AcDbEntity
  8
0
100
AcDbLine
 62
7
  6
CONTINUOUS
 10
8.1790913558
 20
3.4689344397
 11
8.1790913558
 21
2.9773844397
  0
LINE
  5
333
100
AcDbEntity
  8
0
100
AcDbLine
 62
7
  6
CONTINUOUS
 10
8.1900427916
 20
3.4689344397
 11
8.1900427916
 21
2.9773844397
  0
LINE
  5
334
100
AcDbEntity
  8
0
100
AcDbLine
 62
7
  6
CONTINUOUS
 10
8.2190684524
 20
3.4465180415
 11
8.2190684524
 21
2.999800838
  0
LINE
  5
335
100
AcDbEntity
  8
0
100
AcDbLine
 62
7
  6
CONTINUOUS
 10
8.9949711584
 20
4.2045179994
 11
8.9891115156
 21
4.1967419908
  0
LINE
  5
336
100
AcDbEntity
  8
0
100
AcDbLine
 62
7
  6
CONTINUOUS
 10
8.7814332838
 20
4.0910327789
 11
8.7816089557
 21
4.0912633765
  0
LINE
  5
337
100
AcDbEntity
  8
0
100
AcDbLine
 62
7
  6
CONTINUOUS
 10
8.7241214122
 20
3.8514001645
 11
8.7181269519
 21
3.8437276052
  0
LINE
  5
338
100
AcDbEntity
  8
0
100
AcDbLine
 62
7
  6
CONTINUOUS
 10
9.0103413558
 20
4.2045931162
 11
9.0040913558
 21
4.1971446563
  0
LINE
  5
339
100
AcDbEntity
  8
0
100
AcDbLine
 62
7
  6
CONTINUOUS
 10
8.7906677644
 20
4.1024563254
 11
8.7907551431
 21
4.102560282
  0
LINE
  5
33A
100
AcDbEntity
  8
0
100
AcDbLine
 62
7
  6
CONTINUOUS
 10
8.7906673787
 20
4.1024567047
 11
8.7912780345
 21
4.1031695723
  0
LINE
  5
33B
100
AcDbEntity
  8
0
100
AcDbLine
 62
7
  6
CONTINUOUS
 10
8.7907551431
 20
4.102560282
 11
8.791281681
 21
4.1031664083
  0
LINE
  5
33C
100
AcDbEntity
  8
0
100
AcDbLine
 62
7
  6
CONTINUOUS
 10
8.7213906174
 20
3.8661342149
 11
8.7150028215
 21
3.8587858963
  0
LINE
  5
33D
100
AcDbEntity
  8
0
100
AcDbLine
 62
7
  6
CONTINUOUS
 10
9.0257115532
 20
4.2038629022
 11
9.0190711959
 21
4.1967419908
  0
LINE
  5
33E
100
AcDbEntity
  8
0
100
AcDbLine
 62
7
  6
CONTINUOUS
 10
8.9671687976
 20
3.6194893201
 11
8.9741727341
 21
3.626252943
  0
LINE
  5
33F
100
AcDbEntity
  8
0
100
AcDbLine
 62
7
  6
CONTINUOUS
 10
9.2899237335
 20
3.9258894533
 11
9.2970446448
 21
3.9325298105
  0
LINE
  5
340
100
AcDbEntity
  8
0
100
AcDbLine
 62
7
  6
CONTINUOUS
 10
8.951967639
 20
3.6218210789
 11
8.9593159575
 21
3.6282088747
  0
LINE
  5
341
100
AcDbEntity
  8
0
100
AcDbLine
 62
7
  6
CONTINUOUS
 10
9.2903263989
 20
3.9109096131
 11
9.2977748589
 21
3.9171596131
  0
LINE
  5
342
100
AcDbEntity
  8
0
100
AcDbLine
 62
7
  6
CONTINUOUS
 10
9.2955116488
 20
3.8739870549
 11
9.2887480259
 21
3.8809909915
  0
LINE
  5
343
100
AcDbEntity
  8
0
100
AcDbLine
 62
7
  6
CONTINUOUS
 10
9.2071794647
 20
4.1139662594
 11
9.2077119965
 21
4.1134085422
  0
LINE
  5
344
100
AcDbEntity
  8
0
100
AcDbLine
 62
7
  6
CONTINUOUS
 10
8.9891115156
 20
4.1967419908
 11
8.9824711584
 21
4.2038629022
  0
LINE
  5
345
100
AcDbEntity
  8
0
100
AcDbLine
 62
7
  6
CONTINUOUS
 10
9.29317989
 20
3.8587858963
 11
9.2867920941
 21
3.8661342149
  0
LINE
  5
346
100
AcDbEntity
  8
0
100
AcDbLine
 62
7
  6
CONTINUOUS
 10
9.216910984
 20
4.1032372309
 11
9.2175862936
 21
4.1024588169
  0
LINE
  5
347
100
AcDbEntity
  8
0
100
AcDbLine
 62
7
  6
CONTINUOUS
 10
9.0040913558
 20
4.1971446563
 11
8.9978413558
 21
4.2045931162
  0
LINE
  5
348
100
AcDbEntity
  8
0
100
AcDbLine
 62
7
  6
CONTINUOUS
 10
8.9891115156
 20
3.6250772354
 11
8.9949711584
 21
3.6173012268
  0
LINE
  5
349
100
AcDbEntity
  8
0
100
AcDbLine
 62
7
  6
CONTINUOUS
 10
8.7220348908
 20
3.992965771
 11
8.7276195852
 21
3.9849900008
  0
LINE
  5
34A
100
AcDbEntity
  8
0
100
AcDbLine
 62
7
  6
CONTINUOUS
 10
8.9741727341
 20
3.626252943
 11
8.9796173816
 21
3.6181809212
  0
LINE
  5
34B
100
AcDbEntity
  8
0
100
AcDbLine
 62
7
  6
CONTINUOUS
 10
8.7267131026
 20
4.0076069098
 11
8.7318656528
 21
3.9993611058
  0
LINE
  5
34C
100
AcDbEntity
  8
0
100
AcDbLine
 62
7
  6
CONTINUOUS
 10
8.9593159575
 20
3.6282088747
 11
8.9643306863
 21
3.6198629645
  0
LINE
  5
34D
100
AcDbEntity
  8
0
100
AcDbLine
 62
7
  6
CONTINUOUS
 10
8.2678477011
 20
3.3713252609
 11
8.2678477011
 21
3.0749936186
  0
LINE
  5
34E
100
AcDbEntity
  8
0
100
AcDbLine
 62
7
  6
CONTINUOUS
 10
8.2790913558
 20
3.3479115531
 11
8.2790913558
 21
3.0984073264
  0
LINE
  5
34F
100
AcDbEntity
  8
0
100
AcDbLine
 62
7
  6
CONTINUOUS
 10
8.9341258405
 20
4.1962057561
 11
8.9300109681
 21
4.1873813837
  0
LINE
  5
350
100
AcDbEntity
  8
0
100
AcDbLine
 62
7
  6
CONTINUOUS
 10
8.7426121373
 20
3.7944915644
 11
8.7383438851
 21
3.7857403505
  0
LINE
  5
351
100
AcDbEntity
  8
0
100
AcDbLine
 62
7
  6
CONTINUOUS
 10
8.9491529723
 20
4.1994764798
 11
8.9445819072
 21
4.1908795567
  0
LINE
  5
352
100
AcDbEntity
  8
0
100
AcDbLine
 62
7
  6
CONTINUOUS
 10
8.7368776356
 20
3.8083358763
 11
8.7321572297
 21
3.7998200386
  0
LINE
  5
353
100
AcDbEntity
  8
0
100
AcDbLine
 62
7
  6
CONTINUOUS
 10
8.9643306863
 20
4.2019562617
 11
8.9593159575
 21
4.1936103515
  0
LINE
  5
354
100
AcDbEntity
  8
0
100
AcDbLine
 62
7
  6
CONTINUOUS
 10
8.7318656528
 20
3.8224581204
 11
8.7267131026
 21
3.8142123165
  0
LINE
  5
355
100
AcDbEntity
  8
0
100
AcDbLine
 62
7
  6
CONTINUOUS
 10
8.9796173816
 20
4.2036383051
 11
8.9741727341
 21
4.1955662832
  0
LINE
  5
356
100
AcDbEntity
  8
0
100
AcDbLine
 62
7
  6
CONTINUOUS
 10
8.7276195852
 20
3.8368292255
 11
8.7220348908
 21
3.8288534552
  0
LINE
  5
357
100
AcDbEntity
  8
0
100
AcDbLine
 62
7
  6
CONTINUOUS
 10
9.0132115532
 20
3.6173012268
 11
9.0190711959
 21
3.6250772354
  0
LINE
  5
358
100
AcDbEntity
  8
0
100
AcDbLine
 62
7
  6
CONTINUOUS
 10
9.2840612993
 20
3.9704190617
 11
9.2900557597
 21
3.9780916211
  0
LINE
  5
359
100
AcDbEntity
  8
0
100
AcDbLine
 62
7
  6
CONTINUOUS
 10
8.9978413558
 20
3.61722611
 11
9.0040913558
 21
3.62467457
  0
LINE
  5
35A
100
AcDbEntity
  8
0
100
AcDbLine
 62
7
  6
CONTINUOUS
 10
9.2867920941
 20
3.9556850113
 11
9.29317989
 21
3.9630333299
  0
LINE
  5
35B
100
AcDbEntity
  8
0
100
AcDbLine
 62
7
  6
CONTINUOUS
 10
8.9824711584
 20
3.6179563241
 11
8.9891115156
 21
3.6250772354
  0
LINE
  5
35C
100
AcDbEntity
  8
0
100
AcDbLine
 62
7
  6
CONTINUOUS
 10
9.2887480259
 20
3.9408282347
 11
9.2955116488
 21
3.9478321713
  0
LINE
  5
35D
100
AcDbEntity
  8
0
100
AcDbLine
 62
7
  6
CONTINUOUS
 10
9.2169158685
 20
4.1032414438
 11
9.2175865819
 21
4.1024590997
  0
LINE
  5
35E
100
AcDbEntity
  8
0
100
AcDbLine
 62
7
  6
CONTINUOUS
 10
9.2900557597
 20
3.8437276052
 11
9.2840612993
 21
3.8514001645
  0
LINE
  5
35F
100
AcDbEntity
  8
0
100
AcDbLine
 62
7
  6
CONTINUOUS
 10
9.2265938524
 20
4.0913490602
 11
9.2268346018
 21
4.0910355729
  0
LINE
  5
360
100
AcDbEntity
  8
0
100
AcDbLine
 62
7
  6
CONTINUOUS
 10
9.2265898033
 20
4.0913459336
 11
9.2268291459
 21
4.0910313874
  0
LINE
  5
361
100
AcDbEntity
  8
0
100
AcDbLine
 62
7
  6
CONTINUOUS
 10
9.0190711959
 20
4.1967419908
 11
9.0132115532
 21
4.2045179994
  0
LINE
  5
362
100
AcDbEntity
  8
0
100
AcDbLine
 62
7
  6
CONTINUOUS
 10
9.2861478208
 20
3.8288534552
 11
9.2805631263
 21
3.8368292255
  0
LINE
  5
363
100
AcDbEntity
  8
0
100
AcDbLine
 62
7
  6
CONTINUOUS
 10
9.0340099774
 20
4.1955662832
 11
9.0285653299
 21
4.2036383051
  0
LINE
  5
364
100
AcDbEntity
  8
0
100
AcDbLine
 62
7
  6
CONTINUOUS
 10
9.2814696089
 20
3.8142123165
 11
9.2763170588
 21
3.8224581204
  0
LINE
  5
365
100
AcDbEntity
  8
0
100
AcDbLine
 62
7
  6
CONTINUOUS
 10
9.048866754
 20
4.1936103515
 11
9.0438520252
 21
4.2019562617
  0
LINE
  5
366
100
AcDbEntity
  8
0
100
AcDbLine
 62
7
  6
CONTINUOUS
 10
8.7321572297
 20
4.0219991876
 11
8.7368776356
 21
4.01348335
  0
LINE
  5
367
100
AcDbEntity
  8
0
100
AcDbLine
 62
7
  6
CONTINUOUS
 10
8.9445819072
 20
3.6309396696
 11
8.9491529723
 21
3.6223427465
  0
LINE
  5
368
100
AcDbEntity
  8
0
100
AcDbLine
 62
7
  6
CONTINUOUS
 10
8.7383438851
 20
4.0360788757
 11
8.7426121373
 21
4.0273276618
  0
LINE
  5
369
100
AcDbEntity
  8
0
100
AcDbLine
 62
7
  6
CONTINUOUS
 10
8.9300109681
 20
3.6344378425
 11
8.9341258405
 21
3.6256134702
  0
LINE
  5
36A
100
AcDbEntity
  8
0
100
AcDbLine
 62
7
  6
CONTINUOUS
 10
8.7452589358
 20
4.0498154836
 11
8.7490633354
 21
4.0408528799
  0
LINE
  5
36B
100
AcDbEntity
  8
0
100
AcDbLine
 62
7
  6
CONTINUOUS
 10
8.9156398631
 20
3.6386839101
 11
8.9192822656
 21
3.6296686475
  0
LINE
  5
36C
100
AcDbEntity
  8
0
100
AcDbLine
 62
7
  6
CONTINUOUS
 10
8.7528834282
 20
4.0631713602
 11
8.7562135475
 21
4.0540219324
  0
LINE
  5
36D
100
AcDbEntity
  8
0
100
AcDbLine
 62
7
  6
CONTINUOUS
 10
8.9015176189
 20
3.6436958929
 11
8.9046875515
 21
3.6344897401
  0
LINE
  5
36E
100
AcDbEntity
  8
0
100
AcDbLine
 62
7
  6
CONTINUOUS
 10
8.8008513707
 20
4.1230005629
 11
8.8016999729
 21
4.113300996
  0
LINE
  5
36F
100
AcDbEntity
  8
0
100
AcDbLine
 62
7
  6
CONTINUOUS
 10
8.8358466187
 20
3.6793405988
 11
8.83652488
 21
3.6696410103
  0
LINE
  5
370
100
AcDbEntity
  8
0
100
AcDbLine
 62
7
  6
CONTINUOUS
 10
8.8122298867
 20
4.1333466586
 11
8.8125696898
 21
4.1236159722
  0
LINE
  5
371
100
AcDbEntity
  8
0
100
AcDbLine
 62
7
  6
CONTINUOUS
 10
8.8239643543
 20
3.6884712911
 11
8.8241342817
 21
3.6787361565
  0
LINE
  5
372
100
AcDbEntity
  8
0
100
AcDbLine
 62
7
  6
CONTINUOUS
 10
8.8241342817
 20
4.1430830698
 11
8.8239643543
 21
4.1333479351
  0
LINE
  5
373
100
AcDbEntity
  8
0
100
AcDbLine
 62
7
  6
CONTINUOUS
 10
8.8125696898
 20
3.698203254
 11
8.8122298867
 21
3.6884725677
  0
LINE
  5
374
100
AcDbEntity
  8
0
100
AcDbLine
 62
7
  6
CONTINUOUS
 10
8.83652488
 20
4.1521782159
 11
8.8358466187
 21
4.1424786274
  0
LINE
  5
375
100
AcDbEntity
  8
0
100
AcDbLine
 62
7
  6
CONTINUOUS
 10
8.8016999729
 20
3.7085182302
 11
8.8008513707
 21
3.6988186634
  0
LINE
  5
376
100
AcDbEntity
  8
0
100
AcDbLine
 62
7
  6
CONTINUOUS
 10
8.84938884
 20
4.1606218357
 11
8.8482022448
 21
4.1509577934
  0
LINE
  5
377
100
AcDbEntity
  8
0
100
AcDbLine
 62
7
  6
CONTINUOUS
 10
8.7913849966
 20
3.7193879471
 11
8.7900299214
 21
3.7097460856
  0
LINE
  5
378
100
AcDbEntity
  8
0
100
AcDbLine
 62
7
  6
CONTINUOUS
 10
8.8626697824
 20
4.1683761179
 11
8.8609790365
 21
4.1587874214
  0
LINE
  5
379
100
AcDbEntity
  8
0
100
AcDbLine
 62
7
  6
CONTINUOUS
 10
8.7816530338
 20
3.7307826116
 11
8.7797951996
 21
3.7212248831
  0
LINE
  5
37A
100
AcDbEntity
  8
0
100
AcDbLine
 62
7
  6
CONTINUOUS
 10
8.8763383514
 20
4.1754247023
 11
8.874148089
 21
4.1659376335
  0
LINE
  5
37B
100
AcDbEntity
  8
0
100
AcDbLine
 62
7
  6
CONTINUOUS
 10
8.7725223415
 20
3.7426648761
 11
8.7701700686
 21
3.7332304249
  0
LINE
  5
37C
100
AcDbEntity
  8
0
100
AcDbLine
 62
7
  6
CONTINUOUS
 10
8.8903570826
 20
4.1817482692
 11
8.8876733071
 21
4.1723888316
  0
LINE
  5
37D
100
AcDbEntity
  8
0
100
AcDbLine
 62
7
  6
CONTINUOUS
 10
8.7640431755
 20
3.7550205021
 11
8.761196464
 21
3.7457093284
  0
LINE
  5
37E
100
AcDbEntity
  8
0
100
AcDbLine
 62
7
  6
CONTINUOUS
 10
8.9046875515
 20
4.1873294861
 11
8.9015176189
 21
4.1781233333
  0
LINE
  5
37F
100
AcDbEntity
  8
0
100
AcDbLine
 62
7
  6
CONTINUOUS
 10
8.7562135475
 20
3.7677972938
 11
8.7528834282
 21
3.7586478661
  0
LINE
  5
380
100
AcDbEntity
  8
0
100
AcDbLine
 62
7
  6
CONTINUOUS
 10
8.9192822656
 20
4.1921505787
 11
8.9156398631
 21
4.1831353161
  0
LINE
  5
381
100
AcDbEntity
  8
0
100
AcDbLine
 62
7
  6
CONTINUOUS
 10
8.7490633354
 20
3.7809663464
 11
8.7452589358
 21
3.7720037426
  0
LINE
  5
382
100
AcDbEntity
  8
0
100
AcDbLine
 62
7
  6
CONTINUOUS
 10
9.2655705743
 20
4.0273276618
 11
9.2698388265
 21
4.0360788757
  0
LINE
  5
383
100
AcDbEntity
  8
0
100
AcDbLine
 62
7
  6
CONTINUOUS
 10
9.0590297393
 20
3.6223427465
 11
9.0636008043
 21
3.6309396696
  0
LINE
  5
384
100
AcDbEntity
  8
0
100
AcDbLine
 62
7
  6
CONTINUOUS
 10
9.271305076
 20
4.01348335
 11
9.2760254819
 21
4.0219991876
  0
LINE
  5
385
100
AcDbEntity
  8
0
100
AcDbLine
 62
7
  6
CONTINUOUS
 10
9.0438520252
 20
3.6198629645
 11
9.048866754
 21
3.6282088747
  0
LINE
  5
386
100
AcDbEntity
  8
0
100
AcDbLine
 62
7
  6
CONTINUOUS
 10
9.2763170588
 20
3.9993611058
 11
9.2814696089
 21
4.0076069098
  0
LINE
  5
387
100
AcDbEntity
  8
0
100
AcDbLine
 62
7
  6
CONTINUOUS
 10
9.0285653299
 20
3.6181809212
 11
9.0340099774
 21
3.626252943
  0
LINE
  5
388
100
AcDbEntity
  8
0
100
AcDbLine
 62
7
  6
CONTINUOUS
 10
9.2805631263
 20
3.9849900008
 11
9.2861478208
 21
3.992965771
  0
LINE
  5
389
100
AcDbEntity
  8
0
100
AcDbLine
 62
7
  6
CONTINUOUS
 10
9.2760254819
 20
3.7998200386
 11
9.271305076
 21
3.8083358763
  0
LINE
  5
38A
100
AcDbEntity
  8
0
100
AcDbLine
 62
7
  6
CONTINUOUS
 10
9.0636008043
 20
4.1908795567
 11
9.0590297393
 21
4.1994764798
  0
LINE
  5
38B
100
AcDbEntity
  8
0
100
AcDbLine
 62
7
  6
CONTINUOUS
 10
9.2698388265
 20
3.7857403505
 11
9.2655705743
 21
3.7944915644
  0
LINE
  5
38C
100
AcDbEntity
  8
0
100
AcDbLine
 62
7
  6
CONTINUOUS
 10
9.0781717434
 20
4.1873813837
 11
9.074056871
 21
4.1962057561
  0
LINE
  5
38D
100
AcDbEntity
  8
0
100
AcDbLine
 62
7
  6
CONTINUOUS
 10
9.2629237758
 20
3.7720037426
 11
9.2591193762
 21
3.7809663464
  0
LINE
  5
38E
100
AcDbEntity
  8
0
100
AcDbLine
 62
7
  6
CONTINUOUS
 10
9.0925428485
 20
4.1831353161
 11
9.088900446
 21
4.1921505787
  0
LINE
  5
38F
100
AcDbEntity
  8
0
100
AcDbLine
 62
7
  6
CONTINUOUS
 10
9.2552992834
 20
3.7586478661
 11
9.251969164
 21
3.7677972938
  0
LINE
  5
390
100
AcDbEntity
  8
0
100
AcDbLine
 62
7
  6
CONTINUOUS
 10
8.761196464
 20
4.0761098978
 11
8.7640431755
 21
4.0667987241
  0
LINE
  5
391
100
AcDbEntity
  8
0
100
AcDbLine
 62
7
  6
CONTINUOUS
 10
8.8876733071
 20
3.6494303946
 11
8.8903570826
 21
3.6400709571
  0
LINE
  5
392
100
AcDbEntity
  8
0
100
AcDbLine
 62
7
  6
CONTINUOUS
 10
8.7701700686
 20
4.0885888013
 11
8.7725223415
 21
4.0791543502
  0
LINE
  5
393
100
AcDbEntity
  8
0
100
AcDbLine
 62
7
  6
CONTINUOUS
 10
8.874148089
 20
3.6558815927
 11
8.8763383514
 21
3.646394524
  0
LINE
  5
394
100
AcDbEntity
  8
0
100
AcDbLine
 62
7
  6
CONTINUOUS
 10
8.7797951996
 20
4.1005943432
 11
8.7816530338
 21
4.0910366146
  0
LINE
  5
395
100
AcDbEntity
  8
0
100
AcDbLine
 62
7
  6
CONTINUOUS
 10
8.8609790365
 20
3.6630318049
 11
8.8626697824
 21
3.6534431084
  0
LINE
  5
396
100
AcDbEntity
  8
0
100
AcDbLine
 62
7
  6
CONTINUOUS
 10
8.7900299214
 20
4.1120731406
 11
8.7913849966
 21
4.1024312791
  0
LINE
  5
397
100
AcDbEntity
  8
0
100
AcDbLine
 62
7
  6
CONTINUOUS
 10
8.8482022448
 20
3.6708614329
 11
8.84938884
 21
3.6611973905
  0
LINE
  5
398
100
AcDbEntity
  8
0
100
AcDbLine
 62
7
  6
CONTINUOUS
 10
9.2073313408
 20
3.6988186634
 11
9.2064827387
 21
3.7085182302
  0
LINE
  5
399
100
AcDbEntity
  8
0
100
AcDbLine
 62
7
  6
CONTINUOUS
 10
9.1723360928
 20
4.1424786274
 11
9.1716578315
 21
4.1521782159
  0
LINE
  5
39A
100
AcDbEntity
  8
0
100
AcDbLine
 62
7
  6
CONTINUOUS
 10
9.1959528248
 20
3.6884725677
 11
9.1956130218
 21
3.698203254
  0
LINE
  5
39B
100
AcDbEntity
  8
0
100
AcDbLine
 62
7
  6
CONTINUOUS
 10
9.1842183573
 20
4.1333479351
 11
9.1840484299
 21
4.1430830698
  0
LINE
  5
39C
100
AcDbEntity
  8
0
100
AcDbLine
 62
7
  6
CONTINUOUS
 10
9.1840484299
 20
3.6787361565
 11
9.1842183573
 21
3.6884712911
  0
LINE
  5
39D
100
AcDbEntity
  8
0
100
AcDbLine
 62
7
  6
CONTINUOUS
 10
9.1956130218
 20
4.1236159722
 11
9.1959528248
 21
4.1333466586
  0
LINE
  5
39E
100
AcDbEntity
  8
0
100
AcDbLine
 62
7
  6
CONTINUOUS
 10
9.1716578315
 20
3.6696410103
 11
9.1723360928
 21
3.6793405988
  0
LINE
  5
39F
100
AcDbEntity
  8
0
100
AcDbLine
 62
7
  6
CONTINUOUS
 10
9.2064827387
 20
4.113300996
 11
9.2073313408
 21
4.1230005629
  0
LINE
  5
3A0
100
AcDbEntity
  8
0
100
AcDbLine
 62
7
  6
CONTINUOUS
 10
9.1587938716
 20
3.6611973905
 11
9.1599804668
 21
3.6708614329
  0
LINE
  5
3A1
100
AcDbEntity
  8
0
100
AcDbLine
 62
7
  6
CONTINUOUS
 10
9.2167977149
 20
4.1024312791
 11
9.2181527902
 21
4.1120731406
  0
LINE
  5
3A2
100
AcDbEntity
  8
0
100
AcDbLine
 62
7
  6
CONTINUOUS
 10
9.1455129292
 20
3.6534431084
 11
9.1472036751
 21
3.6630318049
  0
LINE
  5
3A3
100
AcDbEntity
  8
0
100
AcDbLine
 62
7
  6
CONTINUOUS
 10
9.2265296778
 20
4.0910366146
 11
9.228387512
 21
4.1005943432
  0
LINE
  5
3A4
100
AcDbEntity
  8
0
100
AcDbLine
 62
7
  6
CONTINUOUS
 10
9.1318443601
 20
3.646394524
 11
9.1340346225
 21
3.6558815927
  0
LINE
  5
3A5
100
AcDbEntity
  8
0
100
AcDbLine
 62
7
  6
CONTINUOUS
 10
9.2356603701
 20
4.0791543502
 11
9.2380126429
 21
4.0885888013
  0
LINE
  5
3A6
100
AcDbEntity
  8
0
100
AcDbLine
 62
7
  6
CONTINUOUS
 10
9.1178256289
 20
3.6400709571
 11
9.1205094045
 21
3.6494303946
  0
LINE
  5
3A7
100
AcDbEntity
  8
0
100
AcDbLine
 62
7
  6
CONTINUOUS
 10
9.244139536
 20
4.0667987241
 11
9.2469862475
 21
4.0761098978
  0
LINE
  5
3A8
100
AcDbEntity
  8
0
100
AcDbLine
 62
7
  6
CONTINUOUS
 10
9.10349516
 20
3.6344897401
 11
9.1066650926
 21
3.6436958929
  0
LINE
  5
3A9
100
AcDbEntity
  8
0
100
AcDbLine
 62
7
  6
CONTINUOUS
 10
9.251969164
 20
4.0540219324
 11
9.2552992834
 21
4.0631713602
  0
LINE
  5
3AA
100
AcDbEntity
  8
0
100
AcDbLine
 62
7
  6
CONTINUOUS
 10
9.088900446
 20
3.6296686475
 11
9.0925428485
 21
3.6386839101
  0
LINE
  5
3AB
100
AcDbEntity
  8
0
100
AcDbLine
 62
7
  6
CONTINUOUS
 10
9.2591193762
 20
4.0408528799
 11
9.2629237758
 21
4.0498154836
  0
LINE
  5
3AC
100
AcDbEntity
  8
0
100
AcDbLine
 62
7
  6
CONTINUOUS
 10
9.074056871
 20
3.6256134702
 11
9.0781717434
 21
3.6344378425
  0
LINE
  5
3AD
100
AcDbEntity
  8
0
100
AcDbLine
 62
7
  6
CONTINUOUS
 10
9.1066650926
 20
4.1781233333
 11
9.10349516
 21
4.1873294861
  0
LINE
  5
3AE
100
AcDbEntity
  8
0
100
AcDbLine
 62
7
  6
CONTINUOUS
 10
9.2469862475
 20
3.7457093284
 11
9.244139536
 21
3.7550205021
  0
LINE
  5
3AF
100
AcDbEntity
  8
0
100
AcDbLine
 62
7
  6
CONTINUOUS
 10
9.1205094045
 20
4.1723888316
 11
9.1178256289
 21
4.1817482692
  0
LINE
  5
3B0
100
AcDbEntity
  8
0
100
AcDbLine
 62
7
  6
CONTINUOUS
 10
9.2380126429
 20
3.7332304249
 11
9.2356603701
 21
3.7426648761
  0
LINE
  5
3B1
100
AcDbEntity
  8
0
100
AcDbLine
 62
7
  6
CONTINUOUS
 10
9.1340346225
 20
4.1659376335
 11
9.1318443601
 21
4.1754247023
  0
LINE
  5
3B2
100
AcDbEntity
  8
0
100
AcDbLine
 62
7
  6
CONTINUOUS
 10
9.228387512
 20
3.7212248831
 11
9.2265296778
 21
3.7307826116
  0
LINE
  5
3B3
100
AcDbEntity
  8
0
100
AcDbLine
 62
7
  6
CONTINUOUS
 10
9.1472036751
 20
4.1587874214
 11
9.1455129292
 21
4.1683761179
  0
LINE
  5
3B4
100
AcDbEntity
  8
0
100
AcDbLine
 62
7
  6
CONTINUOUS
 10
9.2181527902
 20
3.7097460856
 11
9.2167977149
 21
3.7193879471
  0
LINE
  5
3B5
100
AcDbEntity
  8
0
100
AcDbLine
 62
7
  6
CONTINUOUS
 10
9.1599804668
 20
4.1509577934
 11
9.1587938716
 21
4.1606218357
  0
ARC
  5
3B6
100
AcDbEntity
  8
0
100
AcDbCircle
 62
7
  6
CONTINUOUS
 10
0.0926439476
 20
-17.5226841624
 40
21.0
100
AcDbArc
 50
84.2774261875
 51
87.2529863377
  0
ARC
  5
3B7
100
AcDbEntity
  8
0
100
AcDbCircle
 62
7
  6
CONTINUOUS
 10
0.2130606432
 20
2.5812095293
 40
2.2295
100
AcDbArc
 50
350.7367477834
 51
5.849386431
  0
ARC
  5
3B8
100
AcDbEntity
  8
0
100
AcDbCircle
 62
7
  6
CONTINUOUS
 10
1.2101198142
 20
2.832572296
 40
1.315
100
AcDbArc
 50
311.2685692708
 51
316.3573080802
  0
ARC
  5
3B9
100
AcDbEntity
  8
0
100
AcDbCircle
 62
7
  6
CONTINUOUS
 10
0.9012423704
 20
2.9737787299
 40
0.1425
100
AcDbArc
 50
14.6424776248
 51
51.3022866218
  0
ARC
  5
3BA
100
AcDbEntity
  8
0
100
AcDbCircle
 62
7
  6
CONTINUOUS
 10
2.248243978
 20
2.0095485502
 40
0.035
100
AcDbArc
 50
90.0
 51
141.0
  0
ARC
  5
3BB
100
AcDbEntity
  8
0
100
AcDbCircle
 62
7
  6
CONTINUOUS
 10
2.2162882255
 20
3.0979133698
 40
0.03
100
AcDbArc
 50
188.1518829321
 51
290.4686088224
  0
ARC
  5
3BC
100
AcDbEntity
  8
0
100
AcDbCircle
 62
7
  6
CONTINUOUS
 10
1.0090913558
 20
3.1084072794
 40
0.03
100
AcDbArc
 50
180.0
 51
231.3022866218
  0
ARC
  5
3BD
100
AcDbEntity
  8
0
100
AcDbCircle
 62
7
  6
CONTINUOUS
 10
1.06813992
 20
3.0173844397
 40
0.03
100
AcDbArc
 50
194.6424776248
 51
270.0
  0
ARC
  5
3BE
100
AcDbEntity
  8
0
100
AcDbCircle
 62
7
  6
CONTINUOUS
 10
2.1920913558
 20
1.9529179626
 40
0.027
100
AcDbArc
 50
141.0
 51
197.4595175183
  0
ARC
  5
3BF
100
AcDbEntity
  8
0
100
AcDbCircle
 62
7
  6
CONTINUOUS
 10
1.0790913558
 20
3.0073844397
 40
0.02
100
AcDbArc
 50
270.0
 51
360.0
  0
ARC
  5
3C0
100
AcDbEntity
  8
0
100
AcDbCircle
 62
7
  6
CONTINUOUS
 10
2.1472566844
 20
1.9388164645
 40
0.02
100
AcDbArc
 50
316.3573080802
 51
17.4595175183
  0
ARC
  5
3C1
100
AcDbEntity
  8
0
100
AcDbCircle
 62
7
  6
CONTINUOUS
 10
2.0873737799
 20
1.8329096131
 40
0.015
100
AcDbArc
 50
131.2685692708
 51
270.0
  0
ARC
  5
3C2
100
AcDbEntity
  8
0
100
AcDbCircle
 62
7
  6
CONTINUOUS
 10
3.2750913558
 20
2.930546053
 40
5.4865
100
AcDbArc
 50
353.2343948461
 51
4.6951455564
  0
ARC
  5
3C3
100
AcDbEntity
  8
0
100
AcDbCircle
 62
7
  6
CONTINUOUS
 10
4.2130606432
 20
2.5712095293
 40
2.2295
100
AcDbArc
 50
350.7367477834
 51
5.8493864313
  0
ARC
  5
3C4
100
AcDbEntity
  8
0
100
AcDbCircle
 62
7
  6
CONTINUOUS
 10
4.0480628974
 20
2.832572296
 40
1.315
100
AcDbArc
 50
223.6426919198
 51
228.7314307292
  0
ARC
  5
3C5
100
AcDbEntity
  8
0
100
AcDbCircle
 62
7
  6
CONTINUOUS
 10
4.4232654668
 20
1.654679114
 40
0.825
100
AcDbArc
 50
27.7184984363
 51
45.977526257
  0
ARC
  5
3C6
100
AcDbEntity
  8
0
100
AcDbCircle
 62
7
  6
CONTINUOUS
 10
2.6135913558
 20
1.7528396192
 40
0.465
100
AcDbArc
 50
120.6423451974
 51
141.1464003156
  0
ARC
  5
3C7
100
AcDbEntity
  8
0
100
AcDbCircle
 62
7
  6
CONTINUOUS
 10
2.6445913558
 20
1.7528396192
 40
0.465
100
AcDbArc
 50
38.8535996844
 51
59.3576548026
  0
ARC
  5
3C8
100
AcDbEntity
  8
0
100
AcDbCircle
 62
7
  6
CONTINUOUS
 10
4.3354374261
 20
1.5533753196
 40
0.45
100
AcDbArc
 50
128.8148632765
 51
140.323525851
  0
ARC
  5
3C9
100
AcDbEntity
  8
0
100
AcDbCircle
 62
7
  6
CONTINUOUS
 10
2.6290913558
 20
3.1232954148
 40
0.35
100
AcDbArc
 50
71.180936631
 51
108.819063369
  0
ARC
  5
3CA
100
AcDbEntity
  8
0
100
AcDbCircle
 62
7
  6
CONTINUOUS
 10
3.7836524196
 20
2.0664260261
 40
0.3
100
AcDbArc
 50
336.6349592663
 51
349.9208449448
  0
ARC
  5
3CB
100
AcDbEntity
  8
0
100
AcDbCircle
 62
7
  6
CONTINUOUS
 10
2.3159510569
 20
2.8309071526
 40
0.255
100
AcDbArc
 50
79.9181044226
 51
110.4686088224
  0
ARC
  5
3CC
100
AcDbEntity
  8
0
100
AcDbCircle
 62
7
  6
CONTINUOUS
 10
4.2453583447
 20
2.5199419941
 40
0.05
100
AcDbArc
 50
359.6486545051
 51
38.35615575
  0
ARC
  5
3CD
100
AcDbEntity
  8
0
100
AcDbCircle
 62
7
  6
CONTINUOUS
 10
4.2938413558
 20
2.2724083376
 40
0.0405
100
AcDbArc
 50
114.8329910391
 51
217.2221338961
  0
ARC
  5
3CE
100
AcDbEntity
  8
0
100
AcDbCircle
 62
7
  6
CONTINUOUS
 10
4.3159335139
 20
2.5757913047
 40
0.04
100
AcDbArc
 50
125.1484803012
 51
218.35615575
  0
ARC
  5
3CF
100
AcDbEntity
  8
0
100
AcDbCircle
 62
7
  6
CONTINUOUS
 10
3.0099387336
 20
2.0095485502
 40
0.035
100
AcDbArc
 50
39.0
 51
90.0
  0
ARC
  5
3D0
100
AcDbEntity
  8
0
100
AcDbCircle
 62
7
  6
CONTINUOUS
 10
2.4011083596
 20
2.8053689385
 40
0.03
100
AcDbArc
 50
5.849386431
 51
56.6524271107
  0
ARC
  5
3D1
100
AcDbEntity
  8
0
100
AcDbCircle
 62
7
  6
CONTINUOUS
 10
2.8570743519
 20
2.8053689385
 40
0.03
100
AcDbArc
 50
123.3475728905
 51
174.1506135687
  0
ARC
  5
3D2
100
AcDbEntity
  8
0
100
AcDbCircle
 62
7
  6
CONTINUOUS
 10
2.3838773184
 20
2.2271541482
 40
0.03
100
AcDbArc
 50
284.1325726664
 51
350.7367477834
  0
ARC
  5
3D3
100
AcDbEntity
  8
0
100
AcDbCircle
 62
7
  6
CONTINUOUS
 10
2.8743053932
 20
2.2271541482
 40
0.03
100
AcDbArc
 50
189.2632522166
 51
255.8674273336
  0
ARC
  5
3D4
100
AcDbEntity
  8
0
100
AcDbCircle
 62
7
  6
CONTINUOUS
 10
2.4340913558
 20
2.8554900116
 40
0.03
100
AcDbArc
 50
180.0
 51
236.6524271107
  0
ARC
  5
3D5
100
AcDbEntity
  8
0
100
AcDbCircle
 62
7
  6
CONTINUOUS
 10
2.8240913558
 20
2.8554900116
 40
0.03
100
AcDbArc
 50
303.3475728905
 51
360.0
  0
ARC
  5
3D6
100
AcDbEntity
  8
0
100
AcDbCircle
 62
7
  6
CONTINUOUS
 10
2.4340913558
 20
2.8579096131
 40
0.03
100
AcDbArc
 50
90.0
 51
180.0
  0
ARC
  5
3D7
100
AcDbEntity
  8
0
100
AcDbCircle
 62
7
  6
CONTINUOUS
 10
2.8240913558
 20
2.8579096131
 40
0.03
100
AcDbArc
 50
0.0
 51
90.0
  0
ARC
  5
3D8
100
AcDbEntity
  8
0
100
AcDbCircle
 62
7
  6
CONTINUOUS
 10
4.2756347017
 20
2.6330277069
 40
0.03
100
AcDbArc
 50
305.1484803012
 51
356.5102378959
  0
ARC
  5
3D9
100
AcDbEntity
  8
0
100
AcDbCircle
 62
7
  6
CONTINUOUS
 10
4.2642331385
 20
2.3363896119
 40
0.03
100
AcDbArc
 50
294.8329910391
 51
359.6486545051
  0
ARC
  5
3DA
100
AcDbEntity
  8
0
100
AcDbCircle
 62
7
  6
CONTINUOUS
 10
4.0865913558
 20
1.9355520374
 40
0.03
100
AcDbArc
 50
156.6349592663
 51
170.2993321321
  0
ARC
  5
3DB
100
AcDbEntity
  8
0
100
AcDbCircle
 62
7
  6
CONTINUOUS
 10
4.1085595017
 20
2.0086732081
 40
0.03
100
AcDbArc
 50
97.6008745497
 51
169.9208449448
  0
ARC
  5
3DC
100
AcDbEntity
  8
0
100
AcDbCircle
 62
7
  6
CONTINUOUS
 10
2.3980389664
 20
2.1709096131
 40
0.028
100
AcDbArc
 50
104.1325726664
 51
220.0052008849
  0
ARC
  5
3DD
100
AcDbEntity
  8
0
100
AcDbCircle
 62
7
  6
CONTINUOUS
 10
2.8601437452
 20
2.1709096131
 40
0.028
100
AcDbArc
 50
319.9947991151
 51
75.8674273336
  0
ARC
  5
3DE
100
AcDbEntity
  8
0
100
AcDbCircle
 62
7
  6
CONTINUOUS
 10
3.0660913558
 20
1.9529179626
 40
0.027
100
AcDbArc
 50
342.5404824817
 51
39.0
  0
ARC
  5
3DF
100
AcDbEntity
  8
0
100
AcDbCircle
 62
7
  6
CONTINUOUS
 10
2.3640913558
 20
3.101660752
 40
0.02
100
AcDbArc
 50
259.9181044226
 51
360.0
  0
ARC
  5
3E0
100
AcDbEntity
  8
0
100
AcDbCircle
 62
7
  6
CONTINUOUS
 10
3.1109260271
 20
1.9388164645
 40
0.02
100
AcDbArc
 50
162.5404824817
 51
223.6426919198
  0
ARC
  5
3E1
100
AcDbEntity
  8
0
100
AcDbCircle
 62
7
  6
CONTINUOUS
 10
4.0408386245
 20
1.9195877526
 40
0.02
100
AcDbArc
 50
308.8148632765
 51
26.1825354829
  0
ARC
  5
3E2
100
AcDbEntity
  8
0
100
AcDbCircle
 62
7
  6
CONTINUOUS
 10
4.0044828648
 20
1.8279096131
 40
0.02
100
AcDbArc
 50
140.323525851
 51
270.0
  0
ARC
  5
3E3
100
AcDbEntity
  8
0
100
AcDbCircle
 62
7
  6
CONTINUOUS
 10
4.0767343407
 20
1.937237046
 40
0.02
100
AcDbArc
 50
170.2993321321
 51
206.1825354829
  0
ARC
  5
3E4
100
AcDbEntity
  8
0
100
AcDbCircle
 62
7
  6
CONTINUOUS
 10
3.1708089316
 20
1.8329096131
 40
0.015
100
AcDbArc
 50
270.0
 51
48.7314307293
  0
ARC
  5
3E5
100
AcDbEntity
  8
0
100
AcDbCircle
 62
7
  6
CONTINUOUS
 10
-18.1526989738
 20
4.0007808055
 40
22.5
100
AcDbArc
 50
356.5102378959
 51
1.7811663206
  0
ARC
  5
3E6
100
AcDbEntity
  8
0
100
AcDbCircle
 62
7
  6
CONTINUOUS
 10
0.0926439476
 20
23.9890030419
 40
21.0
100
AcDbArc
 50
272.7470136623
 51
275.7225738124
  0
ARC
  5
3E7
100
AcDbEntity
  8
0
100
AcDbCircle
 62
7
  6
CONTINUOUS
 10
4.6043564472
 20
5.2928629622
 40
0.675
100
AcDbArc
 50
106.5935974246
 51
109.6215522579
  0
ARC
  5
3E8
100
AcDbEntity
  8
0
100
AcDbCircle
 62
7
  6
CONTINUOUS
 10
4.5586280277
 20
6.065196522
 40
0.4
100
AcDbArc
 50
316.0476775125
 51
325.2792910921
  0
ARC
  5
3E9
100
AcDbEntity
  8
0
100
AcDbCircle
 62
7
  6
CONTINUOUS
 10
2.3159510569
 20
3.6354117269
 40
0.255
100
AcDbArc
 50
249.531391178
 51
280.0818955774
  0
ARC
  5
3EA
100
AcDbEntity
  8
0
100
AcDbCircle
 62
7
  6
CONTINUOUS
 10
2.6290913558
 20
3.2331594397
 40
0.2255
100
AcDbArc
 50
210.6485451413
 51
233.066555091
  0
ARC
  5
3EB
100
AcDbEntity
  8
0
100
AcDbCircle
 62
7
  6
CONTINUOUS
 10
2.6290913558
 20
3.2331594397
 40
0.2255
100
AcDbArc
 50
306.933444909
 51
48.4965643543
  0
ARC
  5
3EC
100
AcDbEntity
  8
0
100
AcDbCircle
 62
7
  6
CONTINUOUS
 10
2.6290913558
 20
3.2331594397
 40
0.2255
100
AcDbArc
 50
131.5034356457
 51
149.3514548587
  0
ARC
  5
3ED
100
AcDbEntity
  8
0
100
AcDbCircle
 62
7
  6
CONTINUOUS
 10
4.3071682184
 20
6.1264720772
 40
0.21
100
AcDbArc
 50
283.0471477631
 51
289.6215522579
  0
ARC
  5
3EE
100
AcDbEntity
  8
0
100
AcDbCircle
 62
7
  6
CONTINUOUS
 10
0.9012423704
 20
3.4925401496
 40
0.1425
100
AcDbArc
 50
308.6977133782
 51
345.3575223752
  0
ARC
  5
3EF
100
AcDbEntity
  8
0
100
AcDbCircle
 62
7
  6
CONTINUOUS
 10
4.2899437614
 20
4.9152811199
 40
0.09
100
AcDbArc
 50
329.5344171503
 51
5.0
  0
ARC
  5
3F0
100
AcDbEntity
  8
0
100
AcDbCircle
 62
7
  6
CONTINUOUS
 10
4.274201391
 20
5.0952172365
 40
0.09
100
AcDbArc
 50
5.0
 51
39.5012611871
  0
ARC
  5
3F1
100
AcDbEntity
  8
0
100
AcDbCircle
 62
7
  6
CONTINUOUS
 10
4.3296824813
 20
5.8088870336
 40
0.05
100
AcDbArc
 50
34.7207089079
 51
65.1574082513
  0
ARC
  5
3F2
100
AcDbEntity
  8
0
100
AcDbCircle
 62
7
  6
CONTINUOUS
 10
4.3745107667
 20
5.1779096131
 40
0.04
100
AcDbArc
 50
90.0
 51
219.5012611871
  0
ARC
  5
3F3
100
AcDbEntity
  8
0
100
AcDbCircle
 62
7
  6
CONTINUOUS
 10
4.4058241118
 20
4.8479096131
 40
0.04
100
AcDbArc
 50
218.2072845312
 51
270.0
  0
ARC
  5
3F4
100
AcDbEntity
  8
0
100
AcDbCircle
 62
7
  6
CONTINUOUS
 10
2.7290913558
 20
3.4167234298
 40
0.04
100
AcDbArc
 50
0.0
 51
71.180936631
  0
ARC
  5
3F5
100
AcDbEntity
  8
0
100
AcDbCircle
 62
7
  6
CONTINUOUS
 10
2.5290913558
 20
3.4167234298
 40
0.04
100
AcDbArc
 50
108.819063369
 51
180.0
  0
ARC
  5
3F6
100
AcDbEntity
  8
0
100
AcDbCircle
 62
7
  6
CONTINUOUS
 10
4.2989692406
 20
4.6984096131
 40
0.0375
100
AcDbArc
 50
2.6302873863
 51
49.4641962751
  0
ARC
  5
3F7
100
AcDbEntity
  8
0
100
AcDbCircle
 62
7
  6
CONTINUOUS
 10
2.2162882255
 20
3.3684055097
 40
0.03
100
AcDbArc
 50
69.531391178
 51
171.848117067
  0
ARC
  5
3F8
100
AcDbEntity
  8
0
100
AcDbCircle
 62
7
  6
CONTINUOUS
 10
1.0090913558
 20
3.3579116001
 40
0.03
100
AcDbArc
 50
128.6977133782
 51
180.0
  0
ARC
  5
3F9
100
AcDbEntity
  8
0
100
AcDbCircle
 62
7
  6
CONTINUOUS
 10
1.06813992
 20
3.4489344397
 40
0.03
100
AcDbArc
 50
90.0
 51
165.3575223752
  0
ARC
  5
3FA
100
AcDbEntity
  8
0
100
AcDbCircle
 62
7
  6
CONTINUOUS
 10
4.3323409025
 20
4.7740745338
 40
0.03
100
AcDbArc
 50
120.5518721988
 51
180.3149767916
  0
ARC
  5
3FB
100
AcDbEntity
  8
0
100
AcDbCircle
 62
7
  6
CONTINUOUS
 10
4.3323413558
 20
4.7555277887
 40
0.03
100
AcDbArc
 50
180.0
 51
252.5423984832
  0
ARC
  5
3FC
100
AcDbEntity
  8
0
100
AcDbCircle
 62
7
  6
CONTINUOUS
 10
1.0790913558
 20
3.4589344397
 40
0.02
100
AcDbArc
 50
0.0
 51
90.0
  0
ARC
  5
3FD
100
AcDbEntity
  8
0
100
AcDbCircle
 62
7
  6
CONTINUOUS
 10
2.3640913558
 20
3.3646581275
 40
0.02
100
AcDbArc
 50
0.0
 51
100.0818955774
  0
ARC
  5
3FE
100
AcDbEntity
  8
0
100
AcDbCircle
 62
7
  6
CONTINUOUS
 10
4.3590913558
 20
5.9024096131
 40
0.02
100
AcDbArc
 50
103.0471477631
 51
180.0
  0
ARC
  5
3FF
100
AcDbEntity
  8
0
100
AcDbCircle
 62
7
  6
CONTINUOUS
 10
4.3590913558
 20
5.8724096131
 40
0.02
100
AcDbArc
 50
180.0
 51
245.1574082513
  0
ARC
  5
400
100
AcDbEntity
  8
0
100
AcDbCircle
 62
7
  6
CONTINUOUS
 10
2.7590913558
 20
3.4132954148
 40
0.01
100
AcDbArc
 50
270.0
 51
360.0
  0
ARC
  5
401
100
AcDbEntity
  8
0
100
AcDbCircle
 62
7
  6
CONTINUOUS
 10
2.4990913558
 20
3.4132954148
 40
0.01
100
AcDbArc
 50
180.0
 51
270.0
  0
ARC
  5
402
100
AcDbEntity
  8
0
100
AcDbCircle
 62
7
  6
CONTINUOUS
 10
2.7752089788
 20
3.3982954148
 40
0.005
100
AcDbArc
 50
48.4965643595
 51
90.0
  0
ARC
  5
403
100
AcDbEntity
  8
0
100
AcDbCircle
 62
7
  6
CONTINUOUS
 10
2.4829737328
 20
3.3982954148
 40
0.005
100
AcDbArc
 50
90.0
 51
131.5034356405
  0
ARC
  5
404
100
AcDbEntity
  8
0
100
AcDbCircle
 62
7
  6
CONTINUOUS
 10
9.1655387639
 20
-17.5326841624
 40
21.0
100
AcDbArc
 50
92.7470136623
 51
95.7225738125
  0
ARC
  5
405
100
AcDbEntity
  8
0
100
AcDbCircle
 62
7
  6
CONTINUOUS
 10
4.8349172447
 20
1.654679114
 40
0.825
100
AcDbArc
 50
134.022473743
 51
152.2815015631
  0
ARC
  5
406
100
AcDbEntity
  8
0
100
AcDbCircle
 62
7
  6
CONTINUOUS
 10
6.6445913558
 20
1.7428396192
 40
0.465
100
AcDbArc
 50
38.8535996844
 51
59.3576548026
  0
ARC
  5
407
100
AcDbEntity
  8
0
100
AcDbCircle
 62
7
  6
CONTINUOUS
 10
6.6135913558
 20
1.7428396192
 40
0.465
100
AcDbArc
 50
120.6423451974
 51
141.1464003156
  0
ARC
  5
408
100
AcDbEntity
  8
0
100
AcDbCircle
 62
7
  6
CONTINUOUS
 10
4.9227452855
 20
1.5533753196
 40
0.45
100
AcDbArc
 50
39.676474149
 51
51.1851367253
  0
ARC
  5
409
100
AcDbEntity
  8
0
100
AcDbCircle
 62
7
  6
CONTINUOUS
 10
5.474530292
 20
2.0664260261
 40
0.3
100
AcDbArc
 50
190.0791550566
 51
203.3650407337
  0
ARC
  5
40A
100
AcDbEntity
  8
0
100
AcDbCircle
 62
7
  6
CONTINUOUS
 10
4.9643413558
 20
2.2724083376
 40
0.0405
100
AcDbArc
 50
322.7778661039
 51
65.1670089609
  0
ARC
  5
40B
100
AcDbEntity
  8
0
100
AcDbCircle
 62
7
  6
CONTINUOUS
 10
7.0099387336
 20
1.9995485502
 40
0.035
100
AcDbArc
 50
39.0
 51
90.0
  0
ARC
  5
40C
100
AcDbEntity
  8
0
100
AcDbCircle
 62
7
  6
CONTINUOUS
 10
6.248243978
 20
1.9995485502
 40
0.035
100
AcDbArc
 50
90.0
 51
141.0
  0
ARC
  5
40D
100
AcDbEntity
  8
0
100
AcDbCircle
 62
7
  6
CONTINUOUS
 10
6.8743053932
 20
2.2171541482
 40
0.03
100
AcDbArc
 50
189.2632522166
 51
255.8674273336
  0
ARC
  5
40E
100
AcDbEntity
  8
0
100
AcDbCircle
 62
7
  6
CONTINUOUS
 10
6.3838773184
 20
2.2171541482
 40
0.03
100
AcDbArc
 50
284.1325726664
 51
350.7367477834
  0
ARC
  5
40F
100
AcDbEntity
  8
0
100
AcDbCircle
 62
7
  6
CONTINUOUS
 10
4.9939495731
 20
2.3363896119
 40
0.03
100
AcDbArc
 50
180.3513454949
 51
245.1670089609
  0
ARC
  5
410
100
AcDbEntity
  8
0
100
AcDbCircle
 62
7
  6
CONTINUOUS
 10
5.1715913558
 20
1.9355520374
 40
0.03
100
AcDbArc
 50
9.7006680033
 51
23.3650407337
  0
ARC
  5
411
100
AcDbEntity
  8
0
100
AcDbCircle
 62
7
  6
CONTINUOUS
 10
5.1496232098
 20
2.0086732081
 40
0.03
100
AcDbArc
 50
10.0791550566
 51
82.3991254447
  0
ARC
  5
412
100
AcDbEntity
  8
0
100
AcDbCircle
 62
7
  6
CONTINUOUS
 10
6.8601437452
 20
2.1609096131
 40
0.028
100
AcDbArc
 50
319.9947991151
 51
75.8674273336
  0
ARC
  5
413
100
AcDbEntity
  8
0
100
AcDbCircle
 62
7
  6
CONTINUOUS
 10
6.3980389664
 20
2.1609096131
 40
0.028
100
AcDbArc
 50
104.1325726664
 51
220.0052008849
  0
ARC
  5
414
100
AcDbEntity
  8
0
100
AcDbCircle
 62
7
  6
CONTINUOUS
 10
7.0660913558
 20
1.9429179626
 40
0.027
100
AcDbArc
 50
342.5404824817
 51
39.0
  0
ARC
  5
415
100
AcDbEntity
  8
0
100
AcDbCircle
 62
7
  6
CONTINUOUS
 10
6.1920913558
 20
1.9429179626
 40
0.027
100
AcDbArc
 50
141.0
 51
197.4595175183
  0
ARC
  5
416
100
AcDbEntity
  8
0
100
AcDbCircle
 62
7
  6
CONTINUOUS
 10
7.1109260271
 20
1.9288164645
 40
0.02
100
AcDbArc
 50
162.5404824817
 51
223.6426919198
  0
ARC
  5
417
100
AcDbEntity
  8
0
100
AcDbCircle
 62
7
  6
CONTINUOUS
 10
6.1472566844
 20
1.9288164645
 40
0.02
100
AcDbArc
 50
316.3573080802
 51
17.4595175183
  0
ARC
  5
418
100
AcDbEntity
  8
0
100
AcDbCircle
 62
7
  6
CONTINUOUS
 10
5.217344087
 20
1.9195877526
 40
0.02
100
AcDbArc
 50
153.8174644941
 51
231.1851367253
  0
ARC
  5
419
100
AcDbEntity
  8
0
100
AcDbCircle
 62
7
  6
CONTINUOUS
 10
5.2536998468
 20
1.8279096131
 40
0.02
100
AcDbArc
 50
270.0
 51
39.676474149
  0
ARC
  5
41A
100
AcDbEntity
  8
0
100
AcDbCircle
 62
7
  6
CONTINUOUS
 10
5.1814483708
 20
1.9372370461
 40
0.02
100
AcDbArc
 50
333.8174644941
 51
9.7006680033
  0
ARC
  5
41B
100
AcDbEntity
  8
0
100
AcDbCircle
 62
7
  6
CONTINUOUS
 10
7.1708089316
 20
1.8229096131
 40
0.015
100
AcDbArc
 50
270.0
 51
48.7314307292
  0
ARC
  5
41C
100
AcDbEntity
  8
0
100
AcDbCircle
 62
7
  6
CONTINUOUS
 10
6.0873737799
 20
1.8229096131
 40
0.015
100
AcDbArc
 50
131.2685692708
 51
270.0
  0
ARC
  5
41D
100
AcDbEntity
  8
0
100
AcDbCircle
 62
7
  6
CONTINUOUS
 10
5.0451220683
 20
2.5812095293
 40
2.2295
100
AcDbArc
 50
174.1506135687
 51
189.2632522166
  0
ARC
  5
41E
100
AcDbEntity
  8
0
100
AcDbCircle
 62
7
  6
CONTINUOUS
 10
5.2101198142
 20
2.822572296
 40
1.315
100
AcDbArc
 50
311.2685692708
 51
316.3573080802
  0
ARC
  5
41F
100
AcDbEntity
  8
0
100
AcDbCircle
 62
7
  6
CONTINUOUS
 10
6.6290913558
 20
3.1132954148
 40
0.35
100
AcDbArc
 50
71.180936631
 51
108.819063369
  0
ARC
  5
420
100
AcDbEntity
  8
0
100
AcDbCircle
 62
7
  6
CONTINUOUS
 10
6.9422316546
 20
2.8209071526
 40
0.255
100
AcDbArc
 50
69.5313911776
 51
100.0818955774
  0
ARC
  5
421
100
AcDbEntity
  8
0
100
AcDbCircle
 62
7
  6
CONTINUOUS
 10
6.6290913558
 20
3.2231594397
 40
0.2255
100
AcDbArc
 50
306.933444909
 51
329.3514548587
  0
ARC
  5
422
100
AcDbEntity
  8
0
100
AcDbCircle
 62
7
  6
CONTINUOUS
 10
6.6290913558
 20
3.2231594397
 40
0.2255
100
AcDbArc
 50
131.5034356457
 51
233.066555091
  0
ARC
  5
423
100
AcDbEntity
  8
0
100
AcDbCircle
 62
7
  6
CONTINUOUS
 10
6.6290913558
 20
3.2231594397
 40
0.2255
100
AcDbArc
 50
30.6485451413
 51
48.4965643543
  0
ARC
  5
424
100
AcDbEntity
  8
0
100
AcDbCircle
 62
7
  6
CONTINUOUS
 10
5.0128243669
 20
2.5199419941
 40
0.05
100
AcDbArc
 50
141.64384425
 51
180.3513454949
  0
ARC
  5
425
100
AcDbEntity
  8
0
100
AcDbCircle
 62
7
  6
CONTINUOUS
 10
4.9422491977
 20
2.5757913047
 40
0.04
100
AcDbArc
 50
321.64384425
 51
54.8515196988
  0
ARC
  5
426
100
AcDbEntity
  8
0
100
AcDbCircle
 62
7
  6
CONTINUOUS
 10
7.0418944861
 20
3.0879133698
 40
0.03
100
AcDbArc
 50
249.5313911776
 51
351.848117068
  0
ARC
  5
427
100
AcDbEntity
  8
0
100
AcDbCircle
 62
7
  6
CONTINUOUS
 10
6.8570743519
 20
2.7953689385
 40
0.03
100
AcDbArc
 50
123.3475728893
 51
174.150613569
  0
ARC
  5
428
100
AcDbEntity
  8
0
100
AcDbCircle
 62
7
  6
CONTINUOUS
 10
6.4011083596
 20
2.7953689385
 40
0.03
100
AcDbArc
 50
5.8493864313
 51
56.6524271095
  0
ARC
  5
429
100
AcDbEntity
  8
0
100
AcDbCircle
 62
7
  6
CONTINUOUS
 10
6.8240913558
 20
2.8454900116
 40
0.03
100
AcDbArc
 50
303.3475728893
 51
360.0
  0
ARC
  5
42A
100
AcDbEntity
  8
0
100
AcDbCircle
 62
7
  6
CONTINUOUS
 10
6.4340913558
 20
2.8454900116
 40
0.03
100
AcDbArc
 50
180.0
 51
236.6524271095
  0
ARC
  5
42B
100
AcDbEntity
  8
0
100
AcDbCircle
 62
7
  6
CONTINUOUS
 10
6.8240913558
 20
2.8479096131
 40
0.03
100
AcDbArc
 50
0.0
 51
90.0
  0
ARC
  5
42C
100
AcDbEntity
  8
0
100
AcDbCircle
 62
7
  6
CONTINUOUS
 10
6.4340913558
 20
2.8479096131
 40
0.03
100
AcDbArc
 50
90.0
 51
180.0
  0
ARC
  5
42D
100
AcDbEntity
  8
0
100
AcDbCircle
 62
7
  6
CONTINUOUS
 10
4.9825480098
 20
2.6330277069
 40
0.03
100
AcDbArc
 50
183.4897621041
 51
234.8515196988
  0
ARC
  5
42E
100
AcDbEntity
  8
0
100
AcDbCircle
 62
7
  6
CONTINUOUS
 10
6.8940913558
 20
3.091660752
 40
0.02
100
AcDbArc
 50
180.0
 51
280.0818955774
  0
ARC
  5
42F
100
AcDbEntity
  8
0
100
AcDbCircle
 62
7
  6
CONTINUOUS
 10
8.9630913558
 20
1.5924096131
 40
0.6335
100
AcDbArc
 50
37.1932966364
 51
51.353381435
  0
ARC
  5
430
100
AcDbEntity
  8
0
100
AcDbCircle
 62
7
  6
CONTINUOUS
 10
9.0450913558
 20
1.5924096131
 40
0.6335
100
AcDbArc
 50
128.646618565
 51
142.8067033636
  0
ARC
  5
431
100
AcDbEntity
  8
0
100
AcDbCircle
 62
7
  6
CONTINUOUS
 10
8.6878927539
 20
1.6279096131
 40
0.326
100
AcDbArc
 50
133.3959580377
 51
143.0393905811
  0
ARC
  5
432
100
AcDbEntity
  8
0
100
AcDbCircle
 62
7
  6
CONTINUOUS
 10
9.3202899577
 20
1.6279096131
 40
0.326
100
AcDbArc
 50
36.9606094189
 51
46.6040419623
  0
ARC
  5
433
100
AcDbEntity
  8
0
100
AcDbCircle
 62
7
  6
CONTINUOUS
 10
9.7768859874
 20
2.0859096131
 40
0.3035
100
AcDbArc
 50
204.3918372598
 51
217.9887202813
  0
ARC
  5
434
100
AcDbEntity
  8
0
100
AcDbCircle
 62
7
  6
CONTINUOUS
 10
8.2312967241
 20
2.0859096131
 40
0.3035
100
AcDbArc
 50
322.0112797187
 51
335.6081627402
  0
ARC
  5
435
100
AcDbEntity
  8
0
100
AcDbCircle
 62
7
  6
CONTINUOUS
 10
9.4138918391
 20
2.2995082159
 40
0.13
100
AcDbArc
 50
186.7656051539
 51
216.9941162959
  0
ARC
  5
436
100
AcDbEntity
  8
0
100
AcDbCircle
 62
7
  6
CONTINUOUS
 10
8.5942908724
 20
2.2995082159
 40
0.13
100
AcDbArc
 50
323.0058837041
 51
353.2343948461
  0
ARC
  5
437
100
AcDbEntity
  8
0
100
AcDbCircle
 62
7
  6
CONTINUOUS
 10
9.4024378498
 20
2.1418519742
 40
0.07
100
AcDbArc
 50
186.5375495155
 51
231.353381435
  0
ARC
  5
438
100
AcDbEntity
  8
0
100
AcDbCircle
 62
7
  6
CONTINUOUS
 10
8.6057448617
 20
2.1418519742
 40
0.07
100
AcDbArc
 50
308.646618565
 51
353.4624504845
  0
ARC
  5
439
100
AcDbEntity
  8
0
100
AcDbCircle
 62
7
  6
CONTINUOUS
 10
9.2280913558
 20
2.1334096131
 40
0.04
100
AcDbArc
 50
90.0
 51
136.5674634422
  0
ARC
  5
43A
100
AcDbEntity
  8
0
100
AcDbCircle
 62
7
  6
CONTINUOUS
 10
8.7800913558
 20
2.1334096131
 40
0.04
100
AcDbArc
 50
43.4325365578
 51
90.0
  0
ARC
  5
43B
100
AcDbEntity
  8
0
100
AcDbCircle
 62
7
  6
CONTINUOUS
 10
9.278113297
 20
2.1972136046
 40
0.04
100
AcDbArc
 50
11.519670006
 51
36.9941162959
  0
ARC
  5
43C
100
AcDbEntity
  8
0
100
AcDbCircle
 62
7
  6
CONTINUOUS
 10
8.7300694145
 20
2.1972136046
 40
0.04
100
AcDbArc
 50
143.0058837041
 51
168.480329994
  0
ARC
  5
43D
100
AcDbEntity
  8
0
100
AcDbCircle
 62
7
  6
CONTINUOUS
 10
9.3025913558
 20
2.1304096131
 40
0.0305
100
AcDbArc
 50
6.5375495155
 51
90.0
  0
ARC
  5
43E
100
AcDbEntity
  8
0
100
AcDbCircle
 62
7
  6
CONTINUOUS
 10
8.7055913558
 20
2.1304096131
 40
0.0305
100
AcDbArc
 50
90.0
 51
173.4624504845
  0
ARC
  5
43F
100
AcDbEntity
  8
0
100
AcDbCircle
 62
7
  6
CONTINUOUS
 10
9.2913413558
 20
2.1999096131
 40
0.0265
100
AcDbArc
 50
270.0
 51
11.519670006
  0
ARC
  5
440
100
AcDbEntity
  8
0
100
AcDbCircle
 62
7
  6
CONTINUOUS
 10
8.7168413558
 20
2.1999096131
 40
0.0265
100
AcDbArc
 50
168.480329994
 51
270.0
  0
ARC
  5
441
100
AcDbEntity
  8
0
100
AcDbCircle
 62
7
  6
CONTINUOUS
 10
9.4836698793
 20
1.9874542319
 40
0.02
100
AcDbArc
 50
217.1932966367
 51
257.7792543283
  0
ARC
  5
442
100
AcDbEntity
  8
0
100
AcDbCircle
 62
7
  6
CONTINUOUS
 10
8.5245128322
 20
1.9874542319
 40
0.02
100
AcDbArc
 50
282.2207456717
 51
322.8067033632
  0
ARC
  5
443
100
AcDbEntity
  8
0
100
AcDbCircle
 62
7
  6
CONTINUOUS
 10
9.558004501
 20
1.8793212196
 40
0.02
100
AcDbArc
 50
158.1640356368
 51
226.6040419625
  0
ARC
  5
444
100
AcDbEntity
  8
0
100
AcDbCircle
 62
7
  6
CONTINUOUS
 10
8.4501782105
 20
1.8793212196
 40
0.02
100
AcDbArc
 50
313.3959580375
 51
21.8359643633
  0
ARC
  5
445
100
AcDbEntity
  8
0
100
AcDbCircle
 62
7
  6
CONTINUOUS
 10
9.1730913558
 20
1.8134096131
 40
0.015
100
AcDbArc
 50
270.0
 51
338.4898117331
  0
ARC
  5
446
100
AcDbEntity
  8
0
100
AcDbCircle
 62
7
  6
CONTINUOUS
 10
8.8350913558
 20
1.8134096131
 40
0.015
100
AcDbArc
 50
201.5101882669
 51
270.0
  0
ARC
  5
447
100
AcDbEntity
  8
0
100
AcDbCircle
 62
7
  6
CONTINUOUS
 10
9.4890913558
 20
1.9554096131
 40
0.0125
100
AcDbArc
 50
24.3918372598
 51
90.0
  0
ARC
  5
448
100
AcDbEntity
  8
0
100
AcDbCircle
 62
7
  6
CONTINUOUS
 10
8.5190913558
 20
1.9554096131
 40
0.0125
100
AcDbArc
 50
90.0
 51
155.6081627402
  0
ARC
  5
449
100
AcDbEntity
  8
0
100
AcDbCircle
 62
7
  6
CONTINUOUS
 10
9.5278362936
 20
1.8914096131
 40
0.0125
100
AcDbArc
 50
338.1640356369
 51
37.9887202813
  0
ARC
  5
44A
100
AcDbEntity
  8
0
100
AcDbCircle
 62
7
  6
CONTINUOUS
 10
8.480346418
 20
1.8914096131
 40
0.0125
100
AcDbArc
 50
142.0112797187
 51
201.8359643631
  0
ARC
  5
44B
100
AcDbEntity
  8
0
100
AcDbCircle
 62
7
  6
CONTINUOUS
 10
8.4353932489
 20
1.8179096131
 40
0.01
100
AcDbArc
 50
143.0393905809
 51
270.0
  0
ARC
  5
44C
100
AcDbEntity
  8
0
100
AcDbCircle
 62
7
  6
CONTINUOUS
 10
9.5727894626
 20
1.8179096131
 40
0.01
100
AcDbArc
 50
270.0
 51
36.9606094191
  0
ARC
  5
44D
100
AcDbEntity
  8
0
100
AcDbCircle
 62
7
  6
CONTINUOUS
 10
9.0451220683
 20
2.5712095293
 40
2.2295
100
AcDbArc
 50
174.150613569
 51
189.2632522166
  0
ARC
  5
44E
100
AcDbEntity
  8
0
100
AcDbCircle
 62
7
  6
CONTINUOUS
 10
8.0480628974
 20
2.822572296
 40
1.315
100
AcDbArc
 50
223.6426919198
 51
228.7314307292
  0
ARC
  5
44F
100
AcDbEntity
  8
0
100
AcDbCircle
 62
7
  6
CONTINUOUS
 10
8.3569403412
 20
2.9637787299
 40
0.1425
100
AcDbArc
 50
128.6977133782
 51
165.3575223752
  0
ARC
  5
450
100
AcDbEntity
  8
0
100
AcDbCircle
 62
7
  6
CONTINUOUS
 10
8.2490913558
 20
3.0984072794
 40
0.03
100
AcDbArc
 50
308.6977133782
 51
360.0
  0
ARC
  5
451
100
AcDbEntity
  8
0
100
AcDbCircle
 62
7
  6
CONTINUOUS
 10
8.1900427916
 20
3.0073844397
 40
0.03
100
AcDbArc
 50
270.0
 51
345.3575223753
  0
ARC
  5
452
100
AcDbEntity
  8
0
100
AcDbCircle
 62
7
  6
CONTINUOUS
 10
8.1790913558
 20
2.9973844397
 40
0.02
100
AcDbArc
 50
180.0
 51
270.0
  0
ARC
  5
453
100
AcDbEntity
  8
0
100
AcDbCircle
 62
7
  6
CONTINUOUS
 10
14.7330913558
 20
2.930546053
 40
5.4865
100
AcDbArc
 50
175.3048544436
 51
186.7656051539
  0
ARC
  5
454
100
AcDbEntity
  8
0
100
AcDbCircle
 62
7
  6
CONTINUOUS
 10
6.9422316546
 20
3.6254117269
 40
0.255
100
AcDbArc
 50
259.9181044226
 51
290.468608822
  0
ARC
  5
455
100
AcDbEntity
  8
0
100
AcDbCircle
 62
7
  6
CONTINUOUS
 10
6.5290913558
 20
3.4067234298
 40
0.04
100
AcDbArc
 50
108.819063369
 51
180.0
  0
ARC
  5
456
100
AcDbEntity
  8
0
100
AcDbCircle
 62
7
  6
CONTINUOUS
 10
6.7290913558
 20
3.4067234298
 40
0.04
100
AcDbArc
 50
0.0
 51
71.180936631
  0
ARC
  5
457
100
AcDbEntity
  8
0
100
AcDbCircle
 62
7
  6
CONTINUOUS
 10
4.959213471
 20
4.6984096131
 40
0.0375
100
AcDbArc
 50
130.5358036884
 51
177.3697126137
  0
ARC
  5
458
100
AcDbEntity
  8
0
100
AcDbCircle
 62
7
  6
CONTINUOUS
 10
4.9258413558
 20
4.7555277887
 40
0.03
100
AcDbArc
 50
287.4576015532
 51
360.0
  0
ARC
  5
459
100
AcDbEntity
  8
0
100
AcDbCircle
 62
7
  6
CONTINUOUS
 10
6.8940913558
 20
3.3546581275
 40
0.02
100
AcDbArc
 50
79.9181044226
 51
180.0
  0
ARC
  5
45A
100
AcDbEntity
  8
0
100
AcDbCircle
 62
7
  6
CONTINUOUS
 10
6.4990913558
 20
3.4032954148
 40
0.01
100
AcDbArc
 50
180.0
 51
270.0
  0
ARC
  5
45B
100
AcDbEntity
  8
0
100
AcDbCircle
 62
7
  6
CONTINUOUS
 10
6.7590913558
 20
3.4032954148
 40
0.01
100
AcDbArc
 50
270.0
 51
360.0
  0
ARC
  5
45C
100
AcDbEntity
  8
0
100
AcDbCircle
 62
7
  6
CONTINUOUS
 10
6.4829737328
 20
3.3882954148
 40
0.005
100
AcDbArc
 50
90.0
 51
131.5034356405
  0
ARC
  5
45D
100
AcDbEntity
  8
0
100
AcDbCircle
 62
7
  6
CONTINUOUS
 10
6.7752089788
 20
3.3882954148
 40
0.005
100
AcDbArc
 50
48.4965643595
 51
90.0
  0
ARC
  5
45E
100
AcDbEntity
  8
0
100
AcDbCircle
 62
7
  6
CONTINUOUS
 10
4.6538262643
 20
5.2928629622
 40
0.675
100
AcDbArc
 50
70.3784477421
 51
73.4064025754
  0
ARC
  5
45F
100
AcDbEntity
  8
0
100
AcDbCircle
 62
7
  6
CONTINUOUS
 10
4.6290913558
 20
5.1609096131
 40
0.469
100
AcDbArc
 50
117.6296667457
 51
228.2681829602
  0
ARC
  5
460
100
AcDbEntity
  8
0
100
AcDbCircle
 62
7
  6
CONTINUOUS
 10
4.6290913558
 20
5.1609096131
 40
0.469
100
AcDbArc
 50
311.7318170398
 51
62.3703332543
  0
ARC
  5
461
100
AcDbEntity
  8
0
100
AcDbCircle
 62
7
  6
CONTINUOUS
 10
4.6995546838
 20
6.065196522
 40
0.4
100
AcDbArc
 50
214.7207089079
 51
223.9523224875
  0
ARC
  5
462
100
AcDbEntity
  8
0
100
AcDbCircle
 62
7
  6
CONTINUOUS
 10
4.6290913558
 20
5.1609096131
 40
0.32825
100
AcDbArc
 50
320.1184704317
 51
48.4989549682
  0
ARC
  5
463
100
AcDbEntity
  8
0
100
AcDbCircle
 62
7
  6
CONTINUOUS
 10
4.6290913558
 20
5.1609096131
 40
0.32825
100
AcDbArc
 50
131.5010450318
 51
219.8815295683
  0
ARC
  5
464
100
AcDbEntity
  8
0
100
AcDbCircle
 62
7
  6
CONTINUOUS
 10
4.6290913558
 20
5.1609096131
 40
0.3100218538
100
AcDbArc
 50
325.2904140154
 51
45.4447202154
  0
ARC
  5
465
100
AcDbEntity
  8
0
100
AcDbCircle
 62
7
  6
CONTINUOUS
 10
4.6290913558
 20
5.1609096131
 40
0.3100218538
100
AcDbArc
 50
134.5552797847
 51
214.7095859847
  0
ARC
  5
466
100
AcDbEntity
  8
0
100
AcDbCircle
 62
7
  6
CONTINUOUS
 10
4.6290913558
 20
5.1609096131
 40
0.2825
100
AcDbArc
 50
337.4002067583
 51
357.4380202235
  0
ARC
  5
467
100
AcDbEntity
  8
0
100
AcDbCircle
 62
7
  6
CONTINUOUS
 10
4.6290913558
 20
5.1609096131
 40
0.2825
100
AcDbArc
 50
10.0517481136
 51
39.6516993332
  0
ARC
  5
468
100
AcDbEntity
  8
0
100
AcDbCircle
 62
7
  6
CONTINUOUS
 10
4.6290913558
 20
5.1609096131
 40
0.2825
100
AcDbArc
 50
140.3483006668
 51
169.9482518864
  0
ARC
  5
469
100
AcDbEntity
  8
0
100
AcDbCircle
 62
7
  6
CONTINUOUS
 10
4.6290913558
 20
5.1609096131
 40
0.2825
100
AcDbArc
 50
182.5619797765
 51
202.5997932417
  0
ARC
  5
46A
100
AcDbEntity
  8
0
100
AcDbCircle
 62
7
  6
CONTINUOUS
 10
4.6290913558
 20
5.1609096131
 40
0.2435
100
AcDbArc
 50
153.2866728273
 51
166.4615914451
  0
ARC
  5
46B
100
AcDbEntity
  8
0
100
AcDbCircle
 62
7
  6
CONTINUOUS
 10
4.6290913558
 20
5.1609096131
 40
0.2435
100
AcDbArc
 50
13.538408555
 51
26.713327174
  0
ARC
  5
46C
100
AcDbEntity
  8
0
100
AcDbCircle
 62
7
  6
CONTINUOUS
 10
4.6290913558
 20
6.1959096131
 40
0.2175
100
AcDbArc
 50
0.0
 51
180.0
  0
ARC
  5
46D
100
AcDbEntity
  8
0
100
AcDbCircle
 62
7
  6
CONTINUOUS
 10
4.9510144932
 20
6.1264720772
 40
0.21
100
AcDbArc
 50
250.3784477421
 51
256.9528522369
  0
ARC
  5
46E
100
AcDbEntity
  8
0
100
AcDbCircle
 62
7
  6
CONTINUOUS
 10
4.9682389502
 20
4.9152811199
 40
0.09
100
AcDbArc
 50
175.0
 51
210.4655828497
  0
ARC
  5
46F
100
AcDbEntity
  8
0
100
AcDbCircle
 62
7
  6
CONTINUOUS
 10
4.9839813205
 20
5.0952172365
 40
0.09
100
AcDbArc
 50
140.4987388129
 51
175.0
  0
ARC
  5
470
100
AcDbEntity
  8
0
100
AcDbCircle
 62
7
  6
CONTINUOUS
 10
4.9285002302
 20
5.8088870336
 40
0.05
100
AcDbArc
 50
114.8425917487
 51
145.2792910921
  0
ARC
  5
471
100
AcDbEntity
  8
0
100
AcDbCircle
 62
7
  6
CONTINUOUS
 10
4.8836719449
 20
5.1779096131
 40
0.04
100
AcDbArc
 50
320.4987388129
 51
90.0
  0
ARC
  5
472
100
AcDbEntity
  8
0
100
AcDbCircle
 62
7
  6
CONTINUOUS
 10
4.8523585997
 20
4.8479096131
 40
0.04
100
AcDbArc
 50
270.0
 51
321.7927154688
  0
ARC
  5
473
100
AcDbEntity
  8
0
100
AcDbCircle
 62
7
  6
CONTINUOUS
 10
4.9258418091
 20
4.7740745338
 40
0.03
100
AcDbArc
 50
359.6850232084
 51
59.4481278012
  0
ARC
  5
474
100
AcDbEntity
  8
0
100
AcDbCircle
 62
7
  6
CONTINUOUS
 10
4.8990913558
 20
5.9024096131
 40
0.02
100
AcDbArc
 50
0.0
 51
76.9528522369
  0
ARC
  5
475
100
AcDbEntity
  8
0
100
AcDbCircle
 62
7
  6
CONTINUOUS
 10
4.8990913558
 20
5.8724096131
 40
0.02
100
AcDbArc
 50
294.8425917487
 51
360.0
  0
ARC
  5
476
100
AcDbEntity
  8
0
100
AcDbCircle
 62
7
  6
CONTINUOUS
 10
7.0418944861
 20
3.3584055097
 40
0.03
100
AcDbArc
 50
8.151882933
 51
110.468608822
  0
ARC
  5
477
100
AcDbEntity
  8
0
100
AcDbCircle
 62
7
  6
CONTINUOUS
 10
8.1900427916
 20
3.4389344397
 40
0.03
100
AcDbArc
 50
14.6424776247
 51
90.0
  0
ARC
  5
478
100
AcDbEntity
  8
0
100
AcDbCircle
 62
7
  6
CONTINUOUS
 10
8.1790913558
 20
3.4489344397
 40
0.02
100
AcDbArc
 50
90.0
 51
180.0
  0
ARC
  5
479
100
AcDbEntity
  8
0
100
AcDbCircle
 62
7
  6
CONTINUOUS
 10
8.5848508209
 20
3.5964108507
 40
0.1848939688
100
AcDbArc
 50
19.5418862933
 51
36.7005709135
  0
ARC
  5
47A
100
AcDbEntity
  8
0
100
AcDbCircle
 62
7
  6
CONTINUOUS
 10
9.4233318906
 20
3.5964108507
 40
0.1848939688
100
AcDbArc
 50
143.2994290865
 51
160.4581137067
  0
ARC
  5
47B
100
AcDbEntity
  8
0
100
AcDbCircle
 62
7
  6
CONTINUOUS
 10
9.4233318906
 20
3.5964108507
 40
0.1848939688
100
AcDbArc
 50
195.0348570499
 51
211.042340072
  0
ARC
  5
47C
100
AcDbEntity
  8
0
100
AcDbCircle
 62
7
  6
CONTINUOUS
 10
8.5848508209
 20
3.5964108507
 40
0.1848939688
100
AcDbArc
 50
328.957659928
 51
344.9651429501
  0
ARC
  5
47D
100
AcDbEntity
  8
0
100
AcDbCircle
 62
7
  6
CONTINUOUS
 10
8.3569403412
 20
3.4825401496
 40
0.1425
100
AcDbArc
 50
194.6424776248
 51
231.3022866218
  0
ARC
  5
47E
100
AcDbEntity
  8
0
100
AcDbCircle
 62
7
  6
CONTINUOUS
 10
9.3547002529
 20
3.3722715267
 40
0.09
100
AcDbArc
 50
135.2443780854
 51
175.3048544436
  0
ARC
  5
47F
100
AcDbEntity
  8
0
100
AcDbCircle
 62
7
  6
CONTINUOUS
 10
8.6534824587
 20
3.3722715267
 40
0.09
100
AcDbArc
 50
4.6951455564
 51
44.7556219146
  0
ARC
  5
480
100
AcDbEntity
  8
0
100
AcDbCircle
 62
7
  6
CONTINUOUS
 10
9.3123709504
 20
3.5666065926
 40
0.07
100
AcDbArc
 50
138.617370136
 51
195.0348570499
  0
ARC
  5
481
100
AcDbEntity
  8
0
100
AcDbCircle
 62
7
  6
CONTINUOUS
 10
8.6958117611
 20
3.5666065926
 40
0.07
100
AcDbArc
 50
344.9651429501
 51
41.382629864
  0
ARC
  5
482
100
AcDbEntity
  8
0
100
AcDbCircle
 62
7
  6
CONTINUOUS
 10
8.2490913558
 20
3.3479116001
 40
0.03
100
AcDbArc
 50
0.0
 51
51.3022866218
  0
ARC
  5
483
100
AcDbEntity
  8
0
100
AcDbCircle
 62
7
  6
CONTINUOUS
 10
9.2698413558
 20
3.4564096131
 40
0.0295
100
AcDbArc
 50
315.2443780854
 51
90.0
  0
ARC
  5
484
100
AcDbEntity
  8
0
100
AcDbCircle
 62
7
  6
CONTINUOUS
 10
8.7383413558
 20
3.4564096131
 40
0.0295
100
AcDbArc
 50
90.0
 51
224.7556219146
  0
ARC
  5
485
100
AcDbEntity
  8
0
100
AcDbCircle
 62
7
  6
CONTINUOUS
 10
8.7670913558
 20
3.6294096131
 40
0.025
100
AcDbArc
 50
115.0641059958
 51
221.382629864
  0
ARC
  5
486
100
AcDbEntity
  8
0
100
AcDbCircle
 62
7
  6
CONTINUOUS
 10
9.2410913558
 20
3.6294096131
 40
0.025
100
AcDbArc
 50
318.617370136
 51
64.9358940042
  0
ARC
  5
487
100
AcDbEntity
  8
0
100
AcDbCircle
 62
7
  6
CONTINUOUS
 10
9.2563493757
 20
3.4959096131
 40
0.01
100
AcDbArc
 50
270.0
 51
31.042340072
  0
ARC
  5
488
100
AcDbEntity
  8
0
100
AcDbCircle
 62
7
  6
CONTINUOUS
 10
8.7518333359
 20
3.4959096131
 40
0.01
100
AcDbArc
 50
148.957659928
 51
270.0
  0
ARC
  5
489
100
AcDbEntity
  8
0
100
AcDbCircle
 62
7
  6
CONTINUOUS
 10
9.2538003166
 20
3.6565846442
 40
0.005
100
AcDbArc
 50
160.4581137067
 51
244.9358940042
  0
ARC
  5
48A
100
AcDbEntity
  8
0
100
AcDbCircle
 62
7
  6
CONTINUOUS
 10
8.7543823949
 20
3.6565846442
 40
0.005
100
AcDbArc
 50
295.0641059958
 51
19.5418862933
  0
CIRCLE
  5
48B
100
AcDbEntity
  8
0
100
AcDbCircle
 62
7
  6
CONTINUOUS
 10
8.9434720815
 20
3.7645664438
 40
0.0103675403
  0
ARC
  5
48C
100
AcDbEntity
  8
0
100
AcDbCircle
 62
7
  6
CONTINUOUS
 10
9.0040895553
 20
3.7525081623
 40
0.0103675403
100
AcDbArc
 50
258.0799832723
 51
79.4379477314
  0
CIRCLE
  5
48D
100
AcDbEntity
  8
0
100
AcDbCircle
 62
7
  6
CONTINUOUS
 10
8.8577468071
 20
3.8502936651
 40
0.0103675403
  0
CIRCLE
  5
48E
100
AcDbEntity
  8
0
100
AcDbCircle
 62
7
  6
CONTINUOUS
 10
8.8920833416
 20
3.7989041452
 40
0.0103675403
  0
ARC
  5
48F
100
AcDbEntity
  8
0
100
AcDbCircle
 62
7
  6
CONTINUOUS
 10
8.8456935392
 20
3.910909608
 40
0.0103636309
100
AcDbArc
 50
349.4440777701
 51
168.0588915484
  0
ARC
  5
490
100
AcDbEntity
  8
0
100
AcDbCircle
 62
7
  6
CONTINUOUS
 10
9.0040913389
 20
3.8133203223
 40
0.0097939971
100
AcDbArc
 50
210.6274652942
 51
31.7144829271
  0
CIRCLE
  5
491
100
AcDbEntity
  8
0
100
AcDbCircle
 62
7
  6
CONTINUOUS
 10
8.9350857742
 20
3.8419040062
 40
0.0097939926
  0
ARC
  5
492
100
AcDbEntity
  8
0
100
AcDbCircle
 62
7
  6
CONTINUOUS
 10
8.9065017121
 20
3.9109094981
 40
0.0097937762
100
AcDbArc
 50
0.0030550155
 51
179.9993270823
  0
ARC
  5
493
100
AcDbEntity
  8
0
100
AcDbCircle
 62
7
  6
CONTINUOUS
 10
9.0039958576
 20
3.9194408437
 40
0.281346409
100
AcDbArc
 50
70.907857797
 51
71.9900864112
  0
ARC
  5
494
100
AcDbEntity
  8
0
100
AcDbCircle
 62
7
  6
CONTINUOUS
 10
9.0040203561
 20
3.9195049762
 40
0.2812781313
100
AcDbArc
 50
77.040073944
 51
78.2099048382
  0
ARC
  5
495
100
AcDbEntity
  8
0
100
AcDbCircle
 62
7
  6
CONTINUOUS
 10
9.0040226984
 20
3.9195436961
 40
0.2812408469
100
AcDbArc
 50
64.7914074843
 51
65.7629787835
  0
ARC
  5
496
100
AcDbEntity
  8
0
100
AcDbCircle
 62
7
  6
CONTINUOUS
 10
9.0040274161
 20
3.9195525334
 40
0.2812300914
100
AcDbArc
 50
80.1142015523
 51
81.314041176
  0
ARC
  5
497
100
AcDbEntity
  8
0
100
AcDbCircle
 62
7
  6
CONTINUOUS
 10
9.0040308476
 20
3.9195579701
 40
0.2812241592
100
AcDbArc
 50
73.9697812087
 51
75.1018646943
  0
ARC
  5
498
100
AcDbEntity
  8
0
100
AcDbCircle
 62
7
  6
CONTINUOUS
 10
9.0040776325
 20
3.9196691691
 40
0.2811038756
100
AcDbArc
 50
67.8458785277
 51
68.8791126094
  0
ARC
  5
499
100
AcDbEntity
  8
0
100
AcDbCircle
 62
7
  6
CONTINUOUS
 10
9.0040610856
 20
3.919788334
 40
0.2809918798
100
AcDbArc
 50
83.1951340322
 51
84.4175325646
  0
ARC
  5
49A
100
AcDbEntity
  8
0
100
AcDbCircle
 62
7
  6
CONTINUOUS
 10
9.004043974
 20
3.9199281517
 40
0.280826776
100
AcDbArc
 50
120.4968797287
 51
121.3153775148
  0
ARC
  5
49B
100
AcDbEntity
  8
0
100
AcDbCircle
 62
7
  6
CONTINUOUS
 10
9.0040763919
 20
3.9199923989
 40
0.2807872207
100
AcDbArc
 50
86.2824835585
 51
87.5193477546
  0
ARC
  5
49C
100
AcDbEntity
  8
0
100
AcDbCircle
 62
7
  6
CONTINUOUS
 10
9.0038640571
 20
3.9202073095
 40
0.2804946308
100
AcDbArc
 50
123.6232819862
 51
124.3571847631
  0
ARC
  5
49D
100
AcDbEntity
  8
0
100
AcDbCircle
 62
7
  6
CONTINUOUS
 10
9.0040911339
 20
3.9205399088
 40
0.2802394591
100
AcDbArc
 50
89.3794198326
 51
89.9999546338
  0
ARC
  5
49E
100
AcDbEntity
  8
0
100
AcDbCircle
 62
7
  6
CONTINUOUS
 10
9.0036744997
 20
3.9204811552
 40
0.2801615953
100
AcDbArc
 50
126.7576312075
 51
127.3960275109
  0
ARC
  5
49F
100
AcDbEntity
  8
0
100
AcDbCircle
 62
7
  6
CONTINUOUS
 10
9.0035975092
 20
3.9205744753
 40
0.280040612
100
AcDbArc
 50
129.8911374118
 51
130.4315285894
  0
ARC
  5
4A0
100
AcDbEntity
  8
0
100
AcDbCircle
 62
7
  6
CONTINUOUS
 10
9.003328469
 20
3.9208747534
 40
0.2796373912
100
AcDbArc
 50
133.029950689
 51
133.4616459399
  0
ARC
  5
4A1
100
AcDbEntity
  8
0
100
AcDbCircle
 62
7
  6
CONTINUOUS
 10
9.0032250344
 20
3.9209757996
 40
0.2794927989
100
AcDbArc
 50
136.17349233
 51
136.3379181184
  0
ARC
  5
4A2
100
AcDbEntity
  8
0
100
AcDbCircle
 62
7
  6
CONTINUOUS
 10
9.0040895159
 20
4.0693112523
 40
0.0103675696
100
AcDbArc
 50
259.4579164636
 51
78.0600842901
  0
CIRCLE
  5
4A3
100
AcDbEntity
  8
0
100
AcDbCircle
 62
7
  6
CONTINUOUS
 10
8.892085889
 20
4.0229176261
 40
0.0103675404
  0
CIRCLE
  5
4A4
100
AcDbEntity
  8
0
100
AcDbCircle
 62
7
  6
CONTINUOUS
 10
8.9434754083
 20
4.0572541603
 40
0.0103675404
  0
CIRCLE
  5
4A5
100
AcDbEntity
  8
0
100
AcDbCircle
 62
7
  6
CONTINUOUS
 10
8.8577481852
 20
3.971528888
 40
0.0103675403
  0
ARC
  5
4A6
100
AcDbEntity
  8
0
100
AcDbCircle
 62
7
  6
CONTINUOUS
 10
8.8456860429
 20
3.9109096204
 40
0.0103635969
100
AcDbArc
 50
168.0658731572
 51
349.4366007181
  0
CIRCLE
  5
4A7
100
AcDbEntity
  8
0
100
AcDbCircle
 62
7
  6
CONTINUOUS
 10
8.9350857496
 20
3.9799151944
 40
0.0097939917
  0
ARC
  5
4A8
100
AcDbEntity
  8
0
100
AcDbCircle
 62
7
  6
CONTINUOUS
 10
9.0040913384
 20
4.0084982584
 40
0.00979399
100
AcDbArc
 50
211.7113752593
 51
30.6306131861
  0
ARC
  5
4A9
100
AcDbEntity
  8
0
100
AcDbCircle
 62
7
  6
CONTINUOUS
 10
8.9065030354
 20
3.9109097385
 40
0.0097937947
100
AcDbArc
 50
180.0031006082
 51
359.9992662799
  0
ARC
  5
4AA
100
AcDbEntity
  8
0
100
AcDbCircle
 62
7
  6
CONTINUOUS
 10
9.0040931959
 20
3.7525079756
 40
0.0103675696
100
AcDbArc
 50
79.4579165764
 51
258.0600844132
  0
CIRCLE
  5
4AB
100
AcDbEntity
  8
0
100
AcDbCircle
 62
7
  6
CONTINUOUS
 10
9.0647073033
 20
3.7645650658
 40
0.0103675403
  0
ARC
  5
4AC
100
AcDbEntity
  8
0
100
AcDbCircle
 62
7
  6
CONTINUOUS
 10
9.0040913737
 20
3.8133209658
 40
0.0097939926
100
AcDbArc
 50
31.7113873441
 51
210.6306010456
  0
ARC
  5
4AD
100
AcDbEntity
  8
0
100
AcDbCircle
 62
7
  6
CONTINUOUS
 10
9.0040913558
 20
3.9089096131
 40
0.338
100
AcDbArc
 50
323.2994290865
 51
216.7005709135
  0
ARC
  5
4AE
100
AcDbEntity
  8
0
100
AcDbCircle
 62
7
  6
CONTINUOUS
 10
9.0040913558
 20
3.9109096131
 40
0.29375
100
AcDbArc
 50
103.2208244843
 51
103.7791755157
  0
ARC
  5
4AF
100
AcDbEntity
  8
0
100
AcDbCircle
 62
7
  6
CONTINUOUS
 10
9.0040913558
 20
3.9109096131
 40
0.29375
100
AcDbArc
 50
100.2208244843
 51
100.7791755157
  0
ARC
  5
4B0
100
AcDbEntity
  8
0
100
AcDbCircle
 62
7
  6
CONTINUOUS
 10
9.0040913558
 20
3.9109096131
 40
0.29375
100
AcDbArc
 50
97.2208244843
 51
97.7791755157
  0
ARC
  5
4B1
100
AcDbEntity
  8
0
100
AcDbCircle
 62
7
  6
CONTINUOUS
 10
9.0040913558
 20
3.9109096131
 40
0.29375
100
AcDbArc
 50
94.2208244843
 51
94.7791755157
  0
ARC
  5
4B2
100
AcDbEntity
  8
0
100
AcDbCircle
 62
7
  6
CONTINUOUS
 10
9.0040913558
 20
3.9109096131
 40
0.29375
100
AcDbArc
 50
91.219151134
 51
91.7791755157
  0
ARC
  5
4B3
100
AcDbEntity
  8
0
100
AcDbCircle
 62
7
  6
CONTINUOUS
 10
9.0040913558
 20
3.9109096131
 40
0.29375
100
AcDbArc
 50
106.2208244843
 51
106.780848866
  0
ARC
  5
4B4
100
AcDbEntity
  8
0
100
AcDbCircle
 62
7
  6
CONTINUOUS
 10
9.0040913558
 20
3.9109096131
 40
0.29375
100
AcDbArc
 50
109.219151134
 51
109.7791755157
  0
ARC
  5
4B5
100
AcDbEntity
  8
0
100
AcDbCircle
 62
7
  6
CONTINUOUS
 10
9.0040913558
 20
3.9109096131
 40
0.29375
100
AcDbArc
 50
112.2208244843
 51
112.7791755157
  0
ARC
  5
4B6
100
AcDbEntity
  8
0
100
AcDbCircle
 62
7
  6
CONTINUOUS
 10
9.0040913558
 20
3.9109096131
 40
0.29375
100
AcDbArc
 50
115.2208244843
 51
115.7791755157
  0
ARC
  5
4B7
100
AcDbEntity
  8
0
100
AcDbCircle
 62
7
  6
CONTINUOUS
 10
9.0040913558
 20
3.9109096131
 40
0.29375
100
AcDbArc
 50
118.2208244843
 51
118.7791755157
  0
ARC
  5
4B8
100
AcDbEntity
  8
0
100
AcDbCircle
 62
7
  6
CONTINUOUS
 10
9.0040913558
 20
3.9109096131
 40
0.29375
100
AcDbArc
 50
121.2208244843
 51
121.7791755157
  0
ARC
  5
4B9
100
AcDbEntity
  8
0
100
AcDbCircle
 62
7
  6
CONTINUOUS
 10
9.0040913558
 20
3.9109096131
 40
0.29375
100
AcDbArc
 50
124.2208244843
 51
124.780848866
  0
ARC
  5
4BA
100
AcDbEntity
  8
0
100
AcDbCircle
 62
7
  6
CONTINUOUS
 10
9.0040913558
 20
3.9109096131
 40
0.29375
100
AcDbArc
 50
127.219151134
 51
127.7791755157
  0
ARC
  5
4BB
100
AcDbEntity
  8
0
100
AcDbCircle
 62
7
  6
CONTINUOUS
 10
9.0040913558
 20
3.9109096131
 40
0.29375
100
AcDbArc
 50
130.2208244843
 51
130.7791755157
  0
ARC
  5
4BC
100
AcDbEntity
  8
0
100
AcDbCircle
 62
7
  6
CONTINUOUS
 10
9.0040913558
 20
3.9109096131
 40
0.29375
100
AcDbArc
 50
133.2208244843
 51
133.7791755157
  0
ARC
  5
4BD
100
AcDbEntity
  8
0
100
AcDbCircle
 62
7
  6
CONTINUOUS
 10
9.0040913558
 20
3.9109096131
 40
0.29375
100
AcDbArc
 50
136.2208244843
 51
136.7791755157
  0
ARC
  5
4BE
100
AcDbEntity
  8
0
100
AcDbCircle
 62
7
  6
CONTINUOUS
 10
9.0040913558
 20
3.9109096131
 40
0.29375
100
AcDbArc
 50
139.2208244843
 51
139.7791755157
  0
ARC
  5
4BF
100
AcDbEntity
  8
0
100
AcDbCircle
 62
7
  6
CONTINUOUS
 10
9.0040913558
 20
3.9109096131
 40
0.29375
100
AcDbArc
 50
142.2208244843
 51
142.780848866
  0
ARC
  5
4C0
100
AcDbEntity
  8
0
100
AcDbCircle
 62
7
  6
CONTINUOUS
 10
9.0040913558
 20
3.9109096131
 40
0.29375
100
AcDbArc
 50
145.219151134
 51
145.7791755157
  0
ARC
  5
4C1
100
AcDbEntity
  8
0
100
AcDbCircle
 62
7
  6
CONTINUOUS
 10
9.0040913558
 20
3.9109096131
 40
0.29375
100
AcDbArc
 50
148.2208244843
 51
148.7791755157
  0
ARC
  5
4C2
100
AcDbEntity
  8
0
100
AcDbCircle
 62
7
  6
CONTINUOUS
 10
9.0040913558
 20
3.9109096131
 40
0.29375
100
AcDbArc
 50
151.2208244843
 51
151.7791755157
  0
ARC
  5
4C3
100
AcDbEntity
  8
0
100
AcDbCircle
 62
7
  6
CONTINUOUS
 10
9.0040913558
 20
3.9109096131
 40
0.29375
100
AcDbArc
 50
154.2208244843
 51
154.7791755157
  0
ARC
  5
4C4
100
AcDbEntity
  8
0
100
AcDbCircle
 62
7
  6
CONTINUOUS
 10
9.0040913558
 20
3.9109096131
 40
0.29375
100
AcDbArc
 50
157.2208244843
 51
157.7791755157
  0
ARC
  5
4C5
100
AcDbEntity
  8
0
100
AcDbCircle
 62
7
  6
CONTINUOUS
 10
9.0040913558
 20
3.9109096131
 40
0.29375
100
AcDbArc
 50
160.2208244843
 51
160.780848866
  0
ARC
  5
4C6
100
AcDbEntity
  8
0
100
AcDbCircle
 62
7
  6
CONTINUOUS
 10
9.0040913558
 20
3.9109096131
 40
0.29375
100
AcDbArc
 50
163.219151134
 51
163.7791755157
  0
ARC
  5
4C7
100
AcDbEntity
  8
0
100
AcDbCircle
 62
7
  6
CONTINUOUS
 10
9.0040913558
 20
3.9109096131
 40
0.29375
100
AcDbArc
 50
166.2208244843
 51
166.7791755157
  0
ARC
  5
4C8
100
AcDbEntity
  8
0
100
AcDbCircle
 62
7
  6
CONTINUOUS
 10
9.0040913558
 20
3.9109096131
 40
0.29375
100
AcDbArc
 50
169.2208244843
 51
169.7791755157
  0
ARC
  5
4C9
100
AcDbEntity
  8
0
100
AcDbCircle
 62
7
  6
CONTINUOUS
 10
9.0040913558
 20
3.9109096131
 40
0.29375
100
AcDbArc
 50
172.2208244843
 51
172.7791755157
  0
ARC
  5
4CA
100
AcDbEntity
  8
0
100
AcDbCircle
 62
7
  6
CONTINUOUS
 10
9.0040913558
 20
3.9109096131
 40
0.29375
100
AcDbArc
 50
175.2208244843
 51
175.7791755157
  0
ARC
  5
4CB
100
AcDbEntity
  8
0
100
AcDbCircle
 62
7
  6
CONTINUOUS
 10
9.0040913558
 20
3.9109096131
 40
0.29375
100
AcDbArc
 50
178.2208244843
 51
178.780848866
  0
ARC
  5
4CC
100
AcDbEntity
  8
0
100
AcDbCircle
 62
7
  6
CONTINUOUS
 10
9.0040913558
 20
3.9109096131
 40
0.29375
100
AcDbArc
 50
181.219151134
 51
181.7791755157
  0
ARC
  5
4CD
100
AcDbEntity
  8
0
100
AcDbCircle
 62
7
  6
CONTINUOUS
 10
9.0040913558
 20
3.9109096131
 40
0.29375
100
AcDbArc
 50
184.2208244843
 51
184.7791755157
  0
ARC
  5
4CE
100
AcDbEntity
  8
0
100
AcDbCircle
 62
7
  6
CONTINUOUS
 10
9.0040913558
 20
3.9109096131
 40
0.29375
100
AcDbArc
 50
187.2208244843
 51
187.7791755157
  0
ARC
  5
4CF
100
AcDbEntity
  8
0
100
AcDbCircle
 62
7
  6
CONTINUOUS
 10
9.0040913558
 20
3.9109096131
 40
0.29375
100
AcDbArc
 50
190.2208244843
 51
190.7791755157
  0
ARC
  5
4D0
100
AcDbEntity
  8
0
100
AcDbCircle
 62
7
  6
CONTINUOUS
 10
9.0040913558
 20
3.9109096131
 40
0.29375
100
AcDbArc
 50
193.2208244843
 51
193.7791755157
  0
ARC
  5
4D1
100
AcDbEntity
  8
0
100
AcDbCircle
 62
7
  6
CONTINUOUS
 10
9.0040913558
 20
3.9109096131
 40
0.29375
100
AcDbArc
 50
196.2208244843
 51
196.780848866
  0
ARC
  5
4D2
100
AcDbEntity
  8
0
100
AcDbCircle
 62
7
  6
CONTINUOUS
 10
9.0040913558
 20
3.9109096131
 40
0.29375
100
AcDbArc
 50
199.219151134
 51
199.7791755157
  0
ARC
  5
4D3
100
AcDbEntity
  8
0
100
AcDbCircle
 62
7
  6
CONTINUOUS
 10
9.0040913558
 20
3.9109096131
 40
0.29375
100
AcDbArc
 50
202.2208244843
 51
202.7791755157
  0
ARC
  5
4D4
100
AcDbEntity
  8
0
100
AcDbCircle
 62
7
  6
CONTINUOUS
 10
9.0040913558
 20
3.9109096131
 40
0.29375
100
AcDbArc
 50
205.2208244843
 51
205.7791755157
  0
ARC
  5
4D5
100
AcDbEntity
  8
0
100
AcDbCircle
 62
7
  6
CONTINUOUS
 10
9.0040913558
 20
3.9109096131
 40
0.29375
100
AcDbArc
 50
208.2208244843
 51
208.7791755157
  0
ARC
  5
4D6
100
AcDbEntity
  8
0
100
AcDbCircle
 62
7
  6
CONTINUOUS
 10
9.0040913558
 20
3.9109096131
 40
0.29375
100
AcDbArc
 50
211.2208244843
 51
211.7791755157
  0
ARC
  5
4D7
100
AcDbEntity
  8
0
100
AcDbCircle
 62
7
  6
CONTINUOUS
 10
9.0040913558
 20
3.9109096131
 40
0.29375
100
AcDbArc
 50
214.2208244843
 51
214.780848866
  0
ARC
  5
4D8
100
AcDbEntity
  8
0
100
AcDbCircle
 62
7
  6
CONTINUOUS
 10
9.0040913558
 20
3.9109096131
 40
0.29375
100
AcDbArc
 50
217.219151134
 51
217.7791755157
  0
ARC
  5
4D9
100
AcDbEntity
  8
0
100
AcDbCircle
 62
7
  6
CONTINUOUS
 10
9.0040913558
 20
3.9109096131
 40
0.29375
100
AcDbArc
 50
220.2208244843
 51
220.7791755157
  0
ARC
  5
4DA
100
AcDbEntity
  8
0
100
AcDbCircle
 62
7
  6
CONTINUOUS
 10
9.0040913558
 20
3.9109096131
 40
0.29375
100
AcDbArc
 50
223.2208244843
 51
223.7791755157
  0
ARC
  5
4DB
100
AcDbEntity
  8
0
100
AcDbCircle
 62
7
  6
CONTINUOUS
 10
9.0040913558
 20
3.9109096131
 40
0.29375
100
AcDbArc
 50
226.2208244843
 51
226.7791755157
  0
ARC
  5
4DC
100
AcDbEntity
  8
0
100
AcDbCircle
 62
7
  6
CONTINUOUS
 10
9.0040913558
 20
3.9109096131
 40
0.29375
100
AcDbArc
 50
229.2208244843
 51
229.7791755157
  0
ARC
  5
4DD
100
AcDbEntity
  8
0
100
AcDbCircle
 62
7
  6
CONTINUOUS
 10
9.0040913558
 20
3.9109096131
 40
0.29375
100
AcDbArc
 50
232.2208244843
 51
232.780848866
  0
ARC
  5
4DE
100
AcDbEntity
  8
0
100
AcDbCircle
 62
7
  6
CONTINUOUS
 10
9.0040913558
 20
3.9109096131
 40
0.29375
100
AcDbArc
 50
235.219151134
 51
235.7791755157
  0
ARC
  5
4DF
100
AcDbEntity
  8
0
100
AcDbCircle
 62
7
  6
CONTINUOUS
 10
9.0040913558
 20
3.9109096131
 40
0.29375
100
AcDbArc
 50
238.2208244843
 51
238.7791755157
  0
ARC
  5
4E0
100
AcDbEntity
  8
0
100
AcDbCircle
 62
7
  6
CONTINUOUS
 10
9.0040913558
 20
3.9109096131
 40
0.29375
100
AcDbArc
 50
241.2208244843
 51
241.7791755157
  0
ARC
  5
4E1
100
AcDbEntity
  8
0
100
AcDbCircle
 62
7
  6
CONTINUOUS
 10
9.0040913558
 20
3.9109096131
 40
0.29375
100
AcDbArc
 50
244.2208244843
 51
244.7791755157
  0
ARC
  5
4E2
100
AcDbEntity
  8
0
100
AcDbCircle
 62
7
  6
CONTINUOUS
 10
9.0040913558
 20
3.9109096131
 40
0.29375
100
AcDbArc
 50
247.2208244843
 51
247.7791755157
  0
ARC
  5
4E3
100
AcDbEntity
  8
0
100
AcDbCircle
 62
7
  6
CONTINUOUS
 10
9.0040913558
 20
3.9109096131
 40
0.29375
100
AcDbArc
 50
250.2208244843
 51
250.780848866
  0
ARC
  5
4E4
100
AcDbEntity
  8
0
100
AcDbCircle
 62
7
  6
CONTINUOUS
 10
9.0040913558
 20
3.9109096131
 40
0.29375
100
AcDbArc
 50
253.219151134
 51
253.7791755157
  0
ARC
  5
4E5
100
AcDbEntity
  8
0
100
AcDbCircle
 62
7
  6
CONTINUOUS
 10
9.0040913558
 20
3.9109096131
 40
0.29375
100
AcDbArc
 50
256.2208244843
 51
256.7791755157
  0
ARC
  5
4E6
100
AcDbEntity
  8
0
100
AcDbCircle
 62
7
  6
CONTINUOUS
 10
9.0040913558
 20
3.9109096131
 40
0.29375
100
AcDbArc
 50
259.2208244843
 51
259.7791755157
  0
ARC
  5
4E7
100
AcDbEntity
  8
0
100
AcDbCircle
 62
7
  6
CONTINUOUS
 10
9.0040913558
 20
3.9109096131
 40
0.29375
100
AcDbArc
 50
262.2208244843
 51
262.7791755157
  0
ARC
  5
4E8
100
AcDbEntity
  8
0
100
AcDbCircle
 62
7
  6
CONTINUOUS
 10
9.0040913558
 20
3.9109096131
 40
0.29375
100
AcDbArc
 50
265.2208244843
 51
265.7791755157
  0
ARC
  5
4E9
100
AcDbEntity
  8
0
100
AcDbCircle
 62
7
  6
CONTINUOUS
 10
9.0040913558
 20
3.9109096131
 40
0.29375
100
AcDbArc
 50
268.2208244843
 51
268.780848866
  0
ARC
  5
4EA
100
AcDbEntity
  8
0
100
AcDbCircle
 62
7
  6
CONTINUOUS
 10
9.0040913558
 20
3.9109096131
 40
0.29375
100
AcDbArc
 50
271.219151134
 51
271.7791755157
  0
ARC
  5
4EB
100
AcDbEntity
  8
0
100
AcDbCircle
 62
7
  6
CONTINUOUS
 10
9.0040913558
 20
3.9109096131
 40
0.29375
100
AcDbArc
 50
274.2208244843
 51
274.7791755157
  0
ARC
  5
4EC
100
AcDbEntity
  8
0
100
AcDbCircle
 62
7
  6
CONTINUOUS
 10
9.0040913558
 20
3.9109096131
 40
0.29375
100
AcDbArc
 50
277.2208244843
 51
277.7791755157
  0
ARC
  5
4ED
100
AcDbEntity
  8
0
100
AcDbCircle
 62
7
  6
CONTINUOUS
 10
9.0040913558
 20
3.9109096131
 40
0.29375
100
AcDbArc
 50
280.2208244843
 51
280.7791755157
  0
ARC
  5
4EE
100
AcDbEntity
  8
0
100
AcDbCircle
 62
7
  6
CONTINUOUS
 10
9.0040913558
 20
3.9109096131
 40
0.29375
100
AcDbArc
 50
283.2208244843
 51
283.7791755157
  0
ARC
  5
4EF
100
AcDbEntity
  8
0
100
AcDbCircle
 62
7
  6
CONTINUOUS
 10
9.0040913558
 20
3.9109096131
 40
0.29375
100
AcDbArc
 50
286.2208244843
 51
286.780848866
  0
ARC
  5
4F0
100
AcDbEntity
  8
0
100
AcDbCircle
 62
7
  6
CONTINUOUS
 10
9.0040913558
 20
3.9109096131
 40
0.29375
100
AcDbArc
 50
289.219151134
 51
289.7791755157
  0
ARC
  5
4F1
100
AcDbEntity
  8
0
100
AcDbCircle
 62
7
  6
CONTINUOUS
 10
9.0040913558
 20
3.9109096131
 40
0.29375
100
AcDbArc
 50
292.2208244843
 51
292.7791755157
  0
ARC
  5
4F2
100
AcDbEntity
  8
0
100
AcDbCircle
 62
7
  6
CONTINUOUS
 10
9.0040913558
 20
3.9109096131
 40
0.29375
100
AcDbArc
 50
295.2208244843
 51
295.7791755157
  0
ARC
  5
4F3
100
AcDbEntity
  8
0
100
AcDbCircle
 62
7
  6
CONTINUOUS
 10
9.0040913558
 20
3.9109096131
 40
0.29375
100
AcDbArc
 50
298.2208244843
 51
298.7791755157
  0
ARC
  5
4F4
100
AcDbEntity
  8
0
100
AcDbCircle
 62
7
  6
CONTINUOUS
 10
9.0040913558
 20
3.9109096131
 40
0.29375
100
AcDbArc
 50
301.2208244843
 51
301.7791755157
  0
ARC
  5
4F5
100
AcDbEntity
  8
0
100
AcDbCircle
 62
7
  6
CONTINUOUS
 10
9.0040913558
 20
3.9109096131
 40
0.29375
100
AcDbArc
 50
304.2208244843
 51
304.780848866
  0
ARC
  5
4F6
100
AcDbEntity
  8
0
100
AcDbCircle
 62
7
  6
CONTINUOUS
 10
9.0040913558
 20
3.9109096131
 40
0.29375
100
AcDbArc
 50
307.219151134
 51
307.7791755157
  0
ARC
  5
4F7
100
AcDbEntity
  8
0
100
AcDbCircle
 62
7
  6
CONTINUOUS
 10
9.0040913558
 20
3.9109096131
 40
0.29375
100
AcDbArc
 50
310.2208244843
 51
310.7791755157
  0
ARC
  5
4F8
100
AcDbEntity
  8
0
100
AcDbCircle
 62
7
  6
CONTINUOUS
 10
9.0040913558
 20
3.9109096131
 40
0.29375
100
AcDbArc
 50
313.2208244843
 51
313.7791755157
  0
ARC
  5
4F9
100
AcDbEntity
  8
0
100
AcDbCircle
 62
7
  6
CONTINUOUS
 10
9.0040913558
 20
3.9109096131
 40
0.29375
100
AcDbArc
 50
316.2208244843
 51
316.7791755157
  0
ARC
  5
4FA
100
AcDbEntity
  8
0
100
AcDbCircle
 62
7
  6
CONTINUOUS
 10
9.0040913558
 20
3.9109096131
 40
0.29375
100
AcDbArc
 50
319.2208244843
 51
319.7791755157
  0
ARC
  5
4FB
100
AcDbEntity
  8
0
100
AcDbCircle
 62
7
  6
CONTINUOUS
 10
9.0040913558
 20
3.9109096131
 40
0.29375
100
AcDbArc
 50
322.2208244843
 51
322.780848866
  0
ARC
  5
4FC
100
AcDbEntity
  8
0
100
AcDbCircle
 62
7
  6
CONTINUOUS
 10
9.0040913558
 20
3.9109096131
 40
0.29375
100
AcDbArc
 50
325.219151134
 51
325.7791755157
  0
ARC
  5
4FD
100
AcDbEntity
  8
0
100
AcDbCircle
 62
7
  6
CONTINUOUS
 10
9.0040913558
 20
3.9109096131
 40
0.29375
100
AcDbArc
 50
328.2208244843
 51
328.7791755157
  0
ARC
  5
4FE
100
AcDbEntity
  8
0
100
AcDbCircle
 62
7
  6
CONTINUOUS
 10
9.0040913558
 20
3.9109096131
 40
0.29375
100
AcDbArc
 50
331.2208244843
 51
331.7791755157
  0
ARC
  5
4FF
100
AcDbEntity
  8
0
100
AcDbCircle
 62
7
  6
CONTINUOUS
 10
9.0040913558
 20
3.9109096131
 40
0.29375
100
AcDbArc
 50
334.2208244843
 51
334.7791755157
  0
ARC
  5
500
100
AcDbEntity
  8
0
100
AcDbCircle
 62
7
  6
CONTINUOUS
 10
9.0040913558
 20
3.9109096131
 40
0.29375
100
AcDbArc
 50
337.2208244843
 51
337.7791755157
  0
ARC
  5
501
100
AcDbEntity
  8
0
100
AcDbCircle
 62
7
  6
CONTINUOUS
 10
9.0040913558
 20
3.9109096131
 40
0.29375
100
AcDbArc
 50
340.2208244843
 51
340.780848866
  0
ARC
  5
502
100
AcDbEntity
  8
0
100
AcDbCircle
 62
7
  6
CONTINUOUS
 10
9.0040913558
 20
3.9109096131
 40
0.29375
100
AcDbArc
 50
343.219151134
 51
343.7791755157
  0
ARC
  5
503
100
AcDbEntity
  8
0
100
AcDbCircle
 62
7
  6
CONTINUOUS
 10
9.0040913558
 20
3.9109096131
 40
0.29375
100
AcDbArc
 50
346.2208244843
 51
346.7791755157
  0
ARC
  5
504
100
AcDbEntity
  8
0
100
AcDbCircle
 62
7
  6
CONTINUOUS
 10
9.0040913558
 20
3.9109096131
 40
0.29375
100
AcDbArc
 50
349.2208244843
 51
349.7791755157
  0
ARC
  5
505
100
AcDbEntity
  8
0
100
AcDbCircle
 62
7
  6
CONTINUOUS
 10
9.0040913558
 20
3.9109096131
 40
0.29375
100
AcDbArc
 50
352.2208244843
 51
352.7791755157
  0
ARC
  5
506
100
AcDbEntity
  8
0
100
AcDbCircle
 62
7
  6
CONTINUOUS
 10
9.0040913558
 20
3.9109096131
 40
0.29375
100
AcDbArc
 50
355.2208244843
 51
355.7791755157
  0
ARC
  5
507
100
AcDbEntity
  8
0
100
AcDbCircle
 62
7
  6
CONTINUOUS
 10
9.0040913558
 20
3.9109096131
 40
0.29375
100
AcDbArc
 50
358.2208244843
 51
358.780848866
  0
ARC
  5
508
100
AcDbEntity
  8
0
100
AcDbCircle
 62
7
  6
CONTINUOUS
 10
9.0040913558
 20
3.9109096131
 40
0.29375
100
AcDbArc
 50
1.219151134
 51
1.7791755157
  0
ARC
  5
509
100
AcDbEntity
  8
0
100
AcDbCircle
 62
7
  6
CONTINUOUS
 10
9.0040913558
 20
3.9109096131
 40
0.29375
100
AcDbArc
 50
4.2208244843
 51
4.7791755157
  0
ARC
  5
50A
100
AcDbEntity
  8
0
100
AcDbCircle
 62
7
  6
CONTINUOUS
 10
9.0040913558
 20
3.9109096131
 40
0.29375
100
AcDbArc
 50
7.2208244843
 51
7.7791755157
  0
ARC
  5
50B
100
AcDbEntity
  8
0
100
AcDbCircle
 62
7
  6
CONTINUOUS
 10
9.0040913558
 20
3.9109096131
 40
0.29375
100
AcDbArc
 50
10.2208244843
 51
10.7791755157
  0
ARC
  5
50C
100
AcDbEntity
  8
0
100
AcDbCircle
 62
7
  6
CONTINUOUS
 10
9.0040913558
 20
3.9109096131
 40
0.29375
100
AcDbArc
 50
13.2208244843
 51
13.7791755157
  0
ARC
  5
50D
100
AcDbEntity
  8
0
100
AcDbCircle
 62
7
  6
CONTINUOUS
 10
9.0040913558
 20
3.9109096131
 40
0.29375
100
AcDbArc
 50
16.2208244843
 51
16.780848866
  0
ARC
  5
50E
100
AcDbEntity
  8
0
100
AcDbCircle
 62
7
  6
CONTINUOUS
 10
9.0040913558
 20
3.9109096131
 40
0.29375
100
AcDbArc
 50
19.219151134
 51
19.7791755157
  0
ARC
  5
50F
100
AcDbEntity
  8
0
100
AcDbCircle
 62
7
  6
CONTINUOUS
 10
9.0040913558
 20
3.9109096131
 40
0.29375
100
AcDbArc
 50
22.2208244843
 51
22.7791755157
  0
ARC
  5
510
100
AcDbEntity
  8
0
100
AcDbCircle
 62
7
  6
CONTINUOUS
 10
9.0040913558
 20
3.9109096131
 40
0.29375
100
AcDbArc
 50
25.2208244843
 51
25.7791755157
  0
ARC
  5
511
100
AcDbEntity
  8
0
100
AcDbCircle
 62
7
  6
CONTINUOUS
 10
9.0040913558
 20
3.9109096131
 40
0.29375
100
AcDbArc
 50
28.2208244843
 51
28.7791755157
  0
ARC
  5
512
100
AcDbEntity
  8
0
100
AcDbCircle
 62
7
  6
CONTINUOUS
 10
9.0040913558
 20
3.9109096131
 40
0.29375
100
AcDbArc
 50
31.2208244843
 51
31.7791755157
  0
ARC
  5
513
100
AcDbEntity
  8
0
100
AcDbCircle
 62
7
  6
CONTINUOUS
 10
9.0040913558
 20
3.9109096131
 40
0.29375
100
AcDbArc
 50
34.2208244843
 51
34.780848866
  0
ARC
  5
514
100
AcDbEntity
  8
0
100
AcDbCircle
 62
7
  6
CONTINUOUS
 10
9.0040913558
 20
3.9109096131
 40
0.29375
100
AcDbArc
 50
37.219151134
 51
37.7791755157
  0
ARC
  5
515
100
AcDbEntity
  8
0
100
AcDbCircle
 62
7
  6
CONTINUOUS
 10
9.0040913558
 20
3.9109096131
 40
0.29375
100
AcDbArc
 50
40.2208244843
 51
40.7791755157
  0
ARC
  5
516
100
AcDbEntity
  8
0
100
AcDbCircle
 62
7
  6
CONTINUOUS
 10
9.0040913558
 20
3.9109096131
 40
0.29375
100
AcDbArc
 50
43.2208244843
 51
43.7791755157
  0
ARC
  5
517
100
AcDbEntity
  8
0
100
AcDbCircle
 62
7
  6
CONTINUOUS
 10
9.0040913558
 20
3.9109096131
 40
0.29375
100
AcDbArc
 50
46.2208244843
 51
46.7791755157
  0
ARC
  5
518
100
AcDbEntity
  8
0
100
AcDbCircle
 62
7
  6
CONTINUOUS
 10
9.0040913558
 20
3.9109096131
 40
0.29375
100
AcDbArc
 50
49.2208244843
 51
49.7791755157
  0
ARC
  5
519
100
AcDbEntity
  8
0
100
AcDbCircle
 62
7
  6
CONTINUOUS
 10
9.0040913558
 20
3.9109096131
 40
0.29375
100
AcDbArc
 50
52.2208244843
 51
52.780848866
  0
ARC
  5
51A
100
AcDbEntity
  8
0
100
AcDbCircle
 62
7
  6
CONTINUOUS
 10
9.0040913558
 20
3.9109096131
 40
0.29375
100
AcDbArc
 50
55.219151134
 51
55.7791755157
  0
ARC
  5
51B
100
AcDbEntity
  8
0
100
AcDbCircle
 62
7
  6
CONTINUOUS
 10
9.0040913558
 20
3.9109096131
 40
0.29375
100
AcDbArc
 50
58.2208244843
 51
58.7791755157
  0
ARC
  5
51C
100
AcDbEntity
  8
0
100
AcDbCircle
 62
7
  6
CONTINUOUS
 10
9.0040913558
 20
3.9109096131
 40
0.29375
100
AcDbArc
 50
61.2208244843
 51
61.7791755157
  0
ARC
  5
51D
100
AcDbEntity
  8
0
100
AcDbCircle
 62
7
  6
CONTINUOUS
 10
9.0040913558
 20
3.9109096131
 40
0.29375
100
AcDbArc
 50
64.2208244843
 51
64.7791755157
  0
ARC
  5
51E
100
AcDbEntity
  8
0
100
AcDbCircle
 62
7
  6
CONTINUOUS
 10
9.0040913558
 20
3.9109096131
 40
0.29375
100
AcDbArc
 50
67.2208244843
 51
67.7791755157
  0
ARC
  5
51F
100
AcDbEntity
  8
0
100
AcDbCircle
 62
7
  6
CONTINUOUS
 10
9.0040913558
 20
3.9109096131
 40
0.29375
100
AcDbArc
 50
70.2208244843
 51
70.780848866
  0
ARC
  5
520
100
AcDbEntity
  8
0
100
AcDbCircle
 62
7
  6
CONTINUOUS
 10
9.0040913558
 20
3.9109096131
 40
0.29375
100
AcDbArc
 50
73.219151134
 51
73.7791755157
  0
ARC
  5
521
100
AcDbEntity
  8
0
100
AcDbCircle
 62
7
  6
CONTINUOUS
 10
9.0040913558
 20
3.9109096131
 40
0.29375
100
AcDbArc
 50
76.2208244843
 51
76.7791755157
  0
ARC
  5
522
100
AcDbEntity
  8
0
100
AcDbCircle
 62
7
  6
CONTINUOUS
 10
9.0040913558
 20
3.9109096131
 40
0.29375
100
AcDbArc
 50
79.2208244843
 51
79.7791755157
  0
ARC
  5
523
100
AcDbEntity
  8
0
100
AcDbCircle
 62
7
  6
CONTINUOUS
 10
9.0040913558
 20
3.9109096131
 40
0.29375
100
AcDbArc
 50
82.2208244843
 51
82.7791755157
  0
ARC
  5
524
100
AcDbEntity
  8
0
100
AcDbCircle
 62
7
  6
CONTINUOUS
 10
9.0040913558
 20
3.9109096131
 40
0.29375
100
AcDbArc
 50
85.2208244843
 51
85.7791755157
  0
ARC
  5
525
100
AcDbEntity
  8
0
100
AcDbCircle
 62
7
  6
CONTINUOUS
 10
9.0040913558
 20
3.9109096131
 40
0.29375
100
AcDbArc
 50
88.2208244843
 51
88.780848866
  0
CIRCLE
  5
526
100
AcDbEntity
  8
0
100
AcDbCircle
 62
7
  6
CONTINUOUS
 10
9.0040913558
 20
3.9109096131
 40
0.2775
  0
CIRCLE
  5
527
100
AcDbEntity
  8
0
100
AcDbCircle
 62
7
  6
CONTINUOUS
 10
9.0040913558
 20
3.9109096131
 40
0.2766395935
  0
CIRCLE
  5
528
100
AcDbEntity
  8
0
100
AcDbCircle
 62
7
  6
CONTINUOUS
 10
9.0040913558
 20
3.9109096131
 40
0.2264874498
  0
CIRCLE
  5
529
100
AcDbEntity
  8
0
100
AcDbCircle
 62
7
  6
CONTINUOUS
 10
9.0040913558
 20
3.9109096131
 40
0.2223478564
  0
CIRCLE
  5
52A
100
AcDbEntity
  8
0
100
AcDbCircle
 62
7
  6
CONTINUOUS
 10
9.0040913558
 20
3.9109096131
 40
0.20875
  0
CIRCLE
  5
52B
100
AcDbEntity
  8
0
100
AcDbCircle
 62
7
  6
CONTINUOUS
 10
9.0040913558
 20
3.9109096131
 40
0.2071850394
  0
CIRCLE
  5
52C
100
AcDbEntity
  8
0
100
AcDbCircle
 62
7
  6
CONTINUOUS
 10
9.0040913558
 20
3.9109096131
 40
0.2037155146
  0
CIRCLE
  5
52D
100
AcDbEntity
  8
0
100
AcDbCircle
 62
7
  6
CONTINUOUS
 10
9.0730969608
 20
3.841904032
 40
0.0097939901
  0
CIRCLE
  5
52E
100
AcDbEntity
  8
0
100
AcDbCircle
 62
7
  6
CONTINUOUS
 10
9.1160968227
 20
3.7989016
 40
0.0103675403
  0
CIRCLE
  5
52F
100
AcDbEntity
  8
0
100
AcDbCircle
 62
7
  6
CONTINUOUS
 10
9.150434526
 20
3.8502903382
 40
0.0103675403
  0
ARC
  5
530
100
AcDbEntity
  8
0
100
AcDbCircle
 62
7
  6
CONTINUOUS
 10
9.1624966687
 20
3.9109096059
 40
0.0103635969
100
AcDbArc
 50
348.0658731573
 51
169.4366007255
  0
ARC
  5
531
100
AcDbEntity
  8
0
100
AcDbCircle
 62
7
  6
CONTINUOUS
 10
9.1016796761
 20
3.9109094877
 40
0.0097937947
100
AcDbArc
 50
0.003087046
 51
179.999266268
  0
ARC
  5
532
100
AcDbEntity
  8
0
100
AcDbCircle
 62
7
  6
CONTINUOUS
 10
9.0041946501
 20
3.9195888092
 40
0.2811993082
100
AcDbArc
 50
108.0218188399
 51
109.102051708
  0
ARC
  5
533
100
AcDbEntity
  8
0
100
AcDbCircle
 62
7
  6
CONTINUOUS
 10
9.0041656177
 20
3.919669197
 40
0.2811141386
100
AcDbArc
 50
101.7982299361
 51
102.9672193783
  0
ARC
  5
534
100
AcDbEntity
  8
0
100
AcDbCircle
 62
7
  6
CONTINUOUS
 10
9.0041699307
 20
3.9196861247
 40
0.2810996668
100
AcDbArc
 50
114.2540115058
 51
115.2204610017
  0
ARC
  5
535
100
AcDbEntity
  8
0
100
AcDbCircle
 62
7
  6
CONTINUOUS
 10
9.0041560731
 20
3.9197175007
 40
0.2810649501
100
AcDbArc
 50
104.9082085197
 51
106.038838238
  0
ARC
  5
536
100
AcDbEntity
  8
0
100
AcDbCircle
 62
7
  6
CONTINUOUS
 10
9.0041028424
 20
3.9197016159
 40
0.2810637468
100
AcDbArc
 50
61.7425091881
 51
62.6454994278
  0
ARC
  5
537
100
AcDbEntity
  8
0
100
AcDbCircle
 62
7
  6
CONTINUOUS
 10
9.0041573093
 20
3.919723479
 40
0.2810592585
100
AcDbArc
 50
98.6919880521
 51
99.8916649021
  0
ARC
  5
538
100
AcDbEntity
  8
0
100
AcDbCircle
 62
7
  6
CONTINUOUS
 10
9.0041533408
 20
3.9197928628
 40
0.280959451
100
AcDbArc
 50
58.6970899858
 51
59.5239653385
  0
ARC
  5
539
100
AcDbEntity
  8
0
100
AcDbCircle
 62
7
  6
CONTINUOUS
 10
9.0041126716
 20
3.9198176914
 40
0.2809561777
100
AcDbArc
 50
111.1352770853
 51
112.1651761966
  0
ARC
  5
53A
100
AcDbEntity
  8
0
100
AcDbCircle
 62
7
  6
CONTINUOUS
 10
9.0040924372
 20
3.9198397771
 40
0.2809275671
100
AcDbArc
 50
117.373643336
 51
118.2699267117
  0
ARC
  5
53B
100
AcDbEntity
  8
0
100
AcDbCircle
 62
7
  6
CONTINUOUS
 10
9.0041227058
 20
3.9199656248
 40
0.2808146343
100
AcDbArc
 50
95.586268946
 51
96.8091751082
  0
ARC
  5
53C
100
AcDbEntity
  8
0
100
AcDbCircle
 62
7
  6
CONTINUOUS
 10
9.0043347092
 20
3.9200749349
 40
0.2806240665
100
AcDbArc
 50
55.6563365943
 51
56.3990557649
  0
ARC
  5
53D
100
AcDbEntity
  8
0
100
AcDbCircle
 62
7
  6
CONTINUOUS
 10
9.0041064799
 20
3.920179997
 40
0.280599626
100
AcDbArc
 50
92.4822763258
 51
93.7200722998
  0
ARC
  5
53E
100
AcDbEntity
  8
0
100
AcDbCircle
 62
7
  6
CONTINUOUS
 10
9.0045276632
 20
3.9203524166
 40
0.2802860998
100
AcDbArc
 50
52.6181415626
 51
53.2671488721
  0
ARC
  5
53F
100
AcDbEntity
  8
0
100
AcDbCircle
 62
7
  6
CONTINUOUS
 10
9.0046025
 20
3.9204428934
 40
0.280168685
100
AcDbArc
 50
49.5825417895
 51
50.1361210975
  0
ARC
  5
540
100
AcDbEntity
  8
0
100
AcDbCircle
 62
7
  6
CONTINUOUS
 10
9.0040915587
 20
3.9207323987
 40
0.2800469692
100
AcDbArc
 50
90.0000415202
 51
90.6210401387
  0
ARC
  5
541
100
AcDbEntity
  8
0
100
AcDbCircle
 62
7
  6
CONTINUOUS
 10
9.0048685299
 20
3.9207400129
 40
0.2797698198
100
AcDbArc
 50
46.5519775697
 51
46.9983495047
  0
ARC
  5
542
100
AcDbEntity
  8
0
100
AcDbCircle
 62
7
  6
CONTINUOUS
 10
9.0049786688
 20
3.9208480855
 40
0.2796155147
100
AcDbArc
 50
43.6838288301
 51
43.8573940099
  0
CIRCLE
  5
543
100
AcDbEntity
  8
0
100
AcDbCircle
 62
7
  6
CONTINUOUS
 10
9.06471063
 20
4.0572527823
 40
0.0103675404
  0
ARC
  5
544
100
AcDbEntity
  8
0
100
AcDbCircle
 62
7
  6
CONTINUOUS
 10
9.0040931562
 20
4.0693110638
 40
0.0103675404
100
AcDbArc
 50
78.0799832842
 51
259.4379477435
  0
CIRCLE
  5
545
100
AcDbEntity
  8
0
100
AcDbCircle
 62
7
  6
CONTINUOUS
 10
9.1160993698
 20
4.0229150807
 40
0.0103675403
  0
CIRCLE
  5
546
100
AcDbEntity
  8
0
100
AcDbCircle
 62
7
  6
CONTINUOUS
 10
9.1504359042
 20
3.9715255609
 40
0.0103675403
  0
ARC
  5
547
100
AcDbEntity
  8
0
100
AcDbCircle
 62
7
  6
CONTINUOUS
 10
9.1624891723
 20
3.9109096182
 40
0.0103636309
100
AcDbArc
 50
169.4440777702
 51
348.0588917388
  0
ARC
  5
548
100
AcDbEntity
  8
0
100
AcDbCircle
 62
7
  6
CONTINUOUS
 10
9.0040913715
 20
4.0084989049
 40
0.0097939959
100
AcDbArc
 50
30.6274570903
 51
211.7144911858
  0
CIRCLE
  5
549
100
AcDbEntity
  8
0
100
AcDbCircle
 62
7
  6
CONTINUOUS
 10
9.0730969363
 20
3.9799152182
 40
0.0097939899
  0
ARC
  5
54A
100
AcDbEntity
  8
0
100
AcDbCircle
 62
7
  6
CONTINUOUS
 10
9.1016810001
 20
3.9109097292
 40
0.0097937762
100
AcDbArc
 50
180.0030579833
 51
359.9993211888
  0
ARC
  5
54B
100
AcDbEntity
  8
0
100
AcDbCircle
 62
7
  6
CONTINUOUS
 10
9.1655387639
 20
23.9790030419
 40
21.0
100
AcDbArc
 50
264.2774261876
 51
267.2529863377
  0
ARC
  5
54C
100
AcDbEntity
  8
0
100
AcDbCircle
 62
7
  6
CONTINUOUS
 10
27.4108816853
 20
4.0007808055
 40
22.5
100
AcDbArc
 50
178.2188336794
 51
183.4897621041
  0
SPLINE
  5
54D
100
AcDbEntity
  8
0
100
AcDbSpline
 62
7
  6
CONTINUOUS
 70
0
 71
3
 72
22
 73
18
 74
0
 42
0.0000001
 43
0.0000001
 44
0.0000000001
 40
0.0
 40
0.0
 40
0.0
 40
0.0
 40
0.0769232296
 40
0.1505256827
 40
0.2210114596
 40
0.2886128965
 40
0.4161706004
 40
0.4768319372
 40
0.5358628667
 40
0.5936581028
 40
0.6506380452
 40
0.7072412624
 40
0.7639150693
 40
0.8211051245
 40
0.8792452164
 40
0.938748359
 40
1.0
 40
1.0
 40
1.0
 40
1.0
 10
4.8837897303
 20
4.823169281
 30
0.0
 10
4.8845877202
 20
4.8241830801
 30
0.0
 10
4.886104929
 20
4.8262024589
 30
0.0
 10
4.8881806576
 20
4.8292755566
 30
0.0
 10
4.8900046188
 20
4.8323243785
 30
0.0
 10
4.8920602991
 20
4.8362791293
 30
0.0
 10
4.8936731745
 20
4.8402734081
 30
0.0
 10
4.8947766108
 20
4.8442746129
 30
0.0
 10
4.8953372819
 20
4.8472017223
 30
0.0
 10
4.8956441691
 20
4.8501042142
 30
0.0
 10
4.8956970165
 20
4.8529818738
 30
0.0
 10
4.8954956154
 20
4.8558341759
 30
0.0
 10
4.8950399572
 20
4.8586606005
 30
0.0
 10
4.8943302228
 20
4.8614606305
 30
0.0
 10
4.893366712
 20
4.8642339177
 30
0.0
 10
4.8921499401
 20
4.8669800334
 30
0.0
 10
4.8911857812
 20
4.8687637622
 30
0.0
 10
4.890664901
 20
4.8696492571
 30
0.0
  0
SPLINE
  5
54E
100
AcDbEntity
  8
0
100
AcDbSpline
 62
7
  6
CONTINUOUS
 70
0
 71
3
 72
22
 73
18
 74
0
 42
0.0000001
 43
0.0000001
 44
0.0000000001
 40
0.0
 40
0.0
 40
0.0
 40
0.0
 40
0.0769232296
 40
0.1505256827
 40
0.2210114596
 40
0.2886128965
 40
0.4161706004
 40
0.4768319372
 40
0.5358628667
 40
0.5936581028
 40
0.6506380452
 40
0.7072412624
 40
0.7639150693
 40
0.8211051245
 40
0.8792452164
 40
0.938748359
 40
1.0
 40
1.0
 40
1.0
 40
1.0
 10
4.3743929813
 20
4.823169281
 30
0.0
 10
4.3735949913
 20
4.8241830801
 30
0.0
 10
4.3720777825
 20
4.8262024589
 30
0.0
 10
4.370002054
 20
4.8292755566
 30
0.0
 10
4.3681780927
 20
4.8323243785
 30
0.0
 10
4.3661224124
 20
4.8362791293
 30
0.0
 10
4.364509537
 20
4.8402734081
 30
0.0
 10
4.3634061007
 20
4.8442746129
 30
0.0
 10
4.3628454296
 20
4.8472017223
 30
0.0
 10
4.3625385425
 20
4.8501042142
 30
0.0
 10
4.362485695
 20
4.8529818738
 30
0.0
 10
4.3626870962
 20
4.8558341759
 30
0.0
 10
4.3631427543
 20
4.8586606005
 30
0.0
 10
4.3638524887
 20
4.8614606305
 30
0.0
 10
4.3648159995
 20
4.8642339177
 30
0.0
 10
4.3660327715
 20
4.8669800334
 30
0.0
 10
4.3669969304
 20
4.8687637622
 30
0.0
 10
4.3675178105
 20
4.8696492571
 30
0.0
  0
ENDSEC
  0
SECTION
  2
OBJECTS
  0
DICTIONARY
  5
C
100
AcDbDictionary
280
0
281
1
  3
ACAD_GROUP
350
D
  3
ACAD_MLINESTYLE
350
17
  3
ACAD_LAYOUT
350
1A
  3
ACAD_PLOTSETTINGS
350
19
  3
ACAD_PLOTSTYLENAME
350
E
  0
DICTIONARY
  5
D
102
{ACAD_REACTORS
330
C
102
}
100
AcDbDictionary
280
0
281
1
  0
ACDBDICTIONARYWDFLT
  5
E
102
{ACAD_REACTORS
330
C
102
}
100
AcDbDictionary
281
1
  3
Normal
350
F
100
AcDbDictionaryWithDefault
340
F
  0
DICTIONARY
  5
17
102
{ACAD_REACTORS
330
C
102
}
100
AcDbDictionary
280
0
281
1
  3
Standard
350
18
  0
DICTIONARY
  5
19
102
{ACAD_REACTORS
330
C
102
}
100
AcDbDictionary
281
1
  0
DICTIONARY
  5
1A
102
{ACAD_REACTORS
330
C
102
}
100
AcDbDictionary
281
1
  3
Model
350
54F
  3
Layout1
350
550
  0
ACDBPLACEHOLDER
  5
F
102
{ACAD_REACTORS
330
E
102
}
  0
MLINESTYLE
  5
18
102
{ACAD_REACTORS
330
17
102
}
100
AcDbMlineStyle
  2
STANDARD
 70
0
  3

 62
256
 51
90.0
 52
90.0
 71
2
 49
0.5
 62
256
  6
BYLAYER
 49
-0.5
 62
256
  6
BYLAYER
  0
LAYOUT
  5
54F
102
{ACAD_REACTORS
330
1A
102
}
100
AcDbPlotSettings
  1

  2
none_device
  4
ANSI_A_(11.00_x_8.50_Inches)
  6

 40
0.0
 41
0.0
 42
0.0
 43
0.0
 44
279.4
 45
215.9
 46
0.0
 47
0.0
 48
0.0
 49
0.0
140
0.0
141
0.0
142
1.0
143
1.0
 70
1024
 72
0
 73
0
 74
0
  7

 75
0
147
1.0
148
0.0
149
0.0
100
AcDbLayout
  1
Model
 70
0
 71
0
 10
0.0
 20
0.0
 11
11.0
 21
8.5
 12
0.0
 22
0.0
 32
0.0
 14
0.0
 24
0.0
 34
0.0
 15
0.0
 25
0.0
 35
0.0
146
0.0
 13
0.0
 23
0.0
 33
0.0
 16
1.0
 26
0.0
 36
0.0
 17
0.0
 27
1.0
 37
0.0
 76
0
330
202
345
0
346
0
  0
LAYOUT
  5
550
102
{ACAD_REACTORS
330
1A
102
}
100
AcDbPlotSettings
  1

  2
none_device
  4
ANSI_A_(11.00_x_8.50_Inches)
  6

 40
0.0
 41
0.0
 42
0.0
 43
0.0
 44
279.4
 45
215.9
 46
0.0
 47
0.0
 48
0.0
 49
0.0
140
0.0
141
0.0
142
1.0
143
1.0
 70
0
 72
0
 73
0
 74
0
  7

 75
0
147
1.0
148
0.0
149
0.0
100
AcDbLayout
  1
Layout1
 70
0
 71
1
 10
0.0
 20
0.0
 11
11.0
 21
8.5
 12
0.0
 22
0.0
 32
0.0
 14
0.0
 24
0.0
 34
0.0
 15
0.0
 25
0.0
 35
0.0
146
0.0
 13
0.0
 23
0.0
 33
0.0
 16
1.0
 26
0.0
 36
0.0
 17
0.0
 27
1.0
 37
0.0
 76
0
330
203
345
0
346
0
  0
ENDSEC
  0
EOF
