999
DXF file: 2470-5433_right.dxf
999
Pro/ENGINEER 2018400 by Parametric Technology Corporation
  0
SECTION
  2
HEADER
  9
$ACADVER
  1
AC1027
  9
$DWGCODEPAGE
  3
ANSI_1252
  9
$EXTMAX
 10
11.0
 20
8.5
 30
0.0
  9
$EXTMIN
 10
0.0
 20
0.0
 30
0.0
  9
$LIMMIN
 10
0.0
 20
0.0
  9
$LIMMAX
 10
11.0
 20
8.5
  9
$VIEWCTR
 10
5.5
 20
4.25
  9
$VIEWSIZE
 40
8.5
  9
$CLAYER
  8
0
  9
$LTSCALE
 40
0.605
  9
$CELTYPE
  6
BYLAYER
  9
$DIMSCALE
 40
1.0
  9
$DIMASZ
 40
0.1
  9
$DIMEXO
 40
0.0625
  9
$DIMDLI
 40
0.418
  9
$DIMEXE
 40
0.125
  9
$DIMCEN
 40
0.099
  9
$DIMLFAC
 40
1.0
  9
$DIMBLK
  1
_FILLED
  9
$DIMALT
 70
1
  9
$DIMALTD
 70
1
  9
$DIMALTTD
 70
2
  9
$DIMALTF
 40
25.4
  9
$DIMTXT
 40
0.08
  9
$DIMTOL
 70
1
  9
$DIMLIM
 70
0
  9
$DIMTFAC
 40
1.0
  9
$DIMTP
 40
0.01
  9
$DIMTM
 40
0.01
  9
$DIMGAP
 40
0.09
  9
$DIMDSEP
 70
46
  9
$AUNITS
 70
0
  9
$PDMODE
 70
3
  9
$PDSIZE
 40
0.3125
  9
$HANDSEED
  5
4FA
  9
$TILEMODE
 70
1
  9
$MEASUREMENT
 70
0
  9
$INSUNITS
 70
1
  0
ENDSEC
  0
SECTION
  2
CLASSES
  0
CLASS
  1
ACDBDICTIONARYWDFLT
  2
AcDbDictionaryWithDefault
  3
AutoCAD 2000
 90
0
 91
1
280
0
281
0
  0
CLASS
  1
ACDBPLACEHOLDER
  2
AcDbPlaceHolder
  3
AutoCAD 2000
 90
0
 91
1
280
0
281
0
  0
CLASS
  1
LAYOUT
  2
AcDbLayout
  3
AutoCAD 2000
 90
0
 91
0
280
0
281
0
  0
ENDSEC
  0
SECTION
  2
TABLES
  0
TABLE
  2
VPORT
  5
8
100
AcDbSymbolTable
 70
2
  0
VPORT
  5
1F4
100
AcDbSymbolTableRecord
100
AcDbViewportTableRecord
  2
*ACTIVE
 70
0
 10
0.0
 20
0.0
 11
1.0
 21
1.0
 12
5.5
 22
4.25
 13
0.0
 23
0.0
 14
1.0
 24
1.0
 15
0.0
 25
0.0
 16
0.0
 26
0.0
 36
1.0
 17
0.0
 27
0.0
 37
0.0
 40
8.5
 41
1.2941176471
 42
50.0
 43
0.0
 44
0.0
 50
0.0
 51
0.0
 71
0
 72
100
 73
1
 74
1
 75
0
 76
0
 77
0
 78
0
  0
ENDTAB
  0
TABLE
  2
LTYPE
  5
5
100
AcDbSymbolTable
 70
6
  0
LTYPE
  5
14
100
AcDbSymbolTableRecord
100
AcDbLinetypeTableRecord
  2
BYBLOCK
 70
0
  3

 72
65
 73
0
 40
0.0
  0
LTYPE
  5
15
100
AcDbSymbolTableRecord
100
AcDbLinetypeTableRecord
  2
BYLAYER
 70
0
  3

 72
65
 73
0
 40
0.0
  0
LTYPE
  5
16
100
AcDbSymbolTableRecord
100
AcDbLinetypeTableRecord
  2
CONTINUOUS
 70
64
  3
Solid line
 72
65
 73
0
 40
0.0
  0
LTYPE
  5
1F5
100
AcDbSymbolTableRecord
100
AcDbLinetypeTableRecord
  2
CENTER
 70
64
  3
____ _ ____ _ ____ _ ____ _ ____ _ ____ _ ____
 72
65
 73
4
 40
0.6
 49
0.375
 74
0
 49
-0.075
 74
0
 49
0.075
 74
0
 49
-0.075
 74
0
  0
LTYPE
  5
1F6
100
AcDbSymbolTableRecord
100
AcDbLinetypeTableRecord
  2
HIDDEN
 70
64
  3
- - - - - - - - - - - - - - - - - - - -
 72
65
 73
2
 40
0.2
 49
0.1
 74
0
 49
-0.1
 74
0
  0
LTYPE
  5
1F7
100
AcDbSymbolTableRecord
100
AcDbLinetypeTableRecord
  2
PHANTOM
 70
64
  3
_____ _ _ _____ _ _ _____ _ _ _____
 72
65
 73
6
 40
0.8
 49
0.45
 74
0
 49
-0.05
 74
0
 49
0.1
 74
0
 49
-0.05
 74
0
 49
0.1
 74
0
 49
-0.05
 74
0
  0
LTYPE
  5
1F8
100
AcDbSymbolTableRecord
100
AcDbLinetypeTableRecord
  2
DOT
 70
64
  3
. . . . . . . . . . . . . . . . . . . .
 72
65
 73
2
 40
0.2
 49
0.1
 74
0
 49
-0.1
 74
0
  0
LTYPE
  5
1F9
100
AcDbSymbolTableRecord
100
AcDbLinetypeTableRecord
  2
DASHED
 70
64
  3
- - - - - - - - - - - - - - - - - - - -
 72
65
 73
2
 40
0.2
 49
0.1
 74
0
 49
-0.1
 74
0
  0
ENDTAB
  0
TABLE
  2
LAYER
  5
2
100
AcDbSymbolTable
 70
36
  0
LAYER
  5
10
100
AcDbSymbolTableRecord
100
AcDbLayerTableRecord
  2
0
 70
0
 62
7
  6
CONTINUOUS
370
-3
390
F
  0
LAYER
  5
1FA
100
AcDbSymbolTableRecord
100
AcDbLayerTableRecord
  2
DEFAULT_1
 70
0
 62
7
  6
CENTER
370
-3
390
F
  0
LAYER
  5
1FB
100
AcDbSymbolTableRecord
100
AcDbLayerTableRecord
  2
DEFAULT_2
 70
0
 62
8
  6
HIDDEN
370
-3
390
F
  0
LAYER
  5
1FC
100
AcDbSymbolTableRecord
100
AcDbLayerTableRecord
  2
DEFAULT_3
 70
0
 62
7
  6
PHANTOM
370
-3
390
F
  0
LAYER
  5
1FD
100
AcDbSymbolTableRecord
100
AcDbLayerTableRecord
  2
DEFAULT_COORDINATE_SYSTEM
 70
0
 62
7
  6
CONTINUOUS
370
-3
390
F
  0
LAYER
  5
1FE
100
AcDbSymbolTableRecord
100
AcDbLayerTableRecord
  2
DEFAULT_DATUM_AXES
 70
0
 62
7
  6
CONTINUOUS
370
-3
390
F
  0
LAYER
  5
1FF
100
AcDbSymbolTableRecord
100
AcDbLayerTableRecord
  2
DEFAULT_DATUM_PLANES
 70
0
 62
7
  6
CONTINUOUS
370
-3
390
F
  0
ENDTAB
  0
TABLE
  2
STYLE
  5
3
100
AcDbSymbolTable
 70
1
  0
STYLE
  5
11
100
AcDbSymbolTableRecord
100
AcDbTextStyleTableRecord
  2
STANDARD
 70
0
 40
0.0
 41
0.8
 50
0.0
 71
0
 42
0.2
  3
txt
  4

  0
STYLE
  5
200
100
AcDbSymbolTableRecord
100
AcDbTextStyleTableRecord
  2
TEXTSTYLE_1
 70
0
 40
0.0
 41
0.8
 50
0.0
 71
0
 42
0.2
  3
gdt
  4

  0
ENDTAB
  0
TABLE
  2
VIEW
  5
6
100
AcDbSymbolTable
 70
0
  0
ENDTAB
  0
TABLE
  2
UCS
  5
7
100
AcDbSymbolTable
 70
0
  0
ENDTAB
  0
TABLE
  2
APPID
  5
9
100
AcDbSymbolTable
 70
1
  0
APPID
  5
201
100
AcDbSymbolTableRecord
100
AcDbRegAppTableRecord
  2
ACAD
 70
0
  0
ENDTAB
  0
TABLE
  2
BLOCK_RECORD
  5
1
100
AcDbSymbolTable
 70
0
  0
BLOCK_RECORD
  5
202
100
AcDbSymbolTableRecord
100
AcDbBlockTableRecord
  2
*Model_Space
  0
BLOCK_RECORD
  5
203
100
AcDbSymbolTableRecord
100
AcDbBlockTableRecord
  2
*Paper_Space
  0
BLOCK_RECORD
  5
204
100
AcDbSymbolTableRecord
100
AcDbBlockTableRecord
  2
_FILLED
  0
ENDTAB
  0
TABLE
  2
DIMSTYLE
  5
A
100
AcDbSymbolTable
 70
1
100
AcDbDimStyleTable
 71
0
  0
DIMSTYLE
105
205
100
AcDbSymbolTableRecord
100
AcDbDimStyleTableRecord
  2
STANDARD
 70
0
  3

  4

 40
1.0
 41
0.1
 42
0.0625
 43
0.38
 44
0.125
 45
0.0
 46
0.0
 47
0.01
 48
0.01
140
0.08
141
0.09
142
0.0
143
25.4
144
1.0
145
0.0
146
1.0
147
0.09
 71
1.0
 72
0.0
 73
1
 74
1
 75
0
 76
0
 77
0
 78
4
 79
1
170
1
171
1
172
0
173
0
174
0
175
0
176
0
177
0
178
0
270
2
179
2
271
2
272
2
273
2
274
2
275
0
280
0
281
0
282
0
283
1
284
4
285
0
286
0
287
3
288
0
340
11
278
46
341
204
342
204
343
204
344
204
  0
ENDTAB
  0
ENDSEC
  0
SECTION
  2
BLOCKS
  0
BLOCK
  5
20
100
AcDbEntity
  8
0
100
AcDbBlockBegin
  2
*Model_Space
 70
0
 10
0.0
 20
0.0
 30
0.0
  3
*Model_Space
  1

  0
ENDBLK
  5
21
100
AcDbEntity
  8
0
100
AcDbBlockEnd
  0
BLOCK
  5
1C
100
AcDbEntity
  8
0
100
AcDbBlockBegin
  2
*Paper_Space
 70
0
 10
0.0
 20
0.0
 30
0.0
  3
*Paper_Space
  1

  0
ENDBLK
  5
1D
100
AcDbEntity
  8
0
100
AcDbBlockEnd
  0
BLOCK
  5
206
100
AcDbEntity
  8
0
100
AcDbBlockBegin
  2
_FILLED
 70
64
 10
0.0
 20
0.0
  3
_FILLED
  1

  0
SOLID
  5
207
100
AcDbEntity
  8
0
  6
BYBLOCK
 62
0
100
AcDbTrace
 10
0.0
 20
0.0
 11
-1.0
 21
0.2
 12
-1.0
 22
-0.2
 13
-1.0
 23
-0.2
  0
ENDBLK
  5
208
100
AcDbEntity
  8
0
  6
BYBLOCK
 62
0
100
AcDbBlockEnd
  0
ENDSEC
  0
SECTION
  2
ENTITIES
  0
MTEXT
  5
209
100
AcDbEntity
  8
0
100
AcDbMText
 62
2
  6
CONTINUOUS
  7
STANDARD
 71
3
 72
1
 10
5.0887630544
 20
1.034698433
 30
0.0
 11
1.0
 21
0.0
 31
0.0
 73
2
 44
0.9
  1
SCALE  .500
 40
0.08
 41
0.704
  0
LINE
  5
20A
100
AcDbEntity
  8
0
100
AcDbLine
 62
7
  6
CONTINUOUS
 10
0.0
 20
0.0
 11
0.0
 21
8.5
  0
LINE
  5
20B
100
AcDbEntity
  8
0
100
AcDbLine
 62
7
  6
CONTINUOUS
 10
0.0
 20
0.0
 11
11.0
 21
0.0
  0
LINE
  5
20C
100
AcDbEntity
  8
0
100
AcDbLine
 62
7
  6
CONTINUOUS
 10
0.0
 20
8.5
 11
11.0
 21
8.5
  0
LINE
  5
20D
100
AcDbEntity
  8
0
100
AcDbLine
 62
7
  6
CONTINUOUS
 10
11.0
 20
0.0
 11
11.0
 21
8.5
  0
LINE
  5
20E
100
AcDbEntity
  8
0
100
AcDbLine
 62
7
  6
CONTINUOUS
 10
2.5524343284
 20
5.1030612533
 11
2.5681766988
 21
4.9231251367
  0
LINE
  5
20F
100
AcDbEntity
  8
0
100
AcDbLine
 62
7
  6
CONTINUOUS
 10
2.6001667703
 20
5.3355681251
 11
2.6001667703
 21
5.2179096131
  0
LINE
  5
210
100
AcDbEntity
  8
0
100
AcDbLine
 62
7
  6
CONTINUOUS
 10
3.0351667703
 20
5.3355681251
 11
3.0351667703
 21
5.2179096131
  0
LINE
  5
211
100
AcDbEntity
  8
0
100
AcDbLine
 62
7
  6
CONTINUOUS
 10
3.0828992123
 20
5.1030612533
 11
3.0671568419
 21
4.9231251367
  0
LINE
  5
212
100
AcDbEntity
  8
0
100
AcDbLine
 62
7
  6
CONTINUOUS
 10
7.1758381773
 20
1.7984096131
 11
7.5138381773
 21
1.7984096131
  0
LINE
  5
213
100
AcDbEntity
  8
0
100
AcDbLine
 62
7
  6
CONTINUOUS
 10
6.7202296863
 20
1.8079096131
 11
7.9694466683
 21
1.8079096131
  0
LINE
  5
214
100
AcDbEntity
  8
0
100
AcDbLine
 62
7
  6
CONTINUOUS
 10
6.7681495798
 20
1.8239222713
 11
7.9215267748
 21
1.8239222713
  0
LINE
  5
215
100
AcDbEntity
  8
0
100
AcDbLine
 62
7
  6
CONTINUOUS
 10
6.7048364509
 20
1.84067865
 11
6.7816557438
 21
1.84067865
  0
LINE
  5
216
100
AcDbEntity
  8
0
100
AcDbLine
 62
7
  6
CONTINUOUS
 10
7.9080206109
 20
1.84067865
 11
7.9848399037
 21
1.84067865
  0
LINE
  5
217
100
AcDbEntity
  8
0
100
AcDbLine
 62
7
  6
CONTINUOUS
 10
7.8850105975
 20
1.8647887568
 11
6.8046657571
 21
1.8647887568
  0
LINE
  5
218
100
AcDbEntity
  8
0
100
AcDbLine
 62
7
  6
CONTINUOUS
 10
7.8801862718
 20
1.886760231
 11
6.8094900828
 21
1.886760231
  0
LINE
  5
219
100
AcDbEntity
  8
0
100
AcDbLine
 62
7
  6
CONTINUOUS
 10
6.8112415902
 20
1.8991034422
 11
7.8784347644
 21
1.8991034422
  0
LINE
  5
21A
100
AcDbEntity
  8
0
100
AcDbLine
 62
7
  6
CONTINUOUS
 10
6.7691215653
 20
1.9040042448
 11
6.8149797546
 21
1.9040042448
  0
LINE
  5
21B
100
AcDbEntity
  8
0
100
AcDbLine
 62
7
  6
CONTINUOUS
 10
7.8746966
 20
1.9040042448
 11
7.9205547893
 21
1.9040042448
  0
LINE
  5
21C
100
AcDbEntity
  8
0
100
AcDbLine
 62
7
  6
CONTINUOUS
 10
6.7745333042
 20
1.9284123993
 11
6.8314684063
 21
1.9284123993
  0
LINE
  5
21D
100
AcDbEntity
  8
0
100
AcDbLine
 62
7
  6
CONTINUOUS
 10
7.8582079483
 20
1.9284123993
 11
7.9151430505
 21
1.9284123993
  0
LINE
  5
21E
100
AcDbEntity
  8
0
100
AcDbLine
 62
7
  6
CONTINUOUS
 10
7.8511855146
 20
1.9406070635
 11
7.9169092219
 21
1.9406070666
  0
LINE
  5
21F
100
AcDbEntity
  8
0
100
AcDbLine
 62
7
  6
CONTINUOUS
 10
6.7727671327
 20
1.9406070666
 11
6.8384908401
 21
1.9406070635
  0
LINE
  5
220
100
AcDbEntity
  8
0
100
AcDbLine
 62
7
  6
CONTINUOUS
 10
6.774798274
 20
1.9474496727
 11
6.8421181931
 21
1.9474496727
  0
LINE
  5
221
100
AcDbEntity
  8
0
100
AcDbLine
 62
7
  6
CONTINUOUS
 10
7.8475581615
 20
1.9474496727
 11
7.9148780806
 21
1.9474496727
  0
LINE
  5
222
100
AcDbEntity
  8
0
100
AcDbLine
 62
7
  6
CONTINUOUS
 10
6.848453896
 20
1.9605717967
 11
7.8412224586
 21
1.9605717967
  0
LINE
  5
223
100
AcDbEntity
  8
0
100
AcDbLine
 62
7
  6
CONTINUOUS
 10
7.8297318088
 20
1.9679096131
 11
6.8598381773
 21
1.9679096131
  0
LINE
  5
224
100
AcDbEntity
  8
0
100
AcDbLine
 62
7
  6
CONTINUOUS
 10
7.8084846879
 20
1.9753641135
 11
6.8811916667
 21
1.9753641135
  0
LINE
  5
225
100
AcDbEntity
  8
0
100
AcDbLine
 62
7
  6
CONTINUOUS
 10
3.9394754472
 20
5.9228330465
 11
4.116405887
 21
6.3202253205
  0
LINE
  5
226
100
AcDbEntity
  8
0
100
AcDbLine
 62
7
  6
CONTINUOUS
 10
6.7947693157
 20
2.0139234637
 11
6.912935785
 21
2.0139234643
  0
LINE
  5
227
100
AcDbEntity
  8
0
100
AcDbLine
 62
7
  6
CONTINUOUS
 10
7.7767405697
 20
2.0139234643
 11
7.894907039
 21
2.0139234637
  0
LINE
  5
228
100
AcDbEntity
  8
0
100
AcDbLine
 62
7
  6
CONTINUOUS
 10
6.8203381773
 20
2.0384096131
 11
6.9359525738
 21
2.0384096137
  0
LINE
  5
229
100
AcDbEntity
  8
0
100
AcDbLine
 62
7
  6
CONTINUOUS
 10
7.7537237808
 20
2.0384096137
 11
7.8693381773
 21
2.0384096131
  0
LINE
  5
22A
100
AcDbEntity
  8
0
100
AcDbLine
 62
7
  6
CONTINUOUS
 10
7.6994686023
 20
2.0871810925
 11
6.9902077523
 21
2.0871810925
  0
LINE
  5
22B
100
AcDbEntity
  8
0
100
AcDbLine
 62
7
  6
CONTINUOUS
 10
7.6736398496
 20
2.1338821705
 11
7.016036505
 21
2.1338821705
  0
LINE
  5
22C
100
AcDbEntity
  8
0
100
AcDbLine
 62
7
  6
CONTINUOUS
 10
7.0463381773
 20
2.1609096131
 11
7.6433381773
 21
2.1609096131
  0
LINE
  5
22D
100
AcDbEntity
  8
0
100
AcDbLine
 62
7
  6
CONTINUOUS
 10
7.0575881773
 20
2.1734096131
 11
7.6320881773
 21
2.1734096131
  0
LINE
  5
22E
100
AcDbEntity
  8
0
100
AcDbLine
 62
7
  6
CONTINUOUS
 10
7.0316219879
 20
2.2052017781
 11
7.6580543667
 21
2.2052017781
  0
LINE
  5
22F
100
AcDbEntity
  8
0
100
AcDbLine
 62
7
  6
CONTINUOUS
 10
7.6508080108
 20
2.2212829249
 11
7.0388683438
 21
2.2212829249
  0
LINE
  5
230
100
AcDbEntity
  8
0
100
AcDbLine
 62
7
  6
CONTINUOUS
 10
7.7123381773
 20
2.2479096131
 11
7.63532085
 21
2.2479096131
  0
LINE
  5
231
100
AcDbEntity
  8
0
100
AcDbLine
 62
7
  6
CONTINUOUS
 10
7.0543555046
 20
2.2479096131
 11
6.9773381773
 21
2.2479096131
  0
LINE
  5
232
100
AcDbEntity
  8
0
100
AcDbLine
 62
7
  6
CONTINUOUS
 10
7.6255439277
 20
2.2841931933
 11
7.064132427
 21
2.2841931933
  0
LINE
  5
233
100
AcDbEntity
  8
0
100
AcDbLine
 62
7
  6
CONTINUOUS
 10
7.6970971532
 20
2.3091635377
 11
7.6226753528
 21
2.3091635377
  0
LINE
  5
234
100
AcDbEntity
  8
0
100
AcDbLine
 62
7
  6
CONTINUOUS
 10
7.0670010018
 20
2.3091635377
 11
6.9925792014
 21
2.3091635377
  0
LINE
  5
235
100
AcDbEntity
  8
0
100
AcDbLine
 62
7
  6
CONTINUOUS
 10
7.6796969586
 20
2.336205649
 11
7.6196560125
 21
2.336205649
  0
LINE
  5
236
100
AcDbEntity
  8
0
100
AcDbLine
 62
7
  6
CONTINUOUS
 10
7.0700203421
 20
2.336205649
 11
7.009979396
 21
2.336205649
  0
LINE
  5
237
100
AcDbEntity
  8
0
100
AcDbLine
 62
7
  6
CONTINUOUS
 10
7.6785721285
 20
2.5196353892
 11
7.6027696558
 21
2.5196353892
  0
LINE
  5
238
100
AcDbEntity
  8
0
100
AcDbLine
 62
7
  6
CONTINUOUS
 10
7.0869066988
 20
2.5196353892
 11
7.0111042261
 21
2.5196353892
  0
LINE
  5
239
100
AcDbEntity
  8
0
100
AcDbLine
 62
7
  6
CONTINUOUS
 10
7.6893627611
 20
2.5509693889
 11
7.6005206265
 21
2.5509693889
  0
LINE
  5
23A
100
AcDbEntity
  8
0
100
AcDbLine
 62
7
  6
CONTINUOUS
 10
7.0891557281
 20
2.5509693889
 11
7.0003135936
 21
2.5509693889
  0
LINE
  5
23B
100
AcDbEntity
  8
0
100
AcDbLine
 62
7
  6
CONTINUOUS
 10
7.6810239119
 20
2.6084978202
 11
7.596799836
 21
2.6084978202
  0
LINE
  5
23C
100
AcDbEntity
  8
0
100
AcDbLine
 62
7
  6
CONTINUOUS
 10
7.0928765187
 20
2.6084978202
 11
7.0086524428
 21
2.6084978202
  0
LINE
  5
23D
100
AcDbEntity
  8
0
100
AcDbLine
 62
7
  6
CONTINUOUS
 10
7.6683504606
 20
2.6312016013
 11
7.5955473542
 21
2.6312016013
  0
LINE
  5
23E
100
AcDbEntity
  8
0
100
AcDbLine
 62
7
  6
CONTINUOUS
 10
7.0941290005
 20
2.6312016013
 11
7.021325894
 21
2.6312016013
  0
LINE
  5
23F
100
AcDbEntity
  8
0
100
AcDbLine
 62
7
  6
CONTINUOUS
 10
8.0184552624
 20
2.937711694
 11
7.9918548701
 21
2.9381760056
  0
LINE
  5
240
100
AcDbEntity
  8
0
100
AcDbLine
 62
7
  6
CONTINUOUS
 10
7.9980154034
 20
3.0180840182
 11
7.9714150114
 21
3.0185483288
  0
LINE
  5
241
100
AcDbEntity
  8
0
100
AcDbLine
 62
7
  6
CONTINUOUS
 10
7.6698381773
 20
3.8155108533
 11
7.6918880906
 21
3.8197969223
  0
LINE
  5
242
100
AcDbEntity
  8
0
100
AcDbLine
 62
7
  6
CONTINUOUS
 10
7.6698381773
 20
3.8511659377
 11
7.689428279
 21
3.8549738677
  0
LINE
  5
243
100
AcDbEntity
  8
0
100
AcDbLine
 62
7
  6
CONTINUOUS
 10
7.6057490851
 20
3.3796383928
 11
7.0839272695
 21
3.3796383928
  0
LINE
  5
244
100
AcDbEntity
  8
0
100
AcDbLine
 62
7
  6
CONTINUOUS
 10
7.6698381773
 20
3.9135623352
 11
7.6851236086
 21
3.9165335221
  0
LINE
  5
245
100
AcDbEntity
  8
0
100
AcDbLine
 62
7
  6
CONTINUOUS
 10
7.6698381773
 20
4.0829239858
 11
7.6734395033
 21
4.0836240126
  0
LINE
  5
246
100
AcDbEntity
  8
0
100
AcDbLine
 62
7
  6
CONTINUOUS
 10
7.7128595833
 20
3.8066023452
 11
7.6929083023
 21
3.8052072157
  0
LINE
  5
247
100
AcDbEntity
  8
0
100
AcDbLine
 62
7
  6
CONTINUOUS
 10
7.6438917022
 20
3.6600300802
 11
7.6601814296
 21
3.6605751153
  0
LINE
  5
248
100
AcDbEntity
  8
0
100
AcDbLine
 62
7
  6
CONTINUOUS
 10
7.6270441275
 20
3.6594967895
 11
7.6438917022
 21
3.6600300802
  0
LINE
  5
249
100
AcDbEntity
  8
0
100
AcDbLine
 62
7
  6
CONTINUOUS
 10
7.6117921017
 20
3.6590406708
 11
7.6270441275
 21
3.6594967895
  0
LINE
  5
24A
100
AcDbEntity
  8
0
100
AcDbLine
 62
7
  6
CONTINUOUS
 10
7.631536608
 20
3.4356391232
 11
7.0581397467
 21
3.4356391232
  0
LINE
  5
24B
100
AcDbEntity
  8
0
100
AcDbLine
 62
7
  6
CONTINUOUS
 10
7.0790881773
 20
3.4859096131
 11
7.6105881773
 21
3.4859096131
  0
LINE
  5
24C
100
AcDbEntity
  8
0
100
AcDbLine
 62
7
  6
CONTINUOUS
 10
7.0840122927
 20
3.5010663267
 11
7.6056640619
 21
3.5010663267
  0
LINE
  5
24D
100
AcDbEntity
  8
0
100
AcDbLine
 62
7
  6
CONTINUOUS
 10
7.104162356
 20
3.5484481279
 11
7.5855139987
 21
3.5484481279
  0
LINE
  5
24E
100
AcDbEntity
  8
0
100
AcDbLine
 62
7
  6
CONTINUOUS
 10
7.0890803893
 20
3.6128825025
 11
7.6005959654
 21
3.6128825025
  0
LINE
  5
24F
100
AcDbEntity
  8
0
100
AcDbLine
 62
7
  6
CONTINUOUS
 10
6.8329287285
 20
3.61722611
 11
6.9604287285
 21
3.61722611
  0
LINE
  5
250
100
AcDbEntity
  8
0
100
AcDbLine
 62
7
  6
CONTINUOUS
 10
6.8329287285
 20
3.6173012268
 11
6.9604287285
 21
3.6173012268
  0
LINE
  5
251
100
AcDbEntity
  8
0
100
AcDbLine
 62
7
  6
CONTINUOUS
 10
6.8329287285
 20
3.6179563241
 11
6.9604287285
 21
3.6179563241
  0
LINE
  5
252
100
AcDbEntity
  8
0
100
AcDbLine
 62
7
  6
CONTINUOUS
 10
6.8329287285
 20
3.6181809212
 11
6.9604287285
 21
3.6181809212
  0
LINE
  5
253
100
AcDbEntity
  8
0
100
AcDbLine
 62
7
  6
CONTINUOUS
 10
6.8329287285
 20
3.6194893201
 11
6.9604287285
 21
3.6194893201
  0
LINE
  5
254
100
AcDbEntity
  8
0
100
AcDbLine
 62
7
  6
CONTINUOUS
 10
6.8329287285
 20
3.6198629645
 11
6.9604287285
 21
3.6198629645
  0
LINE
  5
255
100
AcDbEntity
  8
0
100
AcDbLine
 62
7
  6
CONTINUOUS
 10
6.8329287285
 20
3.6218210789
 11
6.9604287285
 21
3.6218210789
  0
LINE
  5
256
100
AcDbEntity
  8
0
100
AcDbLine
 62
7
  6
CONTINUOUS
 10
6.8329287285
 20
3.6223427465
 11
6.9604287285
 21
3.6223427465
  0
LINE
  5
257
100
AcDbEntity
  8
0
100
AcDbLine
 62
7
  6
CONTINUOUS
 10
6.8329287285
 20
3.6249452092
 11
6.9604287285
 21
3.6249452092
  0
LINE
  5
258
100
AcDbEntity
  8
0
100
AcDbLine
 62
7
  6
CONTINUOUS
 10
6.8329287285
 20
3.6256134702
 11
6.9604287285
 21
3.6256134702
  0
LINE
  5
259
100
AcDbEntity
  8
0
100
AcDbLine
 62
7
  6
CONTINUOUS
 10
6.8329287285
 20
3.6288531481
 11
6.9604287285
 21
3.6288531481
  0
LINE
  5
25A
100
AcDbEntity
  8
0
100
AcDbLine
 62
7
  6
CONTINUOUS
 10
6.8329287285
 20
3.6296686475
 11
6.9604287285
 21
3.6296686475
  0
LINE
  5
25B
100
AcDbEntity
  8
0
100
AcDbLine
 62
7
  6
CONTINUOUS
 10
6.8329287285
 20
3.6334096131
 11
6.7894628453
 21
3.6334096131
  0
LINE
  5
25C
100
AcDbEntity
  8
0
100
AcDbLine
 62
7
  6
CONTINUOUS
 10
6.8329287285
 20
3.63353136
 11
6.9604287285
 21
3.63353136
  0
LINE
  5
25D
100
AcDbEntity
  8
0
100
AcDbLine
 62
7
  6
CONTINUOUS
 10
6.8329287285
 20
3.6344897401
 11
6.9604287285
 21
3.6344897401
  0
LINE
  5
25E
100
AcDbEntity
  8
0
100
AcDbLine
 62
7
  6
CONTINUOUS
 10
6.8329287285
 20
3.638975487
 11
6.9604287285
 21
3.638975487
  0
LINE
  5
25F
100
AcDbEntity
  8
0
100
AcDbLine
 62
7
  6
CONTINUOUS
 10
6.8329287285
 20
3.6400709571
 11
6.9604287285
 21
3.6400709571
  0
LINE
  5
260
100
AcDbEntity
  8
0
100
AcDbLine
 62
7
  6
CONTINUOUS
 10
6.8329287285
 20
3.6451621424
 11
6.9604287285
 21
3.6451621424
  0
LINE
  5
261
100
AcDbEntity
  8
0
100
AcDbLine
 62
7
  6
CONTINUOUS
 10
6.8329287285
 20
3.646394524
 11
6.9604287285
 21
3.646394524
  0
LINE
  5
262
100
AcDbEntity
  8
0
100
AcDbLine
 62
7
  6
CONTINUOUS
 10
7.5719551457
 20
3.6520554735
 11
7.1234099511
 21
3.6520554743
  0
LINE
  5
263
100
AcDbEntity
  8
0
100
AcDbLine
 62
7
  6
CONTINUOUS
 10
6.8329287285
 20
3.6520771931
 11
6.9604287285
 21
3.6520771931
  0
LINE
  5
264
100
AcDbEntity
  8
0
100
AcDbLine
 62
7
  6
CONTINUOUS
 10
6.8329287285
 20
3.6534431084
 11
6.9604287285
 21
3.6534431084
  0
LINE
  5
265
100
AcDbEntity
  8
0
100
AcDbLine
 62
7
  6
CONTINUOUS
 10
6.9704287285
 20
3.6551601143
 11
7.0818878077
 21
3.6551601143
  0
LINE
  5
266
100
AcDbEntity
  8
0
100
AcDbLine
 62
7
  6
CONTINUOUS
 10
7.5695759807
 20
3.658257128
 11
7.1257297036
 21
3.6582571235
  0
LINE
  5
267
100
AcDbEntity
  8
0
100
AcDbLine
 62
7
  6
CONTINUOUS
 10
7.7311508564
 20
3.8998687983
 11
7.7511021374
 21
3.9012639278
  0
LINE
  5
268
100
AcDbEntity
  8
0
100
AcDbLine
 62
7
  6
CONTINUOUS
 10
7.7286717932
 20
3.9353210536
 11
7.7486230742
 21
3.9367161831
  0
LINE
  5
269
100
AcDbEntity
  8
0
100
AcDbLine
 62
7
  6
CONTINUOUS
 10
7.7038283711
 20
3.9357546972
 11
7.6838770901
 21
3.9343595677
  0
LINE
  5
26A
100
AcDbEntity
  8
0
100
AcDbLine
 62
7
  6
CONTINUOUS
 10
6.8329287285
 20
3.6597016855
 11
6.9604287285
 21
3.6597016855
  0
LINE
  5
26B
100
AcDbEntity
  8
0
100
AcDbLine
 62
7
  6
CONTINUOUS
 10
6.8329287285
 20
3.6611973905
 11
6.9604287285
 21
3.6611973905
  0
LINE
  5
26C
100
AcDbEntity
  8
0
100
AcDbLine
 62
7
  6
CONTINUOUS
 10
6.8329287285
 20
3.6680147214
 11
6.9604287285
 21
3.6680147214
  0
LINE
  5
26D
100
AcDbEntity
  8
0
100
AcDbLine
 62
7
  6
CONTINUOUS
 10
6.8329287285
 20
3.6696410103
 11
6.9604287285
 21
3.6696410103
  0
LINE
  5
26E
100
AcDbEntity
  8
0
100
AcDbLine
 62
7
  6
CONTINUOUS
 10
6.8329287285
 20
3.676988326
 11
6.9604287285
 21
3.676988326
  0
LINE
  5
26F
100
AcDbEntity
  8
0
100
AcDbLine
 62
7
  6
CONTINUOUS
 10
6.8329287285
 20
3.6787361565
 11
6.9604287285
 21
3.6787361565
  0
LINE
  5
270
100
AcDbEntity
  8
0
100
AcDbLine
 62
7
  6
CONTINUOUS
 10
6.8329287285
 20
3.6866134569
 11
6.9604287285
 21
3.6866134569
  0
LINE
  5
271
100
AcDbEntity
  8
0
100
AcDbLine
 62
7
  6
CONTINUOUS
 10
6.8329287285
 20
3.6884725677
 11
6.9604287285
 21
3.6884725677
  0
LINE
  5
272
100
AcDbEntity
  8
0
100
AcDbLine
 62
7
  6
CONTINUOUS
 10
6.8329287285
 20
3.6968481787
 11
6.9604287285
 21
3.6968481787
  0
LINE
  5
273
100
AcDbEntity
  8
0
100
AcDbLine
 62
7
  6
CONTINUOUS
 10
6.8329287285
 20
3.6988186634
 11
6.9604287285
 21
3.6988186634
  0
LINE
  5
274
100
AcDbEntity
  8
0
100
AcDbLine
 62
7
  6
CONTINUOUS
 10
6.8329287285
 20
3.7076696281
 11
6.9604287285
 21
3.7076696281
  0
LINE
  5
275
100
AcDbEntity
  8
0
100
AcDbLine
 62
7
  6
CONTINUOUS
 10
6.8329287285
 20
3.7097460856
 11
6.9604287285
 21
3.7097460856
  0
LINE
  5
276
100
AcDbEntity
  8
0
100
AcDbLine
 62
7
  6
CONTINUOUS
 10
6.8329287285
 20
3.7190481441
 11
6.9604287285
 21
3.7190481441
  0
LINE
  5
277
100
AcDbEntity
  8
0
100
AcDbLine
 62
7
  6
CONTINUOUS
 10
6.8329287285
 20
3.7212248831
 11
6.9604287285
 21
3.7212248831
  0
LINE
  5
278
100
AcDbEntity
  8
0
100
AcDbLine
 62
7
  6
CONTINUOUS
 10
6.9701176997
 20
3.7307826116
 11
6.8329287285
 21
3.7307826116
  0
LINE
  5
279
100
AcDbEntity
  8
0
100
AcDbLine
 62
7
  6
CONTINUOUS
 10
6.8329287285
 20
3.730952539
 11
6.9604287285
 21
3.730952539
  0
LINE
  5
27A
100
AcDbEntity
  8
0
100
AcDbLine
 62
7
  6
CONTINUOUS
 10
6.8329287285
 20
3.7332304249
 11
6.9604287285
 21
3.7332304249
  0
LINE
  5
27B
100
AcDbEntity
  8
0
100
AcDbLine
 62
7
  6
CONTINUOUS
 10
6.9701150364
 20
3.7426648761
 11
6.8329287285
 21
3.7426648761
  0
LINE
  5
27C
100
AcDbEntity
  8
0
100
AcDbLine
 62
7
  6
CONTINUOUS
 10
6.8329287285
 20
3.7433431374
 11
6.9604287285
 21
3.7433431374
  0
LINE
  5
27D
100
AcDbEntity
  8
0
100
AcDbLine
 62
7
  6
CONTINUOUS
 10
6.8329287285
 20
3.7457093284
 11
6.9604287285
 21
3.7457093284
  0
LINE
  5
27E
100
AcDbEntity
  8
0
100
AcDbLine
 62
7
  6
CONTINUOUS
 10
6.9704287285
 20
3.7515105463
 11
7.0973603866
 21
3.7515105463
  0
LINE
  5
27F
100
AcDbEntity
  8
0
100
AcDbLine
 62
7
  6
CONTINUOUS
 10
6.9701176997
 20
3.7550205021
 11
6.8329287285
 21
3.7550205021
  0
LINE
  5
280
100
AcDbEntity
  8
0
100
AcDbLine
 62
7
  6
CONTINUOUS
 10
6.8329287285
 20
3.7562070973
 11
6.9604287285
 21
3.7562070973
  0
LINE
  5
281
100
AcDbEntity
  8
0
100
AcDbLine
 62
7
  6
CONTINUOUS
 10
6.8329287285
 20
3.7586478661
 11
6.9604287285
 21
3.7586478661
  0
LINE
  5
282
100
AcDbEntity
  8
0
100
AcDbLine
 62
7
  6
CONTINUOUS
 10
6.9701176997
 20
3.7677972938
 11
6.8329287285
 21
3.7677972938
  0
LINE
  5
283
100
AcDbEntity
  8
0
100
AcDbLine
 62
7
  6
CONTINUOUS
 10
6.8329287285
 20
3.7694880397
 11
6.9604287285
 21
3.7694880397
  0
LINE
  5
284
100
AcDbEntity
  8
0
100
AcDbLine
 62
7
  6
CONTINUOUS
 10
6.8329287285
 20
3.7720037426
 11
6.9604287285
 21
3.7720037426
  0
LINE
  5
285
100
AcDbEntity
  8
0
100
AcDbLine
 62
7
  6
CONTINUOUS
 10
6.9701176997
 20
3.7809663464
 11
6.8329287285
 21
3.7809663464
  0
LINE
  5
286
100
AcDbEntity
  8
0
100
AcDbLine
 62
7
  6
CONTINUOUS
 10
6.8329287285
 20
3.7831566088
 11
6.9604287285
 21
3.7831566088
  0
LINE
  5
287
100
AcDbEntity
  8
0
100
AcDbLine
 62
7
  6
CONTINUOUS
 10
6.8329287285
 20
3.7857403505
 11
6.9604287285
 21
3.7857403505
  0
LINE
  5
288
100
AcDbEntity
  8
0
100
AcDbLine
 62
7
  6
CONTINUOUS
 10
6.9701176997
 20
3.7944915644
 11
6.8329287285
 21
3.7944915644
  0
LINE
  5
289
100
AcDbEntity
  8
0
100
AcDbLine
 62
7
  6
CONTINUOUS
 10
6.8329287285
 20
3.79717534
 11
6.9604287285
 21
3.79717534
  0
LINE
  5
28A
100
AcDbEntity
  8
0
100
AcDbLine
 62
7
  6
CONTINUOUS
 10
6.8329287285
 20
3.7998200386
 11
6.9604287285
 21
3.7998200386
  0
LINE
  5
28B
100
AcDbEntity
  8
0
100
AcDbLine
 62
7
  6
CONTINUOUS
 10
6.9701176997
 20
3.8083358763
 11
6.8329287285
 21
3.8083358763
  0
LINE
  5
28C
100
AcDbEntity
  8
0
100
AcDbLine
 62
7
  6
CONTINUOUS
 10
6.8329287285
 20
3.8115058089
 11
6.9604287285
 21
3.8115058089
  0
LINE
  5
28D
100
AcDbEntity
  8
0
100
AcDbLine
 62
7
  6
CONTINUOUS
 10
6.8329287285
 20
3.8142123165
 11
6.9604287285
 21
3.8142123165
  0
LINE
  5
28E
100
AcDbEntity
  8
0
100
AcDbLine
 62
7
  6
CONTINUOUS
 10
6.9701150364
 20
3.8224581204
 11
6.8329287285
 21
3.8224581204
  0
LINE
  5
28F
100
AcDbEntity
  8
0
100
AcDbLine
 62
7
  6
CONTINUOUS
 10
6.8329287285
 20
3.8261005229
 11
6.9604287285
 21
3.8261005229
  0
LINE
  5
290
100
AcDbEntity
  8
0
100
AcDbLine
 62
7
  6
CONTINUOUS
 10
6.8329287285
 20
3.8288534552
 11
6.9604287285
 21
3.8288534552
  0
LINE
  5
291
100
AcDbEntity
  8
0
100
AcDbLine
 62
7
  6
CONTINUOUS
 10
6.9701176997
 20
3.8368292255
 11
6.8329287285
 21
3.8368292255
  0
LINE
  5
292
100
AcDbEntity
  8
0
100
AcDbLine
 62
7
  6
CONTINUOUS
 10
6.8329287285
 20
3.8409440979
 11
6.9604287285
 21
3.8409440979
  0
LINE
  5
293
100
AcDbEntity
  8
0
100
AcDbLine
 62
7
  6
CONTINUOUS
 10
6.8329287285
 20
3.8437276052
 11
6.9604287285
 21
3.8437276052
  0
LINE
  5
294
100
AcDbEntity
  8
0
100
AcDbLine
 62
7
  6
CONTINUOUS
 10
6.9701176997
 20
3.8514001645
 11
6.8329287285
 21
3.8514001645
  0
LINE
  5
295
100
AcDbEntity
  8
0
100
AcDbLine
 62
7
  6
CONTINUOUS
 10
6.8329287285
 20
3.8559712296
 11
6.9604287285
 21
3.8559712296
  0
LINE
  5
296
100
AcDbEntity
  8
0
100
AcDbLine
 62
7
  6
CONTINUOUS
 10
6.8329287285
 20
3.8587858963
 11
6.9604287285
 21
3.8587858963
  0
LINE
  5
297
100
AcDbEntity
  8
0
100
AcDbLine
 62
7
  6
CONTINUOUS
 10
6.9701176997
 20
3.8661342149
 11
6.8329287285
 21
3.8661342149
  0
LINE
  5
298
100
AcDbEntity
  8
0
100
AcDbLine
 62
7
  6
CONTINUOUS
 10
6.8329287285
 20
3.8711489437
 11
6.9604287285
 21
3.8711489437
  0
LINE
  5
299
100
AcDbEntity
  8
0
100
AcDbLine
 62
7
  6
CONTINUOUS
 10
6.8329287285
 20
3.8739870549
 11
6.9604287285
 21
3.8739870549
  0
LINE
  5
29A
100
AcDbEntity
  8
0
100
AcDbLine
 62
7
  6
CONTINUOUS
 10
6.9701176997
 20
3.8809909915
 11
6.8329287285
 21
3.8809909915
  0
LINE
  5
29B
100
AcDbEntity
  8
0
100
AcDbLine
 62
7
  6
CONTINUOUS
 10
6.8329287285
 20
3.886435639
 11
6.9604287285
 21
3.886435639
  0
LINE
  5
29C
100
AcDbEntity
  8
0
100
AcDbLine
 62
7
  6
CONTINUOUS
 10
6.8329287285
 20
3.8892894157
 11
6.9604287285
 21
3.8892894157
  0
LINE
  5
29D
100
AcDbEntity
  8
0
100
AcDbLine
 62
7
  6
CONTINUOUS
 10
6.9701176997
 20
3.895929773
 11
6.8329287285
 21
3.895929773
  0
LWPOLYLINE
  5
29E
100
AcDbEntity
  8
0
100
AcDbPolyline
 62
7
  6
CONTINUOUS
 90
9
 70
0
 10
7.0818878089
 20
3.6551601143
 10
7.0821529598
 20
3.6551587082
 10
7.0828705864
 20
3.6551407904
 10
7.0835874289
 20
3.6551022752
 10
7.0843028977
 20
3.655043192
 10
7.0850164009
 20
3.6549635875
 10
7.0857273446
 20
3.654863526
 10
7.0864351421
 20
3.6547430884
 10
7.0867871194
 20
3.6546753701
  0
LINE
  5
29F
100
AcDbEntity
  8
0
100
AcDbLine
 62
7
  6
CONTINUOUS
 10
6.8329287285
 20
3.9017894157
 11
6.9604287285
 21
3.9017894157
  0
LINE
  5
2A0
100
AcDbEntity
  8
0
100
AcDbLine
 62
7
  6
CONTINUOUS
 10
6.8329287285
 20
3.9046596131
 11
6.9604287285
 21
3.9046596131
  0
LINE
  5
2A1
100
AcDbEntity
  8
0
100
AcDbLine
 62
7
  6
CONTINUOUS
 10
6.9701150364
 20
3.9109096131
 11
6.8329287285
 21
3.9109096131
  0
LINE
  5
2A2
100
AcDbEntity
  8
0
100
AcDbLine
 62
7
  6
CONTINUOUS
 10
6.9704287285
 20
3.9109096131
 11
7.0773333058
 21
3.9109096131
  0
LINE
  5
2A3
100
AcDbEntity
  8
0
100
AcDbLine
 62
7
  6
CONTINUOUS
 10
7.6698381773
 20
3.910909495
 11
7.5953713543
 21
3.9109096131
  0
LINE
  5
2A4
100
AcDbEntity
  8
0
100
AcDbLine
 62
7
  6
CONTINUOUS
 10
6.8329287285
 20
3.9171596131
 11
6.9604287285
 21
3.9171596131
  0
LINE
  5
2A5
100
AcDbEntity
  8
0
100
AcDbLine
 62
7
  6
CONTINUOUS
 10
6.8329287285
 20
3.9200298105
 11
6.9604287285
 21
3.9200298105
  0
LINE
  5
2A6
100
AcDbEntity
  8
0
100
AcDbLine
 62
7
  6
CONTINUOUS
 10
6.9701176997
 20
3.9258894533
 11
6.8329287285
 21
3.9258894533
  0
LINE
  5
2A7
100
AcDbEntity
  8
0
100
AcDbLine
 62
7
  6
CONTINUOUS
 10
6.8329287285
 20
3.9325298105
 11
6.9604287285
 21
3.9325298105
  0
LINE
  5
2A8
100
AcDbEntity
  8
0
100
AcDbLine
 62
7
  6
CONTINUOUS
 10
6.8329287285
 20
3.9353835873
 11
6.9604287285
 21
3.9353835873
  0
LINE
  5
2A9
100
AcDbEntity
  8
0
100
AcDbLine
 62
7
  6
CONTINUOUS
 10
6.9701176997
 20
3.9408282347
 11
6.8329287285
 21
3.9408282347
  0
LINE
  5
2AA
100
AcDbEntity
  8
0
100
AcDbLine
 62
7
  6
CONTINUOUS
 10
6.8329287285
 20
3.9478321713
 11
6.9604287285
 21
3.9478321713
  0
LINE
  5
2AB
100
AcDbEntity
  8
0
100
AcDbLine
 62
7
  6
CONTINUOUS
 10
6.8329287285
 20
3.9506702826
 11
6.9604287285
 21
3.9506702826
  0
LINE
  5
2AC
100
AcDbEntity
  8
0
100
AcDbLine
 62
7
  6
CONTINUOUS
 10
6.9701176997
 20
3.9556850113
 11
6.8329287285
 21
3.9556850113
  0
LINE
  5
2AD
100
AcDbEntity
  8
0
100
AcDbLine
 62
7
  6
CONTINUOUS
 10
6.8329287285
 20
3.9630333299
 11
6.9604287285
 21
3.9630333299
  0
LINE
  5
2AE
100
AcDbEntity
  8
0
100
AcDbLine
 62
7
  6
CONTINUOUS
 10
6.8329287285
 20
3.9658479966
 11
6.9604287285
 21
3.9658479966
  0
LINE
  5
2AF
100
AcDbEntity
  8
0
100
AcDbLine
 62
7
  6
CONTINUOUS
 10
6.9701176997
 20
3.9704190617
 11
6.8329287285
 21
3.9704190617
  0
LINE
  5
2B0
100
AcDbEntity
  8
0
100
AcDbLine
 62
7
  6
CONTINUOUS
 10
6.8329287285
 20
3.9780916211
 11
6.9604287285
 21
3.9780916211
  0
LINE
  5
2B1
100
AcDbEntity
  8
0
100
AcDbLine
 62
7
  6
CONTINUOUS
 10
6.8329287285
 20
3.9808751284
 11
6.9604287285
 21
3.9808751284
  0
LINE
  5
2B2
100
AcDbEntity
  8
0
100
AcDbLine
 62
7
  6
CONTINUOUS
 10
6.9701176997
 20
3.9849900008
 11
6.8329287285
 21
3.9849900008
  0
LINE
  5
2B3
100
AcDbEntity
  8
0
100
AcDbLine
 62
7
  6
CONTINUOUS
 10
6.8329287285
 20
3.992965771
 11
6.9604287285
 21
3.992965771
  0
LINE
  5
2B4
100
AcDbEntity
  8
0
100
AcDbLine
 62
7
  6
CONTINUOUS
 10
6.8329287285
 20
3.9957187033
 11
6.9604287285
 21
3.9957187033
  0
LINE
  5
2B5
100
AcDbEntity
  8
0
100
AcDbLine
 62
7
  6
CONTINUOUS
 10
6.9701150364
 20
3.9993611058
 11
6.8329287285
 21
3.9993611058
  0
LINE
  5
2B6
100
AcDbEntity
  8
0
100
AcDbLine
 62
7
  6
CONTINUOUS
 10
6.8329287285
 20
4.0076069098
 11
6.9604287285
 21
4.0076069098
  0
LINE
  5
2B7
100
AcDbEntity
  8
0
100
AcDbLine
 62
7
  6
CONTINUOUS
 10
6.8329287285
 20
4.0103134173
 11
6.9604287285
 21
4.0103134173
  0
LINE
  5
2B8
100
AcDbEntity
  8
0
100
AcDbLine
 62
7
  6
CONTINUOUS
 10
6.9701176997
 20
4.01348335
 11
6.8329287285
 21
4.01348335
  0
LINE
  5
2B9
100
AcDbEntity
  8
0
100
AcDbLine
 62
7
  6
CONTINUOUS
 10
6.8329287285
 20
4.0219991876
 11
6.9604287285
 21
4.0219991876
  0
LINE
  5
2BA
100
AcDbEntity
  8
0
100
AcDbLine
 62
7
  6
CONTINUOUS
 10
6.8329287285
 20
4.0246438863
 11
6.9604287285
 21
4.0246438863
  0
LINE
  5
2BB
100
AcDbEntity
  8
0
100
AcDbLine
 62
7
  6
CONTINUOUS
 10
6.9701176997
 20
4.0273276618
 11
6.8329287285
 21
4.0273276618
  0
LINE
  5
2BC
100
AcDbEntity
  8
0
100
AcDbLine
 62
7
  6
CONTINUOUS
 10
6.8329287285
 20
4.0360788757
 11
6.9604287285
 21
4.0360788757
  0
LINE
  5
2BD
100
AcDbEntity
  8
0
100
AcDbLine
 62
7
  6
CONTINUOUS
 10
6.8329287285
 20
4.0386626175
 11
6.9604287285
 21
4.0386626175
  0
LINE
  5
2BE
100
AcDbEntity
  8
0
100
AcDbLine
 62
7
  6
CONTINUOUS
 10
6.9701176997
 20
4.0408528799
 11
6.8329287285
 21
4.0408528799
  0
LINE
  5
2BF
100
AcDbEntity
  8
0
100
AcDbLine
 62
7
  6
CONTINUOUS
 10
6.8329287285
 20
4.0498154836
 11
6.9604287285
 21
4.0498154836
  0
LINE
  5
2C0
100
AcDbEntity
  8
0
100
AcDbLine
 62
7
  6
CONTINUOUS
 10
6.8329287285
 20
4.0523311865
 11
6.9604287285
 21
4.0523311865
  0
LINE
  5
2C1
100
AcDbEntity
  8
0
100
AcDbLine
 62
7
  6
CONTINUOUS
 10
6.9701176997
 20
4.0540219324
 11
6.8329287285
 21
4.0540219324
  0
LINE
  5
2C2
100
AcDbEntity
  8
0
100
AcDbLine
 62
7
  6
CONTINUOUS
 10
6.8329287285
 20
4.0631713602
 11
6.9604287285
 21
4.0631713602
  0
LINE
  5
2C3
100
AcDbEntity
  8
0
100
AcDbLine
 62
7
  6
CONTINUOUS
 10
6.8329287285
 20
4.0656121289
 11
6.9604287285
 21
4.0656121289
  0
LINE
  5
2C4
100
AcDbEntity
  8
0
100
AcDbLine
 62
7
  6
CONTINUOUS
 10
6.9701176997
 20
4.0667987241
 11
6.8329287285
 21
4.0667987241
  0
LINE
  5
2C5
100
AcDbEntity
  8
0
100
AcDbLine
 62
7
  6
CONTINUOUS
 10
6.8329287285
 20
4.0761098978
 11
6.9604287285
 21
4.0761098978
  0
LINE
  5
2C6
100
AcDbEntity
  8
0
100
AcDbLine
 62
7
  6
CONTINUOUS
 10
6.8329287285
 20
4.0784760889
 11
6.9604287285
 21
4.0784760889
  0
LINE
  5
2C7
100
AcDbEntity
  8
0
100
AcDbLine
 62
7
  6
CONTINUOUS
 10
6.9701150364
 20
4.0791543502
 11
6.8329287285
 21
4.0791543502
  0
LINE
  5
2C8
100
AcDbEntity
  8
0
100
AcDbLine
 62
7
  6
CONTINUOUS
 10
6.8329287285
 20
4.0885888013
 11
6.9604287285
 21
4.0885888013
  0
LINE
  5
2C9
100
AcDbEntity
  8
0
100
AcDbLine
 62
7
  6
CONTINUOUS
 10
6.8329287285
 20
4.0908666872
 11
6.9604287285
 21
4.0908666872
  0
LINE
  5
2CA
100
AcDbEntity
  8
0
100
AcDbLine
 62
7
  6
CONTINUOUS
 10
6.9701176997
 20
4.0910366146
 11
6.8329287285
 21
4.0910366146
  0
LINE
  5
2CB
100
AcDbEntity
  8
0
100
AcDbLine
 62
7
  6
CONTINUOUS
 10
6.8329287285
 20
4.1005943432
 11
6.9604287285
 21
4.1005943432
  0
LINE
  5
2CC
100
AcDbEntity
  8
0
100
AcDbLine
 62
7
  6
CONTINUOUS
 10
6.8329287285
 20
4.1027710822
 11
6.9604287285
 21
4.1027710822
  0
LINE
  5
2CD
100
AcDbEntity
  8
0
100
AcDbLine
 62
7
  6
CONTINUOUS
 10
6.8329287285
 20
4.1120731406
 11
6.9604287285
 21
4.1120731406
  0
LINE
  5
2CE
100
AcDbEntity
  8
0
100
AcDbLine
 62
7
  6
CONTINUOUS
 10
6.8329287285
 20
4.1141495982
 11
6.9604287285
 21
4.1141495982
  0
LINE
  5
2CF
100
AcDbEntity
  8
0
100
AcDbLine
 62
7
  6
CONTINUOUS
 10
6.8329287285
 20
4.1230005629
 11
6.9604287285
 21
4.1230005629
  0
LINE
  5
2D0
100
AcDbEntity
  8
0
100
AcDbLine
 62
7
  6
CONTINUOUS
 10
6.8329287285
 20
4.1249710475
 11
6.9604287285
 21
4.1249710475
  0
LINE
  5
2D1
100
AcDbEntity
  8
0
100
AcDbLine
 62
7
  6
CONTINUOUS
 10
6.8329287285
 20
4.1333466586
 11
6.9604287285
 21
4.1333466586
  0
LINE
  5
2D2
100
AcDbEntity
  8
0
100
AcDbLine
 62
7
  6
CONTINUOUS
 10
6.8329287285
 20
4.1352057693
 11
6.9604287285
 21
4.1352057693
  0
LINE
  5
2D3
100
AcDbEntity
  8
0
100
AcDbLine
 62
7
  6
CONTINUOUS
 10
7.7038284974
 20
3.9357528912
 11
7.7286719205
 21
3.9353192336
  0
LWPOLYLINE
  5
2D4
100
AcDbEntity
  8
0
100
AcDbPolyline
 62
7
  6
CONTINUOUS
 90
51
 70
0
 10
7.0867871141
 20
3.6546753914
 10
7.0868315263
 20
3.6546663066
 10
7.0870439291
 20
3.6546169968
 10
7.0872540095
 20
3.6545584641
 10
7.0874613562
 20
3.6544908199
 10
7.0876655732
 20
3.6544141906
 10
7.0878662715
 20
3.6543287195
 10
7.0880630601
 20
3.654234571
 10
7.0882555636
 20
3.6541319233
 10
7.0884434151
 20
3.6540209704
 10
7.0886262491
 20
3.6539019272
 10
7.0888037163
 20
3.6537750211
 10
7.0889754798
 20
3.6536404926
 10
7.0891412096
 20
3.6534986004
 10
7.0893005893
 20
3.6533496157
 10
7.0894533167
 20
3.6531938215
 10
7.0895991017
 20
3.653031514
 10
7.0897376667
 20
3.6528630025
 10
7.0898687481
 20
3.6526886079
 10
7.0899920974
 20
3.6525086609
 10
7.0901074794
 20
3.6523235045
 10
7.0902146747
 20
3.6521334909
 10
7.0903134802
 20
3.6519389795
 10
7.0904037079
 20
3.6517403398
 10
7.0904851852
 20
3.6515379506
 10
7.0905577568
 20
3.6513321969
 10
7.0906212848
 20
3.6511234672
 10
7.090675647
 20
3.650912162
 10
7.0907207376
 20
3.6506986928
 10
7.0907564715
 20
3.6504834669
 10
7.0907827818
 20
3.6502668936
 10
7.0907996187
 20
3.650049393
 10
7.0908069518
 20
3.6498313906
 10
7.0908047704
 20
3.6496132902
 10
7.0907930783
 20
3.6493954804
 10
7.0907718968
 20
3.6491783797
 10
7.0907412644
 20
3.6489623975
 10
7.09070123
 20
3.6487479079
 10
7.0906518546
 20
3.6485352855
 10
7.0905932317
 20
3.6483249727
 10
7.0905254899
 20
3.6481174386
 10
7.0904487481
 20
3.6479130458
 10
7.090363165
 20
3.6477122163
 10
7.0902689846
 20
3.647515487
 10
7.090166408
 20
3.6473232193
 10
7.0900556532
 20
3.6471357686
 10
7.0899370539
 20
3.6469536267
 10
7.0898108696
 20
3.6467771036
 10
7.0896773824
 20
3.6466065114
 10
7.0895370204
 20
3.6464422962
 10
7.0894791172
 20
3.6463785571
  0
LINE
  5
2D5
100
AcDbEntity
  8
0
100
AcDbLine
 62
7
  6
CONTINUOUS
 10
5.9092015505
 20
5.0458544831
 11
6.0861319902
 21
5.4432467572
  0
LINE
  5
2D6
100
AcDbEntity
  8
0
100
AcDbLine
 62
7
  6
CONTINUOUS
 10
6.8329287285
 20
4.1430830698
 11
6.9604287285
 21
4.1430830698
  0
LINE
  5
2D7
100
AcDbEntity
  8
0
100
AcDbLine
 62
7
  6
CONTINUOUS
 10
6.8329287285
 20
4.1448309003
 11
6.9604287285
 21
4.1448309003
  0
LINE
  5
2D8
100
AcDbEntity
  8
0
100
AcDbLine
 62
7
  6
CONTINUOUS
 10
6.8329287285
 20
4.1521782159
 11
6.9604287285
 21
4.1521782159
  0
LINE
  5
2D9
100
AcDbEntity
  8
0
100
AcDbLine
 62
7
  6
CONTINUOUS
 10
6.8329287285
 20
4.1538045049
 11
6.9604287285
 21
4.1538045049
  0
LINE
  5
2DA
100
AcDbEntity
  8
0
100
AcDbLine
 62
7
  6
CONTINUOUS
 10
6.8329287285
 20
4.1606218357
 11
6.9604287285
 21
4.1606218357
  0
LINE
  5
2DB
100
AcDbEntity
  8
0
100
AcDbLine
 62
7
  6
CONTINUOUS
 10
6.8329287285
 20
4.1621175407
 11
6.9604287285
 21
4.1621175407
  0
LINE
  5
2DC
100
AcDbEntity
  8
0
100
AcDbLine
 62
7
  6
CONTINUOUS
 10
7.048302101
 20
4.1666596131
 11
6.9704287285
 21
4.1666596131
  0
LINE
  5
2DD
100
AcDbEntity
  8
0
100
AcDbLine
 62
7
  6
CONTINUOUS
 10
6.8329287285
 20
4.1683761179
 11
6.9604287285
 21
4.1683761179
  0
LINE
  5
2DE
100
AcDbEntity
  8
0
100
AcDbLine
 62
7
  6
CONTINUOUS
 10
6.8329287285
 20
4.1697420331
 11
6.9604287285
 21
4.1697420331
  0
LINE
  5
2DF
100
AcDbEntity
  8
0
100
AcDbLine
 62
7
  6
CONTINUOUS
 10
6.8329287285
 20
4.1754247023
 11
6.9604287285
 21
4.1754247023
  0
LINE
  5
2E0
100
AcDbEntity
  8
0
100
AcDbLine
 62
7
  6
CONTINUOUS
 10
6.8329287285
 20
4.1766570838
 11
6.9604287285
 21
4.1766570838
  0
LINE
  5
2E1
100
AcDbEntity
  8
0
100
AcDbLine
 62
7
  6
CONTINUOUS
 10
6.8329287285
 20
4.1817482692
 11
6.9604287285
 21
4.1817482692
  0
LINE
  5
2E2
100
AcDbEntity
  8
0
100
AcDbLine
 62
7
  6
CONTINUOUS
 10
6.8329287285
 20
4.1828437392
 11
6.9604287285
 21
4.1828437392
  0
LINE
  5
2E3
100
AcDbEntity
  8
0
100
AcDbLine
 62
7
  6
CONTINUOUS
 10
6.8329287285
 20
4.1873294861
 11
6.9604287285
 21
4.1873294861
  0
LINE
  5
2E4
100
AcDbEntity
  8
0
100
AcDbLine
 62
7
  6
CONTINUOUS
 10
6.8329287285
 20
4.1882878663
 11
6.9604287285
 21
4.1882878663
  0
LINE
  5
2E5
100
AcDbEntity
  8
0
100
AcDbLine
 62
7
  6
CONTINUOUS
 10
6.8329287285
 20
4.1884096131
 11
6.7894628453
 21
4.1884096131
  0
LINE
  5
2E6
100
AcDbEntity
  8
0
100
AcDbLine
 62
7
  6
CONTINUOUS
 10
6.8329287285
 20
4.1921505787
 11
6.9604287285
 21
4.1921505787
  0
LINE
  5
2E7
100
AcDbEntity
  8
0
100
AcDbLine
 62
7
  6
CONTINUOUS
 10
6.8329287285
 20
4.1929660781
 11
6.9604287285
 21
4.1929660781
  0
LINE
  5
2E8
100
AcDbEntity
  8
0
100
AcDbLine
 62
7
  6
CONTINUOUS
 10
6.8329287285
 20
4.1962057561
 11
6.9604287285
 21
4.1962057561
  0
LINE
  5
2E9
100
AcDbEntity
  8
0
100
AcDbLine
 62
7
  6
CONTINUOUS
 10
6.8329287285
 20
4.196874017
 11
6.9604287285
 21
4.196874017
  0
LINE
  5
2EA
100
AcDbEntity
  8
0
100
AcDbLine
 62
7
  6
CONTINUOUS
 10
6.8329287285
 20
4.1994764798
 11
6.9604287285
 21
4.1994764798
  0
LINE
  5
2EB
100
AcDbEntity
  8
0
100
AcDbLine
 62
7
  6
CONTINUOUS
 10
6.8329287285
 20
4.1999981474
 11
6.9604287285
 21
4.1999981474
  0
LINE
  5
2EC
100
AcDbEntity
  8
0
100
AcDbLine
 62
7
  6
CONTINUOUS
 10
6.8329287285
 20
4.2019562617
 11
6.9604287285
 21
4.2019562617
  0
LINE
  5
2ED
100
AcDbEntity
  8
0
100
AcDbLine
 62
7
  6
CONTINUOUS
 10
6.8329287285
 20
4.2023299062
 11
6.9604287285
 21
4.2023299062
  0
LINE
  5
2EE
100
AcDbEntity
  8
0
100
AcDbLine
 62
7
  6
CONTINUOUS
 10
6.8329287285
 20
4.2036383051
 11
6.9604287285
 21
4.2036383051
  0
LINE
  5
2EF
100
AcDbEntity
  8
0
100
AcDbLine
 62
7
  6
CONTINUOUS
 10
6.8329287285
 20
4.2038629022
 11
6.9604287285
 21
4.2038629022
  0
LINE
  5
2F0
100
AcDbEntity
  8
0
100
AcDbLine
 62
7
  6
CONTINUOUS
 10
6.8329287285
 20
4.2045179994
 11
6.9604287285
 21
4.2045179994
  0
LINE
  5
2F1
100
AcDbEntity
  8
0
100
AcDbLine
 62
7
  6
CONTINUOUS
 10
6.8329287285
 20
4.2045931162
 11
6.9604287484
 21
4.2045931162
  0
LINE
  5
2F2
100
AcDbEntity
  8
0
100
AcDbLine
 62
7
  6
CONTINUOUS
 10
7.6920984674
 20
4.1284887666
 11
7.7169418895
 21
4.128055123
  0
LINE
  5
2F3
100
AcDbEntity
  8
0
100
AcDbLine
 62
7
  6
CONTINUOUS
 10
7.6240853026
 20
4.1624146982
 11
7.6072868675
 21
4.1629100827
  0
LINE
  5
2F4
100
AcDbEntity
  8
0
100
AcDbLine
 62
7
  6
CONTINUOUS
 10
7.6460776144
 20
4.1617196942
 11
7.6240853026
 21
4.1624146982
  0
LINE
  5
2F5
100
AcDbEntity
  8
0
100
AcDbLine
 62
7
  6
CONTINUOUS
 10
7.6601813446
 20
4.161246265
 11
7.6460776144
 21
4.1617196942
  0
LINE
  5
2F6
100
AcDbEntity
  8
0
100
AcDbLine
 62
7
  6
CONTINUOUS
 10
6.7866586045
 20
3.6342700197
 11
6.7126244878
 21
3.6844221633
  0
LINE
  5
2F7
100
AcDbEntity
  8
0
100
AcDbLine
 62
7
  6
CONTINUOUS
 10
7.6374998006
 20
4.7001305276
 11
7.052176554
 21
4.7001305276
  0
LINE
  5
2F8
100
AcDbEntity
  8
0
100
AcDbLine
 62
7
  6
CONTINUOUS
 10
7.0390881773
 20
4.7269096131
 11
7.6505881773
 21
4.7269096131
  0
LINE
  5
2F9
100
AcDbEntity
  8
0
100
AcDbLine
 62
7
  6
CONTINUOUS
 10
7.0180881773
 20
4.7555277892
 11
7.6715881773
 21
4.7555277892
  0
LINE
  5
2FA
100
AcDbEntity
  8
0
100
AcDbLine
 62
7
  6
CONTINUOUS
 10
7.6715881773
 20
4.7739096131
 11
7.0180881773
 21
4.7739096131
  0
LINE
  5
2FB
100
AcDbEntity
  8
0
100
AcDbLine
 62
7
  6
CONTINUOUS
 10
7.6568381773
 20
4.7999096131
 11
7.0328381773
 21
4.7999096131
  0
LINE
  5
2FC
100
AcDbEntity
  8
0
100
AcDbLine
 62
7
  6
CONTINUOUS
 10
3.0409340143
 20
4.8079096131
 11
2.5943995264
 21
4.8079096131
  0
LINE
  5
2FD
100
AcDbEntity
  8
0
100
AcDbLine
 62
7
  6
CONTINUOUS
 10
7.657025621
 20
4.8109096131
 11
7.0326507336
 21
4.8109096131
  0
LINE
  5
2FE
100
AcDbEntity
  8
0
100
AcDbLine
 62
7
  6
CONTINUOUS
 10
2.5629683959
 20
4.823169281
 11
3.0723651448
 21
4.823169281
  0
LINE
  5
2FF
100
AcDbEntity
  8
0
100
AcDbLine
 62
7
  6
CONTINUOUS
 10
6.9326167703
 20
4.8326596131
 11
6.9291167703
 21
4.8326596131
  0
LINE
  5
300
100
AcDbEntity
  8
0
100
AcDbLine
 62
7
  6
CONTINUOUS
 10
6.7866586045
 20
4.1875492066
 11
6.7126244878
 21
4.1373970629
  0
LINE
  5
301
100
AcDbEntity
  8
0
100
AcDbLine
 62
7
  6
CONTINUOUS
 10
3.0792403156
 20
4.8696492571
 11
2.5560932251
 21
4.8696492571
  0
LINE
  5
302
100
AcDbEntity
  8
0
100
AcDbLine
 62
7
  6
CONTINUOUS
 10
6.4397838415
 20
4.8784096131
 11
6.4316167703
 21
4.8784096131
  0
LINE
  5
303
100
AcDbEntity
  8
0
100
AcDbLine
 62
7
  6
CONTINUOUS
 10
3.0671568419
 20
4.9231251367
 11
2.5681766988
 21
4.9231251367
  0
LINE
  5
304
100
AcDbEntity
  8
0
100
AcDbLine
 62
7
  6
CONTINUOUS
 10
6.3926167703
 20
4.9434096131
 11
6.3911667703
 21
4.9434096131
  0
LINE
  5
305
100
AcDbEntity
  8
0
100
AcDbLine
 62
7
  6
CONTINUOUS
 10
6.3911667703
 20
4.9434096131
 11
6.3911667703
 21
5.3784096131
  0
LINE
  5
306
100
AcDbEntity
  8
0
100
AcDbLine
 62
7
  6
CONTINUOUS
 10
6.3926167703
 20
4.9174096131
 11
6.3926167703
 21
5.4044096131
  0
LINE
  5
307
100
AcDbEntity
  8
0
100
AcDbLine
 62
7
  6
CONTINUOUS
 10
6.4316167703
 20
4.8784096131
 11
6.4316167703
 21
5.4434096131
  0
LINE
  5
308
100
AcDbEntity
  8
0
100
AcDbLine
 62
7
  6
CONTINUOUS
 10
6.4397838415
 20
4.8784096131
 11
6.4397838415
 21
5.4434096131
  0
LINE
  5
309
100
AcDbEntity
  8
0
100
AcDbLine
 62
7
  6
CONTINUOUS
 10
6.463663417
 20
4.8865751211
 11
6.463663417
 21
5.4352441051
  0
LINE
  5
30A
100
AcDbEntity
  8
0
100
AcDbLine
 62
7
  6
CONTINUOUS
 10
6.5017475624
 20
4.9010679981
 11
6.5017475624
 21
5.4207512281
  0
LINE
  5
30B
100
AcDbEntity
  8
0
100
AcDbLine
 62
7
  6
CONTINUOUS
 10
7.7313357268
 20
3.7157891985
 11
7.7124253553
 21
3.7092778354
  0
LINE
  5
30C
100
AcDbEntity
  8
0
100
AcDbLine
 62
7
  6
CONTINUOUS
 10
3.0828992123
 20
5.1030612533
 11
2.5524343284
 21
5.1030612533
  0
LINE
  5
30D
100
AcDbEntity
  8
0
100
AcDbLine
 62
7
  6
CONTINUOUS
 10
3.1031117827
 20
5.1524658049
 11
2.532221758
 21
5.1524658049
  0
LINE
  5
30E
100
AcDbEntity
  8
0
100
AcDbLine
 62
7
  6
CONTINUOUS
 10
3.0722473594
 20
5.2179096131
 11
2.5630862365
 21
5.2179096131
  0
LINE
  5
30F
100
AcDbEntity
  8
0
100
AcDbLine
 62
7
  6
CONTINUOUS
 10
3.0351667703
 20
5.3355681251
 11
2.6001667703
 21
5.3355681251
  0
LINE
  5
310
100
AcDbEntity
  8
0
100
AcDbLine
 62
7
  6
CONTINUOUS
 10
5.9092015505
 20
5.0458544831
 11
3.9394754472
 21
5.9228330465
  0
LINE
  5
311
100
AcDbEntity
  8
0
100
AcDbLine
 62
7
  6
CONTINUOUS
 10
6.7076097652
 20
3.7071940985
 11
6.7076097652
 21
4.1146251278
  0
LINE
  5
312
100
AcDbEntity
  8
0
100
AcDbLine
 62
7
  6
CONTINUOUS
 10
6.7104287285
 20
3.6885617567
 11
6.7104287285
 21
4.1332574695
  0
LINE
  5
313
100
AcDbEntity
  8
0
100
AcDbLine
 62
7
  6
CONTINUOUS
 10
6.7126244878
 20
3.6844221633
 11
6.7126244878
 21
4.1373970629
  0
LINE
  5
314
100
AcDbEntity
  8
0
100
AcDbLine
 62
7
  6
CONTINUOUS
 10
6.6843852411
 20
4.0182930044
 11
6.6814811448
 21
3.9987041474
  0
LINE
  5
315
100
AcDbEntity
  8
0
100
AcDbLine
 62
7
  6
CONTINUOUS
 10
6.69741912
 20
4.0796782968
 11
6.6923389967
 21
4.0589501811
  0
LWPOLYLINE
  5
316
100
AcDbEntity
  8
0
100
AcDbPolyline
 62
7
  6
CONTINUOUS
 90
17
 70
0
 10
7.5998320873
 20
3.6561706118
 10
7.5999430364
 20
3.6562228343
 10
7.6007217467
 20
3.656573994
 10
7.6015101372
 20
3.6569028402
 10
7.6023075673
 20
3.6572091061
 10
7.6031133906
 20
3.6574925436
 10
7.6039269535
 20
3.6577529233
 10
7.6047475953
 20
3.657990034
 10
7.6055746506
 20
3.6582036837
 10
7.6064074486
 20
3.6583936997
 10
7.6072453126
 20
3.658559928
 10
7.6080875633
 20
3.6587022343
 10
7.6089335177
 20
3.6588205038
 10
7.6097824881
 20
3.658914641
 10
7.6106337859
 20
3.6589845701
 10
7.6114867212
 20
3.6590302353
 10
7.611792101
 20
3.6590406708
  0
LINE
  5
317
100
AcDbEntity
  8
0
100
AcDbLine
 62
7
  6
CONTINUOUS
 10
7.7842372406
 20
3.638940884
 11
7.8031476121
 21
3.6454522471
  0
LINE
  5
318
100
AcDbEntity
  8
0
100
AcDbLine
 62
7
  6
CONTINUOUS
 10
6.3926167703
 20
5.3784096131
 11
6.3911667703
 21
5.3784096131
  0
LINE
  5
319
100
AcDbEntity
  8
0
100
AcDbLine
 62
7
  6
CONTINUOUS
 10
6.4397838415
 20
5.4434096131
 11
6.4316167703
 21
5.4434096131
  0
LINE
  5
31A
100
AcDbEntity
  8
0
100
AcDbLine
 62
7
  6
CONTINUOUS
 10
6.9326167703
 20
5.4891596131
 11
6.9291167703
 21
5.4891596131
  0
LINE
  5
31B
100
AcDbEntity
  8
0
100
AcDbLine
 62
7
  6
CONTINUOUS
 10
7.5985428107
 20
3.6480110561
 11
7.5986152695
 21
3.6479441565
  0
LWPOLYLINE
  5
31C
100
AcDbEntity
  8
0
100
AcDbPolyline
 62
7
  6
CONTINUOUS
 90
3
 70
0
 10
7.5985511331
 20
3.6480033723
 10
7.5984011583
 20
3.6481498547
 10
7.5982541206
 20
3.6483063455
  0
LWPOLYLINE
  5
31D
100
AcDbEntity
  8
0
100
AcDbPolyline
 62
7
  6
CONTINUOUS
 90
45
 70
0
 10
7.5982541206
 20
3.6483063455
 10
7.5981137955
 20
3.6484691776
 10
7.5979804674
 20
3.6486380646
 10
7.5978544021
 20
3.6488127155
 10
7.5977359212
 20
3.6489927211
 10
7.5976252576
 20
3.6491777513
 10
7.5975226264
 20
3.6493674717
 10
7.5974282762
 20
3.6495614358
 10
7.5973423933
 20
3.6497592545
 10
7.5972651228
 20
3.6499605861
 10
7.5971966134
 20
3.6501650374
 10
7.5971369933
 20
3.6503722122
 10
7.5970863647
 20
3.6505817389
 10
7.5970448139
 20
3.650793254
 10
7.5970124174
 20
3.6510063708
 10
7.5969892369
 20
3.6512206869
 10
7.5969753152
 20
3.6514358112
 10
7.5969706795
 20
3.6516513487
 10
7.5969753396
 20
3.6518668939
 10
7.5969892875
 20
3.6520820386
 10
7.597012497
 20
3.6522963812
 10
7.5970449252
 20
3.6525095247
 10
7.5970865112
 20
3.65272107
 10
7.597137177
 20
3.6529306221
 10
7.5971968284
 20
3.6531377931
 10
7.5972653549
 20
3.6533421998
 10
7.597342629
 20
3.6535434623
 10
7.5974285071
 20
3.6537412063
 10
7.5975228299
 20
3.6539350651
 10
7.5976254222
 20
3.6541246785
 10
7.5977360934
 20
3.6543096938
 10
7.5978546374
 20
3.6544897664
 10
7.5979808339
 20
3.6546645616
 10
7.5981144482
 20
3.6548337544
 10
7.5982552316
 20
3.6549970298
 10
7.5984029224
 20
3.6551540843
 10
7.5985572458
 20
3.6553046259
 10
7.5987179146
 20
3.6554483744
 10
7.59888463
 20
3.6555850627
 10
7.5990570819
 20
3.6557144367
 10
7.5992349491
 20
3.6558362557
 10
7.5994179009
 20
3.6559502934
 10
7.5996055971
 20
3.6560563379
 10
7.5997976878
 20
3.6561541919
 10
7.5998320824
 20
3.6561706278
  0
LINE
  5
31E
100
AcDbEntity
  8
0
100
AcDbLine
 62
7
  6
CONTINUOUS
 10
6.6923389967
 20
3.7628690451
 11
6.6923374492
 21
3.7628753812
  0
LINE
  5
31F
100
AcDbEntity
  8
0
100
AcDbLine
 62
7
  6
CONTINUOUS
 10
6.6923374493
 20
3.7628753811
 11
6.69741912
 21
3.7421409294
  0
LINE
  5
320
100
AcDbEntity
  8
0
100
AcDbLine
 62
7
  6
CONTINUOUS
 10
6.6843852412
 20
3.8035262216
 11
6.6843827455
 21
3.8035430144
  0
LINE
  5
321
100
AcDbEntity
  8
0
100
AcDbLine
 62
7
  6
CONTINUOUS
 10
6.6814811448
 20
3.8231150788
 11
6.6843852444
 21
3.8035262018
  0
LINE
  5
322
100
AcDbEntity
  8
0
100
AcDbLine
 62
7
  6
CONTINUOUS
 10
6.7866586045
 20
3.6342700197
 11
6.7866586045
 21
4.1875492066
  0
LINE
  5
323
100
AcDbEntity
  8
0
100
AcDbLine
 62
7
  6
CONTINUOUS
 10
6.7894628453
 20
3.6334096131
 11
6.7894628453
 21
4.1884096131
  0
LINE
  5
324
100
AcDbEntity
  8
0
100
AcDbLine
 62
7
  6
CONTINUOUS
 10
6.8329287285
 20
3.61722611
 11
6.8329287285
 21
4.2045179994
  0
LINE
  5
325
100
AcDbEntity
  8
0
100
AcDbLine
 62
7
  6
CONTINUOUS
 10
6.8490446016
 20
5.4392822705
 11
6.8490446016
 21
4.8825369558
  0
LINE
  5
326
100
AcDbEntity
  8
0
100
AcDbLine
 62
7
  6
CONTINUOUS
 10
6.8961087397
 20
5.4709314669
 11
6.8961087397
 21
4.8508877593
  0
LINE
  5
327
100
AcDbEntity
  8
0
100
AcDbLine
 62
7
  6
CONTINUOUS
 10
6.9291167703
 20
4.8326596131
 11
6.9291167703
 21
5.4891596131
  0
LINE
  5
328
100
AcDbEntity
  8
0
100
AcDbLine
 62
7
  6
CONTINUOUS
 10
6.9326167703
 20
4.8326596131
 11
6.9326167703
 21
5.4891596131
  0
LINE
  5
329
100
AcDbEntity
  8
0
100
AcDbLine
 62
7
  6
CONTINUOUS
 10
6.9604287285
 20
3.61722611
 11
6.9604287285
 21
3.6173012268
  0
LINE
  5
32A
100
AcDbEntity
  8
0
100
AcDbLine
 62
7
  6
CONTINUOUS
 10
6.9604287285
 20
3.6179563241
 11
6.9604287285
 21
3.6181809212
  0
LINE
  5
32B
100
AcDbEntity
  8
0
100
AcDbLine
 62
7
  6
CONTINUOUS
 10
6.9604287285
 20
3.6194893201
 11
6.9604287285
 21
3.6198629645
  0
LINE
  5
32C
100
AcDbEntity
  8
0
100
AcDbLine
 62
7
  6
CONTINUOUS
 10
6.9604287285
 20
3.6218210789
 11
6.9604287285
 21
3.6223427465
  0
LINE
  5
32D
100
AcDbEntity
  8
0
100
AcDbLine
 62
7
  6
CONTINUOUS
 10
6.9604287285
 20
3.6249452092
 11
6.9604287285
 21
3.6256134702
  0
LINE
  5
32E
100
AcDbEntity
  8
0
100
AcDbLine
 62
7
  6
CONTINUOUS
 10
6.9604287285
 20
3.6288531481
 11
6.9604287285
 21
3.6296686475
  0
LINE
  5
32F
100
AcDbEntity
  8
0
100
AcDbLine
 62
7
  6
CONTINUOUS
 10
6.9604287285
 20
3.63353136
 11
6.9604287285
 21
3.6344897401
  0
LINE
  5
330
100
AcDbEntity
  8
0
100
AcDbLine
 62
7
  6
CONTINUOUS
 10
6.9604287285
 20
3.638975487
 11
6.9604287285
 21
3.6400709571
  0
LINE
  5
331
100
AcDbEntity
  8
0
100
AcDbLine
 62
7
  6
CONTINUOUS
 10
6.9604287285
 20
3.6451621424
 11
6.9604287285
 21
3.646394524
  0
LINE
  5
332
100
AcDbEntity
  8
0
100
AcDbLine
 62
7
  6
CONTINUOUS
 10
6.9604287285
 20
3.6520771931
 11
6.9604287285
 21
3.6534431084
  0
LINE
  5
333
100
AcDbEntity
  8
0
100
AcDbLine
 62
7
  6
CONTINUOUS
 10
6.9604287285
 20
3.6597016855
 11
6.9604287285
 21
3.6611973905
  0
LINE
  5
334
100
AcDbEntity
  8
0
100
AcDbLine
 62
7
  6
CONTINUOUS
 10
6.9604287285
 20
3.6680147214
 11
6.9604287285
 21
3.6696410103
  0
LINE
  5
335
100
AcDbEntity
  8
0
100
AcDbLine
 62
7
  6
CONTINUOUS
 10
6.9604287285
 20
3.676988326
 11
6.9604287285
 21
3.6787361565
  0
LINE
  5
336
100
AcDbEntity
  8
0
100
AcDbLine
 62
7
  6
CONTINUOUS
 10
6.9604287285
 20
3.6866134569
 11
6.9604287285
 21
3.6884725677
  0
LINE
  5
337
100
AcDbEntity
  8
0
100
AcDbLine
 62
7
  6
CONTINUOUS
 10
6.9604287285
 20
3.6968481787
 11
6.9604287285
 21
3.6988186634
  0
LINE
  5
338
100
AcDbEntity
  8
0
100
AcDbLine
 62
7
  6
CONTINUOUS
 10
6.9604287285
 20
3.7076696281
 11
6.9604287285
 21
3.7097460856
  0
LINE
  5
339
100
AcDbEntity
  8
0
100
AcDbLine
 62
7
  6
CONTINUOUS
 10
6.9604287285
 20
3.7190481441
 11
6.9604287285
 21
3.7212248831
  0
LINE
  5
33A
100
AcDbEntity
  8
0
100
AcDbLine
 62
7
  6
CONTINUOUS
 10
6.9604287285
 20
3.730952539
 11
6.9604287285
 21
3.7332304249
  0
LINE
  5
33B
100
AcDbEntity
  8
0
100
AcDbLine
 62
7
  6
CONTINUOUS
 10
6.9604287285
 20
3.7433431374
 11
6.9604287285
 21
3.7457093284
  0
LINE
  5
33C
100
AcDbEntity
  8
0
100
AcDbLine
 62
7
  6
CONTINUOUS
 10
6.9604287285
 20
3.7562070973
 11
6.9604287285
 21
3.7586478661
  0
LINE
  5
33D
100
AcDbEntity
  8
0
100
AcDbLine
 62
7
  6
CONTINUOUS
 10
6.9604287285
 20
3.7694880397
 11
6.9604287285
 21
3.7720037426
  0
LINE
  5
33E
100
AcDbEntity
  8
0
100
AcDbLine
 62
7
  6
CONTINUOUS
 10
6.9604287285
 20
3.7831566088
 11
6.9604287285
 21
3.7857403505
  0
LINE
  5
33F
100
AcDbEntity
  8
0
100
AcDbLine
 62
7
  6
CONTINUOUS
 10
6.9604287285
 20
3.79717534
 11
6.9604287285
 21
3.7998200386
  0
LINE
  5
340
100
AcDbEntity
  8
0
100
AcDbLine
 62
7
  6
CONTINUOUS
 10
6.9604287285
 20
3.8115058089
 11
6.9604287285
 21
3.8142123165
  0
LINE
  5
341
100
AcDbEntity
  8
0
100
AcDbLine
 62
7
  6
CONTINUOUS
 10
6.9604287285
 20
3.8261005229
 11
6.9604287285
 21
3.8288534552
  0
LINE
  5
342
100
AcDbEntity
  8
0
100
AcDbLine
 62
7
  6
CONTINUOUS
 10
6.9604287285
 20
3.8409440979
 11
6.9604287285
 21
3.8437276052
  0
LINE
  5
343
100
AcDbEntity
  8
0
100
AcDbLine
 62
7
  6
CONTINUOUS
 10
6.9604287285
 20
3.8559712296
 11
6.9604287285
 21
3.8587858963
  0
LINE
  5
344
100
AcDbEntity
  8
0
100
AcDbLine
 62
7
  6
CONTINUOUS
 10
6.9604287285
 20
3.8711489437
 11
6.9604287285
 21
3.8739870549
  0
LINE
  5
345
100
AcDbEntity
  8
0
100
AcDbLine
 62
7
  6
CONTINUOUS
 10
6.9604287285
 20
3.886435639
 11
6.9604287285
 21
3.8892894157
  0
LINE
  5
346
100
AcDbEntity
  8
0
100
AcDbLine
 62
7
  6
CONTINUOUS
 10
6.9604287285
 20
3.9017894157
 11
6.9604287285
 21
3.9046596131
  0
LINE
  5
347
100
AcDbEntity
  8
0
100
AcDbLine
 62
7
  6
CONTINUOUS
 10
6.9604287285
 20
3.9171596131
 11
6.9604287285
 21
3.9200298105
  0
LINE
  5
348
100
AcDbEntity
  8
0
100
AcDbLine
 62
7
  6
CONTINUOUS
 10
6.9604287285
 20
3.9325298105
 11
6.9604287285
 21
3.9353835873
  0
LINE
  5
349
100
AcDbEntity
  8
0
100
AcDbLine
 62
7
  6
CONTINUOUS
 10
6.9604287285
 20
3.9478321713
 11
6.9604287285
 21
3.9506702826
  0
LINE
  5
34A
100
AcDbEntity
  8
0
100
AcDbLine
 62
7
  6
CONTINUOUS
 10
6.9604287285
 20
3.9630333299
 11
6.9604287285
 21
3.9658479966
  0
LINE
  5
34B
100
AcDbEntity
  8
0
100
AcDbLine
 62
7
  6
CONTINUOUS
 10
6.9604287285
 20
3.9780916211
 11
6.9604287285
 21
3.9808751284
  0
LINE
  5
34C
100
AcDbEntity
  8
0
100
AcDbLine
 62
7
  6
CONTINUOUS
 10
6.9604287285
 20
3.992965771
 11
6.9604287285
 21
3.9957187033
  0
LINE
  5
34D
100
AcDbEntity
  8
0
100
AcDbLine
 62
7
  6
CONTINUOUS
 10
6.9604287285
 20
4.0076069098
 11
6.9604287285
 21
4.0103134173
  0
LINE
  5
34E
100
AcDbEntity
  8
0
100
AcDbLine
 62
7
  6
CONTINUOUS
 10
6.9604287285
 20
4.0219991876
 11
6.9604287285
 21
4.0246438863
  0
LINE
  5
34F
100
AcDbEntity
  8
0
100
AcDbLine
 62
7
  6
CONTINUOUS
 10
6.9604287285
 20
4.0360788757
 11
6.9604287285
 21
4.0386626175
  0
LINE
  5
350
100
AcDbEntity
  8
0
100
AcDbLine
 62
7
  6
CONTINUOUS
 10
6.9604287285
 20
4.0498154836
 11
6.9604287285
 21
4.0523311865
  0
LINE
  5
351
100
AcDbEntity
  8
0
100
AcDbLine
 62
7
  6
CONTINUOUS
 10
6.9604287285
 20
4.0631713602
 11
6.9604287285
 21
4.0656121289
  0
LINE
  5
352
100
AcDbEntity
  8
0
100
AcDbLine
 62
7
  6
CONTINUOUS
 10
6.9604287285
 20
4.0761098978
 11
6.9604287285
 21
4.0784760889
  0
LINE
  5
353
100
AcDbEntity
  8
0
100
AcDbLine
 62
7
  6
CONTINUOUS
 10
6.9604287285
 20
4.0885888013
 11
6.9604287285
 21
4.0908666872
  0
LINE
  5
354
100
AcDbEntity
  8
0
100
AcDbLine
 62
7
  6
CONTINUOUS
 10
6.9604287285
 20
4.1005943432
 11
6.9604287285
 21
4.1027710822
  0
LINE
  5
355
100
AcDbEntity
  8
0
100
AcDbLine
 62
7
  6
CONTINUOUS
 10
6.9604287285
 20
4.1120731406
 11
6.9604287285
 21
4.1141495982
  0
LINE
  5
356
100
AcDbEntity
  8
0
100
AcDbLine
 62
7
  6
CONTINUOUS
 10
6.9604287285
 20
4.1230005629
 11
6.9604287285
 21
4.1249710475
  0
LINE
  5
357
100
AcDbEntity
  8
0
100
AcDbLine
 62
7
  6
CONTINUOUS
 10
6.9604287285
 20
4.1333466586
 11
6.9604287285
 21
4.1352057693
  0
LINE
  5
358
100
AcDbEntity
  8
0
100
AcDbLine
 62
7
  6
CONTINUOUS
 10
6.9604287285
 20
4.1430830698
 11
6.9604287285
 21
4.1448309003
  0
LINE
  5
359
100
AcDbEntity
  8
0
100
AcDbLine
 62
7
  6
CONTINUOUS
 10
6.9604287285
 20
4.1521782159
 11
6.9604287285
 21
4.1538045049
  0
LINE
  5
35A
100
AcDbEntity
  8
0
100
AcDbLine
 62
7
  6
CONTINUOUS
 10
6.9604287285
 20
4.1606218357
 11
6.9604287285
 21
4.1621175407
  0
LINE
  5
35B
100
AcDbEntity
  8
0
100
AcDbLine
 62
7
  6
CONTINUOUS
 10
6.9604287285
 20
4.1683761179
 11
6.9604287285
 21
4.1697420331
  0
LINE
  5
35C
100
AcDbEntity
  8
0
100
AcDbLine
 62
7
  6
CONTINUOUS
 10
6.9604287285
 20
4.1754247023
 11
6.9604287285
 21
4.1766570838
  0
LINE
  5
35D
100
AcDbEntity
  8
0
100
AcDbLine
 62
7
  6
CONTINUOUS
 10
6.9604287285
 20
4.1817482692
 11
6.9604287285
 21
4.1828437392
  0
LINE
  5
35E
100
AcDbEntity
  8
0
100
AcDbLine
 62
7
  6
CONTINUOUS
 10
6.9604287285
 20
4.1873294861
 11
6.9604287285
 21
4.1882878663
  0
LINE
  5
35F
100
AcDbEntity
  8
0
100
AcDbLine
 62
7
  6
CONTINUOUS
 10
6.9604287285
 20
4.1921505787
 11
6.9604287285
 21
4.1929660781
  0
LINE
  5
360
100
AcDbEntity
  8
0
100
AcDbLine
 62
7
  6
CONTINUOUS
 10
6.9604287285
 20
4.1962057561
 11
6.9604287285
 21
4.196874017
  0
LINE
  5
361
100
AcDbEntity
  8
0
100
AcDbLine
 62
7
  6
CONTINUOUS
 10
6.9604287285
 20
4.1994764798
 11
6.9604287285
 21
4.1999981474
  0
LINE
  5
362
100
AcDbEntity
  8
0
100
AcDbLine
 62
7
  6
CONTINUOUS
 10
6.9604287285
 20
4.2019562617
 11
6.9604287285
 21
4.2023299062
  0
LINE
  5
363
100
AcDbEntity
  8
0
100
AcDbLine
 62
7
  6
CONTINUOUS
 10
6.9604287285
 20
4.2036383051
 11
6.9604287285
 21
4.2038629022
  0
LINE
  5
364
100
AcDbEntity
  8
0
100
AcDbLine
 62
7
  6
CONTINUOUS
 10
6.9661189982
 20
4.8516946255
 11
6.9661189982
 21
5.4701246008
  0
LINE
  5
365
100
AcDbEntity
  8
0
100
AcDbLine
 62
7
  6
CONTINUOUS
 10
6.9704287285
 20
3.6271596131
 11
6.9704287285
 21
4.1946596131
  0
LINE
  5
366
100
AcDbEntity
  8
0
100
AcDbLine
 62
7
  6
CONTINUOUS
 10
6.9903422919
 20
4.8538368738
 11
6.9903422919
 21
5.4679823524
  0
LINE
  5
367
100
AcDbEntity
  8
0
100
AcDbLine
 62
7
  6
CONTINUOUS
 10
7.5262348421
 20
5.5934096131
 11
7.1634415125
 21
5.5934096131
  0
LINE
  5
368
100
AcDbEntity
  8
0
100
AcDbLine
 62
7
  6
CONTINUOUS
 10
7.5238381773
 20
5.6024096131
 11
7.1658381773
 21
5.6024096131
  0
LINE
  5
369
100
AcDbEntity
  8
0
100
AcDbLine
 62
7
  6
CONTINUOUS
 10
7.4968130525
 20
5.6535436576
 11
7.1928633021
 21
5.6535436576
  0
LINE
  5
36A
100
AcDbEntity
  8
0
100
AcDbLine
 62
7
  6
CONTINUOUS
 10
7.4993024884
 20
5.73442839
 11
7.1903738662
 21
5.73442839
  0
LINE
  5
36B
100
AcDbEntity
  8
0
100
AcDbLine
 62
7
  6
CONTINUOUS
 10
6.0861319902
 20
5.4432467572
 11
4.116405887
 21
6.3202253205
  0
LINE
  5
36C
100
AcDbEntity
  8
0
100
AcDbLine
 62
7
  6
CONTINUOUS
 10
7.0180881773
 20
4.7555277892
 11
7.0180881773
 21
4.7739096131
  0
LINE
  5
36D
100
AcDbEntity
  8
0
100
AcDbLine
 62
7
  6
CONTINUOUS
 10
7.0548381773
 20
5.8724096131
 11
7.0548381773
 21
5.9024096131
  0
LINE
  5
36E
100
AcDbEntity
  8
0
100
AcDbLine
 62
7
  6
CONTINUOUS
 10
7.2053381773
 20
5.6024096131
 11
7.2053381773
 21
5.5934096131
  0
LINE
  5
36F
100
AcDbEntity
  8
0
100
AcDbLine
 62
7
  6
CONTINUOUS
 10
7.009979396
 20
2.336205649
 11
7.0111042261
 21
2.5196353892
  0
LINE
  5
370
100
AcDbEntity
  8
0
100
AcDbLine
 62
7
  6
CONTINUOUS
 10
7.9714161746
 20
3.0185449506
 11
7.9525058031
 21
3.0120335875
  0
LINE
  5
371
100
AcDbEntity
  8
0
100
AcDbLine
 62
7
  6
CONTINUOUS
 10
7.9980165669
 20
3.018080639
 11
8.0169269384
 21
3.0245920021
  0
LINE
  5
372
100
AcDbEntity
  8
0
100
AcDbLine
 62
7
  6
CONTINUOUS
 10
7.6031501404
 20
5.8373658657
 11
7.0865262143
 21
5.8373658657
  0
LINE
  5
373
100
AcDbEntity
  8
0
100
AcDbLine
 62
7
  6
CONTINUOUS
 10
7.6232407129
 20
5.8542603047
 11
7.0664356418
 21
5.8542603047
  0
LINE
  5
374
100
AcDbEntity
  8
0
100
AcDbLine
 62
7
  6
CONTINUOUS
 10
7.6348381773
 20
5.8724096131
 11
7.0548381773
 21
5.8724096131
  0
LINE
  5
375
100
AcDbEntity
  8
0
100
AcDbLine
 62
7
  6
CONTINUOUS
 10
7.6348381773
 20
5.9024096131
 11
7.0548381773
 21
5.9024096131
  0
LINE
  5
376
100
AcDbEntity
  8
0
100
AcDbLine
 62
7
  6
CONTINUOUS
 10
7.6193532327
 20
5.9218933056
 11
7.0703231219
 21
5.9218933056
  0
LINE
  5
377
100
AcDbEntity
  8
0
100
AcDbLine
 62
7
  6
CONTINUOUS
 10
7.596242074
 20
5.9286665245
 11
7.0934342807
 21
5.9286665245
  0
LINE
  5
378
100
AcDbEntity
  8
0
100
AcDbLine
 62
7
  6
CONTINUOUS
 10
7.3695730859
 20
5.9678629622
 11
7.3201032688
 21
5.9678629622
  0
LINE
  5
379
100
AcDbEntity
  8
0
100
AcDbLine
 62
7
  6
CONTINUOUS
 10
7.7124253553
 20
3.7092778354
 11
7.9732935467
 21
2.9516615964
  0
LINE
  5
37A
100
AcDbEntity
  8
0
100
AcDbLine
 62
7
  6
CONTINUOUS
 10
7.6717981377
 20
4.1070966339
 11
7.6929083023
 21
3.8052072157
  0
LINE
  5
37B
100
AcDbEntity
  8
0
100
AcDbLine
 62
7
  6
CONTINUOUS
 10
7.7038284974
 20
3.9357528912
 11
7.7128595833
 21
3.8066023452
  0
LINE
  5
37C
100
AcDbEntity
  8
0
100
AcDbLine
 62
7
  6
CONTINUOUS
 10
7.6920984651
 20
4.1284887625
 11
7.7038284807
 21
3.9357528915
  0
LINE
  5
37D
100
AcDbEntity
  8
0
100
AcDbLine
 62
7
  6
CONTINUOUS
 10
7.6796969586
 20
2.336205649
 11
7.6785721285
 21
2.5196353892
  0
LINE
  5
37E
100
AcDbEntity
  8
0
100
AcDbLine
 62
7
  6
CONTINUOUS
 10
7.4843381773
 20
5.6024096131
 11
7.4843381773
 21
5.5934096131
  0
LINE
  5
37F
100
AcDbEntity
  8
0
100
AcDbLine
 62
7
  6
CONTINUOUS
 10
7.6348381773
 20
5.8724096131
 11
7.6348381773
 21
5.9024096131
  0
LINE
  5
380
100
AcDbEntity
  8
0
100
AcDbLine
 62
7
  6
CONTINUOUS
 10
7.660181342
 20
4.161246203
 11
7.6601813318
 21
3.9109096131
  0
LINE
  5
381
100
AcDbEntity
  8
0
100
AcDbLine
 62
7
  6
CONTINUOUS
 10
7.6698381773
 20
4.1512518225
 11
7.6698381773
 21
3.670569053
  0
LINE
  5
382
100
AcDbEntity
  8
0
100
AcDbLine
 62
7
  6
CONTINUOUS
 10
7.6715881773
 20
4.7555277892
 11
7.6715881773
 21
4.7739096131
  0
LINE
  5
383
100
AcDbEntity
  8
0
100
AcDbLine
 62
7
  6
CONTINUOUS
 10
7.5953713543
 20
3.9109096131
 11
7.5953835885
 21
3.9111691566
  0
LINE
  5
384
100
AcDbEntity
  8
0
100
AcDbLine
 62
7
  6
CONTINUOUS
 10
7.7313357268
 20
3.7157891985
 11
7.9714150114
 21
3.0185483288
  0
LINE
  5
385
100
AcDbEntity
  8
0
100
AcDbLine
 62
7
  6
CONTINUOUS
 10
7.9980154034
 20
3.0180840182
 11
7.7842372406
 21
3.638940884
  0
LINE
  5
386
100
AcDbEntity
  8
0
100
AcDbLine
 62
7
  6
CONTINUOUS
 10
8.037714682
 20
2.964220011
 11
7.8031476121
 21
3.6454522471
  0
LINE
  5
387
100
AcDbEntity
  8
0
100
AcDbLine
 62
7
  6
CONTINUOUS
 10
7.9714153229
 20
3.0185483234
 11
7.9918548705
 21
2.9381760053
  0
LINE
  5
388
100
AcDbEntity
  8
0
100
AcDbLine
 62
7
  6
CONTINUOUS
 10
8.0184552624
 20
2.937711694
 11
7.998015715
 21
3.0180840127
  0
LINE
  5
389
100
AcDbEntity
  8
0
100
AcDbLine
 62
7
  6
CONTINUOUS
 10
7.7311508564
 20
3.8998687983
 11
7.7286719205
 21
3.9353192336
  0
LINE
  5
38A
100
AcDbEntity
  8
0
100
AcDbLine
 62
7
  6
CONTINUOUS
 10
7.7511021374
 20
3.9012639278
 11
7.7365441219
 21
4.1094532493
  0
LINE
  5
38B
100
AcDbEntity
  8
0
100
AcDbLine
 62
7
  6
CONTINUOUS
 10
7.7286719037
 20
3.9353192338
 11
7.7169418872
 21
4.128055119
  0
ARC
  5
38C
100
AcDbEntity
  8
0
100
AcDbCircle
 62
7
  6
CONTINUOUS
 10
-15.4369521522
 20
4.0007808055
 40
22.5
100
AcDbArc
 50
356.5102378959
 51
358.5669492969
  0
ARC
  5
38D
100
AcDbEntity
  8
0
100
AcDbCircle
 62
7
  6
CONTINUOUS
 10
-15.4369521522
 20
4.0007808055
 40
22.5
100
AcDbArc
 50
358.6631334273
 51
359.1198488072
  0
ARC
  5
38E
100
AcDbEntity
  8
0
100
AcDbCircle
 62
7
  6
CONTINUOUS
 10
-15.4369521522
 20
4.0007808055
 40
22.5
100
AcDbArc
 50
0.4234458847
 51
1.7811663206
  0
ARC
  5
38F
100
AcDbEntity
  8
0
100
AcDbCircle
 62
7
  6
CONTINUOUS
 10
7.1390122884
 20
1.654679114
 40
0.825
100
AcDbArc
 50
27.7184983878
 51
45.977526257
  0
ARC
  5
390
100
AcDbEntity
  8
0
100
AcDbCircle
 62
7
  6
CONTINUOUS
 10
7.3038381773
 20
1.5924096131
 40
0.6335
100
AcDbArc
 50
37.1932966364
 51
51.353381435
  0
ARC
  5
391
100
AcDbEntity
  8
0
100
AcDbCircle
 62
7
  6
CONTINUOUS
 10
7.0511842476
 20
1.5533753196
 40
0.45
100
AcDbArc
 50
128.8148632765
 51
140.323525851
  0
ARC
  5
392
100
AcDbEntity
  8
0
100
AcDbCircle
 62
7
  6
CONTINUOUS
 10
7.0286395754
 20
1.6279096131
 40
0.326
100
AcDbArc
 50
133.3959580377
 51
143.0393905811
  0
ARC
  5
393
100
AcDbEntity
  8
0
100
AcDbCircle
 62
7
  6
CONTINUOUS
 10
6.5720435457
 20
2.0859096131
 40
0.3035
100
AcDbArc
 50
322.0112797187
 51
335.6081627402
  0
ARC
  5
394
100
AcDbEntity
  8
0
100
AcDbCircle
 62
7
  6
CONTINUOUS
 10
6.4993992411
 20
2.0664260261
 40
0.3
100
AcDbArc
 50
336.6349592663
 51
349.9208448392
  0
ARC
  5
395
100
AcDbEntity
  8
0
100
AcDbCircle
 62
7
  6
CONTINUOUS
 10
6.935037694
 20
2.2995082159
 40
0.13
100
AcDbArc
 50
323.0058837041
 51
353.2343948461
  0
ARC
  5
396
100
AcDbEntity
  8
0
100
AcDbCircle
 62
7
  6
CONTINUOUS
 10
6.9464916833
 20
2.1418519742
 40
0.07
100
AcDbArc
 50
308.646618565
 51
353.4624504845
  0
ARC
  5
397
100
AcDbEntity
  8
0
100
AcDbCircle
 62
7
  6
CONTINUOUS
 10
6.9611051662
 20
2.5199419941
 40
0.05
100
AcDbArc
 50
359.6486545051
 51
38.3561557507
  0
ARC
  5
398
100
AcDbEntity
  8
0
100
AcDbCircle
 62
7
  6
CONTINUOUS
 10
7.0095881773
 20
2.2724083376
 40
0.0405
100
AcDbArc
 50
114.8329910391
 51
217.2221338961
  0
ARC
  5
399
100
AcDbEntity
  8
0
100
AcDbCircle
 62
7
  6
CONTINUOUS
 10
7.0316803354
 20
2.5757913047
 40
0.04
100
AcDbArc
 50
125.1484803012
 51
218.35615575
  0
ARC
  5
39A
100
AcDbEntity
  8
0
100
AcDbCircle
 62
7
  6
CONTINUOUS
 10
7.0708162361
 20
2.1972136046
 40
0.04
100
AcDbArc
 50
143.0058837041
 51
168.480329994
  0
ARC
  5
39B
100
AcDbEntity
  8
0
100
AcDbCircle
 62
7
  6
CONTINUOUS
 10
7.1208381773
 20
2.1334096131
 40
0.04
100
AcDbArc
 50
43.4325365578
 51
89.9999999996
  0
ARC
  5
39C
100
AcDbEntity
  8
0
100
AcDbCircle
 62
7
  6
CONTINUOUS
 10
7.0463381773
 20
2.1304096131
 40
0.0305
100
AcDbArc
 50
90.0
 51
173.4624504845
  0
ARC
  5
39D
100
AcDbEntity
  8
0
100
AcDbCircle
 62
7
  6
CONTINUOUS
 10
6.8243063232
 20
2.0086732081
 40
0.03
100
AcDbArc
 50
97.6008753253
 51
169.9208459864
  0
ARC
  5
39E
100
AcDbEntity
  8
0
100
AcDbCircle
 62
7
  6
CONTINUOUS
 10
6.8023381773
 20
1.9355520374
 40
0.03
100
AcDbArc
 50
156.6349592663
 51
170.2993260341
  0
ARC
  5
39F
100
AcDbEntity
  8
0
100
AcDbCircle
 62
7
  6
CONTINUOUS
 10
6.97997996
 20
2.3363896119
 40
0.03
100
AcDbArc
 50
294.8329910382
 51
359.6486545051
  0
ARC
  5
3A0
100
AcDbEntity
  8
0
100
AcDbCircle
 62
7
  6
CONTINUOUS
 10
6.9913815233
 20
2.6330277069
 40
0.03
100
AcDbArc
 50
305.1484802999
 51
356.5102378957
  0
ARC
  5
3A1
100
AcDbEntity
  8
0
100
AcDbCircle
 62
7
  6
CONTINUOUS
 10
7.1137857879
 20
2.1609096131
 40
0.028
100
AcDbArc
 50
153.4839316724
 51
180.0000264356
  0
ARC
  5
3A2
100
AcDbEntity
  8
0
100
AcDbCircle
 62
7
  6
CONTINUOUS
 10
7.0575881773
 20
2.1999096131
 40
0.0265
100
AcDbArc
 50
168.480329994
 51
270.0
  0
ARC
  5
3A3
100
AcDbEntity
  8
0
100
AcDbCircle
 62
7
  6
CONTINUOUS
 10
6.7924811623
 20
1.9372370461
 40
0.02
100
AcDbArc
 50
170.2993230527
 51
206.1825355109
  0
ARC
  5
3A4
100
AcDbEntity
  8
0
100
AcDbCircle
 62
7
  6
CONTINUOUS
 10
6.7202296863
 20
1.8279096131
 40
0.02
100
AcDbArc
 50
140.323525851
 51
270.0
  0
ARC
  5
3A5
100
AcDbEntity
  8
0
100
AcDbCircle
 62
7
  6
CONTINUOUS
 10
6.7565854461
 20
1.9195877526
 40
0.02
100
AcDbArc
 50
308.8148632744
 51
26.1825355012
  0
ARC
  5
3A6
100
AcDbEntity
  8
0
100
AcDbCircle
 62
7
  6
CONTINUOUS
 10
6.790925032
 20
1.8793212196
 40
0.02
100
AcDbArc
 50
313.3959580377
 51
21.8359643631
  0
ARC
  5
3A7
100
AcDbEntity
  8
0
100
AcDbCircle
 62
7
  6
CONTINUOUS
 10
6.8652596538
 20
1.9874542319
 40
0.02
100
AcDbArc
 50
282.2207456717
 51
322.8067033636
  0
ARC
  5
3A8
100
AcDbEntity
  8
0
100
AcDbCircle
 62
7
  6
CONTINUOUS
 10
7.1758381773
 20
1.8134096131
 40
0.015
100
AcDbArc
 50
201.5101882669
 51
270.0
  0
ARC
  5
3A9
100
AcDbEntity
  8
0
100
AcDbCircle
 62
7
  6
CONTINUOUS
 10
6.8598381773
 20
1.9554096131
 40
0.0125
100
AcDbArc
 50
90.0
 51
155.6081627402
  0
ARC
  5
3AA
100
AcDbEntity
  8
0
100
AcDbCircle
 62
7
  6
CONTINUOUS
 10
6.8210932395
 20
1.8914096131
 40
0.0125
100
AcDbArc
 50
142.0112797187
 51
201.8359643631
  0
ARC
  5
3AB
100
AcDbEntity
  8
0
100
AcDbCircle
 62
7
  6
CONTINUOUS
 10
6.7761400704
 20
1.8179096131
 40
0.01
100
AcDbArc
 50
143.0393905811
 51
270.0
  0
ARC
  5
3AC
100
AcDbEntity
  8
0
100
AcDbCircle
 62
7
  6
CONTINUOUS
 10
1.6158381773
 20
2.930546053
 40
5.4865
100
AcDbArc
 50
353.2343948461
 51
4.6951455564
  0
ARC
  5
3AD
100
AcDbEntity
  8
0
100
AcDbCircle
 62
7
  6
CONTINUOUS
 10
6.5995740327
 20
3.4707937327
 40
1.4336158804
100
AcDbArc
 50
79.9786617007
 51
93.9127655787
  0
ARC
  5
3AE
100
AcDbEntity
  8
0
100
AcDbCircle
 62
7
  6
CONTINUOUS
 10
7.3411951854
 20
3.9109096131
 40
0.6655302365
100
AcDbArc
 50
162.1759428058
 51
165.3102062657
  0
ARC
  5
3AF
100
AcDbEntity
  8
0
100
AcDbCircle
 62
7
  6
CONTINUOUS
 10
7.3411951854
 20
3.9109096131
 40
0.6655302365
100
AcDbArc
 50
167.1481751459
 51
170.7147267369
  0
ARC
  5
3B0
100
AcDbEntity
  8
0
100
AcDbCircle
 62
7
  6
CONTINUOUS
 10
7.3411951854
 20
3.9109096131
 40
0.6655302365
100
AcDbArc
 50
172.4196365177
 51
187.5803634823
  0
ARC
  5
3B1
100
AcDbEntity
  8
0
100
AcDbCircle
 62
7
  6
CONTINUOUS
 10
7.3411951854
 20
3.9109096131
 40
0.6655302365
100
AcDbArc
 50
189.2852732631
 51
192.8518248541
  0
ARC
  5
3B2
100
AcDbEntity
  8
0
100
AcDbCircle
 62
7
  6
CONTINUOUS
 10
7.3411951854
 20
3.9109096131
 40
0.6655302365
100
AcDbArc
 50
194.6897937343
 51
197.8240571942
  0
ARC
  5
3B3
100
AcDbEntity
  8
0
100
AcDbCircle
 62
7
  6
CONTINUOUS
 10
6.9255976424
 20
3.5964108507
 40
0.1848939688
100
AcDbArc
 50
328.957659928
 51
344.9651429501
  0
ARC
  5
3B4
100
AcDbEntity
  8
0
100
AcDbCircle
 62
7
  6
CONTINUOUS
 10
6.9942292802
 20
3.3722715267
 40
0.09
100
AcDbArc
 50
4.6951455564
 51
44.7556219147
  0
ARC
  5
3B5
100
AcDbEntity
  8
0
100
AcDbCircle
 62
7
  6
CONTINUOUS
 10
7.0365585827
 20
3.5666065926
 40
0.07
100
AcDbArc
 50
344.9651429501
 51
41.3826298641
  0
ARC
  5
3B6
100
AcDbEntity
  8
0
100
AcDbCircle
 62
7
  6
CONTINUOUS
 10
6.7343472434
 20
3.9109119715
 40
0.0420098048
100
AcDbArc
 50
177.412938526
 51
180.0032165323
  0
ARC
  5
3B7
100
AcDbEntity
  8
0
100
AcDbCircle
 62
7
  6
CONTINUOUS
 10
6.6558571008
 20
3.9109062404
 40
0.041562075
100
AcDbArc
 50
357.0490043431
 51
0.004649529
  0
ARC
  5
3B8
100
AcDbEntity
  8
0
100
AcDbCircle
 62
7
  6
CONTINUOUS
 10
7.0790881773
 20
3.4564096131
 40
0.0295
100
AcDbArc
 50
90.0
 51
224.7556219146
  0
ARC
  5
3B9
100
AcDbEntity
  8
0
100
AcDbCircle
 62
7
  6
CONTINUOUS
 10
7.1078381773
 20
3.6294096131
 40
0.025
100
AcDbArc
 50
137.2533923981
 51
221.382629864
  0
ARC
  5
3BA
100
AcDbEntity
  8
0
100
AcDbCircle
 62
7
  6
CONTINUOUS
 10
6.9582469259
 20
3.6309182889
 40
0.0121760501
100
AcDbArc
 50
345.0547130698
 51
347.1429144379
  0
ARC
  5
3BB
100
AcDbEntity
  8
0
100
AcDbCircle
 62
7
  6
CONTINUOUS
 10
6.9582641425
 20
4.1909051981
 40
0.0121583171
100
AcDbArc
 50
12.8555635595
 51
14.947741127
  0
ARC
  5
3BC
100
AcDbEntity
  8
0
100
AcDbCircle
 62
7
  6
CONTINUOUS
 10
7.0925801574
 20
3.4959096131
 40
0.01
100
AcDbArc
 50
148.9576599277
 51
270.0
  0
ARC
  5
3BD
100
AcDbEntity
  8
0
100
AcDbCircle
 62
7
  6
CONTINUOUS
 10
6.9604287285
 20
3.6271596131
 40
0.01
100
AcDbArc
 50
345.610977056
 51
360.0
  0
ARC
  5
3BE
100
AcDbEntity
  8
0
100
AcDbCircle
 62
7
  6
CONTINUOUS
 10
6.9604287285
 20
4.1946596131
 40
0.01
100
AcDbArc
 50
0.0
 51
14.389022944
  0
ARC
  5
3BF
100
AcDbEntity
  8
0
100
AcDbCircle
 62
7
  6
CONTINUOUS
 10
6.9628594612
 20
3.6303738531
 40
0.0075742431
100
AcDbArc
 50
340.7688075282
 51
343.3912754648
  0
ARC
  5
3C0
100
AcDbEntity
  8
0
100
AcDbCircle
 62
7
  6
CONTINUOUS
 10
6.9628698011
 20
4.1914487167
 40
0.0075633788
100
AcDbArc
 50
16.6068411659
 51
19.2319056495
  0
ARC
  5
3C1
100
AcDbEntity
  8
0
100
AcDbCircle
 62
7
  6
CONTINUOUS
 10
6.71236977
 20
3.7087245737
 40
0.005
100
AcDbArc
 50
197.8240571942
 51
247.1516185425
  0
ARC
  5
3C2
100
AcDbEntity
  8
0
100
AcDbCircle
 62
7
  6
CONTINUOUS
 10
6.71236977
 20
4.1130946525
 40
0.005
100
AcDbArc
 50
112.8483814575
 51
162.1759428058
  0
ARC
  5
3C3
100
AcDbEntity
  8
0
100
AcDbCircle
 62
7
  6
CONTINUOUS
 10
6.7154287285
 20
4.1332574695
 40
0.005
100
AcDbArc
 50
124.1144729456
 51
180.0
  0
ARC
  5
3C4
100
AcDbEntity
  8
0
100
AcDbCircle
 62
7
  6
CONTINUOUS
 10
6.7154287285
 20
3.6885617567
 40
0.005
100
AcDbArc
 50
180.0
 51
235.8855270544
  0
ARC
  5
3C5
100
AcDbEntity
  8
0
100
AcDbCircle
 62
7
  6
CONTINUOUS
 10
6.7894628453
 20
4.1834096131
 40
0.005
100
AcDbArc
 50
90.0
 51
124.1144729461
  0
ARC
  5
3C6
100
AcDbEntity
  8
0
100
AcDbCircle
 62
7
  6
CONTINUOUS
 10
6.7894628453
 20
3.6384096131
 40
0.005
100
AcDbArc
 50
235.8855270539
 51
270.0
  0
ARC
  5
3C7
100
AcDbEntity
  8
0
100
AcDbCircle
 62
7
  6
CONTINUOUS
 10
3.6780082584
 20
5.3355681251
 40
1.077841488
100
AcDbArc
 50
66.0
 51
180.0
  0
ARC
  5
3C8
100
AcDbEntity
  8
0
100
AcDbCircle
 62
7
  6
CONTINUOUS
 10
3.6780082584
 20
5.3355681251
 40
0.642841488
100
AcDbArc
 50
66.0
 51
180.0
  0
ARC
  5
3C9
100
AcDbEntity
  8
0
100
AcDbCircle
 62
7
  6
CONTINUOUS
 10
3.1725567351
 20
5.0952172365
 40
0.09
100
AcDbArc
 50
140.4987388129
 51
175.0
  0
ARC
  5
3CA
100
AcDbEntity
  8
0
100
AcDbCircle
 62
7
  6
CONTINUOUS
 10
2.4627768056
 20
5.0952172365
 40
0.09
100
AcDbArc
 50
5.0
 51
39.5012611871
  0
ARC
  5
3CB
100
AcDbEntity
  8
0
100
AcDbCircle
 62
7
  6
CONTINUOUS
 10
3.1568143647
 20
4.9152811199
 40
0.09
100
AcDbArc
 50
175.0
 51
210.4655828497
  0
ARC
  5
3CC
100
AcDbEntity
  8
0
100
AcDbCircle
 62
7
  6
CONTINUOUS
 10
2.478519176
 20
4.9152811199
 40
0.09
100
AcDbArc
 50
329.5344171503
 51
5.0
  0
ARC
  5
3CD
100
AcDbEntity
  8
0
100
AcDbCircle
 62
7
  6
CONTINUOUS
 10
3.0409340143
 20
4.8479096131
 40
0.04
100
AcDbArc
 50
270.0
 51
321.7927154688
  0
ARC
  5
3CE
100
AcDbEntity
  8
0
100
AcDbCircle
 62
7
  6
CONTINUOUS
 10
2.5943995264
 20
4.8479096131
 40
0.04
100
AcDbArc
 50
218.2072845312
 51
270.0
  0
ARC
  5
3CF
100
AcDbEntity
  8
0
100
AcDbCircle
 62
7
  6
CONTINUOUS
 10
3.0722473594
 20
5.1779096131
 40
0.04
100
AcDbArc
 50
320.4987388129
 51
90.0
  0
ARC
  5
3D0
100
AcDbEntity
  8
0
100
AcDbCircle
 62
7
  6
CONTINUOUS
 10
2.5630861812
 20
5.1779096131
 40
0.04
100
AcDbArc
 50
90.0
 51
219.5012611871
  0
ARC
  5
3D1
100
AcDbEntity
  8
0
100
AcDbCircle
 62
7
  6
CONTINUOUS
 10
7.3201032688
 20
5.2928629622
 40
0.675
100
AcDbArc
 50
90.0
 51
109.6215522579
  0
ARC
  5
3D2
100
AcDbEntity
  8
0
100
AcDbCircle
 62
7
  6
CONTINUOUS
 10
7.048302101
 20
4.416657788
 40
0.2499981749
100
AcDbArc
 50
270.0
 51
300.2858658987
  0
ARC
  5
3D3
100
AcDbEntity
  8
0
100
AcDbCircle
 62
7
  6
CONTINUOUS
 10
6.5065241926
 20
4.8312311611
 40
0.07
100
AcDbArc
 50
93.9127655791
 51
127.7557621284
  0
ARC
  5
3D4
100
AcDbEntity
  8
0
100
AcDbCircle
 62
7
  6
CONTINUOUS
 10
6.5065241926
 20
5.4905880651
 40
0.07
100
AcDbArc
 50
232.2442378682
 51
266.0872344213
  0
ARC
  5
3D5
100
AcDbEntity
  8
0
100
AcDbCircle
 62
7
  6
CONTINUOUS
 10
6.8368635564
 20
5.5082142815
 40
0.07
100
AcDbArc
 50
280.0213382993
 51
327.8179170183
  0
ARC
  5
3D6
100
AcDbEntity
  8
0
100
AcDbCircle
 62
7
  6
CONTINUOUS
 10
6.8368635564
 20
4.8136049448
 40
0.07
100
AcDbArc
 50
32.1820829817
 51
79.9786617007
  0
ARC
  5
3D7
100
AcDbEntity
  8
0
100
AcDbCircle
 62
7
  6
CONTINUOUS
 10
7.2357108491
 20
5.5981894553
 40
0.07
100
AcDbArc
 50
127.742068257
 51
176.5436578978
  0
ARC
  5
3D8
100
AcDbEntity
  8
0
100
AcDbCircle
 62
7
  6
CONTINUOUS
 10
6.9326167703
 20
4.8716596131
 40
0.039
100
AcDbArc
 50
270.0
 51
329.208011109
  0
ARC
  5
3D9
100
AcDbEntity
  8
0
100
AcDbCircle
 62
7
  6
CONTINUOUS
 10
6.9326167703
 20
5.4501596131
 40
0.039
100
AcDbArc
 50
30.791988891
 51
90.0
  0
ARC
  5
3DA
100
AcDbEntity
  8
0
100
AcDbCircle
 62
7
  6
CONTINUOUS
 10
6.9291167703
 20
4.8716596131
 40
0.039
100
AcDbArc
 50
212.1820829817
 51
270.0
  0
ARC
  5
3DB
100
AcDbEntity
  8
0
100
AcDbCircle
 62
7
  6
CONTINUOUS
 10
6.9291167703
 20
5.4501596131
 40
0.039
100
AcDbArc
 50
90.0
 51
147.8179170183
  0
ARC
  5
3DC
100
AcDbEntity
  8
0
100
AcDbCircle
 62
7
  6
CONTINUOUS
 10
6.439783842
 20
5.4044096131
 40
0.039
100
AcDbArc
 50
52.2442378722
 51
90.00000062
  0
ARC
  5
3DD
100
AcDbEntity
  8
0
100
AcDbCircle
 62
7
  6
CONTINUOUS
 10
6.4397838419
 20
4.9174096131
 40
0.039
100
AcDbArc
 50
269.9999993932
 51
307.7557621323
  0
ARC
  5
3DE
100
AcDbEntity
  8
0
100
AcDbCircle
 62
7
  6
CONTINUOUS
 10
6.4316167703
 20
4.9174096131
 40
0.039
100
AcDbArc
 50
180.0
 51
270.0
  0
ARC
  5
3DF
100
AcDbEntity
  8
0
100
AcDbCircle
 62
7
  6
CONTINUOUS
 10
6.4316167703
 20
5.4044096131
 40
0.039
100
AcDbArc
 50
90.0
 51
180.0
  0
ARC
  5
3E0
100
AcDbEntity
  8
0
100
AcDbCircle
 62
7
  6
CONTINUOUS
 10
7.0147160621
 20
4.6984096131
 40
0.0375
100
AcDbArc
 50
2.6302873871
 51
49.4641978887
  0
ARC
  5
3E1
100
AcDbEntity
  8
0
100
AcDbCircle
 62
7
  6
CONTINUOUS
 10
7.0480881773
 20
4.7555277887
 40
0.03
100
AcDbArc
 50
179.9999991883
 51
252.5423966333
  0
ARC
  5
3E2
100
AcDbEntity
  8
0
100
AcDbCircle
 62
7
  6
CONTINUOUS
 10
7.048087724
 20
4.7740745338
 40
0.03
100
AcDbArc
 50
120.5518721988
 51
180.3149767916
  0
ARC
  5
3E3
100
AcDbEntity
  8
0
100
AcDbCircle
 62
7
  6
CONTINUOUS
 10
6.9790044704
 20
4.8440157841
 40
0.015
100
AcDbArc
 50
40.8998864831
 51
149.208011109
  0
ARC
  5
3E4
100
AcDbEntity
  8
0
100
AcDbCircle
 62
7
  6
CONTINUOUS
 10
6.9790044704
 20
5.4778034422
 40
0.015
100
AcDbArc
 50
210.791988891
 51
319.1001135169
  0
ARC
  5
3E5
100
AcDbEntity
  8
0
100
AcDbCircle
 62
7
  6
CONTINUOUS
 10
7.3428839326
 20
6.5736466714
 40
2.8222094905
100
AcDbArc
 50
274.9885650896
 51
276.454549377
  0
ARC
  5
3E6
100
AcDbEntity
  8
0
100
AcDbCircle
 62
7
  6
CONTINUOUS
 10
6.5995740327
 20
6.8510254935
 40
1.4336158804
100
AcDbArc
 50
266.0872344213
 51
280.0213382993
  0
ARC
  5
3E7
100
AcDbEntity
  8
0
100
AcDbCircle
 62
7
  6
CONTINUOUS
 10
6.3911667703
 20
6.1283660907
 40
1.1849564775
100
AcDbArc
 50
246.0
 51
270.0
  0
ARC
  5
3E8
100
AcDbEntity
  8
0
100
AcDbCircle
 62
7
  6
CONTINUOUS
 10
6.3911667703
 20
6.1283660907
 40
0.7499564775
100
AcDbArc
 50
246.0
 51
270.0
  0
ARC
  5
3E9
100
AcDbEntity
  8
0
100
AcDbCircle
 62
7
  6
CONTINUOUS
 10
7.2743748493
 20
6.065196522
 40
0.4
100
AcDbArc
 50
304.2163310183
 51
325.2792910921
  0
ARC
  5
3EA
100
AcDbEntity
  8
0
100
AcDbCircle
 62
7
  6
CONTINUOUS
 10
7.0229150399
 20
6.1264720772
 40
0.21
100
AcDbArc
 50
283.0471477631
 51
289.6215522579
  0
ARC
  5
3EB
100
AcDbEntity
  8
0
100
AcDbCircle
 62
7
  6
CONTINUOUS
 10
7.0454293029
 20
5.8088870336
 40
0.05
100
AcDbArc
 50
34.7207089079
 51
65.1574082513
  0
ARC
  5
3EC
100
AcDbEntity
  8
0
100
AcDbCircle
 62
7
  6
CONTINUOUS
 10
7.1622579113
 20
5.6930823735
 40
0.05
100
AcDbArc
 50
307.742068257
 51
55.7836689817
  0
ARC
  5
3ED
100
AcDbEntity
  8
0
100
AcDbCircle
 62
7
  6
CONTINUOUS
 10
7.0748381773
 20
5.8724096131
 40
0.02
100
AcDbArc
 50
180.0
 51
245.1574082513
  0
ARC
  5
3EE
100
AcDbEntity
  8
0
100
AcDbCircle
 62
7
  6
CONTINUOUS
 10
7.0748381773
 20
5.9024096131
 40
0.02
100
AcDbArc
 50
103.0471477631
 51
180.0
  0
ARC
  5
3EF
100
AcDbEntity
  8
0
100
AcDbCircle
 62
7
  6
CONTINUOUS
 10
7.5506640663
 20
1.654679114
 40
0.825
100
AcDbArc
 50
134.022473743
 51
152.2815016122
  0
ARC
  5
3F0
100
AcDbEntity
  8
0
100
AcDbCircle
 62
7
  6
CONTINUOUS
 10
7.3858381773
 20
1.5924096131
 40
0.6335
100
AcDbArc
 50
128.646618565
 51
142.8067033636
  0
ARC
  5
3F1
100
AcDbEntity
  8
0
100
AcDbCircle
 62
7
  6
CONTINUOUS
 10
7.638492107
 20
1.5533753196
 40
0.45
100
AcDbArc
 50
39.676474149
 51
51.1851367235
  0
ARC
  5
3F2
100
AcDbEntity
  8
0
100
AcDbCircle
 62
7
  6
CONTINUOUS
 10
7.6610367792
 20
1.6279096131
 40
0.326
100
AcDbArc
 50
36.9606094189
 51
46.6040419623
  0
ARC
  5
3F3
100
AcDbEntity
  8
0
100
AcDbCircle
 62
7
  6
CONTINUOUS
 10
8.117632809
 20
2.0859096131
 40
0.3035
100
AcDbArc
 50
204.3918372598
 51
217.9887202813
  0
ARC
  5
3F4
100
AcDbEntity
  8
0
100
AcDbCircle
 62
7
  6
CONTINUOUS
 10
8.1902771135
 20
2.0664260261
 40
0.3
100
AcDbArc
 50
190.0791551608
 51
203.3650407337
  0
ARC
  5
3F5
100
AcDbEntity
  8
0
100
AcDbCircle
 62
7
  6
CONTINUOUS
 10
7.7546386606
 20
2.2995082159
 40
0.13
100
AcDbArc
 50
186.7656051539
 51
216.9941162959
  0
ARC
  5
3F6
100
AcDbEntity
  8
0
100
AcDbCircle
 62
7
  6
CONTINUOUS
 10
7.7431846714
 20
2.1418519742
 40
0.07
100
AcDbArc
 50
186.5375495155
 51
231.353381435
  0
ARC
  5
3F7
100
AcDbEntity
  8
0
100
AcDbCircle
 62
7
  6
CONTINUOUS
 10
7.7285711884
 20
2.5199419941
 40
0.05
100
AcDbArc
 50
141.6438442493
 51
180.3513454949
  0
ARC
  5
3F8
100
AcDbEntity
  8
0
100
AcDbCircle
 62
7
  6
CONTINUOUS
 10
7.6800881773
 20
2.2724083376
 40
0.0405
100
AcDbArc
 50
322.7778661039
 51
65.1670089609
  0
ARC
  5
3F9
100
AcDbEntity
  8
0
100
AcDbCircle
 62
7
  6
CONTINUOUS
 10
7.6579960192
 20
2.5757913047
 40
0.04
100
AcDbArc
 50
321.64384425
 51
54.8515196988
  0
ARC
  5
3FA
100
AcDbEntity
  8
0
100
AcDbCircle
 62
7
  6
CONTINUOUS
 10
7.6188601186
 20
2.1972136046
 40
0.04
100
AcDbArc
 50
11.519670006
 51
36.9941162959
  0
ARC
  5
3FB
100
AcDbEntity
  8
0
100
AcDbCircle
 62
7
  6
CONTINUOUS
 10
7.5688381773
 20
2.1334096131
 40
0.04
100
AcDbArc
 50
90.0000000004
 51
136.5674634422
  0
ARC
  5
3FC
100
AcDbEntity
  8
0
100
AcDbCircle
 62
7
  6
CONTINUOUS
 10
7.6433381773
 20
2.1304096131
 40
0.0305
100
AcDbArc
 50
6.5375495155
 51
90.0
  0
ARC
  5
3FD
100
AcDbEntity
  8
0
100
AcDbCircle
 62
7
  6
CONTINUOUS
 10
7.8653700314
 20
2.0086732081
 40
0.03
100
AcDbArc
 50
10.0791539986
 51
82.3991246701
  0
ARC
  5
3FE
100
AcDbEntity
  8
0
100
AcDbCircle
 62
7
  6
CONTINUOUS
 10
7.8873381773
 20
1.9355520374
 40
0.03
100
AcDbArc
 50
9.7006739659
 51
23.3650407337
  0
ARC
  5
3FF
100
AcDbEntity
  8
0
100
AcDbCircle
 62
7
  6
CONTINUOUS
 10
7.7096963946
 20
2.3363896119
 40
0.03
100
AcDbArc
 50
180.3513454949
 51
245.1670089618
  0
ARC
  5
400
100
AcDbEntity
  8
0
100
AcDbCircle
 62
7
  6
CONTINUOUS
 10
7.6982948313
 20
2.6330277069
 40
0.03
100
AcDbArc
 50
183.4897621043
 51
234.8515197001
  0
ARC
  5
401
100
AcDbEntity
  8
0
100
AcDbCircle
 62
7
  6
CONTINUOUS
 10
7.5758905667
 20
2.1609096131
 40
0.028
100
AcDbArc
 50
359.9999735644
 51
26.5160683276
  0
ARC
  5
402
100
AcDbEntity
  8
0
100
AcDbCircle
 62
7
  6
CONTINUOUS
 10
7.6320881773
 20
2.1999096131
 40
0.0265
100
AcDbArc
 50
270.0
 51
11.519670006
  0
ARC
  5
403
100
AcDbEntity
  8
0
100
AcDbCircle
 62
7
  6
CONTINUOUS
 10
7.8971951924
 20
1.937237046
 40
0.02
100
AcDbArc
 50
333.817464522
 51
9.7006770149
  0
ARC
  5
404
100
AcDbEntity
  8
0
100
AcDbCircle
 62
7
  6
CONTINUOUS
 10
7.9694466683
 20
1.8279096131
 40
0.02
100
AcDbArc
 50
270.0
 51
39.676474149
  0
ARC
  5
405
100
AcDbEntity
  8
0
100
AcDbCircle
 62
7
  6
CONTINUOUS
 10
7.9330909086
 20
1.9195877526
 40
0.02
100
AcDbArc
 50
153.8174645119
 51
231.1851367238
  0
ARC
  5
406
100
AcDbEntity
  8
0
100
AcDbCircle
 62
7
  6
CONTINUOUS
 10
7.8987513226
 20
1.8793212196
 40
0.02
100
AcDbArc
 50
158.1640356369
 51
226.6040419623
  0
ARC
  5
407
100
AcDbEntity
  8
0
100
AcDbCircle
 62
7
  6
CONTINUOUS
 10
7.8244167009
 20
1.9874542319
 40
0.02
100
AcDbArc
 50
217.1932966364
 51
257.7792543283
  0
ARC
  5
408
100
AcDbEntity
  8
0
100
AcDbCircle
 62
7
  6
CONTINUOUS
 10
7.5138381773
 20
1.8134096131
 40
0.015
100
AcDbArc
 50
270.0
 51
338.4898117331
  0
ARC
  5
409
100
AcDbEntity
  8
0
100
AcDbCircle
 62
7
  6
CONTINUOUS
 10
7.8298381773
 20
1.9554096131
 40
0.0125
100
AcDbArc
 50
24.3918372598
 51
90.0
  0
ARC
  5
40A
100
AcDbEntity
  8
0
100
AcDbCircle
 62
7
  6
CONTINUOUS
 10
7.8685831151
 20
1.8914096131
 40
0.0125
100
AcDbArc
 50
338.1640356369
 51
37.9887202813
  0
ARC
  5
40B
100
AcDbEntity
  8
0
100
AcDbCircle
 62
7
  6
CONTINUOUS
 10
7.9135362842
 20
1.8179096131
 40
0.01
100
AcDbArc
 50
270.0
 51
36.9606094189
  0
ARC
  5
40C
100
AcDbEntity
  8
0
100
AcDbCircle
 62
7
  6
CONTINUOUS
 10
13.0738381773
 20
2.930546053
 40
5.4865
100
AcDbArc
 50
175.3048544436
 51
186.7656051539
  0
ARC
  5
40D
100
AcDbEntity
  8
0
100
AcDbCircle
 62
7
  6
CONTINUOUS
 10
8.7486661877
 20
3.9710204015
 40
1.02
100
AcDbArc
 50
184.0
 51
199.0
  0
ARC
  5
40E
100
AcDbEntity
  8
0
100
AcDbCircle
 62
7
  6
CONTINUOUS
 10
8.7486661877
 20
3.9710204015
 40
1.0
100
AcDbArc
 50
184.0
 51
199.0
  0
ARC
  5
40F
100
AcDbEntity
  8
0
100
AcDbCircle
 62
7
  6
CONTINUOUS
 10
8.0669948212
 20
3.8313658933
 40
0.375
100
AcDbArc
 50
184.0
 51
199.0
  0
ARC
  5
410
100
AcDbEntity
  8
0
100
AcDbCircle
 62
7
  6
CONTINUOUS
 10
8.0669948212
 20
3.8313658933
 40
0.355
100
AcDbArc
 50
184.0
 51
199.0
  0
ARC
  5
411
100
AcDbEntity
  8
0
100
AcDbCircle
 62
7
  6
CONTINUOUS
 10
7.3448381773
 20
3.9089096131
 40
0.338
100
AcDbArc
 50
54.9314345069
 51
120.2858658987
  0
ARC
  5
412
100
AcDbEntity
  8
0
100
AcDbCircle
 62
7
  6
CONTINUOUS
 10
7.7640787122
 20
3.5964108507
 40
0.1848939688
100
AcDbArc
 50
195.0348570499
 51
211.042340072
  0
ARC
  5
413
100
AcDbEntity
  8
0
100
AcDbCircle
 62
7
  6
CONTINUOUS
 10
7.6954470744
 20
3.3722715267
 40
0.09
100
AcDbArc
 50
135.2443780853
 51
175.3048544436
  0
ARC
  5
414
100
AcDbEntity
  8
0
100
AcDbCircle
 62
7
  6
CONTINUOUS
 10
7.653117772
 20
3.5666065926
 40
0.07
100
AcDbArc
 50
138.6173701359
 51
195.0348570499
  0
ARC
  5
415
100
AcDbEntity
  8
0
100
AcDbCircle
 62
7
  6
CONTINUOUS
 10
7.6105881773
 20
3.4564096131
 40
0.0295
100
AcDbArc
 50
315.2443780854
 51
90.0
  0
ARC
  5
416
100
AcDbEntity
  8
0
100
AcDbCircle
 62
7
  6
CONTINUOUS
 10
7.5818381773
 20
3.6294096131
 40
0.025
100
AcDbArc
 50
318.617370136
 51
47.8492454758
  0
ARC
  5
417
100
AcDbEntity
  8
0
100
AcDbCircle
 62
7
  6
CONTINUOUS
 10
7.6917494178
 20
4.1084917764
 40
0.02
100
AcDbArc
 50
88.9999977482
 51
184.0
  0
ARC
  5
418
100
AcDbEntity
  8
0
100
AcDbCircle
 62
7
  6
CONTINUOUS
 10
7.71659284
 20
4.1080581329
 40
0.02
100
AcDbArc
 50
4.0
 51
88.9999977491
  0
ARC
  5
419
100
AcDbEntity
  8
0
100
AcDbCircle
 62
7
  6
CONTINUOUS
 10
8.0188043105
 20
2.9577086479
 40
0.02
100
AcDbArc
 50
269.0
 51
19.0
  0
ARC
  5
41A
100
AcDbEntity
  8
0
100
AcDbCircle
 62
7
  6
CONTINUOUS
 10
7.9922039182
 20
2.9581729595
 40
0.02
100
AcDbArc
 50
199.0
 51
269.0
  0
ARC
  5
41B
100
AcDbEntity
  8
0
100
AcDbCircle
 62
7
  6
CONTINUOUS
 10
7.6598381773
 20
4.1512518225
 40
0.01
100
AcDbArc
 50
0.0
 51
88.0334758127
  0
ARC
  5
41C
100
AcDbEntity
  8
0
100
AcDbCircle
 62
7
  6
CONTINUOUS
 10
7.6598381773
 20
3.670569053
 40
0.01
100
AcDbArc
 50
271.9671106637
 51
360.0
  0
ARC
  5
41D
100
AcDbEntity
  8
0
100
AcDbCircle
 62
7
  6
CONTINUOUS
 10
7.5970961972
 20
3.4959096131
 40
0.01
100
AcDbArc
 50
270.0
 51
31.0423400722
  0
ARC
  5
41E
100
AcDbEntity
  8
0
100
AcDbCircle
 62
7
  6
CONTINUOUS
 10
30.1266285069
 20
4.0007808055
 40
22.5
100
AcDbArc
 50
181.4330507031
 51
183.4897621041
  0
ARC
  5
41F
100
AcDbEntity
  8
0
100
AcDbCircle
 62
7
  6
CONTINUOUS
 10
30.1266285069
 20
4.0007808055
 40
22.5
100
AcDbArc
 50
180.868933004
 51
181.3368665727
  0
ARC
  5
420
100
AcDbEntity
  8
0
100
AcDbCircle
 62
7
  6
CONTINUOUS
 10
30.1266285069
 20
4.0007808055
 40
22.5
100
AcDbArc
 50
178.2188336794
 51
179.5886459666
  0
ARC
  5
421
100
AcDbEntity
  8
0
100
AcDbCircle
 62
7
  6
CONTINUOUS
 10
7.3695730859
 20
5.2928629622
 40
0.675
100
AcDbArc
 50
70.3784477421
 51
90.0
  0
ARC
  5
422
100
AcDbEntity
  8
0
100
AcDbCircle
 62
7
  6
CONTINUOUS
 10
7.3448381773
 20
5.1609096131
 40
0.469
100
AcDbArc
 50
220.8998864832
 51
228.2681829602
  0
ARC
  5
423
100
AcDbEntity
  8
0
100
AcDbCircle
 62
7
  6
CONTINUOUS
 10
7.3448381773
 20
5.1609096131
 40
0.469
100
AcDbArc
 50
311.7318170398
 51
67.2461286101
  0
ARC
  5
424
100
AcDbEntity
  8
0
100
AcDbCircle
 62
7
  6
CONTINUOUS
 10
7.3448381773
 20
5.1609096131
 40
0.469
100
AcDbArc
 50
112.7538713899
 51
139.1001135168
  0
ARC
  5
425
100
AcDbEntity
  8
0
100
AcDbCircle
 62
7
  6
CONTINUOUS
 10
7.4153015054
 20
6.065196522
 40
0.4
100
AcDbArc
 50
214.7207089079
 51
235.7836689817
  0
ARC
  5
426
100
AcDbEntity
  8
0
100
AcDbCircle
 62
7
  6
CONTINUOUS
 10
7.6667613147
 20
6.1264720772
 40
0.21
100
AcDbArc
 50
250.3784477421
 51
256.9528522369
  0
ARC
  5
427
100
AcDbEntity
  8
0
100
AcDbCircle
 62
7
  6
CONTINUOUS
 10
7.610857265
 20
4.2878582101
 40
0.1249991695
100
AcDbArc
 50
234.9314226994
 51
268.3632156551
  0
ARC
  5
428
100
AcDbEntity
  8
0
100
AcDbCircle
 62
7
  6
CONTINUOUS
 10
7.4539655055
 20
5.5981894553
 40
0.07
100
AcDbArc
 50
3.4563421022
 51
52.257931743
  0
ARC
  5
429
100
AcDbEntity
  8
0
100
AcDbCircle
 62
7
  6
CONTINUOUS
 10
7.6442470518
 20
5.8088870336
 40
0.05
100
AcDbArc
 50
114.8425917487
 51
145.2792910921
  0
ARC
  5
42A
100
AcDbEntity
  8
0
100
AcDbCircle
 62
7
  6
CONTINUOUS
 10
7.5274184433
 20
5.6930823735
 40
0.05
100
AcDbArc
 50
124.2163310183
 51
232.257931743
  0
ARC
  5
42B
100
AcDbEntity
  8
0
100
AcDbCircle
 62
7
  6
CONTINUOUS
 10
7.6749602925
 20
4.6984096131
 40
0.0375
100
AcDbArc
 50
130.5358021113
 51
177.3697126129
  0
ARC
  5
42C
100
AcDbEntity
  8
0
100
AcDbCircle
 62
7
  6
CONTINUOUS
 10
7.6415881773
 20
4.7555277887
 40
0.03
100
AcDbArc
 50
287.4576033724
 51
0.0000008304
  0
ARC
  5
42D
100
AcDbEntity
  8
0
100
AcDbCircle
 62
7
  6
CONTINUOUS
 10
7.6415886306
 20
4.7740745338
 40
0.03
100
AcDbArc
 50
359.6850232084
 51
59.4481278012
  0
ARC
  5
42E
100
AcDbEntity
  8
0
100
AcDbCircle
 62
7
  6
CONTINUOUS
 10
7.6148381773
 20
5.8724096131
 40
0.02
100
AcDbArc
 50
294.8425917487
 51
360.0
  0
ARC
  5
42F
100
AcDbEntity
  8
0
100
AcDbCircle
 62
7
  6
CONTINUOUS
 10
7.6148381773
 20
5.9024096131
 40
0.02
100
AcDbArc
 50
0.0
 51
76.9528522369
  0
SPLINE
  5
430
100
AcDbEntity
  8
0
100
AcDbSpline
 62
7
  6
CONTINUOUS
 70
0
 71
3
 72
29
 73
25
 74
0
 42
0.0000001
 43
0.0000001
 44
0.0000000001
 40
0.0
 40
0.0
 40
0.0
 40
0.0
 40
0.0023551838
 40
0.0047790048
 40
0.0074301766
 40
0.0104311304
 40
0.0177813657
 40
0.0272325583
 40
0.0389438342
 40
0.0529772465
 40
0.06934622
 40
0.0880346081
 40
0.1090072051
 40
0.1322127748
 40
0.1575887589
 40
0.1850606086
 40
0.2459492468
 40
0.3141120802
 40
0.3886640161
 40
0.4686249682
 40
0.5529384096
 40
0.6404927894
 40
0.820712965
 40
1.0
 40
1.0
 40
1.0
 40
1.0
 10
6.6839526896
 20
3.9897094038
 30
0.0
 10
6.6839623857
 20
3.9897099815
 30
0.0
 10
6.683982339
 20
3.9897084829
 30
0.0
 10
6.6840113943
 20
3.9896977168
 30
0.0
 10
6.6840391531
 20
3.9896788355
 30
0.0
 10
6.6840770741
 20
3.9896405715
 30
0.0
 10
6.6841204906
 20
3.9895704285
 30
0.0
 10
6.6841655295
 20
3.9894615987
 30
0.0
 10
6.6842068499
 20
3.9893222244
 30
0.0
 10
6.6842442595
 20
3.9891525254
 30
0.0
 10
6.6842775928
 20
3.9889527538
 30
0.0
 10
6.6843066812
 20
3.9887234671
 30
0.0
 10
6.6843313841
 20
3.9884653367
 30
0.0
 10
6.6843515918
 20
3.9881791674
 30
0.0
 10
6.6843672134
 20
3.9878658753
 30
0.0
 10
6.684382345
 20
3.9873970238
 30
0.0
 10
6.6843882005
 20
3.986751424
 30
0.0
 10
6.6843764166
 20
3.9859117433
 30
0.0
 10
6.6843460221
 20
3.98499383
 30
0.0
 10
6.6842974013
 20
3.9840100169
 30
0.0
 10
6.6842311958
 20
3.9829734939
 30
0.0
 10
6.6841195616
 20
3.981525662
 30
0.0
 10
6.6839437837
 20
3.9796900908
 30
0.0
 10
6.6837684086
 20
3.9782176444
 30
0.0
 10
6.6836717567
 20
3.9774845661
 30
0.0
  0
SPLINE
  5
431
100
AcDbEntity
  8
0
100
AcDbSpline
 62
7
  6
CONTINUOUS
 70
0
 71
3
 72
19
 73
15
 74
0
 42
0.0000001
 43
0.0000001
 44
0.0000000001
 40
0.0
 40
0.0
 40
0.0
 40
0.0
 40
0.0190746571
 40
0.0391817676
 40
0.0631236552
 40
0.0926201887
 40
0.1285913345
 40
0.1715209243
 40
0.2216559072
 40
0.2791254863
 40
0.4161728918
 40
0.5825032427
 40
0.777474436
 40
1.0
 40
1.0
 40
1.0
 40
1.0
 10
6.6972196529
 20
4.0676204874
 30
0.0
 10
6.6972316527
 20
4.0676211824
 30
0.0
 10
6.6972569954
 20
4.0676176105
 30
0.0
 10
6.6972910479
 20
4.0675951961
 30
0.0
 10
6.6973198848
 20
4.0675582604
 30
0.0
 10
6.6973447352
 20
4.0675074183
 30
0.0
 10
6.697366008
 20
4.0674423534
 30
0.0
 10
6.6973837861
 20
4.0673629215
 30
0.0
 10
6.6973980614
 20
4.0672690856
 30
0.0
 10
6.6974132231
 20
4.0671156125
 30
0.0
 10
6.6974213382
 20
4.0668881774
 30
0.0
 10
6.6974165995
 20
4.0665741066
 30
0.0
 10
6.6973975152
 20
4.0662066355
 30
0.0
 10
6.6973766275
 20
4.0659443521
 30
0.0
 10
6.6973640617
 20
4.0658046915
 30
0.0
  0
SPLINE
  5
432
100
AcDbEntity
  8
0
100
AcDbSpline
 62
7
  6
CONTINUOUS
 70
0
 71
3
 72
24
 73
20
 74
0
 42
0.0000001
 43
0.0000001
 44
0.0000000001
 40
0.0
 40
0.0
 40
0.0
 40
0.0
 40
0.0112228376
 40
0.0225248003
 40
0.0342858556
 40
0.0468441973
 40
0.060476883
 40
0.0753981911
 40
0.1096616522
 40
0.1504606573
 40
0.1981295959
 40
0.2527306027
 40
0.3141422833
 40
0.382106131
 40
0.456253071
 40
0.5361203495
 40
0.6211636864
 40
0.8042509882
 40
1.0
 40
1.0
 40
1.0
 40
1.0
 10
6.6958149646
 20
3.9818921037
 30
0.0
 10
6.6958485467
 20
3.9818940733
 30
0.0
 10
6.6959165114
 20
3.9818916995
 30
0.0
 10
6.6960171782
 20
3.9818682193
 30
0.0
 10
6.6961154324
 20
3.981825018
 30
0.0
 10
6.696210963
 20
3.9817624366
 30
0.0
 10
6.6963037069
 20
3.9816807596
 30
0.0
 10
6.6964293626
 20
3.9815400419
 30
0.0
 10
6.6965768602
 20
3.9813124929
 30
0.0
 10
6.696733621
 20
3.9809789444
 30
0.0
 10
6.6968770017
 20
3.9805741932
 30
0.0
 10
6.6970058577
 20
3.9801004401
 30
0.0
 10
6.6971190898
 20
3.9795604675
 30
0.0
 10
6.6972156325
 20
3.9789579156
 30
0.0
 10
6.6972945524
 20
3.978297095
 30
0.0
 10
6.6973550806
 20
3.9775829705
 30
0.0
 10
6.6974117893
 20
3.9765412791
 30
0.0
 10
6.6974303219
 20
3.9751503357
 30
0.0
 10
6.6973943876
 20
3.9740149869
 30
0.0
 10
6.6973640617
 20
3.9734290251
 30
0.0
  0
SPLINE
  5
433
100
AcDbEntity
  8
0
100
AcDbSpline
 62
7
  6
CONTINUOUS
 70
0
 71
3
 72
38
 73
34
 74
0
 42
0.0000001
 43
0.0000001
 44
0.0000000001
 40
0.0
 40
0.0
 40
0.0
 40
0.0
 40
0.0050366015
 40
0.0067694328
 40
0.0087232392
 40
0.0133255114
 40
0.0188862799
 40
0.0254200285
 40
0.032926185
 40
0.0413968334
 40
0.0611692086
 40
0.084582288
 40
0.1114358801
 40
0.1414990603
 40
0.1745170525
 40
0.2102156531
 40
0.2884785998
 40
0.3738121878
 40
0.4635635778
 40
0.5549345632
 40
0.6450111061
 40
0.7308081354
 40
0.8093498461
 40
0.8450025119
 40
0.8777935124
 40
0.9074153742
 40
0.9335922125
 40
0.9560877186
 40
0.9747147225
 40
0.9825378208
 40
0.98935663
 40
0.9951725416
 40
1.0
 40
1.0
 40
1.0
 40
1.0
 10
6.6925248359
 20
3.7749326036
 30
0.0
 10
6.6925605428
 20
3.7749347048
 30
0.0
 10
6.6926076733
 20
3.7749081079
 30
0.0
 10
6.6926537521
 20
3.7748677957
 30
0.0
 10
6.6926949767
 20
3.7748254281
 30
0.0
 10
6.6927484933
 20
3.7747579525
 30
0.0
 10
6.6928143839
 20
3.7746592264
 30
0.0
 10
6.6928846607
 20
3.7745390117
 30
0.0
 10
6.6929592424
 20
3.774397564
 30
0.0
 10
6.6930699224
 20
3.7741690373
 30
0.0
 10
6.6932159494
 20
3.7738323489
 30
0.0
 10
6.693397498
 20
3.7733691991
 30
0.0
 10
6.693591468
 20
3.7728326449
 30
0.0
 10
6.693796131
 20
3.772227593
 30
0.0
 10
6.6940096966
 20
3.7715593527
 30
0.0
 10
6.6943133291
 20
3.770560649
 30
0.0
 10
6.6946996791
 20
3.769198924
 30
0.0
 10
6.6951572715
 20
3.7674587804
 30
0.0
 10
6.6956072571
 20
3.7656206672
 30
0.0
 10
6.6960351355
 20
3.763742727
 30
0.0
 10
6.6964267403
 20
3.7618855694
 30
0.0
 10
6.6967685532
 20
3.7601113061
 30
0.0
 10
6.6970090958
 20
3.7587113887
 30
0.0
 10
6.6971653066
 20
3.7576792572
 30
0.0
 10
6.6972589634
 20
3.7569891125
 30
0.0
 10
6.6973320652
 20
3.7563641909
 30
0.0
 10
6.6973839453
 20
3.7558105193
 30
0.0
 10
6.6974141094
 20
3.7553334563
 30
0.0
 10
6.6974217075
 20
3.7549857454
 30
0.0
 10
6.6974148683
 20
3.7547495274
 30
0.0
 10
6.6974045054
 20
3.7546045473
 30
0.0
 10
6.6973887051
 20
3.7544814797
 30
0.0
 10
6.6973732276
 20
3.7544073399
 30
0.0
 10
6.6973640617
 20
3.7543743045
 30
0.0
  0
SPLINE
  5
434
100
AcDbEntity
  8
0
100
AcDbSpline
 62
7
  6
CONTINUOUS
 70
0
 71
3
 72
25
 73
21
 74
0
 42
0.0000001
 43
0.0000001
 44
0.0000000001
 40
0.0
 40
0.0
 40
0.0
 40
0.0
 40
0.0070907047
 40
0.0147719974
 40
0.0236214066
 40
0.0340158259
 40
0.0461777807
 40
0.0602350361
 40
0.0762544744
 40
0.0942683751
 40
0.1362792124
 40
0.1861453926
 40
0.2435558893
 40
0.3080750191
 40
0.3791658131
 40
0.4562040294
 40
0.5384900547
 40
0.6252570342
 40
0.8088841159
 40
1.0
 40
1.0
 40
1.0
 40
1.0
 10
6.6829185604
 20
3.920703103
 30
0.0
 10
6.6829424092
 20
3.9207045476
 30
0.0
 10
6.6829929544
 20
3.9206989309
 30
0.0
 10
6.6830662252
 20
3.9206653435
 30
0.0
 10
6.6831376592
 20
3.9206083725
 30
0.0
 10
6.683207836
 20
3.9205286622
 30
0.0
 10
6.6832771325
 20
3.9204263026
 30
0.0
 10
6.6833455701
 20
3.9203013348
 30
0.0
 10
6.6834130944
 20
3.9201539127
 30
0.0
 10
6.6835065231
 20
3.9199152062
 30
0.0
 10
6.6836172538
 20
3.9195614463
 30
0.0
 10
6.6837384869
 20
3.9190730579
 30
0.0
 10
6.6838525346
 20
3.9185053636
 30
0.0
 10
6.683958194
 20
3.9178635081
 30
0.0
 10
6.684054292
 20
3.9171533694
 30
0.0
 10
6.6841397935
 20
3.9163816324
 30
0.0
 10
6.6842137812
 20
3.9155556679
 30
0.0
 10
6.6842975632
 20
3.9143701942
 30
0.0
 10
6.6843668936
 20
3.9128163742
 30
0.0
 10
6.6843852447
 20
3.9115535875
 30
0.0
 10
6.6843852447
 20
3.9109096131
 30
0.0
  0
LINE
  5
435
100
AcDbEntity
  8
0
100
AcDbLine
 62
7
  6
CONTINUOUS
 10
6.6818991918
 20
3.8516977564
 11
6.6821687719
 21
3.8514356492
  0
SPLINE
  5
436
100
AcDbEntity
  8
0
100
AcDbSpline
 62
7
  6
CONTINUOUS
 70
0
 71
3
 72
21
 73
17
 74
0
 42
0.0000001
 43
0.0000001
 44
0.0000000001
 40
0.0
 40
0.0
 40
0.0
 40
0.0
 40
0.0111759903
 40
0.0222549371
 40
0.0454642359
 40
0.0722309777
 40
0.104225765
 40
0.1424039583
 40
0.1872657973
 40
0.2390489236
 40
0.2978211435
 40
0.3635372745
 40
0.4360703204
 40
0.6007350218
 40
0.7896546485
 40
1.0
 40
1.0
 40
1.0
 40
1.0
 10
6.6966542715
 20
4.0332823162
 30
0.0
 10
6.6966727911
 20
4.033283386
 30
0.0
 10
6.696709955
 20
4.0332823097
 30
0.0
 10
6.6967840853
 20
4.0332661675
 30
0.0
 10
6.696875003
 20
4.0332166669
 30
0.0
 10
6.6969705857
 20
4.0331179161
 30
0.0
 10
6.6970566481
 20
4.0329810378
 30
0.0
 10
6.6971338911
 20
4.032805906
 30
0.0
 10
6.6972024908
 20
4.0325925878
 30
0.0
 10
6.6972621999
 20
4.0323414226
 30
0.0
 10
6.6973127508
 20
4.0320531012
 30
0.0
 10
6.697353886
 20
4.0317285722
 30
0.0
 10
6.6973976774
 20
4.0312275913
 30
0.0
 10
6.6974241594
 20
4.0305203781
 30
0.0
 10
6.6974157054
 20
4.0295841587
 30
0.0
 10
6.6973852187
 20
4.0289219875
 30
0.0
 10
6.6973640617
 20
4.0285734874
 30
0.0
  0
SPLINE
  5
437
100
AcDbEntity
  8
0
100
AcDbSpline
 62
7
  6
CONTINUOUS
 70
0
 71
3
 72
34
 73
30
 74
0
 42
0.0000001
 43
0.0000001
 44
0.0000000001
 40
0.0
 40
0.0
 40
0.0
 40
0.0
 40
0.0036619263
 40
0.0075984808
 40
0.0119538092
 40
0.0168311209
 40
0.0223006244
 40
0.0284075417
 40
0.0426291344
 40
0.0596092471
 40
0.0793479711
 40
0.1017871883
 40
0.1268317539
 40
0.1543605466
 40
0.1842321724
 40
0.216288134
 40
0.2503554504
 40
0.3237646683
 40
0.4028296214
 40
0.4857397211
 40
0.570525247
 40
0.6550883486
 40
0.7372496018
 40
0.8148176494
 40
0.8856841177
 40
0.9179980584
 40
0.9479411397
 40
0.9753298196
 40
1.0
 40
1.0
 40
1.0
 40
1.0
 10
6.6930610754
 20
3.8092687124
 30
0.0
 10
6.693085372
 20
3.8092701384
 30
0.0
 10
6.6931362968
 20
3.8092668885
 30
0.0
 10
6.6932131099
 20
3.8092447826
 30
0.0
 10
6.6932919582
 20
3.8092059337
 30
0.0
 10
6.6933728577
 20
3.8091506831
 30
0.0
 10
6.6934558704
 20
3.8090792182
 30
0.0
 10
6.6935754718
 20
3.8089561124
 30
0.0
 10
6.6937280219
 20
3.8087597768
 30
0.0
 10
6.6939099827
 20
3.8084739298
 30
0.0
 10
6.6940980843
 20
3.8081283757
 30
0.0
 10
6.6942911642
 20
3.8077253037
 30
0.0
 10
6.694488017
 20
3.8072671284
 30
0.0
 10
6.6946874197
 20
3.8067566498
 30
0.0
 10
6.6948881469
 20
3.8061969293
 30
0.0
 10
6.6950889884
 20
3.8055912919
 30
0.0
 10
6.6953621386
 20
3.80470499
 30
0.0
 10
6.6956928844
 20
3.8035098093
 30
0.0
 10
6.6960622604
 20
3.8019893711
 30
0.0
 10
6.6964038655
 20
3.8003850678
 30
0.0
 10
6.6967086907
 20
3.7987362081
 30
0.0
 10
6.6969683171
 20
3.7970846617
 30
0.0
 10
6.6971753378
 20
3.7954740197
 30
0.0
 10
6.6973235881
 20
3.7939483305
 30
0.0
 10
6.6973968398
 20
3.7927488714
 30
0.0
 10
6.6974199435
 20
3.7918643074
 30
0.0
 10
6.697419835
 20
3.7912684065
 30
0.0
 10
6.697402907
 20
3.790723565
 30
0.0
 10
6.6973792852
 20
3.7903782469
 30
0.0
 10
6.6973640617
 20
3.7902149885
 30
0.0
  0
SPLINE
  5
438
100
AcDbEntity
  8
0
100
AcDbSpline
 62
7
  6
CONTINUOUS
 70
0
 71
3
 72
25
 73
21
 74
0
 42
0.0000001
 43
0.0000001
 44
0.0000000001
 40
0.0
 40
0.0
 40
0.0
 40
0.0
 40
0.0111581178
 40
0.0226086066
 40
0.0347316606
 40
0.0478450238
 40
0.0621939406
 40
0.0779581021
 40
0.0952641784
 40
0.1141966969
 40
0.1571179857
 40
0.206915999
 40
0.2635105744
 40
0.3266488052
 40
0.3959430523
 40
0.4708917226
 40
0.5508932159
 40
0.6352564949
 40
0.8139084547
 40
1.0
 40
1.0
 40
1.0
 40
1.0
 10
6.6948368043
 20
3.9212740427
 30
0.0
 10
6.6948781211
 20
3.9212764631
 30
0.0
 10
6.6949625708
 20
3.9212729417
 30
0.0
 10
6.6950884197
 20
3.9212421029
 30
0.0
 10
6.6952132019
 20
3.921186189
 30
0.0
 10
6.6953365855
 20
3.9211056716
 30
0.0
 10
6.6954584886
 20
3.9210009353
 30
0.0
 10
6.6955788048
 20
3.9208722456
 30
0.0
 10
6.695697397
 20
3.9207198432
 30
0.0
 10
6.6958597977
 20
3.9204749541
 30
0.0
 10
6.6960542347
 20
3.9201082309
 30
0.0
 10
6.6962682986
 20
3.9195968961
 30
0.0
 10
6.6964699171
 20
3.9190008186
 30
0.0
 10
6.6966570307
 20
3.9183248069
 30
0.0
 10
6.6968276274
 20
3.9175745044
 30
0.0
 10
6.6969798044
 20
3.9167565876
 30
0.0
 10
6.6971118293
 20
3.915878637
 30
0.0
 10
6.697261719
 20
3.914615009
 30
0.0
 10
6.6973861871
 20
3.9129529847
 30
0.0
 10
6.6974191757
 20
3.9115998627
 30
0.0
 10
6.6974191757
 20
3.9109096131
 30
0.0
  0
SPLINE
  5
439
100
AcDbEntity
  8
0
100
AcDbSpline
 62
7
  6
CONTINUOUS
 70
0
 71
3
 72
28
 73
24
 74
0
 42
0.0000001
 43
0.0000001
 44
0.0000000001
 40
0.0
 40
0.0
 40
0.0
 40
0.0
 40
0.0093716916
 40
0.0195776622
 40
0.031182153
 40
0.0445501386
 40
0.0598944355
 40
0.0773279795
 40
0.0968976057
 40
0.1186069989
 40
0.1424290654
 40
0.1683128212
 40
0.2259680534
 40
0.2908536968
 40
0.3620404198
 40
0.4384250604
 40
0.5187480102
 40
0.6016137735
 40
0.6855180876
 40
0.7688851262
 40
0.8501162045
 40
0.9276436807
 40
1.0
 40
1.0
 40
1.0
 40
1.0
 10
6.6938707564
 20
3.8606568429
 30
0.0
 10
6.6939241561
 20
3.8606599693
 30
0.0
 10
6.6940372688
 20
3.8606488231
 30
0.0
 10
6.6942044083
 20
3.8605828929
 30
0.0
 10
6.6943721326
 20
3.8604703996
 30
0.0
 10
6.6945407035
 20
3.8603126939
 30
0.0
 10
6.6947102448
 20
3.8601104975
 30
0.0
 10
6.6948803801
 20
3.859864483
 30
0.0
 10
6.6950505617
 20
3.859575523
 30
0.0
 10
6.6952201117
 20
3.8592446869
 30
0.0
 10
6.6953883296
 20
3.8588732505
 30
0.0
 10
6.6956181938
 20
3.8583050609
 30
0.0
 10
6.6958935129
 20
3.8575032368
 30
0.0
 10
6.6961967167
 20
3.8564394801
 30
0.0
 10
6.6964776701
 20
3.8552594734
 30
0.0
 10
6.6967308775
 20
3.8539833184
 30
0.0
 10
6.6969511499
 20
3.8526335054
 30
0.0
 10
6.6971338278
 20
3.851234814
 30
0.0
 10
6.6972749075
 20
3.8498138572
 30
0.0
 10
6.6973712131
 20
3.8483985119
 30
0.0
 10
6.6974205557
 20
3.8470171417
 30
0.0
 10
6.6974218616
 20
3.8456977332
 30
0.0
 10
6.6973894887
 20
3.8448425421
 30
0.0
 10
6.6973640617
 20
3.844430335
 30
0.0
  0
SPLINE
  5
43A
100
AcDbEntity
  8
0
100
AcDbSpline
 62
7
  6
CONTINUOUS
 70
0
 71
3
 72
22
 73
18
 74
0
 42
0.0000001
 43
0.0000001
 44
0.0000000001
 40
0.0
 40
0.0
 40
0.0
 40
0.0
 40
0.061251641
 40
0.1207547836
 40
0.1788948755
 40
0.2360849307
 40
0.2927587376
 40
0.3493619548
 40
0.4063418972
 40
0.4641371333
 40
0.5231680628
 40
0.5838293996
 40
0.7113871035
 40
0.7789885404
 40
0.8494743173
 40
0.9230767704
 40
1.0
 40
1.0
 40
1.0
 40
1.0
 10
3.0792403156
 20
4.8696492571
 30
0.0
 10
3.0797611957
 20
4.8687637622
 30
0.0
 10
3.0807253546
 20
4.8669800334
 30
0.0
 10
3.0819421266
 20
4.8642339177
 30
0.0
 10
3.0829056374
 20
4.8614606305
 30
0.0
 10
3.0836153718
 20
4.8586606005
 30
0.0
 10
3.08407103
 20
4.8558341759
 30
0.0
 10
3.0842724311
 20
4.8529818738
 30
0.0
 10
3.0842195836
 20
4.8501042142
 30
0.0
 10
3.0839126965
 20
4.8472017223
 30
0.0
 10
3.0833520254
 20
4.8442746129
 30
0.0
 10
3.0822485891
 20
4.8402734081
 30
0.0
 10
3.0806357137
 20
4.8362791293
 30
0.0
 10
3.0785800334
 20
4.8323243785
 30
0.0
 10
3.0767560722
 20
4.8292755566
 30
0.0
 10
3.0746803436
 20
4.8262024589
 30
0.0
 10
3.0731631348
 20
4.8241830801
 30
0.0
 10
3.0723651448
 20
4.823169281
 30
0.0
  0
SPLINE
  5
43B
100
AcDbEntity
  8
0
100
AcDbSpline
 62
7
  6
CONTINUOUS
 70
0
 71
3
 72
22
 73
18
 74
0
 42
0.0000001
 43
0.0000001
 44
0.0000000001
 40
0.0
 40
0.0
 40
0.0
 40
0.0
 40
0.061251641
 40
0.1207547836
 40
0.1788948755
 40
0.2360849307
 40
0.2927587376
 40
0.3493619548
 40
0.4063418972
 40
0.4641371333
 40
0.5231680628
 40
0.5838293996
 40
0.7113871035
 40
0.7789885404
 40
0.8494743173
 40
0.9230767704
 40
1.0
 40
1.0
 40
1.0
 40
1.0
 10
2.5560932251
 20
4.8696492571
 30
0.0
 10
2.555572345
 20
4.8687637622
 30
0.0
 10
2.554608186
 20
4.8669800334
 30
0.0
 10
2.5533914141
 20
4.8642339177
 30
0.0
 10
2.5524279033
 20
4.8614606305
 30
0.0
 10
2.5517181689
 20
4.8586606005
 30
0.0
 10
2.5512625107
 20
4.8558341759
 30
0.0
 10
2.5510611096
 20
4.8529818738
 30
0.0
 10
2.551113957
 20
4.8501042142
 30
0.0
 10
2.5514208442
 20
4.8472017223
 30
0.0
 10
2.5519815153
 20
4.8442746129
 30
0.0
 10
2.5530849516
 20
4.8402734081
 30
0.0
 10
2.554697827
 20
4.8362791293
 30
0.0
 10
2.5567535073
 20
4.8323243785
 30
0.0
 10
2.5585774685
 20
4.8292755566
 30
0.0
 10
2.5606531971
 20
4.8262024589
 30
0.0
 10
2.5621704059
 20
4.8241830801
 30
0.0
 10
2.5629683959
 20
4.823169281
 30
0.0
  0
SPLINE
  5
43C
100
AcDbEntity
  8
0
100
AcDbSpline
 62
7
  6
CONTINUOUS
 70
0
 71
3
 72
17
 73
13
 74
0
 42
0.0000001
 43
0.0000001
 44
0.0000000001
 40
0.0
 40
0.0
 40
0.0
 40
0.0
 40
0.2026691657
 40
0.382050767
 40
0.5377698921
 40
0.6699420428
 40
0.7792509991
 40
0.8674187536
 40
0.9047492477
 40
0.9385165568
 40
0.9698108304
 40
1.0
 40
1.0
 40
1.0
 40
1.0
 10
6.6836717567
 20
3.9024820069
 30
0.0
 10
6.6836448911
 20
3.9023748455
 30
0.0
 10
6.6835907919
 20
3.9021736682
 30
0.0
 10
6.683501966
 20
3.9018941717
 30
0.0
 10
6.6834107795
 20
3.9016561516
 30
0.0
 10
6.6833176136
 20
3.9014603244
 30
0.0
 10
6.6832228687
 20
3.9013071823
 30
0.0
 10
6.6831379295
 20
3.9012099071
 30
0.0
 10
6.6830684113
 20
3.9011573786
 30
0.0
 10
6.6830186407
 20
3.9011314239
 30
0.0
 10
6.6829683852
 20
3.9011169317
 30
0.0
 10
6.6829345669
 20
3.9011151238
 30
0.0
 10
6.6829181423
 20
3.9011161485
 30
0.0
  0
SPLINE
  5
43D
100
AcDbEntity
  8
0
100
AcDbSpline
 62
7
  6
CONTINUOUS
 70
0
 71
3
 72
14
 73
10
 74
0
 42
0.0000001
 43
0.0000001
 44
0.0000000001
 40
0.0
 40
0.0
 40
0.0
 40
0.0
 40
0.2969893144
 40
0.4392444343
 40
0.5741590252
 40
0.6995432055
 40
0.8134156307
 40
0.9140437719
 40
1.0
 40
1.0
 40
1.0
 40
1.0
 10
6.6843852447
 20
3.9109096131
 30
0.0
 10
6.6843852447
 20
3.9100707413
 30
0.0
 10
6.684362025
 20
3.9088298458
 30
0.0
 10
6.6842817928
 20
3.9072099817
 30
0.0
 10
6.6842002827
 20
3.9060757469
 30
0.0
 10
6.6840981774
 20
3.9050236904
 30
0.0
 10
6.6839774148
 20
3.9040710995
 30
0.0
 10
6.6838402834
 20
3.9032333973
 30
0.0
 10
6.6837307979
 20
3.9027175095
 30
0.0
 10
6.6836717567
 20
3.9024820069
 30
0.0
  0
SPLINE
  5
43E
100
AcDbEntity
  8
0
100
AcDbSpline
 62
7
  6
CONTINUOUS
 70
0
 71
3
 72
23
 73
19
 74
0
 42
0.0000001
 43
0.0000001
 44
0.0000000001
 40
0.0
 40
0.0
 40
0.0
 40
0.0
 40
0.1931145138
 40
0.3733352809
 40
0.4570469563
 40
0.5357592088
 40
0.6090081122
 40
0.6764041975
 40
0.7376404497
 40
0.7925056434
 40
0.840908241
 40
0.882917538
 40
0.9188371807
 40
0.9347232644
 40
0.9493838051
 40
0.9757195542
 40
0.9879705545
 40
1.0
 40
1.0
 40
1.0
 40
1.0
 10
6.6973640617
 20
3.908766549
 30
0.0
 10
6.697334028
 20
3.9081889838
 30
0.0
 10
6.6972516968
 20
3.9070735049
 30
0.0
 10
6.6970848555
 20
3.9057142328
 30
0.0
 10
6.6969153027
 20
3.9047020267
 30
0.0
 10
6.6967764582
 20
3.904009878
 30
0.0
 10
6.6966240201
 20
3.9033707026
 30
0.0
 10
6.6964592467
 20
3.9027887754
 30
0.0
 10
6.6962834713
 20
3.9022678148
 30
0.0
 10
6.6960980628
 20
3.9018109898
 30
0.0
 10
6.6959043441
 20
3.901420804
 30
0.0
 10
6.6957035839
 20
3.9010993104
 30
0.0
 10
6.6955243196
 20
3.9008813088
 30
0.0
 10
6.6953771922
 20
3.9007466626
 30
0.0
 10
6.6952398023
 20
3.9006456912
 30
0.0
 10
6.6950937709
 20
3.9005751858
 30
0.0
 10
6.6949445629
 20
3.9005450138
 30
0.0
 10
6.6948714316
 20
3.9005430798
 30
0.0
 10
6.6948354716
 20
3.9005452624
 30
0.0
  0
LINE
  5
43F
100
AcDbEntity
  8
0
100
AcDbLine
 62
7
  6
CONTINUOUS
 10
6.6973640617
 20
3.7543743045
 11
6.6972191991
 21
3.7541987629
  0
SPLINE
  5
440
100
AcDbEntity
  8
0
100
AcDbSpline
 62
7
  6
CONTINUOUS
 70
0
 71
3
 72
18
 73
14
 74
0
 42
0.0000001
 43
0.0000001
 44
0.0000000001
 40
0.0
 40
0.0
 40
0.0
 40
0.0
 40
0.2035343685
 40
0.3826884392
 40
0.5371528543
 40
0.667282707
 40
0.7742740574
 40
0.8199339335
 40
0.8610484427
 40
0.8984180562
 40
0.9331191934
 40
0.966484585
 40
1.0
 40
1.0
 40
1.0
 40
1.0
 10
6.6973640617
 20
3.7902149885
 30
0.0
 10
6.6973517901
 20
3.7900833875
 30
0.0
 10
6.6973237876
 20
3.7898363486
 30
0.0
 10
6.6972661509
 20
3.7894921331
 30
0.0
 10
6.6971959253
 20
3.7891989213
 30
0.0
 10
6.6971135935
 20
3.7889579036
 30
0.0
 10
6.6970311735
 20
3.7887926514
 30
0.0
 10
6.6969575506
 20
3.788690273
 30
0.0
 10
6.6969022857
 20
3.7886312068
 30
0.0
 10
6.6968439841
 20
3.7885858554
 30
0.0
 10
6.6967826076
 20
3.7885544649
 30
0.0
 10
6.6967183711
 20
3.7885373665
 30
0.0
 10
6.6966745816
 20
3.7885356453
 30
0.0
 10
6.6966528592
 20
3.7885369951
 30
0.0
  0
SPLINE
  5
441
100
AcDbEntity
  8
0
100
AcDbSpline
 62
7
  6
CONTINUOUS
 70
0
 71
3
 72
20
 73
16
 74
0
 42
0.0000001
 43
0.0000001
 44
0.0000000001
 40
0.0
 40
0.0
 40
0.0
 40
0.0
 40
0.2023477838
 40
0.3841267295
 40
0.5431808685
 40
0.6137185999
 40
0.6781065046
 40
0.7363238444
 40
0.7884350585
 40
0.8346320995
 40
0.875273104
 40
0.9109648752
 40
0.9426586796
 40
0.9717412845
 40
1.0
 40
1.0
 40
1.0
 40
1.0
 10
6.6973640617
 20
3.844430335
 30
0.0
 10
6.6973431662
 20
3.8440915915
 30
0.0
 10
6.6972909448
 20
3.8434491737
 30
0.0
 10
6.6971727168
 20
3.8425454482
 30
0.0
 10
6.6970415752
 20
3.8418673603
 30
0.0
 10
6.6969172404
 20
3.8413900534
 30
0.0
 10
6.696820234
 20
3.8410808076
 30
0.0
 10
6.6967161673
 20
3.8408066473
 30
0.0
 10
6.696605401
 20
3.8405683167
 30
0.0
 10
6.6964883126
 20
3.8403663544
 30
0.0
 10
6.6963651054
 20
3.8402011444
 30
0.0
 10
6.6962358001
 20
3.8400730088
 30
0.0
 10
6.696100086
 20
3.8399825754
 30
0.0
 10
6.6959581056
 20
3.8399312844
 30
0.0
 10
6.6958607643
 20
3.8399243076
 30
0.0
 10
6.6958134566
 20
3.8399272134
 30
0.0
  0
SPLINE
  5
442
100
AcDbEntity
  8
0
100
AcDbSpline
 62
7
  6
CONTINUOUS
 70
0
 71
3
 72
37
 73
33
 74
0
 42
0.0000001
 43
0.0000001
 44
0.0000000001
 40
0.0
 40
0.0
 40
0.0
 40
0.0
 40
0.0063955967
 40
0.0137161303
 40
0.031114458
 40
0.0521229994
 40
0.0766090469
 40
0.1043962789
 40
0.1352764299
 40
0.2053434996
 40
0.2846444618
 40
0.3706958002
 40
0.4607657321
 40
0.5519478707
 40
0.6412483706
 40
0.7256899071
 40
0.7651922188
 40
0.8024312712
 40
0.8370938942
 40
0.8688914621
 40
0.8975641194
 40
0.9228854593
 40
0.9446681542
 40
0.9627722681
 40
0.9704197288
 40
0.9771261661
 40
0.9829002226
 40
0.9877633895
 40
0.9917620495
 40
0.9949888729
 40
0.9976258397
 40
1.0
 40
1.0
 40
1.0
 40
1.0
 10
6.6821687719
 20
3.8514356492
 30
0.0
 10
6.6821889048
 20
3.8513989105
 30
0.0
 10
6.6822292192
 20
3.8513185448
 30
0.0
 10
6.6823112547
 20
3.8511319112
 30
0.0
 10
6.6824148941
 20
3.8508506195
 30
0.0
 10
6.6825379504
 20
3.8504573625
 30
0.0
 10
6.6826645696
 20
3.8499942492
 30
0.0
 10
6.6827936832
 20
3.8494650354
 30
0.0
 10
6.6829753745
 20
3.8486415285
 30
0.0
 10
6.6831974045
 20
3.8474816765
 30
0.0
 10
6.6834471575
 20
3.8459598232
 30
0.0
 10
6.6836816162
 20
3.8443030986
 30
0.0
 10
6.6838929388
 20
3.8425648596
 30
0.0
 10
6.6840739313
 20
3.8408018024
 30
0.0
 10
6.684218393
 20
3.8390723722
 30
0.0
 10
6.6843061717
 20
3.8376781752
 30
0.0
 10
6.6843531217
 20
3.8366233873
 30
0.0
 10
6.6843757318
 20
3.8358939757
 30
0.0
 10
6.6843863714
 20
3.8352147611
 30
0.0
 10
6.6843849758
 20
3.8345915676
 30
0.0
 10
6.6843716056
 20
3.8340297108
 30
0.0
 10
6.6843464901
 20
3.8335338973
 30
0.0
 10
6.684309922
 20
3.8331082388
 30
0.0
 10
6.6842685071
 20
3.8327994129
 30
0.0
 10
6.6842281663
 20
3.8325906019
 30
0.0
 10
6.6841970063
 20
3.8324624264
 30
0.0
 10
6.6841633368
 20
3.8323538221
 30
0.0
 10
6.6841272147
 20
3.832264847
 30
0.0
 10
6.6840886016
 20
3.8321953952
 30
0.0
 10
6.6840471509
 20
3.8321451636
 30
0.0
 10
6.6840014621
 20
3.8321143491
 30
0.0
 10
6.6839678039
 20
3.832108869
 30
0.0
 10
6.6839522831
 20
3.8321098471
 30
0.0
  0
SPLINE
  5
443
100
AcDbEntity
  8
0
100
AcDbSpline
 62
7
  6
CONTINUOUS
 70
0
 71
3
 72
25
 73
21
 74
0
 42
0.0000001
 43
0.0000001
 44
0.0000000001
 40
0.0
 40
0.0
 40
0.0
 40
0.0
 40
0.2018826783
 40
0.3897964041
 40
0.4769634532
 40
0.5588348686
 40
0.6348821586
 40
0.7046163217
 40
0.7675945585
 40
0.8234261906
 40
0.8717810009
 40
0.9124051469
 40
0.9297708252
 40
0.94516301
 40
0.9585953205
 40
0.9701039011
 40
0.9797683023
 40
0.9877405077
 40
0.9943094045
 40
1.0
 40
1.0
 40
1.0
 40
1.0
 10
6.6836717567
 20
3.9774845661
 30
0.0
 10
6.6836042861
 20
3.9769728195
 30
0.0
 10
6.6834653126
 20
3.9759858569
 30
0.0
 10
6.6832712648
 20
3.9747817828
 30
0.0
 10
6.6831096277
 20
3.9738835291
 30
0.0
 10
6.6829903677
 20
3.9732683231
 30
0.0
 10
6.6828708454
 20
3.9726986355
 30
0.0
 10
6.6827518823
 20
3.9721782675
 30
0.0
 10
6.6826343095
 20
3.9717107092
 30
0.0
 10
6.6825189868
 20
3.9712990794
 30
0.0
 10
6.6824067343
 20
3.9709461709
 30
0.0
 10
6.6823122293
 20
3.9706910258
 30
0.0
 10
6.6822374668
 20
3.9705188886
 30
0.0
 10
6.6821855907
 20
3.9704127377
 30
0.0
 10
6.68213504
 20
3.9703227693
 30
0.0
 10
6.6820858616
 20
3.9702490787
 30
0.0
 10
6.6820380703
 20
3.9701916537
 30
0.0
 10
6.6819914458
 20
3.9701504371
 30
0.0
 10
6.681945408
 20
3.9701254746
 30
0.0
 10
6.6819135336
 20
3.9701205806
 30
0.0
 10
6.6818990117
 20
3.9701214806
 30
0.0
  0
SPLINE
  5
444
100
AcDbEntity
  8
0
100
AcDbSpline
 62
7
  6
CONTINUOUS
 70
0
 71
3
 72
33
 73
29
 74
0
 42
0.0000001
 43
0.0000001
 44
0.0000000001
 40
0.0
 40
0.0
 40
0.0
 40
0.0
 40
0.0256313189
 40
0.0539760346
 40
0.1179822748
 40
0.1902525092
 40
0.268830197
 40
0.3516649136
 40
0.4366806644
 40
0.5218254538
 40
0.6051013163
 40
0.6845848156
 40
0.7584408886
 40
0.8249383585
 40
0.8549212059
 40
0.8824750742
 40
0.9074257759
 40
0.9296140479
 40
0.9488987339
 40
0.965162045
 40
0.972133811
 40
0.9783232461
 40
0.9837297944
 40
0.9883596336
 40
0.992232455
 40
0.9953902222
 40
0.9979200688
 40
1.0
 40
1.0
 40
1.0
 40
1.0
 10
6.6973640617
 20
4.0658046915
 30
0.0
 10
6.6973490085
 20
4.0656373859
 30
0.0
 10
6.6973129789
 20
4.0652854478
 30
0.0
 10
6.6972198824
 20
4.064517814
 30
0.0
 10
6.6970645896
 20
4.0634500123
 30
0.0
 10
6.696830836
 20
4.062061366
 30
0.0
 10
6.6965490356
 20
4.0605559386
 30
0.0
 10
6.6962268873
 20
4.0589733035
 30
0.0
 10
6.6958727753
 20
4.0573534329
 30
0.0
 10
6.6954955978
 20
4.0557358099
 30
0.0
 10
6.6951045198
 20
4.0541588196
 30
0.0
 10
6.6947088794
 20
4.0526593512
 30
0.0
 10
6.6943180337
 20
4.0512725467
 30
0.0
 10
6.6939939522
 20
4.050204164
 30
0.0
 10
6.6937425057
 20
4.0494311147
 30
0.0
 10
6.6935674225
 20
4.048919622
 30
0.0
 10
6.6934003814
 20
4.0484594512
 30
0.0
 10
6.6932425061
 20
4.0480537066
 30
0.0
 10
6.6930948743
 20
4.0477052422
 30
0.0
 10
6.6929759853
 20
4.0474530633
 30
0.0
 10
6.6928856881
 20
4.0472826291
 30
0.0
 10
6.6928246561
 20
4.0471773102
 30
0.0
 10
6.6927669047
 20
4.0470879538
 30
0.0
 10
6.6927125077
 20
4.0470146999
 30
0.0
 10
6.6926615389
 20
4.0469575686
 30
0.0
 10
6.6926138379
 20
4.0469165363
 30
0.0
 10
6.6925690073
 20
4.0468914041
 30
0.0
 10
6.692538372
 20
4.0468858192
 30
0.0
 10
6.6925247647
 20
4.0468866291
 30
0.0
  0
SPLINE
  5
445
100
AcDbEntity
  8
0
100
AcDbSpline
 62
7
  6
CONTINUOUS
 70
0
 71
3
 72
30
 73
26
 74
0
 42
0.0000001
 43
0.0000001
 44
0.0000000001
 40
0.0
 40
0.0
 40
0.0
 40
0.0
 40
0.0736668422
 40
0.1522545245
 40
0.2342604052
 40
0.3181406725
 40
0.4023651341
 40
0.4854487004
 40
0.5659773715
 40
0.6426250816
 40
0.7141637063
 40
0.7794725711
 40
0.837549421
 40
0.8636024844
 40
0.8875368868
 40
0.9092738728
 40
0.9287504922
 40
0.945927327
 40
0.9607974651
 40
0.9734058794
 40
0.9838879057
 40
0.988423284
 40
0.9925606533
 40
0.9963835239
 40
1.0
 40
1.0
 40
1.0
 40
1.0
 10
6.6973640617
 20
4.0285734874
 30
0.0
 10
6.6973389053
 20
4.0281591089
 30
0.0
 10
6.6972719754
 20
4.0273035431
 30
0.0
 10
6.6971315691
 20
4.0259907375
 30
0.0
 10
6.6969502464
 20
4.0246248744
 30
0.0
 10
6.6967318185
 20
4.0232323059
 30
0.0
 10
6.6964807417
 20
4.0218390838
 30
0.0
 10
6.6962019556
 20
4.0204704097
 30
0.0
 10
6.6959007454
 20
4.0191502457
 30
0.0
 10
6.6955826271
 20
4.0179010717
 30
0.0
 10
6.6952532932
 20
4.0167437016
 30
0.0
 10
6.6949184924
 20
4.0156972765
 30
0.0
 10
6.6946303835
 20
4.0149055896
 30
0.0
 10
6.6943992858
 20
4.0143420742
 30
0.0
 10
6.694234448
 20
4.0139729347
 30
0.0
 10
6.694072493
 20
4.0136433429
 30
0.0
 10
6.6939141098
 20
4.0133547531
 30
0.0
 10
6.6937600094
 20
4.0131084405
 30
0.0
 10
6.6936107839
 20
4.0129053867
 30
0.0
 10
6.6934669878
 20
4.0127464532
 30
0.0
 10
6.6933462843
 20
4.0126465671
 30
0.0
 10
6.6932524746
 20
4.012592648
 30
0.0
 10
6.6931870503
 20
4.012565919
 30
0.0
 10
6.6931232038
 20
4.012551093
 30
0.0
 10
6.6930810035
 20
4.0125493141
 30
0.0
 10
6.69306066
 20
4.0125505377
 30
0.0
  0
SPLINE
  5
446
100
AcDbEntity
  8
0
100
AcDbSpline
 62
7
  6
CONTINUOUS
 70
0
 71
3
 72
26
 73
22
 74
0
 42
0.0000001
 43
0.0000001
 44
0.0000000001
 40
0.0
 40
0.0
 40
0.0
 40
0.0
 40
0.1767077529
 40
0.3518671989
 40
0.4362182787
 40
0.5171097563
 40
0.5936595379
 40
0.665072664
 40
0.7306499314
 40
0.7897964146
 40
0.8420368991
 40
0.865463224
 40
0.8870566838
 40
0.9068093396
 40
0.9247352287
 40
0.9408749238
 40
0.9553088187
 40
0.9681715545
 40
0.9796766299
 40
0.9901409557
 40
1.0
 40
1.0
 40
1.0
 40
1.0
 10
6.6973640617
 20
3.9734290251
 30
0.0
 10
6.6973239895
 20
3.9726547438
 30
0.0
 10
6.6972034386
 20
3.9711148549
 30
0.0
 10
6.6969599225
 20
3.9692156063
 30
0.0
 10
6.6967113381
 20
3.9677427359
 30
0.0
 10
6.6965055347
 20
3.966701853
 30
0.0
 10
6.6962808492
 20
3.9657230232
 30
0.0
 10
6.6960401889
 20
3.9648173264
 30
0.0
 10
6.6957866118
 20
3.963994686
 30
0.0
 10
6.6955232192
 20
3.9632639551
 30
0.0
 10
6.6952905266
 20
3.9627195869
 30
0.0
 10
6.695099779
 20
3.9623377248
 30
0.0
 10
6.6949613944
 20
3.9620893695
 30
0.0
 10
6.6948228192
 20
3.9618691336
 30
0.0
 10
6.694684417
 20
3.9616775743
 30
0.0
 10
6.6945464976
 20
3.9615151762
 30
0.0
 10
6.6944093218
 20
3.9613823356
 30
0.0
 10
6.6942730234
 20
3.9612794441
 30
0.0
 10
6.6941375824
 20
3.9612069789
 30
0.0
 10
6.6940031069
 20
3.9611657599
 30
0.0
 10
6.6939131044
 20
3.9611598388
 30
0.0
 10
6.693869925
 20
3.961162434
 30
0.0
  0
SPLINE
  5
447
100
AcDbEntity
  8
0
100
AcDbSpline
 62
7
  6
CONTINUOUS
 70
0
 71
3
 72
15
 73
11
 74
0
 42
0.0000001
 43
0.0000001
 44
0.0000000001
 40
0.0
 40
0.0
 40
0.0
 40
0.0
 40
0.140651563
 40
0.2783037771
 40
0.4109549509
 40
0.5378940005
 40
0.6593882647
 40
0.7762312875
 40
0.8894227477
 40
1.0
 40
1.0
 40
1.0
 40
1.0
 10
6.9604287285
 20
3.61722611
 30
0.0
 10
6.9610448557
 20
3.61722611
 30
0.0
 10
6.9622669081
 20
3.6173373925
 30
0.0
 10
6.9640100783
 20
3.61782238
 30
0.0
 10
6.9655866964
 20
3.6185796564
 30
0.0
 10
6.9669527546
 20
3.6195527587
 30
0.0
 10
6.9680905963
 20
3.6206877103
 30
0.0
 10
6.9689982055
 20
3.621939539
 30
0.0
 10
6.9696810559
 20
3.6232722938
 30
0.0
 10
6.9699946644
 20
3.6242053787
 30
0.0
 10
6.9701150364
 20
3.62467457
 30
0.0
  0
SPLINE
  5
448
100
AcDbEntity
  8
0
100
AcDbSpline
 62
7
  6
CONTINUOUS
 70
0
 71
3
 72
18
 73
14
 74
0
 42
0.0000001
 43
0.0000001
 44
0.0000000001
 40
0.0
 40
0.0
 40
0.0
 40
0.0
 40
0.0718854853
 40
0.1433055531
 40
0.2138413457
 40
0.2831506589
 40
0.4170859427
 40
0.5443834239
 40
0.605648368
 40
0.6654114181
 40
0.7808630203
 40
0.8919881039
 40
1.0
 40
1.0
 40
1.0
 40
1.0
 10
6.9604287285
 20
3.6179563241
 30
0.0
 10
6.9607382536
 20
3.6179563241
 30
0.0
 10
6.9613556423
 20
3.6179832276
 30
0.0
 10
6.962269646
 20
3.6181032385
 30
0.0
 10
6.9631591124
 20
3.6182995278
 30
0.0
 10
6.9642853066
 20
3.6186519007
 30
0.0
 10
6.9655857549
 20
3.6192478825
 30
0.0
 10
6.9667395622
 20
3.6200325812
 30
0.0
 10
6.9675430608
 20
3.6207396345
 30
0.0
 10
6.9682512739
 20
3.621472527
 30
0.0
 10
6.9690002003
 20
3.6224590743
 30
0.0
 10
6.9696833844
 20
3.6237336129
 30
0.0
 10
6.9699975074
 20
3.6246279562
 30
0.0
 10
6.9701176997
 20
3.6250772354
 30
0.0
  0
SPLINE
  5
449
100
AcDbEntity
  8
0
100
AcDbSpline
 62
7
  6
CONTINUOUS
 70
0
 71
3
 72
18
 73
14
 74
0
 42
0.0000001
 43
0.0000001
 44
0.0000000001
 40
0.0
 40
0.0
 40
0.0
 40
0.0
 40
0.0732920293
 40
0.1460558304
 40
0.2178147056
 40
0.2881773958
 40
0.4235769294
 40
0.5513491034
 40
0.6124700357
 40
0.6718459004
 40
0.7858522236
 40
0.8947697492
 40
1.0
 40
1.0
 40
1.0
 40
1.0
 10
6.9604287285
 20
3.6194893201
 30
0.0
 10
6.9607382248
 20
3.6194893201
 30
0.0
 10
6.9613552964
 20
3.6195148515
 30
0.0
 10
6.9622689911
 20
3.6196287601
 30
0.0
 10
6.9631581882
 20
3.6198150734
 30
0.0
 10
6.9642826006
 20
3.6201491261
 30
0.0
 10
6.9655804083
 20
3.6207132639
 30
0.0
 10
6.9667365714
 20
3.6214590537
 30
0.0
 10
6.9675418895
 20
3.6221319165
 30
0.0
 10
6.968248859
 20
3.6228265817
 30
0.0
 10
6.9689972362
 20
3.6237617133
 30
0.0
 10
6.9696816809
 20
3.6249729482
 30
0.0
 10
6.9699972296
 20
3.6258252202
 30
0.0
 10
6.9701176997
 20
3.626252943
 30
0.0
  0
SPLINE
  5
44A
100
AcDbEntity
  8
0
100
AcDbSpline
 62
7
  6
CONTINUOUS
 70
0
 71
3
 72
17
 73
13
 74
0
 42
0.0000001
 43
0.0000001
 44
0.0000000001
 40
0.0
 40
0.0
 40
0.0
 40
0.0
 40
0.1479480249
 40
0.2917725493
 40
0.4285704789
 40
0.4939299322
 40
0.5571764272
 40
0.6774809152
 40
0.7904751046
 40
0.8446725218
 40
0.8975457975
 40
1.0
 40
1.0
 40
1.0
 40
1.0
 10
6.9604287285
 20
3.6218210789
 30
0.0
 10
6.9610237026
 20
3.6218210789
 30
0.0
 10
6.9621990675
 20
3.621909337
 30
0.0
 10
6.9638849744
 20
3.6222954262
 30
0.0
 10
6.9651847262
 20
3.6228082349
 30
0.0
 10
6.966126548
 20
3.6233123257
 30
0.0
 10
6.9669712264
 20
3.6238509873
 30
0.0
 10
6.9679017848
 20
3.6246047755
 30
0.0
 10
6.9686798733
 20
3.6254667494
 30
0.0
 10
6.9691906071
 20
3.626190562
 30
0.0
 10
6.9696208703
 20
3.6269157372
 30
0.0
 10
6.9698753353
 20
3.6274900127
 30
0.0
 10
6.9700110402
 20
3.6278790434
 30
0.0
  0
SPLINE
  5
44B
100
AcDbEntity
  8
0
100
AcDbSpline
 62
7
  6
CONTINUOUS
 70
0
 71
3
 72
16
 73
12
 74
0
 42
0.0000001
 43
0.0000001
 44
0.0000000001
 40
0.0
 40
0.0
 40
0.0
 40
0.0
 40
0.1520794552
 40
0.2992155767
 40
0.3698272444
 40
0.4380775421
 40
0.5670445022
 40
0.6863827652
 40
0.7972168817
 40
0.9011520889
 40
1.0
 40
1.0
 40
1.0
 40
1.0
 10
6.9604287285
 20
3.6249452092
 30
0.0
 10
6.9610445125
 20
3.6249452092
 30
0.0
 10
6.9622578566
 20
3.6250335575
 30
0.0
 10
6.9637251109
 20
3.6253600334
 30
0.0
 10
6.9648209989
 20
3.6257373848
 30
0.0
 10
6.9658178283
 20
3.6261665486
 30
0.0
 10
6.9669361981
 20
3.6268038132
 30
0.0
 10
6.9680773929
 20
3.6277146659
 30
0.0
 10
6.9689897398
 20
3.6287219017
 30
0.0
 10
6.9696772043
 20
3.6297964519
 30
0.0
 10
6.9699964784
 20
3.6305582236
 30
0.0
 10
6.9701176997
 20
3.6309396696
 30
0.0
  0
SPLINE
  5
44C
100
AcDbEntity
  8
0
100
AcDbSpline
 62
7
  6
CONTINUOUS
 70
0
 71
3
 72
15
 73
11
 74
0
 42
0.0000001
 43
0.0000001
 44
0.0000000001
 40
0.0
 40
0.0
 40
0.0
 40
0.0
 40
0.1554317007
 40
0.3053893047
 40
0.4460387717
 40
0.5757232454
 40
0.6945356345
 40
0.8036440725
 40
0.9047903661
 40
1.0
 40
1.0
 40
1.0
 40
1.0
 10
6.9604287285
 20
3.6288531481
 30
0.0
 10
6.9610442946
 20
3.6288531481
 30
0.0
 10
6.962255424
 20
3.6289352286
 30
0.0
 10
6.9639904713
 20
3.6292943172
 30
0.0
 10
6.9655631921
 20
3.6298563788
 30
0.0
 10
6.9669298255
 20
3.6305807563
 30
0.0
 10
6.968071591
 20
3.6314282416
 30
0.0
 10
6.9689851159
 20
3.6323660486
 30
0.0
 10
6.9696742339
 20
3.6333673947
 30
0.0
 10
6.9699959659
 20
3.6340809689
 30
0.0
 10
6.9701176997
 20
3.6344378425
 30
0.0
  0
SPLINE
  5
44D
100
AcDbEntity
  8
0
100
AcDbSpline
 62
7
  6
CONTINUOUS
 70
0
 71
3
 72
15
 73
11
 74
0
 42
0.0000001
 43
0.0000001
 44
0.0000000001
 40
0.0
 40
0.0
 40
0.0
 40
0.0
 40
0.1588951072
 40
0.3117873373
 40
0.4544293981
 40
0.5849129194
 40
0.703225702
 40
0.8105470461
 40
0.9087286656
 40
1.0
 40
1.0
 40
1.0
 40
1.0
 10
6.9604287285
 20
3.63353136
 30
0.0
 10
6.961043528
 20
3.63353136
 30
0.0
 10
6.9622513313
 20
3.633606822
 30
0.0
 10
6.9639829643
 20
3.6339371534
 30
0.0
 10
6.9655532365
 20
3.6344543459
 30
0.0
 10
6.9669186478
 20
3.6351211514
 30
0.0
 10
6.9680604677
 20
3.6359016818
 30
0.0
 10
6.9689753138
 20
3.6367660879
 30
0.0
 10
6.9696668074
 20
3.6376900164
 30
0.0
 10
6.9699922378
 20
3.6383527993
 30
0.0
 10
6.9701150364
 20
3.6386839101
 30
0.0
  0
SPLINE
  5
44E
100
AcDbEntity
  8
0
100
AcDbSpline
 62
7
  6
CONTINUOUS
 70
0
 71
3
 72
15
 73
11
 74
0
 42
0.0000001
 43
0.0000001
 44
0.0000000001
 40
0.0
 40
0.0
 40
0.0
 40
0.0
 40
0.162580173
 40
0.3186012275
 40
0.4633821489
 40
0.5947476296
 40
0.7125637144
 40
0.8180006993
 40
0.9130022734
 40
1.0
 40
1.0
 40
1.0
 40
1.0
 10
6.9604287285
 20
3.638975487
 30
0.0
 10
6.9610438855
 20
3.638975487
 30
0.0
 10
6.962250585
 20
3.6390444392
 30
0.0
 10
6.9639816095
 20
3.6393464072
 30
0.0
 10
6.9655513499
 20
3.6398191877
 30
0.0
 10
6.9669164408
 20
3.6404287477
 30
0.0
 10
6.9680582724
 20
3.6411423609
 30
0.0
 10
6.9689736461
 20
3.6419330493
 30
0.0
 10
6.969666198
 20
3.6427789488
 30
0.0
 10
6.969994509
 20
3.643390639
 30
0.0
 10
6.9701176997
 20
3.6436958929
 30
0.0
  0
SPLINE
  5
44F
100
AcDbEntity
  8
0
100
AcDbSpline
 62
7
  6
CONTINUOUS
 70
0
 71
3
 72
15
 73
11
 74
0
 42
0.0000001
 43
0.0000001
 44
0.0000000001
 40
0.0
 40
0.0
 40
0.0
 40
0.0
 40
0.1663297245
 40
0.3255577807
 40
0.4725715902
 40
0.6049148754
 40
0.7223022672
 40
0.8258524988
 40
0.917552852
 40
1.0
 40
1.0
 40
1.0
 40
1.0
 10
6.9604287285
 20
3.6451621424
 30
0.0
 10
6.9610436987
 20
3.6451621424
 30
0.0
 10
6.962248368
 20
3.6452243147
 30
0.0
 10
6.9639774533
 20
3.6454967018
 30
0.0
 10
6.9655455722
 20
3.6459231562
 30
0.0
 10
6.9669095286
 20
3.6464729655
 30
0.0
 10
6.9680508612
 20
3.6471166224
 30
0.0
 10
6.9689666554
 20
3.6478300508
 30
0.0
 10
6.9696607784
 20
3.6485939638
 30
0.0
 10
6.9699934602
 20
3.6491520302
 30
0.0
 10
6.9701176997
 20
3.6494303946
 30
0.0
  0
SPLINE
  5
450
100
AcDbEntity
  8
0
100
AcDbSpline
 62
7
  6
CONTINUOUS
 70
0
 71
3
 72
18
 73
14
 74
0
 42
0.0000001
 43
0.0000001
 44
0.0000000001
 40
0.0
 40
0.0
 40
0.0
 40
0.0
 40
0.1700943058
 40
0.3325562491
 40
0.4818464331
 40
0.6152203353
 40
0.6757592743
 40
0.7322817781
 40
0.7849561465
 40
0.8340087317
 40
0.8797121751
 40
0.922383827
 40
1.0
 40
1.0
 40
1.0
 40
1.0
 10
6.9604287285
 20
3.6520771931
 30
0.0
 10
6.9610435265
 20
3.6520771931
 30
0.0
 10
6.96224631
 20
3.6521324639
 30
0.0
 10
6.9639735936
 20
3.6523747072
 30
0.0
 10
6.9655399167
 20
3.6527538949
 30
0.0
 10
6.9667104239
 20
3.653173691
 30
0.0
 10
6.9675306435
 20
3.6535578742
 30
0.0
 10
6.968068412
 20
3.6538541491
 30
0.0
 10
6.9685490247
 20
3.6541652507
 30
0.0
 10
6.9689730898
 20
3.6544888437
 30
0.0
 10
6.9693415736
 20
3.6548231003
 30
0.0
 10
6.9697468885
 20
3.6552660065
 30
0.0
 10
6.9699920904
 20
3.6556307441
 30
0.0
 10
6.9701176997
 20
3.6558815927
 30
0.0
  0
SPLINE
  5
451
100
AcDbEntity
  8
0
100
AcDbSpline
 62
7
  6
CONTINUOUS
 70
0
 71
3
 72
20
 73
16
 74
0
 42
0.0000001
 43
0.0000001
 44
0.0000000001
 40
0.0
 40
0.0
 40
0.0
 40
0.0
 40
0.1738765399
 40
0.2582195593
 40
0.3396455566
 40
0.4912768938
 40
0.5607747309
 40
0.6258184013
 40
0.6863945668
 40
0.7425834627
 40
0.7945388482
 40
0.8424755658
 40
0.8866588637
 40
0.9274049733
 40
1.0
 40
1.0
 40
1.0
 40
1.0
 10
6.9604287285
 20
3.6597016855
 30
0.0
 10
6.9610433709
 20
3.6597016855
 30
0.0
 10
6.9619567704
 20
3.6597383624
 30
0.0
 10
6.9631513746
 20
3.6598612313
 30
0.0
 10
6.9642618327
 20
3.6600232988
 30
0.0
 10
6.965309935
 20
3.6602450843
 30
0.0
 10
6.9662818147
 20
3.6605270511
 30
0.0
 10
6.9669338035
 20
3.6607531021
 30
0.0
 10
6.9675288015
 20
3.6609969692
 30
0.0
 10
6.9680664244
 20
3.6612560816
 30
0.0
 10
6.968546935
 20
3.6615281573
 30
0.0
 10
6.9689709435
 20
3.6618111338
 30
0.0
 10
6.9693394848
 20
3.6621034617
 30
0.0
 10
6.9697423143
 20
3.662488312
 30
0.0
 10
6.9699902763
 20
3.6628090573
 30
0.0
 10
6.9701176997
 20
3.6630318049
 30
0.0
  0
SPLINE
  5
452
100
AcDbEntity
  8
0
100
AcDbSpline
 62
7
  6
CONTINUOUS
 70
0
 71
3
 72
20
 73
16
 74
0
 42
0.0000001
 43
0.0000001
 44
0.0000000001
 40
0.0
 40
0.0
 40
0.0
 40
0.0
 40
0.1775788914
 40
0.2636146242
 40
0.34655763
 40
0.5005295939
 40
0.5707714498
 40
0.6362409529
 40
0.6969017184
 40
0.7528131018
 40
0.8041092233
 40
0.8509861042
 40
0.893691668
 40
0.9325283381
 40
1.0
 40
1.0
 40
1.0
 40
1.0
 10
6.9604287285
 20
3.6680147214
 30
0.0
 10
6.9610432336
 20
3.6680147214
 30
0.0
 10
6.9619559093
 20
3.6680460191
 30
0.0
 10
6.9631507603
 20
3.668151041
 30
0.0
 10
6.9642598902
 20
3.6682893949
 30
0.0
 10
6.9653071771
 20
3.6684786147
 30
0.0
 10
6.9662804208
 20
3.6687198986
 30
0.0
 10
6.9669322108
 20
3.6689130028
 30
0.0
 10
6.9675270131
 20
3.6691213044
 30
0.0
 10
6.9680644428
 20
3.6693426001
 30
0.0
 10
6.968544779
 20
3.6695749348
 30
0.0
 10
6.9689686333
 20
3.6698165366
 30
0.0
 10
6.969337129
 20
3.6700661042
 30
0.0
 10
6.9697368119
 20
3.6703921098
 30
0.0
 10
6.9699878471
 20
3.6706673899
 30
0.0
 10
6.9701176997
 20
3.6708614329
 30
0.0
  0
SPLINE
  5
453
100
AcDbEntity
  8
0
100
AcDbSpline
 62
7
  6
CONTINUOUS
 70
0
 71
3
 72
20
 73
16
 74
0
 42
0.0000001
 43
0.0000001
 44
0.0000000001
 40
0.0
 40
0.0
 40
0.0
 40
0.0
 40
0.180966709
 40
0.3528848234
 40
0.5090533563
 40
0.5800149027
 40
0.6459183343
 40
0.7067031158
 40
0.7624050674
 40
0.8131340699
 40
0.8590601113
 40
0.9004029918
 40
0.9374357958
 40
0.970498211
 40
1.0
 40
1.0
 40
1.0
 40
1.0
 10
6.9604287285
 20
3.676988326
 30
0.0
 10
6.9610425618
 20
3.676988326
 30
0.0
 10
6.9622398509
 20
3.6770222719
 30
0.0
 10
6.9639610346
 20
3.6771711965
 30
0.0
 10
6.9653008783
 20
3.6773710746
 30
0.0
 10
6.9662748117
 20
3.677570587
 30
0.0
 10
6.9669261826
 20
3.6777300282
 30
0.0
 10
6.9675206642
 20
3.6779020044
 30
0.0
 10
6.9680578674
 20
3.6780846913
 30
0.0
 10
6.9685380507
 20
3.6782764471
 30
0.0
 10
6.9689618989
 20
3.678475843
 30
0.0
 10
6.9693303425
 20
3.6786816354
 30
0.0
 10
6.969644479
 20
3.6788928172
 30
0.0
 10
6.9699052964
 20
3.6791084757
 30
0.0
 10
6.9700519396
 20
3.6792629289
 30
0.0
 10
6.9701150364
 20
3.6793405988
 30
0.0
  0
SPLINE
  5
454
100
AcDbEntity
  8
0
100
AcDbSpline
 62
7
  6
CONTINUOUS
 70
0
 71
3
 72
20
 73
16
 74
0
 42
0.0000001
 43
0.0000001
 44
0.0000000001
 40
0.0
 40
0.0
 40
0.0
 40
0.0
 40
0.1842050865
 40
0.3589573715
 40
0.517227047
 40
0.5888831387
 40
0.6552138657
 40
0.7161368006
 40
0.7716655945
 40
0.8218859017
 40
0.8669396177
 40
0.9070130932
 40
0.9423396669
 40
0.9732134421
 40
1.0
 40
1.0
 40
1.0
 40
1.0
 10
6.9604287285
 20
3.6866134569
 30
0.0
 10
6.9610430195
 20
3.6866134569
 30
0.0
 10
6.9622402755
 20
3.6866402363
 30
0.0
 10
6.9639617039
 20
3.6867577444
 30
0.0
 10
6.9653026846
 20
3.6869155404
 30
0.0
 10
6.9662781045
 20
3.6870732657
 30
0.0
 10
6.9669294992
 20
3.6871991329
 30
0.0
 10
6.9675238716
 20
3.6873348686
 30
0.0
 10
6.9680608294
 20
3.6874790224
 30
0.0
 10
6.9685406302
 20
3.6876302829
 30
0.0
 10
6.9689639628
 20
3.6877875019
 30
0.0
 10
6.969331769
 20
3.68794967
 30
0.0
 10
6.9696451898
 20
3.6881159654
 30
0.0
 10
6.9699052893
 20
3.6882856453
 30
0.0
 10
6.9700537482
 20
3.6884089232
 30
0.0
 10
6.9701176997
 20
3.6884712911
 30
0.0
  0
SPLINE
  5
455
100
AcDbEntity
  8
0
100
AcDbSpline
 62
7
  6
CONTINUOUS
 70
0
 71
3
 72
19
 73
15
 74
0
 42
0.0000001
 43
0.0000001
 44
0.0000000001
 40
0.0
 40
0.0
 40
0.0
 40
0.0
 40
0.1868516855
 40
0.3639372304
 40
0.5239673854
 40
0.6629308692
 40
0.7240077886
 40
0.7794375516
 40
0.8292821791
 40
0.8736546019
 40
0.9127041517
 40
0.9466156874
 40
0.9756192404
 40
1.0
 40
1.0
 40
1.0
 40
1.0
 10
6.9604287285
 20
3.6968481787
 30
0.0
 10
6.9610429452
 20
3.6968481787
 30
0.0
 10
6.962239373
 20
3.6968676971
 30
0.0
 10
6.9639599611
 20
3.6969532838
 30
0.0
 10
6.9655195356
 20
3.6970871729
 30
0.0
 10
6.9666941934
 20
3.6972362363
 30
0.0
 10
6.967522665
 20
3.6973741428
 30
0.0
 10
6.9680593909
 20
3.6974792084
 30
0.0
 10
6.968538908
 20
3.6975894111
 30
0.0
 10
6.9689618891
 20
3.6977039058
 30
0.0
 10
6.9693292577
 20
3.6978219225
 30
0.0
 10
6.96964215
 20
3.6979428076
 30
0.0
 10
6.969901649
 20
3.6980659576
 30
0.0
 10
6.9700523924
 20
3.6981567993
 30
0.0
 10
6.9701176997
 20
3.698203254
 30
0.0
  0
SPLINE
  5
456
100
AcDbEntity
  8
0
100
AcDbSpline
 62
7
  6
CONTINUOUS
 70
0
 71
3
 72
18
 73
14
 74
0
 42
0.0000001
 43
0.0000001
 44
0.0000000001
 40
0.0
 40
0.0
 40
0.0
 40
0.0
 40
0.1888164384
 40
0.3676399386
 40
0.5289931699
 40
0.6687225738
 40
0.7853054409
 40
0.8348932828
 40
0.8787802477
 40
0.9170831658
 40
0.9499412694
 40
0.9775179672
 40
1.0
 40
1.0
 40
1.0
 40
1.0
 10
6.9604287285
 20
3.7076696281
 30
0.0
 10
6.9610428938
 20
3.7076696281
 30
0.0
 10
6.9622387603
 20
3.7076818385
 30
0.0
 10
6.9639587134
 20
3.7077354109
 30
0.0
 10
6.9655176199
 20
3.7078191412
 30
0.0
 10
6.9668720423
 20
3.7079268504
 30
0.0
 10
6.9678612564
 20
3.7080363574
 30
0.0
 10
6.968537613
 20
3.7081336112
 30
0.0
 10
6.9689602791
 20
3.7082052269
 30
0.0
 10
6.9693272239
 20
3.7082789869
 30
0.0
 10
6.9696395213
 20
3.708354437
 30
0.0
 10
6.9698982063
 20
3.7084311497
 30
0.0
 10
6.9700509001
 20
3.7084884737
 30
0.0
 10
6.9701176997
 20
3.7085182302
 30
0.0
  0
SPLINE
  5
457
100
AcDbEntity
  8
0
100
AcDbSpline
 62
7
  6
CONTINUOUS
 70
0
 71
3
 72
17
 73
13
 74
0
 42
0.0000001
 43
0.0000001
 44
0.0000000001
 40
0.0
 40
0.0
 40
0.0
 40
0.0
 40
0.1899355918
 40
0.3697513275
 40
0.5318645475
 40
0.6720416898
 40
0.788691144
 40
0.8817601089
 40
0.9196442912
 40
0.9519024937
 40
0.9786512465
 40
1.0
 40
1.0
 40
1.0
 40
1.0
 10
6.9604287285
 20
3.7190481441
 30
0.0
 10
6.961042866
 20
3.7190481441
 30
0.0
 10
6.9622384256
 20
3.7190530324
 30
0.0
 10
6.9639580431
 20
3.7190744716
 30
0.0
 10
6.9655165466
 20
3.7191079962
 30
0.0
 10
6.9668704931
 20
3.7191510566
 30
0.0
 10
6.9680007596
 20
3.7192012491
 30
0.0
 10
6.9687999542
 20
3.7192497546
 30
0.0
 10
6.9693260005
 20
3.7192920382
 30
0.0
 10
6.9696378555
 20
3.7193221848
 30
0.0
 10
6.9698958873
 20
3.719352786
 30
0.0
 10
6.9700497433
 20
3.7193758255
 30
0.0
 10
6.9701176997
 20
3.7193879471
 30
0.0
  0
SPLINE
  5
458
100
AcDbEntity
  8
0
100
AcDbSpline
 62
7
  6
CONTINUOUS
 70
0
 71
3
 72
17
 73
13
 74
0
 42
0.0000001
 43
0.0000001
 44
0.0000000001
 40
0.0
 40
0.0
 40
0.0
 40
0.0
 40
0.0213487468
 40
0.0480974754
 40
0.0803556218
 40
0.1182396533
 40
0.2113083642
 40
0.3279575877
 40
0.468134686
 40
0.6302478741
 40
0.810063782
 40
1.0
 40
1.0
 40
1.0
 40
1.0
 10
6.9701176997
 20
4.1024312791
 30
0.0
 10
6.9700497434
 20
4.1024434008
 30
0.0
 10
6.9698958874
 20
4.1024664402
 30
0.0
 10
6.9696378559
 20
4.1024970414
 30
0.0
 10
6.9693260016
 20
4.1025271879
 30
0.0
 10
6.9687999569
 20
4.1025694714
 30
0.0
 10
6.9680007643
 20
4.1026179769
 30
0.0
 10
6.9668704995
 20
4.1026681694
 30
0.0
 10
6.965516554
 20
4.1027112298
 30
0.0
 10
6.9639580501
 20
4.1027447545
 30
0.0
 10
6.9622384303
 20
4.1027661938
 30
0.0
 10
6.961042868
 20
4.1027710822
 30
0.0
 10
6.9604287285
 20
4.1027710822
 30
0.0
  0
SPLINE
  5
459
100
AcDbEntity
  8
0
100
AcDbSpline
 62
7
  6
CONTINUOUS
 70
0
 71
3
 72
18
 73
14
 74
0
 42
0.0000001
 43
0.0000001
 44
0.0000000001
 40
0.0
 40
0.0
 40
0.0
 40
0.0
 40
0.0224820259
 40
0.0500586988
 40
0.0829167458
 40
0.1212195125
 40
0.1651063263
 40
0.2146940665
 40
0.3312767055
 40
0.4710060668
 40
0.6323592673
 40
0.8111829392
 40
1.0
 40
1.0
 40
1.0
 40
1.0
 10
6.9701176997
 20
4.113300996
 30
0.0
 10
6.9700509001
 20
4.1133307525
 30
0.0
 10
6.9698982064
 20
4.1133880765
 30
0.0
 10
6.9696395217
 20
4.1134647891
 30
0.0
 10
6.969327225
 20
4.1135402391
 30
0.0
 10
6.9689602814
 20
4.1136139989
 30
0.0
 10
6.9685376166
 20
4.1136856145
 30
0.0
 10
6.9678612616
 20
4.1137828681
 30
0.0
 10
6.9668720487
 20
4.1138923753
 30
0.0
 10
6.9655176273
 20
4.1140000846
 30
0.0
 10
6.9639587205
 20
4.114083815
 30
0.0
 10
6.9622387649
 20
4.1141373877
 30
0.0
 10
6.9610428958
 20
4.1141495982
 30
0.0
 10
6.9604287285
 20
4.1141495982
 30
0.0
  0
SPLINE
  5
45A
100
AcDbEntity
  8
0
100
AcDbSpline
 62
7
  6
CONTINUOUS
 70
0
 71
3
 72
19
 73
15
 74
0
 42
0.0000001
 43
0.0000001
 44
0.0000000001
 40
0.0
 40
0.0
 40
0.0
 40
0.0
 40
0.0243807524
 40
0.0533842794
 40
0.0872957572
 40
0.1263451547
 40
0.1707174271
 40
0.2205619542
 40
0.2759916253
 40
0.3370684127
 40
0.4760318567
 40
0.6360619827
 40
0.8131476986
 40
1.0
 40
1.0
 40
1.0
 40
1.0
 10
6.9701176997
 20
4.1236159722
 30
0.0
 10
6.9700523924
 20
4.1236624269
 30
0.0
 10
6.9699016491
 20
4.1237532686
 30
0.0
 10
6.9696421504
 20
4.1238764185
 30
0.0
 10
6.9693292588
 20
4.1239973032
 30
0.0
 10
6.9689618913
 20
4.1241153198
 30
0.0
 10
6.9685389117
 20
4.1242298142
 30
0.0
 10
6.9680593956
 20
4.1243400169
 30
0.0
 10
6.9675226708
 20
4.1244450824
 30
0.0
 10
6.9666942001
 20
4.124582989
 30
0.0
 10
6.965519543
 20
4.1247320526
 30
0.0
 10
6.9639599682
 20
4.124865942
 30
0.0
 10
6.9622393776
 20
4.1249515291
 30
0.0
 10
6.9610429472
 20
4.1249710475
 30
0.0
 10
6.9604287285
 20
4.1249710475
 30
0.0
  0
SPLINE
  5
45B
100
AcDbEntity
  8
0
100
AcDbSpline
 62
7
  6
CONTINUOUS
 70
0
 71
3
 72
20
 73
16
 74
0
 42
0.0000001
 43
0.0000001
 44
0.0000000001
 40
0.0
 40
0.0
 40
0.0
 40
0.0
 40
0.0267865503
 40
0.057660298
 40
0.092986812
 40
0.133060134
 40
0.1781137005
 40
0.228333909
 40
0.2838626135
 40
0.3447854196
 40
0.4111161534
 40
0.4827722021
 40
0.6410418511
 40
0.8157943059
 40
1.0
 40
1.0
 40
1.0
 40
1.0
 10
6.9701176997
 20
4.1333479351
 30
0.0
 10
6.9700537482
 20
4.1334103031
 30
0.0
 10
6.9699052894
 20
4.1335335809
 30
0.0
 10
6.9696451901
 20
4.1337032606
 30
0.0
 10
6.9693317701
 20
4.1338695557
 30
0.0
 10
6.968963965
 20
4.1340317234
 30
0.0
 10
6.9685406338
 20
4.1341889421
 30
0.0
 10
6.9680608341
 20
4.1343402024
 30
0.0
 10
6.9675238774
 20
4.1344843562
 30
0.0
 10
6.9669295058
 20
4.1346200921
 30
0.0
 10
6.9662781116
 20
4.1347459592
 30
0.0
 10
6.965302692
 20
4.1349036849
 30
0.0
 10
6.963961711
 20
4.1350614812
 30
0.0
 10
6.9622402801
 20
4.1351789899
 30
0.0
 10
6.9610430216
 20
4.1352057693
 30
0.0
 10
6.9604287285
 20
4.1352057693
 30
0.0
  0
SPLINE
  5
45C
100
AcDbEntity
  8
0
100
AcDbSpline
 62
7
  6
CONTINUOUS
 70
0
 71
3
 72
20
 73
16
 74
0
 42
0.0000001
 43
0.0000001
 44
0.0000000001
 40
0.0
 40
0.0
 40
0.0
 40
0.0
 40
0.029501781
 40
0.0625641667
 40
0.0995969092
 40
0.1409396346
 40
0.1868655278
 40
0.237594434
 40
0.2932962995
 40
0.3540809563
 40
0.4199843968
 40
0.490945903
 40
0.6471144134
 40
0.8190326958
 40
1.0
 40
1.0
 40
1.0
 40
1.0
 10
6.9701150364
 20
4.1424786274
 30
0.0
 10
6.9700519396
 20
4.1425562973
 30
0.0
 10
6.9699052966
 20
4.1427107504
 30
0.0
 10
6.9696444794
 20
4.1429264087
 30
0.0
 10
6.9693303436
 20
4.14313759
 30
0.0
 10
6.9689619012
 20
4.143343382
 30
0.0
 10
6.9685380543
 20
4.1435427776
 30
0.0
 10
6.9680578721
 20
4.1437345332
 30
0.0
 10
6.96752067
 20
4.14391722
 30
0.0
 10
6.9669261892
 20
4.1440891964
 30
0.0
 10
6.9662748188
 20
4.1442486376
 30
0.0
 10
6.9653008857
 20
4.1444481504
 30
0.0
 10
6.9639610417
 20
4.1446480289
 30
0.0
 10
6.9622398555
 20
4.1447969542
 30
0.0
 10
6.9610425638
 20
4.1448309003
 30
0.0
 10
6.9604287285
 20
4.1448309003
 30
0.0
  0
SPLINE
  5
45D
100
AcDbEntity
  8
0
100
AcDbSpline
 62
7
  6
CONTINUOUS
 70
0
 71
3
 72
20
 73
16
 74
0
 42
0.0000001
 43
0.0000001
 44
0.0000000001
 40
0.0
 40
0.0
 40
0.0
 40
0.0
 40
0.0674716221
 40
0.1063082283
 40
0.1490136345
 40
0.1958903674
 40
0.2471863944
 40
0.303097695
 40
0.3637583397
 40
0.4292278533
 40
0.4994696722
 40
0.6534416166
 40
0.7363846684
 40
0.8224205226
 40
1.0
 40
1.0
 40
1.0
 40
1.0
 10
6.9701176997
 20
4.1509577934
 30
0.0
 10
6.9699878472
 20
4.1511518362
 30
0.0
 10
6.9697368123
 20
4.1514271161
 30
0.0
 10
6.9693371301
 20
4.1517531212
 30
0.0
 10
6.9689686356
 20
4.1520026882
 30
0.0
 10
6.9685447826
 20
4.1522442895
 30
0.0
 10
6.9680644475
 20
4.1524766239
 30
0.0
 10
6.9675270189
 20
4.1526979196
 30
0.0
 10
6.9669322174
 20
4.1529062214
 30
0.0
 10
6.9662804279
 20
4.1530993256
 30
0.0
 10
6.9653071845
 20
4.15334061
 30
0.0
 10
6.9642598977
 20
4.1535298302
 30
0.0
 10
6.9631507673
 20
4.1536681845
 30
0.0
 10
6.9619559138
 20
4.153773207
 30
0.0
 10
6.9610432356
 20
4.1538045049
 30
0.0
 10
6.9604287285
 20
4.1538045049
 30
0.0
  0
SPLINE
  5
45E
100
AcDbEntity
  8
0
100
AcDbSpline
 62
7
  6
CONTINUOUS
 70
0
 71
3
 72
20
 73
16
 74
0
 42
0.0000001
 43
0.0000001
 44
0.0000000001
 40
0.0
 40
0.0
 40
0.0
 40
0.0
 40
0.072594985
 40
0.1133410283
 40
0.1575241659
 40
0.2054607359
 40
0.257416029
 40
0.3136048461
 40
0.3741808953
 40
0.4392245785
 40
0.5087223824
 40
0.6603537034
 40
0.7417797465
 40
0.8261228855
 40
1.0
 40
1.0
 40
1.0
 40
1.0
 10
6.9701176997
 20
4.1587874214
 30
0.0
 10
6.9699902764
 20
4.1590101688
 30
0.0
 10
6.9697423147
 20
4.1593309138
 30
0.0
 10
6.9693394859
 20
4.1597157635
 30
0.0
 10
6.9689709458
 20
4.1600080908
 30
0.0
 10
6.9685469386
 20
4.1602910667
 30
0.0
 10
6.9680664292
 20
4.1605631421
 30
0.0
 10
6.9675288073
 20
4.1608222544
 30
0.0
 10
6.9669338101
 20
4.1610661217
 30
0.0
 10
6.9662818218
 20
4.1612921728
 30
0.0
 10
6.9653099424
 20
4.1615741402
 30
0.0
 10
6.9642618402
 20
4.1617959261
 30
0.0
 10
6.9631513817
 20
4.1619579941
 30
0.0
 10
6.9619567749
 20
4.1620808636
 30
0.0
 10
6.961043373
 20
4.1621175407
 30
0.0
 10
6.9604287285
 20
4.1621175407
 30
0.0
  0
SPLINE
  5
45F
100
AcDbEntity
  8
0
100
AcDbSpline
 62
7
  6
CONTINUOUS
 70
0
 71
3
 72
18
 73
14
 74
0
 42
0.0000001
 43
0.0000001
 44
0.0000000001
 40
0.0
 40
0.0
 40
0.0
 40
0.0
 40
0.0776161283
 40
0.1202877113
 40
0.1659909919
 40
0.21504343
 40
0.2677177082
 40
0.3242401364
 40
0.3847789637
 40
0.5181528512
 40
0.6674430241
 40
0.8299051325
 40
1.0
 40
1.0
 40
1.0
 40
1.0
 10
6.9701176997
 20
4.1659376335
 30
0.0
 10
6.9699920905
 20
4.166188482
 30
0.0
 10
6.9697468888
 20
4.1665532193
 30
0.0
 10
6.9693415746
 20
4.1669961247
 30
0.0
 10
6.9689730921
 20
4.1673303807
 30
0.0
 10
6.9685490283
 20
4.167653973
 30
0.0
 10
6.9680684167
 20
4.1679650742
 30
0.0
 10
6.9675306493
 20
4.1682613491
 30
0.0
 10
6.9667104307
 20
4.1686455326
 30
0.0
 10
6.9655399241
 20
4.1690653291
 30
0.0
 10
6.9639736008
 20
4.1694445177
 30
0.0
 10
6.9622463146
 20
4.1696867621
 30
0.0
 10
6.9610435286
 20
4.1697420331
 30
0.0
 10
6.9604287285
 20
4.1697420331
 30
0.0
  0
SPLINE
  5
460
100
AcDbEntity
  8
0
100
AcDbSpline
 62
7
  6
CONTINUOUS
 70
0
 71
3
 72
15
 73
11
 74
0
 42
0.0000001
 43
0.0000001
 44
0.0000000001
 40
0.0
 40
0.0
 40
0.0
 40
0.0
 40
0.0824471007
 40
0.1741472177
 40
0.2776972141
 40
0.3950844269
 40
0.5274277034
 40
0.6744415061
 40
0.8336697262
 40
1.0
 40
1.0
 40
1.0
 40
1.0
 10
6.9701176997
 20
4.1723888316
 30
0.0
 10
6.9699934602
 20
4.1726671959
 30
0.0
 10
6.969660779
 20
4.1732252614
 30
0.0
 10
6.9689666577
 20
4.1739891733
 30
0.0
 10
6.9680508657
 20
4.1747026007
 30
0.0
 10
6.9669095351
 20
4.1753462577
 30
0.0
 10
6.9655455796
 20
4.1758960675
 30
0.0
 10
6.9639774605
 20
4.176322523
 30
0.0
 10
6.9622483726
 20
4.1765949113
 30
0.0
 10
6.9610437007
 20
4.1766570838
 30
0.0
 10
6.9604287285
 20
4.1766570838
 30
0.0
  0
SPLINE
  5
461
100
AcDbEntity
  8
0
100
AcDbSpline
 62
7
  6
CONTINUOUS
 70
0
 71
3
 72
15
 73
11
 74
0
 42
0.0000001
 43
0.0000001
 44
0.0000000001
 40
0.0
 40
0.0
 40
0.0
 40
0.0
 40
0.086997677
 40
0.1819990096
 40
0.2874357612
 40
0.4052516747
 40
0.5366171529
 40
0.6813980721
 40
0.8374192897
 40
1.0
 40
1.0
 40
1.0
 40
1.0
 10
6.9701176997
 20
4.1781233333
 30
0.0
 10
6.9699945091
 20
4.1784285871
 30
0.0
 10
6.9696661986
 20
4.1790402762
 30
0.0
 10
6.9689736484
 20
4.1798861745
 30
0.0
 10
6.968058277
 20
4.1806768618
 30
0.0
 10
6.9669164473
 20
4.1813904752
 30
0.0
 10
6.9655513574
 20
4.1820000358
 30
0.0
 10
6.9639816167
 20
4.1824728174
 30
0.0
 10
6.9622505897
 20
4.1827747868
 30
0.0
 10
6.9610438875
 20
4.1828437392
 30
0.0
 10
6.9604287285
 20
4.1828437392
 30
0.0
  0
SPLINE
  5
462
100
AcDbEntity
  8
0
100
AcDbSpline
 62
7
  6
CONTINUOUS
 70
0
 71
3
 72
15
 73
11
 74
0
 42
0.0000001
 43
0.0000001
 44
0.0000000001
 40
0.0
 40
0.0
 40
0.0
 40
0.0
 40
0.0912712826
 40
0.1894526559
 40
0.2967737691
 40
0.4150863883
 40
0.5455699134
 40
0.6882119771
 40
0.8411043689
 40
1.0
 40
1.0
 40
1.0
 40
1.0
 10
6.9701150364
 20
4.1831353161
 30
0.0
 10
6.9699922379
 20
4.1834664268
 30
0.0
 10
6.969666808
 20
4.1841292086
 30
0.0
 10
6.968975316
 20
4.1850531357
 30
0.0
 10
6.9680604722
 20
4.1859175406
 30
0.0
 10
6.9669186543
 20
4.1866980712
 30
0.0
 10
6.965553244
 20
4.1873648773
 30
0.0
 10
6.9639829715
 20
4.187882071
 30
0.0
 10
6.962251336
 20
4.1882124039
 30
0.0
 10
6.96104353
 20
4.1882878663
 30
0.0
 10
6.9604287285
 20
4.1882878663
 30
0.0
  0
SPLINE
  5
463
100
AcDbEntity
  8
0
100
AcDbSpline
 62
7
  6
CONTINUOUS
 70
0
 71
3
 72
15
 73
11
 74
0
 42
0.0000001
 43
0.0000001
 44
0.0000000001
 40
0.0
 40
0.0
 40
0.0
 40
0.0
 40
0.0952095801
 40
0.196355622
 40
0.3054638294
 40
0.4242760621
 40
0.5539605452
 40
0.6946100193
 40
0.844567785
 40
1.0
 40
1.0
 40
1.0
 40
1.0
 10
6.9701176997
 20
4.1873813837
 30
0.0
 10
6.969995966
 20
4.1877382571
 30
0.0
 10
6.9696742345
 20
4.1884518302
 30
0.0
 10
6.9689851181
 20
4.1894531748
 30
0.0
 10
6.9680715955
 20
4.1903909805
 30
0.0
 10
6.966929832
 20
4.191238466
 30
0.0
 10
6.9655631996
 20
4.1919628441
 30
0.0
 10
6.9639904785
 20
4.1925249071
 30
0.0
 10
6.9622554288
 20
4.1928839973
 30
0.0
 10
6.9610442967
 20
4.1929660781
 30
0.0
 10
6.9604287285
 20
4.1929660781
 30
0.0
  0
SPLINE
  5
464
100
AcDbEntity
  8
0
100
AcDbSpline
 62
7
  6
CONTINUOUS
 70
0
 71
3
 72
16
 73
12
 74
0
 42
0.0000001
 43
0.0000001
 44
0.0000000001
 40
0.0
 40
0.0
 40
0.0
 40
0.0
 40
0.0988478555
 40
0.2027828062
 40
0.3136166932
 40
0.4329548064
 40
0.5619217818
 40
0.6301718869
 40
0.7007837583
 40
0.847920041
 40
1.0
 40
1.0
 40
1.0
 40
1.0
 10
6.9701176997
 20
4.1908795567
 30
0.0
 10
6.9699964784
 20
4.1912610024
 30
0.0
 10
6.9696772049
 20
4.192022773
 30
0.0
 10
6.968989742
 20
4.1930973215
 30
0.0
 10
6.9680773973
 20
4.1941045559
 30
0.0
 10
6.9669362047
 20
4.1950154088
 30
0.0
 10
6.9658178365
 20
4.1956526736
 30
0.0
 10
6.9648210073
 20
4.1960818381
 30
0.0
 10
6.9637251189
 20
4.1964591908
 30
0.0
 10
6.9622578614
 20
4.1967856684
 30
0.0
 10
6.9610445145
 20
4.196874017
 30
0.0
 10
6.9604287285
 20
4.196874017
 30
0.0
  0
SPLINE
  5
465
100
AcDbEntity
  8
0
100
AcDbSpline
 62
7
  6
CONTINUOUS
 70
0
 71
3
 72
17
 73
13
 74
0
 42
0.0000001
 43
0.0000001
 44
0.0000000001
 40
0.0
 40
0.0
 40
0.0
 40
0.0
 40
0.1024539776
 40
0.1553270381
 40
0.2095241415
 40
0.3225179445
 40
0.4428220557
 40
0.506068577
 40
0.5714279345
 40
0.7082260778
 40
0.8520510518
 40
1.0
 40
1.0
 40
1.0
 40
1.0
 10
6.9700110912
 20
4.1939400368
 30
0.0
 10
6.9698753927
 20
4.1943290745
 30
0.0
 10
6.969620936
 20
4.1949033606
 30
0.0
 10
6.9691906814
 20
4.1956285499
 30
0.0
 10
6.9686799548
 20
4.1963523769
 30
0.0
 10
6.9679018715
 20
4.1972143698
 30
0.0
 10
6.9669713125
 20
4.1979681771
 30
0.0
 10
6.9661266299
 20
4.1985068527
 30
0.0
 10
6.9651848002
 20
4.1990109588
 30
0.0
 10
6.9638850327
 20
4.1995237832
 30
0.0
 10
6.9621990994
 20
4.199909886
 30
0.0
 10
6.9610237139
 20
4.1999981474
 30
0.0
 10
6.9604287285
 20
4.1999981474
 30
0.0
  0
SPLINE
  5
466
100
AcDbEntity
  8
0
100
AcDbSpline
 62
7
  6
CONTINUOUS
 70
0
 71
3
 72
18
 73
14
 74
0
 42
0.0000001
 43
0.0000001
 44
0.0000000001
 40
0.0
 40
0.0
 40
0.0
 40
0.0
 40
0.1052301917
 40
0.214147452
 40
0.3281535471
 40
0.3875293573
 40
0.4486502053
 40
0.5764224051
 40
0.7118219586
 40
0.7821847004
 40
0.853943685
 40
0.9267078205
 40
1.0
 40
1.0
 40
1.0
 40
1.0
 10
6.9701176997
 20
4.1955662832
 30
0.0
 10
6.9699972297
 20
4.1959940058
 30
0.0
 10
6.9696816815
 20
4.1968462765
 30
0.0
 10
6.9689972383
 20
4.1980575096
 30
0.0
 10
6.9682488631
 20
4.1989926398
 30
0.0
 10
6.9675418952
 20
4.1996873044
 30
0.0
 10
6.9667365783
 20
4.2003601678
 30
0.0
 10
6.9655804158
 20
4.2011059583
 30
0.0
 10
6.9642826082
 20
4.2016700973
 30
0.0
 10
6.9631581953
 20
4.2020041511
 30
0.0
 10
6.9622689962
 20
4.2021904655
 30
0.0
 10
6.9613552991
 20
4.2023043745
 30
0.0
 10
6.9607382255
 20
4.2023299062
 30
0.0
 10
6.9604287285
 20
4.2023299062
 30
0.0
  0
SPLINE
  5
467
100
AcDbEntity
  8
0
100
AcDbSpline
 62
7
  6
CONTINUOUS
 70
0
 71
3
 72
18
 73
14
 74
0
 42
0.0000001
 43
0.0000001
 44
0.0000000001
 40
0.0
 40
0.0
 40
0.0
 40
0.0
 40
0.1080118356
 40
0.2191366497
 40
0.3345880244
 40
0.3943510221
 40
0.4556158849
 40
0.5829133965
 40
0.7168487042
 40
0.7861580698
 40
0.8566939709
 40
0.9281143673
 40
1.0
 40
1.0
 40
1.0
 40
1.0
 10
6.9701176997
 20
4.1967419908
 30
0.0
 10
6.9699975074
 20
4.1971912698
 30
0.0
 10
6.9696833849
 20
4.1980856117
 30
0.0
 10
6.9690002024
 20
4.1993601484
 30
0.0
 10
6.968251278
 20
4.2003466942
 30
0.0
 10
6.9675430665
 20
4.2010795861
 30
0.0
 10
6.966739569
 20
4.20178664
 30
0.0
 10
6.9655857624
 20
4.2025713394
 30
0.0
 10
6.9642853142
 20
4.2031673226
 30
0.0
 10
6.9631591195
 20
4.2035196966
 30
0.0
 10
6.9622696512
 20
4.203715987
 30
0.0
 10
6.961355645
 20
4.2038359984
 30
0.0
 10
6.9607382542
 20
4.2038629022
 30
0.0
 10
6.9604287285
 20
4.2038629022
 30
0.0
  0
SPLINE
  5
468
100
AcDbEntity
  8
0
100
AcDbSpline
 62
7
  6
CONTINUOUS
 70
0
 71
3
 72
15
 73
11
 74
0
 42
0.0000001
 43
0.0000001
 44
0.0000000001
 40
0.0
 40
0.0
 40
0.0
 40
0.0
 40
0.1105772038
 40
0.2237684048
 40
0.3406112088
 40
0.4621053347
 40
0.589044396
 40
0.721695592
 40
0.8593479611
 40
1.0
 40
1.0
 40
1.0
 40
1.0
 10
6.9701150364
 20
4.1971446563
 30
0.0
 10
6.9699946646
 20
4.1976138466
 30
0.0
 10
6.9696810572
 20
4.1985469288
 30
0.0
 10
6.9689982097
 20
4.19987968
 30
0.0
 10
6.9680906048
 20
4.2011315055
 30
0.0
 10
6.9669527679
 20
4.2022664563
 30
0.0
 10
6.9655867139
 20
4.2032395593
 30
0.0
 10
6.9640100991
 20
4.2039968385
 30
0.0
 10
6.9622669299
 20
4.2044818294
 30
0.0
 10
6.9610448768
 20
4.2045931162
 30
0.0
 10
6.9604287484
 20
4.2045931162
 30
0.0
  0
SPLINE
  5
469
100
AcDbEntity
  8
0
100
AcDbSpline
 62
7
  6
CONTINUOUS
 70
0
 71
3
 72
28
 73
24
 74
0
 42
0.0000001
 43
0.0000001
 44
0.0000000001
 40
0.0
 40
0.0
 40
0.0
 40
0.0
 40
0.0095659943
 40
0.0201655459
 40
0.032260735
 40
0.0461418004
 40
0.0619765733
 40
0.0798511708
 40
0.0997980515
 40
0.1218135258
 40
0.1458662809
 40
0.171905696
 40
0.2296519846
 40
0.2943588369
 40
0.3651390348
 40
0.4409440073
 40
0.5205802123
 40
0.6027285991
 40
0.6859685015
 40
0.76881105
 40
0.8497432127
 40
0.9272743669
 40
1.0
 40
1.0
 40
1.0
 40
1.0
 10
6.6958134566
 20
3.8399272134
 30
0.0
 10
6.6957598242
 20
3.8399305078
 30
0.0
 10
6.6956474562
 20
3.8399546297
 30
0.0
 10
6.6954839019
 20
3.840035693
 30
0.0
 10
6.695319604
 20
3.840160608
 30
0.0
 10
6.6951544608
 20
3.8403284267
 30
0.0
 10
6.6949885352
 20
3.8405385355
 30
0.0
 10
6.6948222539
 20
3.8407902449
 30
0.0
 10
6.6946561725
 20
3.8410826916
 30
0.0
 10
6.6944909415
 20
3.8414148292
 30
0.0
 10
6.6943272024
 20
3.8417854257
 30
0.0
 10
6.6941040536
 20
3.8423486992
 30
0.0
 10
6.6938368581
 20
3.8431394282
 30
0.0
 10
6.693542555
 20
3.8441845497
 30
0.0
 10
6.6932698671
 20
3.845339981
 30
0.0
 10
6.6930238278
 20
3.8465869069
 30
0.0
 10
6.6928091759
 20
3.8479043344
 30
0.0
 10
6.6926301728
 20
3.8492691922
 30
0.0
 10
6.6924904918
 20
3.8506567322
 30
0.0
 10
6.6923930701
 20
3.8520410333
 30
0.0
 10
6.692339978
 20
3.8533956767
 30
0.0
 10
6.6923323087
 20
3.8546945122
 30
0.0
 10
6.692358488
 20
3.8555383876
 30
0.0
 10
6.6923802555
 20
3.8559463163
 30
0.0
  0
SPLINE
  5
46A
100
AcDbEntity
  8
0
100
AcDbSpline
 62
7
  6
CONTINUOUS
 70
0
 71
3
 72
26
 73
22
 74
0
 42
0.0000001
 43
0.0000001
 44
0.0000000001
 40
0.0
 40
0.0
 40
0.0
 40
0.0
 40
0.0673825878
 40
0.1346483747
 40
0.1682005129
 40
0.2016798534
 40
0.23507119
 40
0.268359528
 40
0.3345701704
 40
0.4001987767
 40
0.4651316971
 40
0.5292538179
 40
0.592452592
 40
0.6546176265
 40
0.7156439449
 40
0.7754252939
 40
0.804814372
 40
0.8338502707
 40
0.8908163122
 40
0.9462336065
 40
1.0
 40
1.0
 40
1.0
 40
1.0
 10
7.0773333058
 20
3.9109096131
 30
0.0
 10
7.0777551321
 20
3.9073259043
 30
0.0
 10
7.0785973271
 20
3.900164613
 30
0.0
 10
7.0796559562
 20
3.8912196208
 30
0.0
 10
7.080507444
 20
3.8840783634
 30
0.0
 10
7.0811472095
 20
3.878738745
 30
0.0
 10
7.0817874123
 20
3.8734134075
 30
0.0
 10
7.0826388366
 20
3.8663480267
 30
0.0
 10
7.0837015508
 20
3.8575692589
 30
0.0
 10
7.0849787496
 20
3.8471094684
 30
0.0
 10
7.0862555872
 20
3.8367623165
 30
0.0
 10
7.0875288838
 20
3.8265458443
 30
0.0
 10
7.0887950412
 20
3.8164778606
 30
0.0
 10
7.0900521359
 20
3.8065758343
 30
0.0
 10
7.0913012402
 20
3.7968572815
 30
0.0
 10
7.0923404469
 20
3.7888814088
 30
0.0
 10
7.0931655263
 20
3.7826052649
 30
0.0
 10
7.0939747347
 20
3.7764790975
 30
0.0
 10
7.0949748392
 20
3.7689721848
 30
0.0
 10
7.0961680051
 20
3.7601549484
 30
0.0
 10
7.0969652828
 20
3.7543625883
 30
0.0
 10
7.0973603866
 20
3.7515105463
 30
0.0
  0
LINE
  5
46B
100
AcDbEntity
  8
0
100
AcDbLine
 62
7
  6
CONTINUOUS
 10
7.0973603866
 20
3.7515105463
 11
7.1024355998
 21
3.7159083935
  0
SPLINE
  5
46C
100
AcDbEntity
  8
0
100
AcDbSpline
 62
7
  6
CONTINUOUS
 70
0
 71
3
 72
54
 73
50
 74
0
 42
0.0000001
 43
0.0000001
 44
0.0000000001
 40
0.0
 40
0.0
 40
0.0
 40
0.0
 40
0.0558428142
 40
0.1100384845
 40
0.1628584101
 40
0.1888043663
 40
0.2144526011
 40
0.2648639463
 40
0.3141003153
 40
0.338268491
 40
0.3621285928
 40
0.3856726484
 40
0.4088921999
 40
0.4543256716
 40
0.4983582867
 40
0.5409180301
 40
0.5819307802
 40
0.6590398999
 40
0.6950079722
 40
0.7291722663
 40
0.7614775115
 40
0.7918743914
 40
0.820316244
 40
0.8467618755
 40
0.8711735733
 40
0.8935213876
 40
0.9137788843
 40
0.9319261415
 40
0.9479462008
 40
0.9551548523
 40
0.9618275069
 40
0.9679630879
 40
0.9735611611
 40
0.9786214053
 40
0.9831435001
 40
0.9871272758
 40
0.990573011
 40
0.9934810779
 40
0.9958518761
 40
0.9968359726
 40
0.9976860635
 40
0.9984023499
 40
0.998985068
 40
0.9994345323
 40
0.9996094531
 40
0.9997513001
 40
0.9998602728
 40
0.9999368038
 40
1.0
 40
1.0
 40
1.0
 40
1.0
 10
7.1024355998
 20
3.7159083935
 30
0.0
 10
7.1026187486
 20
3.7147115189
 30
0.0
 10
7.1028397195
 20
3.7123297975
 30
0.0
 10
7.1028006649
 20
3.7087940573
 30
0.0
 10
7.1025197247
 20
3.7059216272
 30
0.0
 10
7.102178645
 20
3.7036832065
 30
0.0
 10
7.1017745218
 20
3.7015083629
 30
0.0
 10
7.1011622773
 20
3.6988600922
 30
0.0
 10
7.1004321256
 20
3.6962757832
 30
0.0
 10
7.0997988232
 20
3.694264089
 30
0.0
 10
7.099306114
 20
3.6927924361
 30
0.0
 10
7.0987964868
 20
3.6913483738
 30
0.0
 10
7.0981037659
 20
3.6894731155
 30
0.0
 10
7.097211132
 20
3.6871984251
 30
0.0
 10
7.0961076398
 20
3.6845568346
 30
0.0
 10
7.094994984
 20
3.6820234987
 30
0.0
 10
7.0935479951
 20
3.6788541372
 30
0.0
 10
7.0921082339
 20
3.6758389755
 30
0.0
 10
7.0907015454
 20
3.6729730359
 30
0.0
 10
7.0897120917
 20
3.6709844972
 30
0.0
 10
7.0887695735
 20
3.6691075541
 30
0.0
 10
7.087878335
 20
3.6673437099
 30
0.0
 10
7.0870426063
 20
3.6656941685
 30
0.0
 10
7.0862652214
 20
3.6641605458
 30
0.0
 10
7.0855489034
 20
3.6627441084
 30
0.0
 10
7.0848953994
 20
3.6614462616
 30
0.0
 10
7.0843062989
 20
3.6602680661
 30
0.0
 10
7.0837822112
 20
3.6592107667
 30
0.0
 10
7.0833872913
 20
3.6584052307
 30
0.0
 10
7.0831042143
 20
3.65782196
 30
0.0
 10
7.0829158272
 20
3.6574309623
 30
0.0
 10
7.0827437356
 20
3.6570708786
 30
0.0
 10
7.0825878413
 20
3.6567418046
 30
0.0
 10
7.0824480403
 20
3.6564438205
 30
0.0
 10
7.0823242245
 20
3.656177002
 30
0.0
 10
7.0822162799
 20
3.6559414138
 30
0.0
 10
7.0821240489
 20
3.6557371236
 30
0.0
 10
7.082047374
 20
3.6555641878
 30
0.0
 10
7.0819933914
 20
3.6554395787
 30
0.0
 10
7.0819579641
 20
3.6553555694
 30
0.0
 10
7.0819368759
 20
3.6553044443
 30
0.0
 10
7.0819195405
 20
3.655261198
 30
0.0
 10
7.0819059324
 20
3.6552257901
 30
0.0
 10
7.081897035
 20
3.6552012221
 30
0.0
 10
7.0818918481
 20
3.6551853608
 30
0.0
 10
7.0818892157
 20
3.655176669
 30
0.0
 10
7.0818874533
 20
3.655169391
 30
0.0
 10
7.0818865473
 20
3.6551650174
 30
0.0
 10
7.0818864374
 20
3.6551601147
 30
0.0
 10
7.0818878077
 20
3.6551601143
 30
0.0
  0
SPLINE
  5
46D
100
AcDbEntity
  8
0
100
AcDbSpline
 62
7
  6
CONTINUOUS
 70
0
 71
3
 72
22
 73
18
 74
0
 42
0.0000001
 43
0.0000001
 44
0.0000000001
 40
0.0
 40
0.0
 40
0.0
 40
0.0
 40
0.1900788089
 40
0.3683492776
 40
0.4515048894
 40
0.5299394147
 40
0.6031828354
 40
0.6708343849
 40
0.7325702513
 40
0.7881547746
 40
0.8374600128
 40
0.880498523
 40
0.9174815135
 40
0.9489262972
 40
0.9758367997
 40
0.9881325873
 40
1.0
 40
1.0
 40
1.0
 40
1.0
 10
6.6923802555
 20
3.9128081849
 30
0.0
 10
6.6924066086
 20
3.9133874516
 30
0.0
 10
6.6924816415
 20
3.9145090734
 30
0.0
 10
6.6926383326
 20
3.9158781777
 30
0.0
 10
6.6927996289
 20
3.9169024905
 30
0.0
 10
6.6929327668
 20
3.9176065376
 30
0.0
 10
6.6930797282
 20
3.9182594528
 30
0.0
 10
6.6932393181
 20
3.9188568494
 30
0.0
 10
6.6934102601
 20
3.9193948753
 30
0.0
 10
6.6935912342
 20
3.9198702332
 30
0.0
 10
6.6937809325
 20
3.9202802095
 30
0.0
 10
6.6939780779
 20
3.9206227133
 30
0.0
 10
6.6941818392
 20
3.9208962936
 30
0.0
 10
6.6943916597
 20
3.9210999468
 30
0.0
 10
6.694578451
 20
3.9212131251
 30
0.0
 10
6.6947273123
 20
3.9212611477
 30
0.0
 10
6.6948006628
 20
3.9212719255
 30
0.0
 10
6.6948368043
 20
3.9212740427
 30
0.0
  0
SPLINE
  5
46E
100
AcDbEntity
  8
0
100
AcDbSpline
 62
7
  6
CONTINUOUS
 70
0
 71
3
 72
17
 73
13
 74
0
 42
0.0000001
 43
0.0000001
 44
0.0000000001
 40
0.0
 40
0.0
 40
0.0
 40
0.0
 40
0.2004424438
 40
0.3786503416
 40
0.5341823819
 40
0.6670394831
 40
0.777695175
 40
0.8674590129
 40
0.9054262211
 40
0.9395287832
 40
0.970660553
 40
1.0
 40
1.0
 40
1.0
 40
1.0
 10
6.6821687719
 20
3.9192413263
 30
0.0
 10
6.6821953591
 20
3.9193522603
 30
0.0
 10
6.6822489804
 20
3.9195610396
 30
0.0
 10
6.6823370046
 20
3.9198521496
 30
0.0
 10
6.6824275412
 20
3.9201019528
 30
0.0
 10
6.6825201771
 20
3.9203096304
 30
0.0
 10
6.6826144959
 20
3.9204745737
 30
0.0
 10
6.6826988601
 20
3.9205820424
 30
0.0
 10
6.6827681233
 20
3.9206431463
 30
0.0
 10
6.6828176517
 20
3.9206752128
 30
0.0
 10
6.682867683
 20
3.920695948
 30
0.0
 10
6.6829018933
 20
3.9207020935
 30
0.0
 10
6.6829185604
 20
3.920703103
 30
0.0
  0
SPLINE
  5
46F
100
AcDbEntity
  8
0
100
AcDbSpline
 62
7
  6
CONTINUOUS
 70
0
 71
3
 72
14
 73
10
 74
0
 42
0.0000001
 43
0.0000001
 44
0.0000000001
 40
0.0
 40
0.0
 40
0.0
 40
0.0
 40
0.295102447
 40
0.4366786463
 40
0.5712191707
 40
0.6966168983
 40
0.8109564042
 40
0.9125520972
 40
1.0
 40
1.0
 40
1.0
 40
1.0
 10
6.6814811447
 20
3.9109096131
 30
0.0
 10
6.6814811447
 20
3.9117334201
 30
0.0
 10
6.6815034654
 20
3.9129526483
 30
0.0
 10
6.6815805101
 20
3.9145454818
 30
0.0
 10
6.6816588978
 20
3.9156637079
 30
0.0
 10
6.6817572158
 20
3.916704017
 30
0.0
 10
6.6818736924
 20
3.9176499013
 30
0.0
 10
6.6820062231
 20
3.9184865643
 30
0.0
 10
6.6821118757
 20
3.91900393
 30
0.0
 10
6.6821687719
 20
3.9192413263
 30
0.0
  0
SPLINE
  5
470
100
AcDbEntity
  8
0
100
AcDbSpline
 62
7
  6
CONTINUOUS
 70
0
 71
3
 72
25
 73
21
 74
0
 42
0.0000001
 43
0.0000001
 44
0.0000000001
 40
0.0
 40
0.0
 40
0.0
 40
0.0
 40
0.1996618667
 40
0.3860850256
 40
0.4727774285
 40
0.554351462
 40
0.6302753465
 40
0.7000556052
 40
0.7632441394
 40
0.8194437019
 40
0.8683151755
 40
0.9095919294
 40
0.9273288511
 40
0.9431169935
 40
0.9569643954
 40
0.968897798
 40
0.9789802297
 40
0.9873347933
 40
0.9941954908
 40
1.0
 40
1.0
 40
1.0
 40
1.0
 10
6.6821687719
 20
3.9821663989
 30
0.0
 10
6.6822357493
 20
3.9826838358
 30
0.0
 10
6.6823740742
 20
3.9836832861
 30
0.0
 10
6.6825676273
 20
3.9849035926
 30
0.0
 10
6.6827292993
 20
3.9858162764
 30
0.0
 10
6.6828489071
 20
3.9864431031
 30
0.0
 10
6.6829689876
 20
3.9870247836
 30
0.0
 10
6.6830887097
 20
3.987557403
 30
0.0
 10
6.6832072299
 20
3.9880373601
 30
0.0
 10
6.6833236776
 20
3.9884614234
 30
0.0
 10
6.6834372169
 20
3.988826693
 30
0.0
 10
6.683532852
 20
3.989092079
 30
0.0
 10
6.6836085264
 20
3.9892723548
 30
0.0
 10
6.6836611796
 20
3.9893844414
 30
0.0
 10
6.6837125289
 20
3.9894802395
 30
0.0
 10
6.6837625158
 20
3.9895596317
 30
0.0
 10
6.6838110925
 20
3.9896225973
 30
0.0
 10
6.6838584107
 20
3.9896691806
 30
0.0
 10
6.6839048466
 20
3.9896994572
 30
0.0
 10
6.6839375482
 20
3.9897085016
 30
0.0
 10
6.6839526896
 20
3.9897094038
 30
0.0
  0
SPLINE
  5
471
100
AcDbEntity
  8
0
100
AcDbSpline
 62
7
  6
CONTINUOUS
 70
0
 71
3
 72
25
 73
21
 74
0
 42
0.0000001
 43
0.0000001
 44
0.0000000001
 40
0.0
 40
0.0
 40
0.0
 40
0.0
 40
0.0071613085
 40
0.0151262814
 40
0.0243841666
 40
0.0352422543
 40
0.0478801433
 40
0.0624002744
 40
0.0788548723
 40
0.0972673351
 40
0.1399459439
 40
0.1902894957
 40
0.2479805057
 40
0.3125855564
 40
0.3835757735
 40
0.4603396322
 40
0.5421943569
 40
0.6283932719
 40
0.8105699629
 40
1.0
 40
1.0
 40
1.0
 40
1.0
 10
6.6829181423
 20
3.9011161485
 30
0.0
 10
6.6828941229
 20
3.901117647
 30
0.0
 10
6.6828437012
 20
3.9011296393
 30
0.0
 10
6.6827720831
 20
3.9011711082
 30
0.0
 10
6.6827019994
 20
3.9012350828
 30
0.0
 10
6.6826329969
 20
3.9013212393
 30
0.0
 10
6.6825648263
 20
3.9014295243
 30
0.0
 10
6.6824975237
 20
3.9015598704
 30
0.0
 10
6.6824311657
 20
3.9017120981
 30
0.0
 10
6.6823396209
 20
3.901956185
 30
0.0
 10
6.6822310988
 20
3.9023149745
 30
0.0
 10
6.6821122937
 20
3.9028074967
 30
0.0
 10
6.6820006846
 20
3.9033769797
 30
0.0
 10
6.6818974136
 20
3.9040183667
 30
0.0
 10
6.6818035881
 20
3.904725898
 30
0.0
 10
6.6817201858
 20
3.9054930544
 30
0.0
 10
6.6816480714
 20
3.9063126661
 30
0.0
 10
6.6815665017
 20
3.9074868639
 30
0.0
 10
6.6814990086
 20
3.9090241423
 30
0.0
 10
6.6814811447
 20
3.9102730207
 30
0.0
 10
6.6814811447
 20
3.9109096131
 30
0.0
  0
SPLINE
  5
472
100
AcDbEntity
  8
0
100
AcDbSpline
 62
7
  6
CONTINUOUS
 70
0
 71
3
 72
64
 73
60
 74
0
 42
0.0000001
 43
0.0000001
 44
0.0000000001
 40
0.0
 40
0.0
 40
0.0
 40
0.0
 40
0.0980337205
 40
0.1951059296
 40
0.2429907565
 40
0.29028785
 40
0.3368841809
 40
0.3826671638
 40
0.4275276268
 40
0.4713588106
 40
0.5140553833
 40
0.5555149293
 40
0.5956358069
 40
0.6343226108
 40
0.6714828434
 40
0.7070270842
 40
0.7408710468
 40
0.7729316792
 40
0.8031321595
 40
0.8313977584
 40
0.8576597844
 40
0.881857776
 40
0.903932852
 40
0.9238324193
 40
0.9329503109
 40
0.941505797
 40
0.949493589
 40
0.956909289
 40
0.9637486611
 40
0.9700072025
 40
0.9756806732
 40
0.9807661763
 40
0.9852611244
 40
0.9872862948
 40
0.9891628056
 40
0.9908903306
 40
0.9924686135
 40
0.9938974158
 40
0.9951764991
 40
0.9963056431
 40
0.9972847012
 40
0.9977179083
 40
0.9981135461
 40
0.9984715988
 40
0.9987920504
 40
0.9990748845
 40
0.9993200819
 40
0.9995276231
 40
0.9996974889
 40
0.9997682877
 40
0.9998296607
 40
0.9998816059
 40
0.9999241216
 40
0.9999572066
 40
0.9999808617
 40
0.9999891548
 40
0.9999950946
 40
0.9999986901
 40
1.0
 40
1.0
 40
1.0
 40
1.0
 10
7.5953836034
 20
3.9111691606
 30
0.0
 10
7.5957718126
 20
3.9193955817
 30
0.0
 10
7.5965382177
 20
3.9357680319
 30
0.0
 10
7.5974880931
 20
3.956158986
 30
0.0
 10
7.5982358583
 20
3.9722924712
 30
0.0
 10
7.598786202
 20
3.9841901978
 30
0.0
 10
7.5993267692
 20
3.9959116169
 30
0.0
 10
7.5998583199
 20
4.0074285388
 30
0.0
 10
7.6003792392
 20
4.0187134108
 30
0.0
 10
7.6008875714
 20
4.0297393058
 30
0.0
 10
7.6013827542
 20
4.0404798008
 30
0.0
 10
7.6018629028
 20
4.0509089639
 30
0.0
 10
7.6023296432
 20
4.0610015364
 30
0.0
 10
7.6027811272
 20
4.0707332534
 30
0.0
 10
7.6032160581
 20
4.0800808526
 30
0.0
 10
7.6036345141
 20
4.0890219424
 30
0.0
 10
7.6040340007
 20
4.0975350459
 30
0.0
 10
7.6044150481
 20
4.105599604
 30
0.0
 10
7.604776115
 20
4.1131959581
 30
0.0
 10
7.6051169631
 20
4.1203055961
 30
0.0
 10
7.6054379382
 20
4.1269113516
 30
0.0
 10
7.6057356277
 20
4.1329975738
 30
0.0
 10
7.6060102269
 20
4.1385497907
 30
0.0
 10
7.6062239673
 20
4.1428366261
 30
0.0
 10
7.6063828552
 20
4.1459890369
 30
0.0
 10
7.6064922915
 20
4.1481419902
 30
0.0
 10
7.6065954956
 20
4.1501520785
 30
0.0
 10
7.6066921419
 20
4.1520181467
 30
0.0
 10
7.6067818808
 20
4.1537391078
 30
0.0
 10
7.6068647703
 20
4.1553138665
 30
0.0
 10
7.6069409078
 20
4.156741438
 30
0.0
 10
7.6070099343
 20
4.1580210227
 30
0.0
 10
7.6070628983
 20
4.1589945433
 30
0.0
 10
7.6071015127
 20
4.1596988661
 30
0.0
 10
7.607127544
 20
4.1601710451
 30
0.0
 10
7.6071516572
 20
4.1606057309
 30
0.0
 10
7.6071738389
 20
4.1610028551
 30
0.0
 10
7.6071940753
 20
4.1613623567
 30
0.0
 10
7.6072123528
 20
4.1616841776
 30
0.0
 10
7.6072286589
 20
4.1619682677
 30
0.0
 10
7.6072410408
 20
4.1621814061
 30
0.0
 10
7.607249949
 20
4.1623330222
 30
0.0
 10
7.607255845
 20
4.1624325561
 30
0.0
 10
7.6072612302
 20
4.1625226313
 30
0.0
 10
7.6072661017
 20
4.162603244
 30
0.0
 10
7.607270456
 20
4.1626743899
 30
0.0
 10
7.607274294
 20
4.1627360643
 30
0.0
 10
7.6072776173
 20
4.162788262
 30
0.0
 10
7.6072800863
 20
4.162825834
 30
0.0
 10
7.6072818166
 20
4.162851148
 30
0.0
 10
7.6072829054
 20
4.1628665779
 30
0.0
 10
7.6072838672
 20
4.1628796307
 30
0.0
 10
7.6072846971
 20
4.1628903217
 30
0.0
 10
7.6072854057
 20
4.1628986087
 30
0.0
 10
7.607285913
 20
4.1629040924
 30
0.0
 10
7.6072862928
 20
4.1629071942
 30
0.0
 10
7.6072864757
 20
4.1629087773
 30
0.0
 10
7.6072866808
 20
4.1629094953
 30
0.0
 10
7.6072867561
 20
4.1629100858
 30
0.0
 10
7.6072868661
 20
4.1629100827
 30
0.0
  0
SPLINE
  5
473
100
AcDbEntity
  8
0
100
AcDbSpline
 62
7
  6
CONTINUOUS
 70
0
 71
3
 72
31
 73
27
 74
0
 42
0.0000001
 43
0.0000001
 44
0.0000000001
 40
0.0
 40
0.0
 40
0.0
 40
0.0
 40
0.0247576433
 40
0.0522905687
 40
0.1148782237
 40
0.1860180565
 40
0.2637577514
 40
0.3460375514
 40
0.4307628198
 40
0.5158578438
 40
0.5992996361
 40
0.6791398676
 40
0.7535198372
 40
0.8206850536
 40
0.8790070906
 40
0.904388054
 40
0.9270258326
 40
0.9467746115
 40
0.9635117727
 40
0.9771471683
 40
0.9827889744
 40
0.9876499138
 40
0.9917445254
 40
0.9951072592
 40
0.9978100974
 40
1.0
 40
1.0
 40
1.0
 40
1.0
 10
6.6923802555
 20
4.0485639568
 30
0.0
 10
6.6923936028
 20
4.0487267416
 30
0.0
 10
6.6924263382
 20
4.0490701917
 30
0.0
 10
6.692513171
 20
4.0498231096
 30
0.0
 10
6.6926614269
 20
4.0508767569
 30
0.0
 10
6.69288778
 20
4.0522534484
 30
0.0
 10
6.6931635218
 20
4.0537533983
 30
0.0
 10
6.6934811201
 20
4.0553365474
 30
0.0
 10
6.6938322879
 20
4.0569622644
 30
0.0
 10
6.69420816
 20
4.0585903141
 30
0.0
 10
6.694599531
 20
4.0601815424
 30
0.0
 10
6.6949970002
 20
4.0616982955
 30
0.0
 10
6.6953910162
 20
4.0631047558
 30
0.0
 10
6.6957720542
 20
4.0643671584
 30
0.0
 10
6.6960834879
 20
4.0653126735
 30
0.0
 10
6.6963214297
 20
4.0659726911
 30
0.0
 10
6.6964824719
 20
4.0663898008
 30
0.0
 10
6.6966333323
 20
4.066749584
 30
0.0
 10
6.6967729455
 20
4.0670494117
 30
0.0
 10
6.6968849061
 20
4.0672592482
 30
0.0
 10
6.6969695841
 20
4.067394194
 30
0.0
 10
6.6970256265
 20
4.0674726038
 30
0.0
 10
6.6970781952
 20
4.0675347359
 30
0.0
 10
6.6971274106
 20
4.0675805871
 30
0.0
 10
6.6971734543
 20
4.067610366
 30
0.0
 10
6.6972052299
 20
4.0676196521
 30
0.0
 10
6.6972196529
 20
4.0676204874
 30
0.0
  0
SPLINE
  5
474
100
AcDbEntity
  8
0
100
AcDbSpline
 62
7
  6
CONTINUOUS
 70
0
 71
3
 72
29
 73
25
 74
0
 42
0.0000001
 43
0.0000001
 44
0.0000000001
 40
0.0
 40
0.0
 40
0.0
 40
0.0
 40
0.0720351727
 40
0.1492086467
 40
0.2300374571
 40
0.3129890419
 40
0.3965365628
 40
0.4791928319
 40
0.5595377903
 40
0.6362368269
 40
0.7080520409
 40
0.773852753
 40
0.8326254386
 40
0.8590979704
 40
0.8834964624
 40
0.9057381654
 40
0.9257561931
 40
0.9435033369
 40
0.9589621901
 40
0.9721595731
 40
0.983197232
 40
0.9879794521
 40
0.9923286515
 40
1.0
 40
1.0
 40
1.0
 40
1.0
 10
6.6923802555
 20
4.0170521007
 30
0.0
 10
6.6924024624
 20
4.0174615801
 30
0.0
 10
6.6924636844
 20
4.018308957
 30
0.0
 10
6.6925959279
 20
4.0196119649
 30
0.0
 10
6.6927695801
 20
4.0209727727
 30
0.0
 10
6.6929810327
 20
4.0223649166
 30
0.0
 10
6.6932260055
 20
4.0237621144
 30
0.0
 10
6.6934997011
 20
4.0251388452
 30
0.0
 10
6.6937969445
 20
4.0264707752
 30
0.0
 10
6.694112297
 20
4.0277350306
 30
0.0
 10
6.6944401164
 20
4.0289104038
 30
0.0
 10
6.694774674
 20
4.0299773822
 30
0.0
 10
6.6950633383
 20
4.0307876944
 30
0.0
 10
6.69529541
 20
4.0313672044
 30
0.0
 10
6.6954614895
 20
4.0317489273
 30
0.0
 10
6.695624988
 20
4.032091471
 30
0.0
 10
6.6957851867
 20
4.0323933314
 30
0.0
 10
6.6959413789
 20
4.0326531658
 30
0.0
 10
6.6960929097
 20
4.0328699076
 30
0.0
 10
6.6962391981
 20
4.0330426156
 30
0.0
 10
6.6963618861
 20
4.0331544185
 30
0.0
 10
6.6964576361
 20
4.0332182857
 30
0.0
 10
6.6965429462
 20
4.0332616774
 30
0.0
 10
6.6966106728
 20
4.0332797976
 30
0.0
 10
6.6966542715
 20
4.0332823162
 30
0.0
  0
LINE
  5
475
100
AcDbEntity
  8
0
100
AcDbLine
 62
7
  6
CONTINUOUS
 10
7.6601813318
 20
3.9109096131
 11
7.6601426532
 21
3.7693261989
  0
SPLINE
  5
476
100
AcDbEntity
  8
0
100
AcDbSpline
 62
7
  6
CONTINUOUS
 70
0
 71
3
 72
25
 73
21
 74
0
 42
0.0000001
 43
0.0000001
 44
0.0000000001
 40
0.0
 40
0.0
 40
0.0
 40
0.0
 40
0.1736079053
 40
0.3466300336
 40
0.4303000324
 40
0.5107734961
 40
0.5871667706
 40
0.6586799028
 40
0.724605233
 40
0.7843354341
 40
0.8373768708
 40
0.8833743375
 40
0.9036768393
 40
0.922177347
 40
0.9389023549
 40
0.9539114903
 40
0.9673091495
 40
0.9792653377
 40
0.9900387904
 40
1.0
 40
1.0
 40
1.0
 40
1.0
 10
6.6923802555
 20
3.9693810131
 30
0.0
 10
6.6924155182
 20
3.9701523952
 30
0.0
 10
6.6925267719
 20
3.9716909029
 30
0.0
 10
6.6927583139
 20
3.9735916123
 30
0.0
 10
6.6929976525
 20
3.9750722235
 30
0.0
 10
6.693197354
 20
3.9761234508
 30
0.0
 10
6.6934165441
 20
3.977115495
 30
0.0
 10
6.6936524091
 20
3.9780370886
 30
0.0
 10
6.693901987
 20
3.9788780581
 30
0.0
 10
6.6941622078
 20
3.9796294382
 30
0.0
 10
6.6944299783
 20
3.98028331
 30
0.0
 10
6.694665593
 20
3.9807597755
 30
0.0
 10
6.6948579734
 20
3.9810844091
 30
0.0
 10
6.6949962553
 20
3.9812892576
 30
0.0
 10
6.6951342484
 20
3.9814652808
 30
0.0
 10
6.6952716691
 20
3.9816120472
 30
0.0
 10
6.6954083182
 20
3.9817291678
 30
0.0
 10
6.695544151
 20
3.9818162447
 30
0.0
 10
6.695679093
 20
3.9818726409
 30
0.0
 10
6.6957707343
 20
3.9818895097
 30
0.0
 10
6.6958149646
 20
3.9818921037
 30
0.0
  0
LINE
  5
477
100
AcDbEntity
  8
0
100
AcDbLine
 62
7
  6
CONTINUOUS
 10
7.5882945877
 20
3.7621275058
 11
7.5953713543
 21
3.9109096131
  0
LINE
  5
478
100
AcDbEntity
  8
0
100
AcDbLine
 62
7
  6
CONTINUOUS
 10
7.6601426532
 20
3.7693261989
 11
7.6601814301
 21
3.6605750786
  0
LINE
  5
479
100
AcDbEntity
  8
0
100
AcDbLine
 62
7
  6
CONTINUOUS
 10
7.585658699
 20
3.7143573672
 11
7.5882945877
 21
3.7621275058
  0
SPLINE
  5
47A
100
AcDbEntity
  8
0
100
AcDbSpline
 62
7
  6
CONTINUOUS
 70
0
 71
3
 72
25
 73
21
 74
0
 42
0.0000001
 43
0.0000001
 44
0.0000000001
 40
0.0
 40
0.0
 40
0.0
 40
0.0
 40
0.0111434419
 40
0.0227870212
 40
0.0352611784
 40
0.0488313358
 40
0.0636965688
 40
0.0800012475
 40
0.0978450957
 40
0.1172941477
 40
0.161135805
 40
0.2116497774
 40
0.2687237984
 40
0.3320922971
 40
0.4013675618
 40
0.4760573756
 40
0.5555774753
 40
0.6392611991
 40
0.8160893724
 40
1.0
 40
1.0
 40
1.0
 40
1.0
 10
6.6948354716
 20
3.9005452624
 30
0.0
 10
6.6947944999
 20
3.9005477491
 30
0.0
 10
6.694711028
 20
3.9005612088
 30
0.0
 10
6.6945882608
 20
3.9006055245
 30
0.0
 10
6.6944667053
 20
3.9006737055
 30
0.0
 10
6.6943465874
 20
3.9007653752
 30
0.0
 10
6.6942279628
 20
3.9008802268
 30
0.0
 10
6.6941109681
 20
3.9010180439
 30
0.0
 10
6.6939957458
 20
3.9011785866
 30
0.0
 10
6.6938384382
 20
3.9014329197
 30
0.0
 10
6.6936502863
 20
3.9018084248
 30
0.0
 10
6.6934432189
 20
3.9023268402
 30
0.0
 10
6.6932485938
 20
3.9029261328
 30
0.0
 10
6.693068319
 20
3.9036015836
 30
0.0
 10
6.6929042482
 20
3.9043476894
 30
0.0
 10
6.6927581236
 20
3.9051580041
 30
0.0
 10
6.6926315254
 20
3.9060252489
 30
0.0
 10
6.6924880708
 20
3.907269682
 30
0.0
 10
6.6923689934
 20
3.9089031807
 30
0.0
 10
6.6923374387
 20
3.9102321739
 30
0.0
 10
6.6923374387
 20
3.9109096131
 30
0.0
  0
SPLINE
  5
47B
100
AcDbEntity
  8
0
100
AcDbSpline
 62
7
  6
CONTINUOUS
 70
0
 71
3
 72
20
 73
16
 74
0
 42
0.0000001
 43
0.0000001
 44
0.0000000001
 40
0.0
 40
0.0
 40
0.0
 40
0.0
 40
0.0221792533
 40
0.0461377623
 40
0.0740016834
 40
0.1071390652
 40
0.1463279882
 40
0.1919884756
 40
0.2443136574
 40
0.303362005
 40
0.3690872699
 40
0.4413757384
 40
0.6048763879
 40
0.7919298982
 40
1.0
 40
1.0
 40
1.0
 40
1.0
 10
6.69306066
 20
4.0125505377
 30
0.0
 10
6.6930257335
 20
4.0125526386
 30
0.0
 10
6.692953256
 20
4.0125704278
 30
0.0
 10
6.6928548033
 20
4.0126364333
 30
0.0
 10
6.6927660948
 20
4.0127383531
 30
0.0
 10
6.692685857
 20
4.0128752468
 30
0.0
 10
6.6926134908
 20
4.0130471521
 30
0.0
 10
6.6925490311
 20
4.0132539903
 30
0.0
 10
6.6924926444
 20
4.0134953932
 30
0.0
 10
6.6924445991
 20
4.0137707389
 30
0.0
 10
6.6924050911
 20
4.0140791886
 30
0.0
 10
6.692362356
 20
4.0145530181
 30
0.0
 10
6.6923344757
 20
4.0152198782
 30
0.0
 10
6.6923376517
 20
4.0161013491
 30
0.0
 10
6.69236248
 20
4.0167243339
 30
0.0
 10
6.6923802555
 20
4.0170521007
 30
0.0
  0
LINE
  5
47C
100
AcDbEntity
  8
0
100
AcDbLine
 62
7
  6
CONTINUOUS
 10
6.6839522831
 20
3.8321098471
 11
6.6836717567
 21
3.8324162251
  0
SPLINE
  5
47D
100
AcDbEntity
  8
0
100
AcDbSpline
 62
7
  6
CONTINUOUS
 70
0
 71
3
 72
23
 73
19
 74
0
 42
0.0000001
 43
0.0000001
 44
0.0000000001
 40
0.0
 40
0.0
 40
0.0
 40
0.0
 40
0.0111671734
 40
0.0226279503
 40
0.0476513858
 40
0.0617961559
 40
0.0772554848
 40
0.11256786
 40
0.1542536646
 40
0.2025744949
 40
0.2575639889
 40
0.319097829
 40
0.3869300226
 40
0.460716455
 40
0.5400297357
 40
0.6243706829
 40
0.8058165335
 40
1.0
 40
1.0
 40
1.0
 40
1.0
 10
6.693869925
 20
3.961162434
 30
0.0
 10
6.6938376709
 20
3.9611643726
 30
0.0
 10
6.6937725213
 20
3.961174455
 30
0.0
 10
6.6936417954
 20
3.9612203137
 30
0.0
 10
6.6935186507
 20
3.9613043771
 30
0.0
 10
6.6934064361
 20
3.9614158489
 30
0.0
 10
6.6932876984
 20
3.9615618607
 30
0.0
 10
6.6931484515
 20
3.9617916138
 30
0.0
 10
6.692999932
 20
3.9621230508
 30
0.0
 10
6.6928639874
 20
3.9625204565
 30
0.0
 10
6.6927415958
 20
3.962981771
 30
0.0
 10
6.6926337387
 20
3.9635044187
 30
0.0
 10
6.6925413339
 20
3.9640851054
 30
0.0
 10
6.692465194
 20
3.9647199587
 30
0.0
 10
6.6924059894
 20
3.9654045518
 30
0.0
 10
6.6923490162
 20
3.9664015935
 30
0.0
 10
6.692325995
 20
3.9677328769
 30
0.0
 10
6.6923545971
 20
3.9688197272
 30
0.0
 10
6.6923802555
 20
3.9693810131
 30
0.0
  0
SPLINE
  5
47E
100
AcDbEntity
  8
0
100
AcDbSpline
 62
7
  6
CONTINUOUS
 70
0
 71
3
 72
19
 73
15
 74
0
 42
0.0000001
 43
0.0000001
 44
0.0000000001
 40
0.0
 40
0.0
 40
0.0
 40
0.0
 40
0.0193419582
 40
0.040427143
 40
0.065611644
 40
0.0963188998
 40
0.1333279482
 40
0.1770543685
 40
0.2277294014
 40
0.2854743635
 40
0.4222762636
 40
0.5873847732
 40
0.7802769044
 40
1.0
 40
1.0
 40
1.0
 40
1.0
 10
6.6925247647
 20
4.0468866291
 30
0.0
 10
6.6925135655
 20
4.0468872957
 30
0.0
 10
6.6924901783
 20
4.0468935763
 30
0.0
 10
6.6924595823
 20
4.0469174122
 30
0.0
 10
6.6924332013
 20
4.0469539042
 30
0.0
 10
6.6924102308
 20
4.0470028734
 30
0.0
 10
6.6923903966
 20
4.0470645209
 30
0.0
 10
6.6923736387
 20
4.0471389535
 30
0.0
 10
6.6923599786
 20
4.0472261895
 30
0.0
 10
6.6923451224
 20
4.0473676956
 30
0.0
 10
6.6923360689
 20
4.0475762823
 30
0.0
 10
6.6923380839
 20
4.0478633461
 30
0.0
 10
6.692352749
 20
4.0481981877
 30
0.0
 10
6.6923698405
 20
4.0484369352
 30
0.0
 10
6.6923802555
 20
4.0485639568
 30
0.0
  0
SPLINE
  5
47F
100
AcDbEntity
  8
0
100
AcDbSpline
 62
7
  6
CONTINUOUS
 70
0
 71
3
 72
54
 73
50
 74
0
 42
0.0000001
 43
0.0000001
 44
0.0000000001
 40
0.0
 40
0.0
 40
0.0
 40
0.0
 40
0.0000251995
 40
0.0000860547
 40
0.0001831057
 40
0.0003164517
 40
0.0004861272
 40
0.0006921475
 40
0.00093452
 40
0.0012132486
 40
0.0018797798
 40
0.0026917454
 40
0.0036491401
 40
0.0047519543
 40
0.0060001006
 40
0.0073933365
 40
0.0106140288
 40
0.0144119347
 40
0.0187849526
 40
0.0237305745
 40
0.029245424
 40
0.0353260155
 40
0.0419688629
 40
0.049170137
 40
0.056925382
 40
0.0740797295
 40
0.0933929654
 40
0.1148184407
 40
0.1383073621
 40
0.1638079073
 40
0.191265878
 40
0.220618522
 40
0.2518010929
 40
0.2847451616
 40
0.3556391802
 40
0.3934507418
 40
0.4327454173
 40
0.4734520648
 40
0.5155039853
 40
0.5588329228
 40
0.6033787824
 40
0.6490804339
 40
0.6958865526
 40
0.7437579684
 40
0.7926809721
 40
0.8426702437
 40
0.8937871855
 40
0.9461597441
 40
1.0
 40
1.0
 40
1.0
 40
1.0
 10
7.6117921008
 20
3.6590406708
 30
0.0
 10
7.6117915765
 20
3.6590406584
 30
0.0
 10
7.6117902335
 20
3.659042254
 30
0.0
 10
7.6117875451
 20
3.6590446123
 30
0.0
 10
7.6117834711
 20
3.6590492862
 30
0.0
 10
7.611777975
 20
3.6590554617
 30
0.0
 10
7.6117710813
 20
3.659063537
 30
0.0
 10
7.6117627836
 20
3.6590733554
 30
0.0
 10
7.611753086
 20
3.6590849765
 30
0.0
 10
7.6117373238
 20
3.6591040142
 30
0.0
 10
7.6117141401
 20
3.6591322996
 30
0.0
 10
7.6116821566
 20
3.6591716331
 30
0.0
 10
7.611644576
 20
3.6592181185
 30
0.0
 10
7.6116014005
 20
3.6592717538
 30
0.0
 10
7.6115526369
 20
3.6593325351
 30
0.0
 10
7.6114764223
 20
3.6594278025
 30
0.0
 10
7.6113673085
 20
3.6595647079
 30
0.0
 10
7.6112198804
 20
3.6597503788
 30
0.0
 10
7.6110504554
 20
3.6599644233
 30
0.0
 10
7.6108591837
 20
3.6602067476
 30
0.0
 10
7.6106462667
 20
3.6604772613
 30
0.0
 10
7.6104119132
 20
3.660775854
 30
0.0
 10
7.6101563355
 20
3.6611024057
 30
0.0
 10
7.6098797789
 20
3.6614567963
 30
0.0
 10
7.6094694837
 20
3.6619843158
 30
0.0
 10
7.6089063864
 20
3.6627123325
 30
0.0
 10
7.608173015
 20
3.6636683164
 30
0.0
 10
7.6073643822
 20
3.6647327085
 30
0.0
 10
7.6064840045
 20
3.6659042901
 30
0.0
 10
7.6055360835
 20
3.6671821278
 30
0.0
 10
7.6045249711
 20
3.6685649931
 30
0.0
 10
7.6034561299
 20
3.670052074
 30
0.0
 10
7.6023351509
 20
3.6716422073
 30
0.0
 10
7.6007400316
 20
3.6739556993
 30
0.0
 10
7.5991093804
 20
3.6764121685
 30
0.0
 10
7.5974618311
 20
3.6790148336
 30
0.0
 10
7.5961848456
 20
3.6811081471
 30
0.0
 10
7.5949037918
 20
3.6833018476
 30
0.0
 10
7.5936291841
 20
3.6855959183
 30
0.0
 10
7.592375364
 20
3.6879920729
 30
0.0
 10
7.5911568596
 20
3.6904912941
 30
0.0
 10
7.5899919233
 20
3.6930955901
 30
0.0
 10
7.588900704
 20
3.6958066168
 30
0.0
 10
7.5879075897
 20
3.6986265902
 30
0.0
 10
7.587039829
 20
3.7015572211
 30
0.0
 10
7.5863315782
 20
3.7046004101
 30
0.0
 10
7.5858226536
 20
3.7077568493
 30
0.0
 10
7.5855607687
 20
3.7110244661
 30
0.0
 10
7.5855876133
 20
3.7132390942
 30
0.0
 10
7.585658699
 20
3.7143573672
 30
0.0
  0
LINE
  5
480
100
AcDbEntity
  8
0
100
AcDbLine
 62
7
  6
CONTINUOUS
 10
7.5603723626
 20
3.7069060227
 11
7.5578721537
 21
3.7553146555
  0
LINE
  5
481
100
AcDbEntity
  8
0
100
AcDbLine
 62
7
  6
CONTINUOUS
 10
7.5603723626
 20
3.7069060227
 11
7.1361436256
 21
3.7069095567
  0
LINE
  5
482
100
AcDbEntity
  8
0
100
AcDbLine
 62
7
  6
CONTINUOUS
 10
7.1400788967
 20
3.7423164842
 11
7.1361436256
 21
3.7069095567
  0
SPLINE
  5
483
100
AcDbEntity
  8
0
100
AcDbSpline
 62
7
  6
CONTINUOUS
 70
0
 71
3
 72
23
 73
19
 74
0
 42
0.0000001
 43
0.0000001
 44
0.0000000001
 40
0.0
 40
0.0
 40
0.0
 40
0.0
 40
0.0686063151
 40
0.1369545151
 40
0.2049220855
 40
0.2723870977
 40
0.4053214472
 40
0.4705536741
 40
0.5348047818
 40
0.5979567979
 40
0.6598953166
 40
0.7205111322
 40
0.7796959685
 40
0.8087169719
 40
0.8373381805
 40
0.8933323988
 40
0.947585712
 40
1.0
 40
1.0
 40
1.0
 40
1.0
 10
7.1549500941
 20
3.9103293113
 30
0.0
 10
7.1546549342
 20
3.9064832294
 30
0.0
 10
7.1540593052
 20
3.8988060279
 30
0.0
 10
7.1531546211
 20
3.8873198523
 30
0.0
 10
7.1522436557
 20
3.8758985442
 30
0.0
 10
7.1510235937
 20
3.8608590123
 30
0.0
 10
7.1497811121
 20
3.8459756181
 30
0.0
 10
7.148522403
 20
3.8312749655
 30
0.0
 10
7.1475811844
 20
3.8204850087
 30
0.0
 10
7.1466367074
 20
3.8098812452
 30
0.0
 10
7.1456902775
 20
3.7994828789
 30
0.0
 10
7.1447455594
 20
3.7893083517
 30
0.0
 10
7.1439567489
 20
3.78097811
 30
0.0
 10
7.1433267153
 20
3.7744397911
 30
0.0
 10
7.1427057197
 20
3.7680808301
 30
0.0
 10
7.1419327332
 20
3.7603112831
 30
0.0
 10
7.1410077694
 20
3.7512125089
 30
0.0
 10
7.1403879683
 20
3.7452472261
 30
0.0
 10
7.1400788967
 20
3.7423164842
 30
0.0
  0
SPLINE
  5
484
100
AcDbEntity
  8
0
100
AcDbSpline
 62
7
  6
CONTINUOUS
 70
0
 71
3
 72
66
 73
62
 74
0
 42
0.0000001
 43
0.0000001
 44
0.0000000001
 40
0.0
 40
0.0
 40
0.0
 40
0.0
 40
0.0000011927
 40
0.0000047704
 40
0.0000107328
 40
0.0000190797
 40
0.0000298109
 40
0.000042926
 40
0.0000763073
 40
0.0001192215
 40
0.0001716666
 40
0.0002336407
 40
0.0003051417
 40
0.0003861676
 40
0.0004767164
 40
0.0006863746
 40
0.000934098
 40
0.0012198663
 40
0.0015436591
 40
0.0019054562
 40
0.002305237
 40
0.0027429809
 40
0.0037322667
 40
0.0048731301
 40
0.0061653812
 40
0.0076087881
 40
0.0092031029
 40
0.0109480517
 40
0.0128433001
 40
0.0148885039
 40
0.0194273327
 40
0.0245615718
 40
0.030288142
 40
0.0366034592
 40
0.0435033807
 40
0.0509833504
 40
0.0590385886
 40
0.0676642879
 40
0.0768551465
 40
0.0866052258
 40
0.0969081436
 40
0.119146188
 40
0.1435141601
 40
0.1699513545
 40
0.1983933203
 40
0.2287696038
 40
0.2610038804
 40
0.295016069
 40
0.3307207524
 40
0.3680289292
 40
0.4068470426
 40
0.4470783137
 40
0.5313709606
 40
0.5752184217
 40
0.6200519542
 40
0.6657576715
 40
0.7122184309
 40
0.7593141463
 40
0.8069231764
 40
0.9031853454
 40
1.0
 40
1.0
 40
1.0
 40
1.0
 10
7.1743798356
 20
4.2007793679
 30
0.0
 10
7.174379945
 20
4.20077933
 30
0.0
 10
7.1743796281
 20
4.2007786793
 30
0.0
 10
7.1743798327
 20
4.2007778228
 30
0.0
 10
7.1743795571
 20
4.2007759871
 30
0.0
 10
7.174379461
 20
4.200773609
 30
0.0
 10
7.1743792212
 20
4.2007704746
 30
0.0
 10
7.1743788561
 20
4.2007649429
 30
0.0
 10
7.1743782578
 20
4.2007562816
 30
0.0
 10
7.1743774136
 20
4.2007438206
 30
0.0
 10
7.1743763778
 20
4.2007285881
 30
0.0
 10
7.1743751578
 20
4.2007105892
 30
0.0
 10
7.174373752
 20
4.2006898227
 30
0.0
 10
7.1743721619
 20
4.2006662899
 30
0.0
 10
7.1743696722
 20
4.2006293812
 30
0.0
 10
7.1743661037
 20
4.2005763332
 30
0.0
 10
7.1743612795
 20
4.200504384
 30
0.0
 10
7.1743557309
 20
4.2004213836
 30
0.0
 10
7.174349462
 20
4.2003273376
 30
0.0
 10
7.1743424763
 20
4.2002222517
 30
0.0
 10
7.1743347779
 20
4.2001061317
 30
0.0
 10
7.1743230822
 20
4.1999292554
 30
0.0
 10
7.1743066999
 20
4.1996806217
 30
0.0
 10
7.1742849475
 20
4.1993492459
 30
0.0
 10
7.1742603882
 20
4.1989738944
 30
0.0
 10
7.1742330354
 20
4.1985546314
 30
0.0
 10
7.1742029019
 20
4.1980915293
 30
0.0
 10
7.1741700045
 20
4.1975846705
 30
0.0
 10
7.1741343731
 20
4.1970341455
 30
0.0
 10
7.1740813923
 20
4.1962130751
 30
0.0
 10
7.1740085073
 20
4.1950783433
 30
0.0
 10
7.1739132206
 20
4.193587097
 30
0.0
 10
7.1738072588
 20
4.1919238016
 30
0.0
 10
7.1736906903
 20
4.1900895035
 30
0.0
 10
7.1735636776
 20
4.1880853866
 30
0.0
 10
7.1734264098
 20
4.1859127497
 30
0.0
 10
7.1732790363
 20
4.1835729583
 30
0.0
 10
7.1731214629
 20
4.1810674662
 30
0.0
 10
7.1729537288
 20
4.178397831
 30
0.0
 10
7.1727760302
 20
4.1755657539
 30
0.0
 10
7.1725195663
 20
4.1714701095
 30
0.0
 10
7.1721754597
 20
4.1659587434
 30
0.0
 10
7.1717344777
 20
4.1588848049
 30
0.0
 10
7.1712567574
 20
4.1512099971
 30
0.0
 10
7.1707419205
 20
4.1429533613
 30
0.0
 10
7.170190593
 20
4.1341353948
 30
0.0
 10
7.1696042822
 20
4.1247780595
 30
0.0
 10
7.1689832095
 20
4.114904853
 30
0.0
 10
7.1683287537
 20
4.104540433
 30
0.0
 10
7.1676409478
 20
4.093710853
 30
0.0
 10
7.1669210209
 20
4.0824431961
 30
0.0
 10
7.1659020084
 20
4.0666262662
 30
0.0
 10
7.1648373631
 20
4.0503232488
 30
0.0
 10
7.1637268212
 20
4.0335757145
 30
0.0
 10
7.1628549652
 20
4.0205648201
 30
0.0
 10
7.1619547163
 20
4.0073016855
 30
0.0
 10
7.1610268106
 20
3.9938204206
 30
0.0
 10
7.1600734043
 20
3.9801557934
 30
0.0
 10
7.1587639596
 20
3.961671843
 30
0.0
 10
7.1570745966
 20
3.9383783038
 30
0.0
 10
7.1556689592
 20
3.9196960737
 30
0.0
 10
7.1549500941
 20
3.9103293113
 30
0.0
  0
SPLINE
  5
485
100
AcDbEntity
  8
0
100
AcDbSpline
 62
7
  6
CONTINUOUS
 70
0
 71
3
 72
65
 73
61
 74
0
 42
0.0000001
 43
0.0000001
 44
0.0000000001
 40
0.0
 40
0.0
 40
0.0
 40
0.0
 40
0.0000011887
 40
0.0000047542
 40
0.0000106961
 40
0.0000190143
 40
0.0000297084
 40
0.0000427782
 40
0.0000760437
 40
0.0001188084
 40
0.0001710702
 40
0.0002328268
 40
0.000304076
 40
0.0004750432
 40
0.0006839539
 40
0.0009307902
 40
0.0012155342
 40
0.0015381677
 40
0.0018986721
 40
0.0022970281
 40
0.002733217
 40
0.0037190171
 40
0.0048559207
 40
0.0061437529
 40
0.0075822624
 40
0.0091711826
 40
0.0109102467
 40
0.0127991687
 40
0.0148376037
 40
0.0193615896
 40
0.0244793135
 40
0.0301877374
 40
0.0364834735
 40
0.0433621025
 40
0.0508190275
 40
0.0588497434
 40
0.0674494626
 40
0.0766124925
 40
0.0966040455
 40
0.118772774
 40
0.1430634975
 40
0.1694156344
 40
0.1977658919
 40
0.2280428309
 40
0.2601712094
 40
0.294072009
 40
0.3296613332
 40
0.3668534214
 40
0.4055573459
 40
0.4456801318
 40
0.4871247082
 40
0.5297897428
 40
0.5735728728
 40
0.6183688121
 40
0.6640711009
 40
0.7105703563
 40
0.7577549946
 40
0.8055130613
 40
0.9022949588
 40
1.0
 40
1.0
 40
1.0
 40
1.0
 10
7.048302101
 20
4.1666596131
 30
0.0
 10
7.0483020332
 20
4.1666595369
 30
0.0
 10
7.0483022804
 20
4.1666590714
 30
0.0
 10
7.0483022061
 20
4.1666582197
 30
0.0
 10
7.048302506
 20
4.1666566689
 30
0.0
 10
7.0483027269
 20
4.1666545596
 30
0.0
 10
7.0483030908
 20
4.166651823
 30
0.0
 10
7.048303696
 20
4.1666469715
 30
0.0
 10
7.0483046612
 20
4.1666393855
 30
0.0
 10
7.0483060403
 20
4.1666284662
 30
0.0
 10
7.0483077298
 20
4.1666151207
 30
0.0
 10
7.048309725
 20
4.166599351
 30
0.0
 10
7.0483129995
 20
4.1665734771
 30
0.0
 10
7.0483178597
 20
4.1665350777
 30
0.0
 10
7.0483246129
 20
4.1664817328
 30
0.0
 10
7.0483325934
 20
4.1664187035
 30
0.0
 10
7.0483418011
 20
4.1663459945
 30
0.0
 10
7.0483522354
 20
4.1662636105
 30
0.0
 10
7.0483638905
 20
4.1661715556
 30
0.0
 10
7.0483767608
 20
4.1660698339
 30
0.0
 10
7.0483963478
 20
4.1659148854
 30
0.0
 10
7.0484238349
 20
4.1656970654
 30
0.0
 10
7.0484603716
 20
4.1654067389
 30
0.0
 10
7.0485016342
 20
4.1650778592
 30
0.0
 10
7.0485475884
 20
4.1647104822
 30
0.0
 10
7.0485981976
 20
4.164304671
 30
0.0
 10
7.0486534251
 20
4.163860492
 30
0.0
 10
7.0487132346
 20
4.1633780184
 30
0.0
 10
7.0488021921
 20
4.162658389
 30
0.0
 10
7.0489246395
 20
4.1616637668
 30
0.0
 10
7.0490847606
 20
4.1603565287
 30
0.0
 10
7.0492621478
 20
4.1588982574
 30
0.0
 10
7.0494562662
 20
4.1572898267
 30
0.0
 10
7.0496671042
 20
4.1555323081
 30
0.0
 10
7.0498945497
 20
4.1536268574
 30
0.0
 10
7.0501380911
 20
4.1515746143
 30
0.0
 10
7.0503972797
 20
4.1493768215
 30
0.0
 10
7.0507745648
 20
4.1461596314
 30
0.0
 10
7.0512836348
 20
4.1417857277
 30
0.0
 10
7.0519385176
 20
4.136122112
 30
0.0
 10
7.0526504371
 20
4.1299157337
 30
0.0
 10
7.0534185662
 20
4.1231819649
 30
0.0
 10
7.0542385106
 20
4.1159371744
 30
0.0
 10
7.0551089097
 20
4.1081993437
 30
0.0
 10
7.0560291025
 20
4.099987887
 30
0.0
 10
7.0569958016
 20
4.0913229991
 30
0.0
 10
7.0580090556
 20
4.0822261547
 30
0.0
 10
7.0590656807
 20
4.0727194953
 30
0.0
 10
7.0601639585
 20
4.0628261093
 30
0.0
 10
7.0613017369
 20
4.0525700129
 30
0.0
 10
7.0624757329
 20
4.0419759949
 30
0.0
 10
7.0636864728
 20
4.0310700769
 30
0.0
 10
7.0649310129
 20
4.0198786054
 30
0.0
 10
7.066208227
 20
4.0084285717
 30
0.0
 10
7.0675154747
 20
3.9967474061
 30
0.0
 10
7.0688490264
 20
3.9848629599
 30
0.0
 10
7.0702098407
 20
3.9728040866
 30
0.0
 10
7.0720643465
 20
3.9564594046
 30
0.0
 10
7.0744300525
 20
3.9358103783
 30
0.0
 10
7.0763565768
 20
3.9192353965
 30
0.0
 10
7.0773333058
 20
3.9109096131
 30
0.0
  0
LINE
  5
486
100
AcDbEntity
  8
0
100
AcDbLine
 62
7
  6
CONTINUOUS
 10
7.5504654402
 20
3.910540949
 11
7.5390382065
 21
4.1855508043
  0
SPLINE
  5
487
100
AcDbEntity
  8
0
100
AcDbSpline
 62
7
  6
CONTINUOUS
 70
0
 71
3
 72
19
 73
15
 74
0
 42
0.0000001
 43
0.0000001
 44
0.0000000001
 40
0.0
 40
0.0
 40
0.0
 40
0.0
 40
0.054201466
 40
0.1099299065
 40
0.1671009845
 40
0.2256325821
 40
0.3464307422
 40
0.4715921178
 40
0.6003422922
 40
0.7318792623
 40
0.7984355514
 40
0.8653768408
 40
0.932600418
 40
1.0
 40
1.0
 40
1.0
 40
1.0
 10
7.5578721537
 20
3.7553146555
 30
0.0
 10
7.5577289282
 20
3.7581186977
 30
0.0
 10
7.5574377967
 20
3.7638057451
 30
0.0
 10
7.5569955262
 20
3.7724504603
 30
0.0
 10
7.5565424252
 20
3.7813192206
 30
0.0
 10
7.5559204986
 20
3.793554437
 30
0.0
 10
7.5551322033
 20
3.8093077175
 30
0.0
 10
7.5541869591
 20
3.8286950835
 30
0.0
 10
7.5532414726
 20
3.8486393637
 30
0.0
 10
7.5524639407
 20
3.8655523686
 30
0.0
 10
7.5518467559
 20
3.8792675808
 30
0.0
 10
7.5513835313
 20
3.8896548418
 30
0.0
 10
7.5509220491
 20
3.9000859068
 30
0.0
 10
7.5506174207
 20
3.9070528833
 30
0.0
 10
7.5504654402
 20
3.910540949
 30
0.0
  0
SPLINE
  5
488
100
AcDbEntity
  8
0
100
AcDbSpline
 62
7
  6
CONTINUOUS
 70
0
 71
3
 72
42
 73
38
 74
0
 42
0.0000001
 43
0.0000001
 44
0.0000000001
 40
0.0
 40
0.0
 40
0.0
 40
0.0
 40
0.0000227424
 40
0.0000835635
 40
0.0001824862
 40
0.0003195075
 40
0.0007078205
 40
0.0012484451
 40
0.00194132
 40
0.0027863827
 40
0.0037835706
 40
0.0049328207
 40
0.0076872558
 40
0.0110490129
 40
0.0150160013
 40
0.0195854403
 40
0.0247545541
 40
0.0305205768
 40
0.0368807289
 40
0.0438314877
 40
0.0594872451
 40
0.0774527054
 40
0.0976893561
 40
0.1201440313
 40
0.144760339
 40
0.1714774701
 40
0.2002229552
 40
0.2309233689
 40
0.2978563952
 40
0.3715345601
 40
0.4511311297
 40
0.5357467956
 40
0.6244288979
 40
0.716188933
 40
0.8100355157
 40
0.9049748755
 40
1.0
 40
1.0
 40
1.0
 40
1.0
 10
7.5986152679
 20
3.6479441547
 30
0.0
 10
7.5986151173
 20
3.6479442942
 30
0.0
 10
7.5986143299
 20
3.6479444404
 30
0.0
 10
7.5986128441
 20
3.6479450795
 30
0.0
 10
7.5986102656
 20
3.6479458752
 30
0.0
 10
7.5986049394
 20
3.6479476773
 30
0.0
 10
7.5985957751
 20
3.6479506349
 30
0.0
 10
7.598581856
 20
3.6479551521
 30
0.0
 10
7.5985639938
 20
3.6479608926
 30
0.0
 10
7.5985422051
 20
3.6479678763
 30
0.0
 10
7.5985164847
 20
3.6479760911
 30
0.0
 10
7.5984743384
 20
3.647989518
 30
0.0
 10
7.5984118362
 20
3.6480093572
 30
0.0
 10
7.5983250657
 20
3.6480368012
 30
0.0
 10
7.5982226313
 20
3.6480690431
 30
0.0
 10
7.5981045751
 20
3.6481059853
 30
0.0
 10
7.5979709456
 20
3.6481475305
 30
0.0
 10
7.5978217911
 20
3.6481935792
 30
0.0
 10
7.5976571679
 20
3.648244034
 30
0.0
 10
7.597407032
 20
3.648320089
 30
0.0
 10
7.5970562671
 20
3.6484252503
 30
0.0
 10
7.5965898539
 20
3.6485622028
 30
0.0
 10
7.5960636179
 20
3.6487131963
 30
0.0
 10
7.5954785101
 20
3.6488766123
 30
0.0
 10
7.5948356965
 20
3.6490507841
 30
0.0
 10
7.594136525
 20
3.6492339739
 30
0.0
 10
7.5933824924
 20
3.6494243241
 30
0.0
 10
7.592273909
 20
3.6496929479
 30
0.0
 10
7.590765632
 20
3.6500338385
 30
0.0
 10
7.5888177037
 20
3.6504293811
 30
0.0
 10
7.5867039768
 20
3.6508077103
 30
0.0
 10
7.5844477583
 20
3.6511548404
 30
0.0
 10
7.582074658
 20
3.6514594528
 30
0.0
 10
7.5796116199
 20
3.6517115919
 30
0.0
 10
7.5770864122
 20
3.6519025442
 30
0.0
 10
7.5745274621
 20
3.6520254251
 30
0.0
 10
7.5728128078
 20
3.6520554797
 30
0.0
 10
7.5719551457
 20
3.6520554735
 30
0.0
  0
SPLINE
  5
489
100
AcDbEntity
  8
0
100
AcDbSpline
 62
7
  6
CONTINUOUS
 70
0
 71
3
 72
43
 73
39
 74
0
 42
0.0000001
 43
0.0000001
 44
0.0000000001
 40
0.0
 40
0.0
 40
0.0
 40
0.0
 40
0.0946097007
 40
0.1884878634
 40
0.2808966029
 40
0.3711008144
 40
0.4583405686
 40
0.541828397
 40
0.6207603728
 40
0.6943146146
 40
0.7616793305
 40
0.7927911208
 40
0.8220604026
 40
0.849391303
 40
0.874694694
 40
0.8978835805
 40
0.9188744719
 40
0.9375930252
 40
0.9539664897
 40
0.9612542786
 40
0.9679333087
 40
0.9739964288
 40
0.9794367859
 40
0.9842491353
 40
0.9884286896
 40
0.9919706373
 40
0.9948701921
 40
0.9960779529
 40
0.997124135
 40
0.9980085919
 40
0.9987311774
 40
0.9992917454
 40
0.9995112275
 40
0.9996901512
 40
0.999828499
 40
0.9999262548
 40
0.9999834076
 40
1.0
 40
1.0
 40
1.0
 40
1.0
 10
7.1234099511
 20
3.6520554743
 30
0.0
 10
7.1223188807
 20
3.6520554737
 30
0.0
 10
7.1201450603
 20
3.6520223922
 30
0.0
 10
7.116908302
 20
3.6518830669
 30
0.0
 10
7.1137270183
 20
3.6516617929
 30
0.0
 10
7.1106290657
 20
3.6513621114
 30
0.0
 10
7.1076426014
 20
3.6509900679
 30
0.0
 10
7.1047965202
 20
3.65055222
 30
0.0
 10
7.1021197718
 20
3.650059392
 30
0.0
 10
7.099640835
 20
3.6495255599
 30
0.0
 10
7.0977143378
 20
3.6490503886
 30
0.0
 10
7.096292242
 20
3.6486655412
 30
0.0
 10
7.0953196216
 20
3.6483875872
 30
0.0
 10
7.094415065
 20
3.6481155854
 30
0.0
 10
7.0935810364
 20
3.6478528216
 30
0.0
 10
7.0928197828
 20
3.6476026017
 30
0.0
 10
7.0921333408
 20
3.6473681385
 30
0.0
 10
7.0915235481
 20
3.6471525605
 30
0.0
 10
7.0910643155
 20
3.6469852968
 30
0.0
 10
7.0907363445
 20
3.6468633889
 30
0.0
 10
7.0905201443
 20
3.6467820563
 30
0.0
 10
7.0903241497
 20
3.6467075257
 30
0.0
 10
7.0901484821
 20
3.6466401091
 30
0.0
 10
7.0899932624
 20
3.6465800391
 30
0.0
 10
7.089858591
 20
3.6465275343
 30
0.0
 10
7.0897445635
 20
3.6464828075
 30
0.0
 10
7.0896624816
 20
3.6464504939
 30
0.0
 10
7.0896071853
 20
3.6464287097
 30
0.0
 10
7.089573514
 20
3.6464154412
 30
0.0
 10
7.0895450412
 20
3.646404223
 30
0.0
 10
7.0895217931
 20
3.6463950749
 30
0.0
 10
7.089505634
 20
3.6463887258
 30
0.0
 10
7.0894953781
 20
3.6463847227
 30
0.0
 10
7.0894895174
 20
3.646382429
 30
0.0
 10
7.0894852884
 20
3.6463808293
 30
0.0
 10
7.0894816035
 20
3.6463793467
 30
0.0
 10
7.0894806356
 20
3.6463791294
 30
0.0
 10
7.0894789806
 20
3.6463784029
 30
0.0
 10
7.0894791094
 20
3.6463785443
 30
0.0
  0
SPLINE
  5
48A
100
AcDbEntity
  8
0
100
AcDbSpline
 62
7
  6
CONTINUOUS
 70
0
 71
3
 72
28
 73
24
 74
0
 42
0.0000001
 43
0.0000001
 44
0.0000000001
 40
0.0
 40
0.0
 40
0.0
 40
0.0
 40
0.0023530163
 40
0.0048444123
 40
0.0076141432
 40
0.0107648581
 40
0.018454947
 40
0.0282455782
 40
0.0402691172
 40
0.0545755574
 40
0.0711735352
 40
0.0900444244
 40
0.1111529341
 40
0.1344482679
 40
0.1873425361
 40
0.2481219595
 40
0.3160454479
 40
0.3902615989
 40
0.4698286207
 40
0.5537318448
 40
0.6409027569
 40
0.8206102199
 40
1.0
 40
1.0
 40
1.0
 40
1.0
 10
6.6818990117
 20
3.9701214806
 30
0.0
 10
6.6818894787
 20
3.9701220713
 30
0.0
 10
6.681869927
 20
3.970126038
 30
0.0
 10
6.6818420345
 20
3.9701400059
 30
0.0
 10
6.6818153613
 20
3.9701616641
 30
0.0
 10
6.6817788667
 20
3.9702034048
 30
0.0
 10
6.6817370813
 20
3.9702767543
 30
0.0
 10
6.6816935324
 20
3.970388499
 30
0.0
 10
6.681653608
 20
3.9705297688
 30
0.0
 10
6.681617467
 20
3.9707003114
 30
0.0
 10
6.6815852806
 20
3.9708998417
 30
0.0
 10
6.6815571954
 20
3.9711278145
 30
0.0
 10
6.681533339
 20
3.971383577
 30
0.0
 10
6.6815061615
 20
3.9717776191
 30
0.0
 10
6.6814850519
 20
3.9723333228
 30
0.0
 10
6.6814782633
 20
3.9730704908
 30
0.0
 10
6.6814894442
 20
3.9738941557
 30
0.0
 10
6.6815185043
 20
3.9747936716
 30
0.0
 10
6.6815651295
 20
3.9757573868
 30
0.0
 10
6.6816287226
 20
3.9767728204
 30
0.0
 10
6.6817361692
 20
3.978192671
 30
0.0
 10
6.6819058521
 20
3.9799963508
 30
0.0
 10
6.6820752968
 20
3.9814442525
 30
0.0
 10
6.6821687719
 20
3.9821663989
 30
0.0
  0
SPLINE
  5
48B
100
AcDbEntity
  8
0
100
AcDbSpline
 62
7
  6
CONTINUOUS
 70
0
 71
3
 72
47
 73
43
 74
0
 42
0.0000001
 43
0.0000001
 44
0.0000000001
 40
0.0
 40
0.0
 40
0.0
 40
0.0
 40
0.0873775929
 40
0.1753907621
 40
0.2633165196
 40
0.3503864231
 40
0.3933534307
 40
0.4358070218
 40
0.477636696
 40
0.5187284236
 40
0.5589679969
 40
0.598239399
 40
0.6733881204
 40
0.7431891732
 40
0.7757701347
 40
0.8066331961
 40
0.8356519259
 40
0.8626987429
 40
0.8876488736
 40
0.9103806877
 40
0.930775073
 40
0.9487223222
 40
0.9567445293
 40
0.9641165557
 40
0.9708274792
 40
0.9768663142
 40
0.9822223544
 40
0.9868872752
 40
0.9908537837
 40
0.9925728497
 40
0.9941145698
 40
0.9954780571
 40
0.9966627721
 40
0.9976684046
 40
0.9984946488
 40
0.9991412011
 40
0.9993969992
 40
0.9996077632
 40
0.9997734584
 40
0.999894055
 40
0.9999695382
 40
1.0
 40
1.0
 40
1.0
 40
1.0
 10
7.1257297111
 20
3.658257125
 30
0.0
 10
7.1245887269
 20
3.6583785885
 30
0.0
 10
7.1222938083
 20
3.6585803428
 30
0.0
 10
7.1188405028
 20
3.6587679321
 30
0.0
 10
7.1153870999
 20
3.6588479427
 30
0.0
 10
7.1125244207
 20
3.6588268353
 30
0.0
 10
7.1102603128
 20
3.6587563461
 30
0.0
 10
7.1085910728
 20
3.6586773022
 30
0.0
 10
7.1069479151
 20
3.6585727572
 30
0.0
 10
7.1053356662
 20
3.6584437015
 30
0.0
 10
7.1037592183
 20
3.6582910784
 30
0.0
 10
7.1017412462
 20
3.65806098
 30
0.0
 10
7.0993446674
 20
3.6577275975
 30
0.0
 10
7.0970472813
 20
3.6573286357
 30
0.0
 10
7.0953312336
 20
3.6569865041
 30
0.0
 10
7.094144369
 20
3.6567300231
 30
0.0
 10
7.093032367
 20
3.6564718556
 30
0.0
 10
7.0919996476
 20
3.6562160728
 30
0.0
 10
7.09105045
 20
3.6559668993
 30
0.0
 10
7.0901887616
 20
3.6557287481
 30
0.0
 10
7.0894183146
 20
3.6555059106
 30
0.0
 10
7.0888352812
 20
3.655330479
 30
0.0
 10
7.0884169261
 20
3.6552013265
 30
0.0
 10
7.088139928
 20
3.6551145151
 30
0.0
 10
7.0878880949
 20
3.6550345063
 30
0.0
 10
7.0876617442
 20
3.6549617273
 30
0.0
 10
7.0874611546
 20
3.6548966067
 30
0.0
 10
7.0872865864
 20
3.6548394669
 30
0.0
 10
7.0871574941
 20
3.6547969253
 30
0.0
 10
7.0870673841
 20
3.6547671308
 30
0.0
 10
7.0870097354
 20
3.6547480471
 30
0.0
 10
7.086958747
 20
3.6547311717
 30
0.0
 10
7.0869144364
 20
3.6547165255
 30
0.0
 10
7.0868768161
 20
3.6547041174
 30
0.0
 10
7.0868458953
 20
3.6546939628
 30
0.0
 10
7.0868243146
 20
3.6546869168
 30
0.0
 10
7.0868104043
 20
3.654682436
 30
0.0
 10
7.0868024935
 20
3.6546798938
 30
0.0
 10
7.0867962699
 20
3.654677982
 30
0.0
 10
7.0867917174
 20
3.6546764922
 30
0.0
 10
7.0867888749
 20
3.6546758592
 30
0.0
 10
7.0867875049
 20
3.6546753022
 30
0.0
 10
7.0867871112
 20
3.6546753729
 30
0.0
  0
SPLINE
  5
48C
100
AcDbEntity
  8
0
100
AcDbSpline
 62
7
  6
CONTINUOUS
 70
0
 71
3
 72
15
 73
11
 74
0
 42
0.0000001
 43
0.0000001
 44
0.0000000001
 40
0.0
 40
0.0
 40
0.0
 40
0.0
 40
0.1276672793
 40
0.254852612
 40
0.3813935413
 40
0.5071394464
 40
0.6319623698
 40
0.7557589661
 40
0.8784521106
 40
1.0
 40
1.0
 40
1.0
 40
1.0
 10
7.1024355998
 20
3.7159083935
 30
0.0
 10
7.1039437272
 20
3.7159880106
 30
0.0
 10
7.1069617228
 20
3.716031079
 30
0.0
 10
7.1114686846
 20
3.7157455129
 30
0.0
 10
7.1159173956
 20
3.715111836
 30
0.0
 10
7.120274848
 20
3.7141345857
 30
0.0
 10
7.1245090675
 20
3.7128208882
 30
0.0
 10
7.1285889672
 20
3.7111802318
 30
0.0
 10
7.1324841917
 20
3.7092248214
 30
0.0
 10
7.1349512651
 20
3.7077131332
 30
0.0
 10
7.1361436307
 20
3.7069096131
 30
0.0
  0
SPLINE
  5
48D
100
AcDbEntity
  8
0
100
AcDbSpline
 62
7
  6
CONTINUOUS
 70
0
 71
3
 72
13
 73
9
 74
0
 42
0.0000001
 43
0.0000001
 44
0.0000000001
 40
0.0
 40
0.0
 40
0.0
 40
0.0
 40
0.2577069454
 40
0.5115630189
 40
0.6364371877
 40
0.7595816938
 40
0.8808133228
 40
1.0
 40
1.0
 40
1.0
 40
1.0
 10
7.0973603866
 20
3.7515105463
 30
0.0
 10
7.1011567229
 20
3.7517621192
 30
0.0
 10
7.1087360883
 20
3.7517529946
 30
0.0
 10
7.1180734827
 20
3.7504430302
 30
0.0
 10
7.1252621731
 20
3.7486244122
 30
0.0
 10
7.1304390123
 20
3.7468990548
 30
0.0
 10
7.1353918946
 20
3.7448175559
 30
0.0
 10
7.1385498476
 20
3.7431872627
 30
0.0
 10
7.1400788967
 20
3.7423164842
 30
0.0
  0
SPLINE
  5
48E
100
AcDbEntity
  8
0
100
AcDbSpline
 62
7
  6
CONTINUOUS
 70
0
 71
3
 72
15
 73
11
 74
0
 42
0.0000001
 43
0.0000001
 44
0.0000000001
 40
0.0
 40
0.0
 40
0.0
 40
0.0
 40
0.1325840645
 40
0.2644285198
 40
0.3948022898
 40
0.5229822445
 40
0.6482622785
 40
0.7699578643
 40
0.8874111734
 40
1.0
 40
1.0
 40
1.0
 40
1.0
 10
7.0773333058
 20
3.9109096131
 30
0.0
 10
7.0807582858
 20
3.9111704774
 30
0.0
 10
7.0875945997
 20
3.9116217598
 30
0.0
 10
7.0978129216
 20
3.9120880457
 30
0.0
 10
7.1079246988
 20
3.9123403261
 30
0.0
 10
7.1178695163
 20
3.9123771256
 30
0.0
 10
7.1275879785
 20
3.9121982968
 30
0.0
 10
7.1370220902
 20
3.9118049849
 30
0.0
 10
7.14611549
 20
3.9111996626
 30
0.0
 10
7.1520503058
 20
3.9106445846
 30
0.0
 10
7.1549500941
 20
3.9103293113
 30
0.0
  0
SPLINE
  5
48F
100
AcDbEntity
  8
0
100
AcDbSpline
 62
7
  6
CONTINUOUS
 70
0
 71
3
 72
14
 73
10
 74
0
 42
0.0000001
 43
0.0000001
 44
0.0000000001
 40
0.0
 40
0.0
 40
0.0
 40
0.0
 40
0.2678321809
 40
0.3992623923
 40
0.5279554029
 40
0.6531242444
 40
0.7740055308
 40
0.889863477
 40
1.0
 40
1.0
 40
1.0
 40
1.0
 10
7.5953713542
 20
3.9109096131
 30
0.0
 10
7.5913632378
 20
3.9110557134
 30
0.0
 10
7.5853856781
 20
3.9112104567
 30
0.0
 10
7.5774797892
 20
3.9112839982
 30
0.0
 10
7.5717099247
 20
3.9112716966
 30
0.0
 10
7.5660985788
 20
3.9111924546
 30
0.0
 10
7.5606808125
 20
3.9110467951
 30
0.0
 10
7.5554904845
 20
3.9108356925
 30
0.0
 10
7.5521113091
 20
3.9106471212
 30
0.0
 10
7.5504654392
 20
3.910540949
 30
0.0
  0
SPLINE
  5
490
100
AcDbEntity
  8
0
100
AcDbSpline
 62
7
  6
CONTINUOUS
 70
0
 71
3
 72
13
 73
9
 74
0
 42
0.0000001
 43
0.0000001
 44
0.0000000001
 40
0.0
 40
0.0
 40
0.0
 40
0.0
 40
0.2606538075
 40
0.3893774739
 40
0.5164093107
 40
0.6413446521
 40
0.7638167253
 40
1.0
 40
1.0
 40
1.0
 40
1.0
 10
7.5882945877
 20
3.7621275068
 30
0.0
 10
7.5855595214
 20
3.7621637176
 30
0.0
 10
7.5814653378
 20
3.7619878092
 30
0.0
 10
7.5760897836
 20
3.7612843045
 30
0.0
 10
7.5721638367
 20
3.7605314253
 30
0.0
 10
7.5683545008
 20
3.7595561614
 30
0.0
 10
7.5635260292
 20
3.7579879399
 30
0.0
 10
7.5600624938
 20
3.7564745769
 30
0.0
 10
7.5578721488
 20
3.7553146591
 30
0.0
  0
SPLINE
  5
491
100
AcDbEntity
  8
0
100
AcDbSpline
 62
7
  6
CONTINUOUS
 70
0
 71
3
 72
15
 73
11
 74
0
 42
0.0000001
 43
0.0000001
 44
0.0000000001
 40
0.0
 40
0.0
 40
0.0
 40
0.0
 40
0.1282890262
 40
0.2560721769
 40
0.3831083755
 40
0.5091685346
 40
0.6340481633
 40
0.7575704002
 40
0.8795890839
 40
1.0
 40
1.0
 40
1.0
 40
1.0
 10
7.585658699
 20
3.7143573672
 30
0.0
 10
7.5845149441
 20
3.7143590697
 30
0.0
 10
7.5822309888
 20
3.7142818932
 30
0.0
 10
7.5788314019
 20
3.7139242288
 30
0.0
 10
7.5754855273
 20
3.7133273076
 30
0.0
 10
7.5722169296
 20
3.7124952277
 30
0.0
 10
7.5690483976
 20
3.7114337688
 30
0.0
 10
7.5660020332
 20
3.7101502139
 30
0.0
 10
7.563099353
 20
3.7086536157
 30
0.0
 10
7.561260465
 20
3.7075125692
 30
0.0
 10
7.5603722717
 20
3.7069096131
 30
0.0
  0
SPLINE
  5
492
100
AcDbEntity
  8
0
100
AcDbSpline
 62
7
  6
CONTINUOUS
 70
0
 71
3
 72
44
 73
40
 74
0
 42
0.0000001
 43
0.0000001
 44
0.0000000001
 40
0.0
 40
0.0
 40
0.0
 40
0.0
 40
0.0000227564
 40
0.000085749
 40
0.0001890246
 40
0.0003325806
 40
0.0005164083
 40
0.0007404971
 40
0.0013094136
 40
0.0020392385
 40
0.0029298784
 40
0.0039812391
 40
0.0051932262
 40
0.0065657453
 40
0.0080987002
 40
0.0116448652
 40
0.0158285771
 40
0.0206464359
 40
0.0260950547
 40
0.0321710523
 40
0.0388702405
 40
0.046186892
 40
0.0626491182
 40
0.0815102641
 40
0.1027104375
 40
0.1261810865
 40
0.1518504615
 40
0.1796330772
 40
0.2094412056
 40
0.2411796526
 40
0.3100045217
 40
0.3851902867
 40
0.4657233562
 40
0.5505365805
 40
0.6385120177
 40
0.7285385929
 40
0.819511195
 40
0.9103467325
 40
1.0
 40
1.0
 40
1.0
 40
1.0
 10
7.5998320928
 20
3.6561706208
 30
0.0
 10
7.5998319696
 20
3.6561708168
 30
0.0
 10
7.5998309411
 20
3.6561708719
 30
0.0
 10
7.5998292831
 20
3.6561716231
 30
0.0
 10
7.599826152
 20
3.6561723825
 30
0.0
 10
7.5998219803
 20
3.6561736179
 30
0.0
 10
7.5998165585
 20
3.6561751001
 30
0.0
 10
7.5998069873
 20
3.6561777452
 30
0.0
 10
7.5997920372
 20
3.6561818093
 30
0.0
 10
7.5997705418
 20
3.6561876201
 30
0.0
 10
7.5997442954
 20
3.656194668
 30
0.0
 10
7.5997133042
 20
3.6562029531
 30
0.0
 10
7.5996775683
 20
3.6562124688
 30
0.0
 10
7.59963709
 20
3.6562232108
 30
0.0
 10
7.5995736521
 20
3.6562399953
 30
0.0
 10
7.5994825439
 20
3.6562639861
 30
0.0
 10
7.5993590654
 20
3.6562962547
 30
0.0
 10
7.5992167892
 20
3.6563331231
 30
0.0
 10
7.5990557899
 20
3.6563744641
 30
0.0
 10
7.5988761516
 20
3.6564201535
 30
0.0
 10
7.5986779763
 20
3.6564700402
 30
0.0
 10
7.5983771437
 20
3.6565448634
 30
0.0
 10
7.5979557618
 20
3.6566475042
 30
0.0
 10
7.5973962445
 20
3.6567796733
 30
0.0
 10
7.5967662017
 20
3.6569232818
 30
0.0
 10
7.5960672785
 20
3.6570761805
 30
0.0
 10
7.5953014068
 20
3.6572361806
 30
0.0
 10
7.5944706944
 20
3.6574008136
 30
0.0
 10
7.5935775216
 20
3.6575675557
 30
0.0
 10
7.5922712095
 20
3.6577955362
 30
0.0
 10
7.5905044764
 20
3.6580691465
 30
0.0
 10
7.5882385452
 20
3.6583572304
 30
0.0
 10
7.585803278
 20
3.6585951398
 30
0.0
 10
7.5832320291
 20
3.6587671717
 30
0.0
 10
7.5805600507
 20
3.6588606887
 30
0.0
 10
7.5778237544
 20
3.6588655706
 30
0.0
 10
7.5750597445
 20
3.6587757905
 30
0.0
 10
7.5723046819
 20
3.6585840188
 30
0.0
 10
7.5704794933
 20
3.6583802819
 30
0.0
 10
7.5695759657
 20
3.6582571511
 30
0.0
  0
LINE
  5
493
100
AcDbEntity
  8
0
100
AcDbLine
 62
7
  6
CONTINUOUS
 10
6.6972191991
 20
3.7541987629
 11
6.696650913
 21
3.755035814
  0
SPLINE
  5
494
100
AcDbEntity
  8
0
100
AcDbSpline
 62
7
  6
CONTINUOUS
 70
0
 71
3
 72
27
 73
23
 74
0
 42
0.0000001
 43
0.0000001
 44
0.0000000001
 40
0.0
 40
0.0
 40
0.0
 40
0.0
 40
0.0181464667
 40
0.0388094658
 40
0.0618735743
 40
0.0872101184
 40
0.1441307949
 40
0.208348502
 40
0.2785245387
 40
0.3532294586
 40
0.4309577642
 40
0.5101371795
 40
0.5891395143
 40
0.6662949748
 40
0.7399145891
 40
0.8083245732
 40
0.8699152111
 40
0.9232009637
 40
0.9463179105
 40
0.9668962494
 40
0.9848203304
 40
1.0
 40
1.0
 40
1.0
 40
1.0
 10
6.696650913
 20
3.755035814
 30
0.0
 10
6.6966020965
 20
3.7551451141
 30
0.0
 10
6.6965023247
 20
3.7553809454
 30
0.0
 10
6.6963537256
 20
3.7557611298
 30
0.0
 10
6.6961971427
 20
3.7561889993
 30
0.0
 10
6.6959700225
 20
3.7568456276
 30
0.0
 10
6.6956750831
 20
3.7577658886
 30
0.0
 10
6.6953162586
 20
3.7589759149
 30
0.0
 10
6.6949478807
 20
3.7603052373
 30
0.0
 10
6.6945776259
 20
3.7617263265
 30
0.0
 10
6.6942131748
 20
3.7632101433
 30
0.0
 10
6.6938621021
 20
3.764726293
 30
0.0
 10
6.693531844
 20
3.7662432461
 30
0.0
 10
6.6932295921
 20
3.7677286221
 30
0.0
 10
6.6929621687
 20
3.7691496252
 30
0.0
 10
6.6927357875
 20
3.770473706
 30
0.0
 10
6.6925559529
 20
3.7716694208
 30
0.0
 10
6.6924434122
 20
3.7725729047
 30
0.0
 10
6.6923823856
 20
3.7732097801
 30
0.0
 10
6.6923528837
 20
3.7736152398
 30
0.0
 10
6.6923375256
 20
3.773969081
 30
0.0
 10
6.6923365927
 20
3.7741875577
 30
0.0
 10
6.6923392661
 20
3.7742876572
 30
0.0
  0
LINE
  5
495
100
AcDbEntity
  8
0
100
AcDbLine
 62
7
  6
CONTINUOUS
 10
6.6923392661
 20
3.7742876572
 11
6.6923802555
 21
3.7747083733
  0
SPLINE
  5
496
100
AcDbEntity
  8
0
100
AcDbSpline
 62
7
  6
CONTINUOUS
 70
0
 71
3
 72
21
 73
17
 74
0
 42
0.0000001
 43
0.0000001
 44
0.0000000001
 40
0.0
 40
0.0
 40
0.0
 40
0.0
 40
0.0446459954
 40
0.0901543149
 40
0.1373025373
 40
0.1867417066
 40
0.2389549672
 40
0.2942603759
 40
0.3528204285
 40
0.4146615177
 40
0.4796938536
 40
0.5477303173
 40
0.618503369
 40
0.6916792732
 40
0.84358757
 40
1.0
 40
1.0
 40
1.0
 40
1.0
 10
7.6698381773
 20
3.774980934
 30
0.0
 10
7.6698381772
 20
3.774799015
 30
0.0
 10
7.6698065407
 20
3.7744309253
 30
0.0
 10
7.66966538
 20
3.7738870957
 30
0.0
 10
7.6694323019
 20
3.7733546033
 30
0.0
 10
7.6691102253
 20
3.7728386416
 30
0.0
 10
7.6687026344
 20
3.7723436808
 30
0.0
 10
7.6682135996
 20
3.7718739574
 30
0.0
 10
7.667647733
 20
3.771433478
 30
0.0
 10
7.6670102514
 20
3.7710260531
 30
0.0
 10
7.6663069765
 20
3.7706552626
 30
0.0
 10
7.6655443284
 20
3.7703244142
 30
0.0
 10
7.6647292542
 20
3.7700364685
 30
0.0
 10
7.6635682351
 20
3.7697092753
 30
0.0
 10
7.6620358745
 20
3.7694265454
 30
0.0
 10
7.6607798921
 20
3.7693371822
 30
0.0
 10
7.6601426531
 20
3.7693262004
 30
0.0
  0
SPLINE
  5
497
100
AcDbEntity
  8
0
100
AcDbSpline
 62
7
  6
CONTINUOUS
 70
0
 71
3
 72
16
 73
12
 74
0
 42
0.0000001
 43
0.0000001
 44
0.0000000001
 40
0.0
 40
0.0
 40
0.0
 40
0.0
 40
0.1276637773
 40
0.1918717056
 40
0.2561592521
 40
0.3844194182
 40
0.5117056658
 40
0.6372880514
 40
0.7606409131
 40
0.8815144914
 40
1.0
 40
1.0
 40
1.0
 40
1.0
 10
7.1257296868
 20
3.6582571235
 30
0.0
 10
7.1258219284
 20
3.6579665389
 30
0.0
 10
7.1259237941
 20
3.6575169283
 30
0.0
 10
7.1259842495
 20
3.6569077008
 30
0.0
 10
7.1259944491
 20
3.6562940042
 30
0.0
 10
7.1259126922
 20
3.6555308197
 30
0.0
 10
7.1256664614
 20
3.6546502475
 30
0.0
 10
7.1252801886
 20
3.6538341419
 30
0.0
 10
7.1247662881
 20
3.6531100733
 30
0.0
 10
7.1241419761
 20
3.6525028083
 30
0.0
 10
7.1236606922
 20
3.6521865941
 30
0.0
 10
7.1234099511
 20
3.6520554743
 30
0.0
  0
SPLINE
  5
498
100
AcDbEntity
  8
0
100
AcDbSpline
 62
7
  6
CONTINUOUS
 70
0
 71
3
 72
17
 73
13
 74
0
 42
0.0000001
 43
0.0000001
 44
0.0000000001
 40
0.0
 40
0.0
 40
0.0
 40
0.0
 40
0.1270635304
 40
0.190904254
 40
0.2548083339
 40
0.3823404709
 40
0.5091066115
 40
0.5720779483
 40
0.6346561261
 40
0.7583416938
 40
0.8800957091
 40
1.0
 40
1.0
 40
1.0
 40
1.0
 10
7.5695758097
 20
3.658257128
 30
0.0
 10
7.5694813019
 20
3.6579668625
 30
0.0
 10
7.569376755
 20
3.657517289
 30
0.0
 10
7.5693147083
 20
3.6569077635
 30
0.0
 10
7.5693042426
 20
3.6562938954
 30
0.0
 10
7.5693881834
 20
3.6555301684
 30
0.0
 10
7.5695996189
 20
3.6547937059
 30
0.0
 10
7.5698412656
 20
3.6542370289
 30
0.0
 10
7.5701270449
 20
3.6537101251
 30
0.0
 10
7.5705653395
 20
3.6531084558
 30
0.0
 10
7.5712059305
 20
3.6525015605
 30
0.0
 10
7.5716985107
 20
3.6521863138
 30
0.0
 10
7.5719551457
 20
3.6520554735
 30
0.0
  0
SPLINE
  5
499
100
AcDbEntity
  8
0
100
AcDbSpline
 62
7
  6
CONTINUOUS
 70
0
 71
3
 72
33
 73
29
 74
0
 42
0.0000001
 43
0.0000001
 44
0.0000000001
 40
0.0
 40
0.0
 40
0.0
 40
0.0
 40
0.0037681904
 40
0.0078781987
 40
0.0124480428
 40
0.0175598848
 40
0.0232689691
 40
0.0296111735
 40
0.0442670282
 40
0.0616111004
 40
0.0816318251
 40
0.1042674597
 40
0.1294238471
 40
0.1569829453
 40
0.1868075623
 40
0.2526266639
 40
0.3255087915
 40
0.4038886137
 40
0.48603254
 40
0.5700576983
 40
0.6539574074
 40
0.7356465546
 40
0.8130250611
 40
0.8840637328
 40
0.9166181268
 40
0.9469107663
 40
0.9747603723
 40
1.0
 40
1.0
 40
1.0
 40
1.0
 10
6.6966528592
 20
3.7885369951
 30
0.0
 10
6.696628082
 20
3.7885385346
 30
0.0
 10
6.6965765484
 20
3.7885477675
 30
0.0
 10
6.6964997513
 20
3.7885776073
 30
0.0
 10
6.696420952
 20
3.7886234414
 30
0.0
 10
6.696340143
 20
3.7886850182
 30
0.0
 10
6.6962572961
 20
3.7887621859
 30
0.0
 10
6.6961384149
 20
3.7888920928
 30
0.0
 10
6.6959869551
 20
3.7890949535
 30
0.0
 10
6.6958063606
 20
3.7893865217
 30
0.0
 10
6.69562012
 20
3.7897354323
 30
0.0
 10
6.6954293524
 20
3.7901395556
 30
0.0
 10
6.6952352187
 20
3.7905965501
 30
0.0
 10
6.6950388726
 20
3.7911037254
 30
0.0
 10
6.6947666618
 20
3.791868467
 30
0.0
 10
6.6944323242
 20
3.7929275688
 30
0.0
 10
6.6940521373
 20
3.7943064975
 30
0.0
 10
6.6936901222
 20
3.7958011956
 30
0.0
 10
6.6933551126
 20
3.797377274
 30
0.0
 10
6.6930555992
 20
3.7989974725
 30
0.0
 10
6.6927994346
 20
3.8006220568
 30
0.0
 10
6.6925935708
 20
3.8022096621
 30
0.0
 10
6.6924438103
 20
3.803718429
 30
0.0
 10
6.6923669759
 20
3.8049085344
 30
0.0
 10
6.6923392517
 20
3.8057902115
 30
0.0
 10
6.6923352504
 20
3.8063877834
 30
0.0
 10
6.6923473954
 20
3.80693705
 30
0.0
 10
6.6923671482
 20
3.8072863497
 30
0.0
 10
6.6923802555
 20
3.8074521114
 30
0.0
  0
SPLINE
  5
49A
100
AcDbEntity
  8
0
100
AcDbSpline
 62
7
  6
CONTINUOUS
 70
0
 71
3
 72
15
 73
11
 74
0
 42
0.0000001
 43
0.0000001
 44
0.0000000001
 40
0.0
 40
0.0
 40
0.0
 40
0.0
 40
0.2161698666
 40
0.33390179
 40
0.4572896003
 40
0.5858527384
 40
0.7192414212
 40
0.8572716828
 40
0.9280467887
 40
1.0
 40
1.0
 40
1.0
 40
1.0
 10
7.5695759807
 20
3.658257128
 30
0.0
 10
7.5680051212
 20
3.6615182332
 30
0.0
 10
7.5657912183
 20
3.6666641414
 30
0.0
 10
7.5633288386
 20
3.6739184163
 30
0.0
 10
7.5617104315
 20
3.6798983905
 30
0.0
 10
7.5604764837
 20
3.6862382624
 30
0.0
 10
7.5597406072
 20
3.6929036523
 30
0.0
 10
7.5596440174
 20
3.6986431224
 30
0.0
 10
7.5599273398
 20
3.7033376069
 30
0.0
 10
7.560200738
 20
3.7057133939
 30
0.0
 10
7.5603718634
 20
3.7069060227
 30
0.0
  0
SPLINE
  5
49B
100
AcDbEntity
  8
0
100
AcDbSpline
 62
7
  6
CONTINUOUS
 70
0
 71
3
 72
18
 73
14
 74
0
 42
0.0000001
 43
0.0000001
 44
0.0000000001
 40
0.0
 40
0.0
 40
0.0
 40
0.0
 40
0.0712928424
 40
0.1416284631
 40
0.2109727593
 40
0.2792991703
 40
0.4126896627
 40
0.541450976
 40
0.6039638133
 40
0.6651348148
 40
0.7831539207
 40
0.8949662706
 40
1.0
 40
1.0
 40
1.0
 40
1.0
 10
7.1361436376
 20
3.7069095567
 30
0.0
 10
7.1363244982
 20
3.7057172705
 30
0.0
 10
7.136619278
 20
3.7033383833
 30
0.0
 10
7.136864814
 20
3.6997765787
 30
0.0
 10
7.1369193454
 20
3.6962568469
 30
0.0
 10
7.1367529462
 20
3.6916731534
 30
0.0
 10
7.1361317835
 20
3.686108068
 30
0.0
 10
7.1350123288
 20
3.680723723
 30
0.0
 10
7.1338716684
 20
3.6766076417
 30
0.0
 10
7.1326180191
 20
3.6727151237
 30
0.0
 10
7.1308364986
 20
3.6681209901
 30
0.0
 10
7.1284154553
 20
3.6629957117
 30
0.0
 10
7.1266368993
 20
3.6597847046
 30
0.0
 10
7.1257297036
 20
3.6582571235
 30
0.0
  0
SPLINE
  5
49C
100
AcDbEntity
  8
0
100
AcDbSpline
 62
7
  6
CONTINUOUS
 70
0
 71
3
 72
15
 73
11
 74
0
 42
0.0000001
 43
0.0000001
 44
0.0000000001
 40
0.0
 40
0.0
 40
0.0
 40
0.0
 40
0.1128524498
 40
0.2278733081
 40
0.3459422006
 40
0.4679189599
 40
0.5945022247
 40
0.7259513083
 40
0.8616854922
 40
1.0
 40
1.0
 40
1.0
 40
1.0
 10
6.9701176997
 20
3.6250772354
 30
0.0
 10
6.9699979295
 20
3.6245883474
 30
0.0
 10
6.9696860419
 20
3.6236167925
 30
0.0
 10
6.9690048671
 20
3.6222263423
 30
0.0
 10
6.9680986792
 20
3.6209198205
 30
0.0
 10
6.9669616994
 20
3.6197345995
 30
0.0
 10
6.9655955306
 20
3.618717641
 30
0.0
 10
6.9640173723
 20
3.617925546
 30
0.0
 10
6.9622711427
 20
3.6174178372
 30
0.0
 10
6.9610456398
 20
3.6173012268
 30
0.0
 10
6.9604287285
 20
3.6173012268
 30
0.0
  0
SPLINE
  5
49D
100
AcDbEntity
  8
0
100
AcDbSpline
 62
7
  6
CONTINUOUS
 70
0
 71
3
 72
17
 73
13
 74
0
 42
0.0000001
 43
0.0000001
 44
0.0000000001
 40
0.0
 40
0.0
 40
0.0
 40
0.0
 40
0.1148607368
 40
0.2315026297
 40
0.35065987
 40
0.4730584206
 40
0.5992995336
 40
0.7296232564
 40
0.7962812697
 40
0.8637142928
 40
0.9317088827
 40
1.0
 40
1.0
 40
1.0
 40
1.0
 10
6.9701176997
 20
3.626252943
 30
0.0
 10
6.9699980902
 20
3.625746125
 30
0.0
 10
6.9696870596
 20
3.6247396252
 30
0.0
 10
6.9690067534
 20
3.6232969293
 30
0.0
 10
6.9681016083
 20
3.6219410206
 30
0.0
 10
6.9669655349
 20
3.6207104847
 30
0.0
 10
6.9656000949
 20
3.6196541052
 30
0.0
 10
6.9642928504
 20
3.6189723037
 30
0.0
 10
6.9631617478
 20
3.6185707508
 30
0.0
 10
6.9622715394
 20
3.6183478146
 30
0.0
 10
6.9613566509
 20
3.6182114957
 30
0.0
 10
6.9607383379
 20
3.6181809212
 30
0.0
 10
6.9604287285
 20
3.6181809212
 30
0.0
  0
SPLINE
  5
49E
100
AcDbEntity
  8
0
100
AcDbSpline
 62
7
  6
CONTINUOUS
 70
0
 71
3
 72
19
 73
15
 74
0
 42
0.0000001
 43
0.0000001
 44
0.0000000001
 40
0.0
 40
0.0
 40
0.0
 40
0.0
 40
0.1166955604
 40
0.2349117479
 40
0.2948096152
 40
0.3553041575
 40
0.4164656969
 40
0.4783580323
 40
0.6044112936
 40
0.7337094654
 40
0.7995504877
 40
0.865997972
 40
0.9328840307
 40
1.0
 40
1.0
 40
1.0
 40
1.0
 10
6.9700110912
 20
3.6277781277
 30
0.0
 10
6.9698770147
 20
3.6272759099
 30
0.0
 10
6.9695416421
 20
3.626281127
 30
0.0
 10
6.9689571798
 20
3.6251002481
 30
0.0
 10
6.9683870426
 20
3.624202298
 30
0.0
 10
6.9679042103
 20
3.6235525871
 30
0.0
 10
6.9673675834
 20
3.6229346193
 30
0.0
 10
6.9665758113
 20
3.6221558425
 30
0.0
 10
6.965448781
 20
3.6212916949
 30
0.0
 10
6.9641714874
 20
3.6206285983
 30
0.0
 10
6.9630716437
 20
3.6202394098
 30
0.0
 10
6.9622094995
 20
3.6200240121
 30
0.0
 10
6.9613250066
 20
3.6198924575
 30
0.0
 10
6.9607276888
 20
3.6198629645
 30
0.0
 10
6.9604287285
 20
3.6198629645
 30
0.0
  0
SPLINE
  5
49F
100
AcDbEntity
  8
0
100
AcDbSpline
 62
7
  6
CONTINUOUS
 70
0
 71
3
 72
21
 73
17
 74
0
 42
0.0000001
 43
0.0000001
 44
0.0000000001
 40
0.0
 40
0.0
 40
0.0
 40
0.0
 40
0.1182483314
 40
0.2376466081
 40
0.2979688765
 40
0.3587650617
 40
0.4200981986
 40
0.4820256969
 40
0.5445976605
 40
0.6078505623
 40
0.6717992784
 40
0.7364285968
 40
0.8016838562
 40
0.8674662981
 40
0.9336317432
 40
1.0
 40
1.0
 40
1.0
 40
1.0
 10
6.9701176997
 20
3.6309396696
 30
0.0
 10
6.9699983383
 20
3.6304010144
 30
0.0
 10
6.9696887098
 20
3.629332577
 30
0.0
 10
6.969124498
 20
3.6280568184
 30
0.0
 10
6.9685633605
 20
3.6270839909
 30
0.0
 10
6.9680841234
 20
3.6263794113
 30
0.0
 10
6.967547371
 20
3.6257079278
 30
0.0
 10
6.9669527836
 20
3.6250755223
 30
0.0
 10
6.9663006967
 20
3.6244889659
 30
0.0
 10
6.9655923506
 20
3.6239557376
 30
0.0
 10
6.9648302446
 20
3.6234839365
 30
0.0
 10
6.9640185101
 20
3.6230820214
 30
0.0
 10
6.9631632516
 20
3.6227583812
 30
0.0
 10
6.9622726803
 20
3.6225207296
 30
0.0
 10
6.9613572555
 20
3.6223753563
 30
0.0
 10
6.9607383886
 20
3.6223427465
 30
0.0
 10
6.9604287285
 20
3.6223427465
 30
0.0
  0
SPLINE
  5
4A0
100
AcDbEntity
  8
0
100
AcDbSpline
 62
7
  6
CONTINUOUS
 70
0
 71
3
 72
20
 73
16
 74
0
 42
0.0000001
 43
0.0000001
 44
0.0000000001
 40
0.0
 40
0.0
 40
0.0
 40
0.0
 40
0.1196823079
 40
0.179869349
 40
0.24033107
 40
0.3621913629
 40
0.4857206223
 40
0.5482778924
 40
0.6113741891
 40
0.6750225041
 40
0.7392119606
 40
0.803899985
 40
0.8690086336
 40
0.934423193
 40
1.0
 40
1.0
 40
1.0
 40
1.0
 10
6.9701176997
 20
3.6344378425
 30
0.0
 10
6.9699984333
 20
3.6338853761
 30
0.0
 10
6.969766853
 20
3.6330649557
 30
0.0
 10
6.9693524146
 20
3.632007689
 30
0.0
 10
6.968862775
 20
3.6309715223
 30
0.0
 10
6.9681084068
 20
3.6297335411
 30
0.0
 10
6.9671669317
 20
3.6286163181
 30
0.0
 10
6.9663014795
 20
3.6278171457
 30
0.0
 10
6.9655931682
 20
3.6272697068
 30
0.0
 10
6.9648310844
 20
3.6267853317
 30
0.0
 10
6.9640193071
 20
3.6263726576
 30
0.0
 10
6.9631639403
 20
3.6260403248
 30
0.0
 10
6.9622731885
 20
3.6257962677
 30
0.0
 10
6.9613575305
 20
3.6256469658
 30
0.0
 10
6.9607384116
 20
3.6256134702
 30
0.0
 10
6.9604287285
 20
3.6256134702
 30
0.0
  0
SPLINE
  5
4A1
100
AcDbEntity
  8
0
100
AcDbSpline
 62
7
  6
CONTINUOUS
 70
0
 71
3
 72
18
 73
14
 74
0
 42
0.0000001
 43
0.0000001
 44
0.0000000001
 40
0.0
 40
0.0
 40
0.0
 40
0.0
 40
0.1209409769
 40
0.2425630633
 40
0.365160849
 40
0.4890316173
 40
0.6144337632
 40
0.6778277277
 40
0.7416391036
 40
0.8058355388
 40
0.8703572712
 40
0.9351157465
 40
1.0
 40
1.0
 40
1.0
 40
1.0
 10
6.9701150364
 20
3.6386839101
 30
0.0
 10
6.9699954441
 20
3.6381197019
 30
0.0
 10
6.9696859996
 20
3.6370014414
 30
0.0
 10
6.969007515
 20
3.6353923131
 30
0.0
 10
6.9681051485
 20
3.6338793918
 30
0.0
 10
6.9669727844
 20
3.6325052781
 30
0.0
 10
6.965839719
 20
3.6315229909
 30
0.0
 10
6.9648282234
 20
3.6308659034
 30
0.0
 10
6.9640169388
 20
3.6304442796
 30
0.0
 10
6.9631621485
 20
3.6301047672
 30
0.0
 10
6.962271984
 20
3.6298554171
 30
0.0
 10
6.9613569309
 20
3.6297028744
 30
0.0
 10
6.9607381487
 20
3.6296686475
 30
0.0
 10
6.9604287285
 20
3.6296686475
 30
0.0
  0
SPLINE
  5
4A2
100
AcDbEntity
  8
0
100
AcDbSpline
 62
7
  6
CONTINUOUS
 70
0
 71
3
 72
18
 73
14
 74
0
 42
0.0000001
 43
0.0000001
 44
0.0000000001
 40
0.0
 40
0.0
 40
0.0
 40
0.0
 40
0.1220005542
 40
0.2444974641
 40
0.3677089619
 40
0.4918545822
 40
0.6171262745
 40
0.6802923993
 40
0.7437691627
 40
0.8075328601
 40
0.871539329
 40
0.9357225863
 40
1.0
 40
1.0
 40
1.0
 40
1.0
 10
6.9701176997
 20
3.6436958929
 30
0.0
 10
6.9699985782
 20
3.6431202246
 30
0.0
 10
6.9696901911
 20
3.6419795597
 30
0.0
 10
6.9690128084
 20
3.640337046
 30
0.0
 10
6.968111313
 20
3.6387925147
 30
0.0
 10
6.9669795003
 20
3.6373893457
 30
0.0
 10
6.9658454249
 20
3.6363849962
 30
0.0
 10
6.9648325175
 20
3.6357131669
 30
0.0
 10
6.964020654
 20
3.635282393
 30
0.0
 10
6.9631651226
 20
3.6349354643
 30
0.0
 10
6.9622740659
 20
3.6346806361
 30
0.0
 10
6.9613580079
 20
3.6345247269
 30
0.0
 10
6.9607384514
 20
3.6344897401
 30
0.0
 10
6.9604287285
 20
3.6344897401
 30
0.0
  0
SPLINE
  5
4A3
100
AcDbEntity
  8
0
100
AcDbSpline
 62
7
  6
CONTINUOUS
 70
0
 71
3
 72
18
 73
14
 74
0
 42
0.0000001
 43
0.0000001
 44
0.0000000001
 40
0.0
 40
0.0
 40
0.0
 40
0.0
 40
0.1228915291
 40
0.2461267236
 40
0.369859212
 40
0.4942418732
 40
0.6194084156
 40
0.6823836457
 40
0.7455782683
 40
0.8089756541
 40
0.8725447878
 40
0.9362389822
 40
1.0
 40
1.0
 40
1.0
 40
1.0
 10
6.9701176997
 20
3.6494303946
 30
0.0
 10
6.9699986317
 20
3.6488454045
 30
0.0
 10
6.9696905396
 20
3.6476865738
 30
0.0
 10
6.9690135002
 20
3.6460170819
 30
0.0
 10
6.9681124752
 20
3.6444471267
 30
0.0
 10
6.9669812197
 20
3.6430207
 30
0.0
 10
6.9658466897
 20
3.6419986899
 30
0.0
 10
6.9648330817
 20
3.6413150947
 30
0.0
 10
6.9640212024
 20
3.6408770668
 30
0.0
 10
6.9631656048
 20
3.6405242688
 30
0.0
 10
6.962274427
 20
3.6402651113
 30
0.0
 10
6.9613582051
 20
3.640106544
 30
0.0
 10
6.9607384679
 20
3.6400709571
 30
0.0
 10
6.9604287285
 20
3.6400709571
 30
0.0
  0
SPLINE
  5
4A4
100
AcDbEntity
  8
0
100
AcDbSpline
 62
7
  6
CONTINUOUS
 70
0
 71
3
 72
18
 73
14
 74
0
 42
0.0000001
 43
0.0000001
 44
0.0000000001
 40
0.0
 40
0.0
 40
0.0
 40
0.0
 40
0.1236203719
 40
0.2474606472
 40
0.371621598
 40
0.4962010583
 40
0.6212839295
 40
0.6841034448
 40
0.7470669812
 40
0.8101635816
 40
0.873372989
 40
0.9366644561
 40
1.0
 40
1.0
 40
1.0
 40
1.0
 10
6.9701176997
 20
3.6558815927
 30
0.0
 10
6.9699986745
 20
3.6552888382
 30
0.0
 10
6.9696908183
 20
3.6541148763
 30
0.0
 10
6.9690140566
 20
3.6524229251
 30
0.0
 10
6.9681134169
 20
3.6508318106
 30
0.0
 10
6.966982626
 20
3.649386034
 30
0.0
 10
6.9658477356
 20
3.6483493165
 30
0.0
 10
6.9648335511
 20
3.6476559147
 30
0.0
 10
6.9640216609
 20
3.6472118459
 30
0.0
 10
6.9631660098
 20
3.6468541589
 30
0.0
 10
6.9622747314
 20
3.646591394
 30
0.0
 10
6.9613583717
 20
3.6464306113
 30
0.0
 10
6.9607384818
 20
3.646394524
 30
0.0
 10
6.9604287285
 20
3.646394524
 30
0.0
  0
SPLINE
  5
4A5
100
AcDbEntity
  8
0
100
AcDbSpline
 62
7
  6
CONTINUOUS
 70
0
 71
3
 72
18
 73
14
 74
0
 42
0.0000001
 43
0.0000001
 44
0.0000000001
 40
0.0
 40
0.0
 40
0.0
 40
0.0
 40
0.1241924069
 40
0.2485082885
 40
0.3730069406
 40
0.4977426898
 40
0.6227613959
 40
0.6854589915
 40
0.7482409853
 40
0.811100804
 40
0.8740266305
 40
0.937000327
 40
1.0
 40
1.0
 40
1.0
 40
1.0
 10
6.9701176997
 20
3.6630318049
 30
0.0
 10
6.9699987074
 20
3.6624328662
 30
0.0
 10
6.9696910331
 20
3.6612468523
 30
0.0
 10
6.9690144874
 20
3.6595370198
 30
0.0
 10
6.9681141502
 20
3.6579290633
 30
0.0
 10
6.9669837294
 20
3.6564678887
 30
0.0
 10
6.9658485634
 20
3.655419459
 30
0.0
 10
6.9648339243
 20
3.6547182422
 30
0.0
 10
6.9640220271
 20
3.6542693629
 30
0.0
 10
6.9631663345
 20
3.6539077817
 30
0.0
 10
6.9622749762
 20
3.6536421428
 30
0.0
 10
6.9613585059
 20
3.6534795945
 30
0.0
 10
6.9607384931
 20
3.6534431084
 30
0.0
 10
6.9604287285
 20
3.6534431084
 30
0.0
  0
SPLINE
  5
4A6
100
AcDbEntity
  8
0
100
AcDbSpline
 62
7
  6
CONTINUOUS
 70
0
 71
3
 72
18
 73
14
 74
0
 42
0.0000001
 43
0.0000001
 44
0.0000000001
 40
0.0
 40
0.0
 40
0.0
 40
0.0
 40
0.1246118016
 40
0.249276786
 40
0.3740238327
 40
0.4988751836
 40
0.6238476844
 40
0.6864560615
 40
0.7491048738
 40
0.8117907002
 40
0.8745079154
 40
0.9372476786
 40
1.0
 40
1.0
 40
1.0
 40
1.0
 10
6.9701176997
 20
3.6708614329
 30
0.0
 10
6.9699987312
 20
3.6702579084
 30
0.0
 10
6.9696911885
 20
3.6690629572
 30
0.0
 10
6.9690148
 20
3.667339869
 30
0.0
 10
6.9681146846
 20
3.6657194292
 30
0.0
 10
6.9669845382
 20
3.6642468443
 30
0.0
 10
6.9658491744
 20
3.6631897307
 30
0.0
 10
6.9648342008
 20
3.6624827166
 30
0.0
 10
6.9640222992
 20
3.6620302704
 30
0.0
 10
6.9631665765
 20
3.6616658014
 30
0.0
 10
6.9622751589
 20
3.6613980307
 30
0.0
 10
6.9613586063
 20
3.6612341726
 30
0.0
 10
6.9607385014
 20
3.6611973905
 30
0.0
 10
6.9604287285
 20
3.6611973905
 30
0.0
  0
SPLINE
  5
4A7
100
AcDbEntity
  8
0
100
AcDbSpline
 62
7
  6
CONTINUOUS
 70
0
 71
3
 72
18
 73
14
 74
0
 42
0.0000001
 43
0.0000001
 44
0.0000000001
 40
0.0
 40
0.0
 40
0.0
 40
0.0
 40
0.1248816208
 40
0.2497714107
 40
0.3746786756
 40
0.499604945
 40
0.6245482187
 40
0.6870992539
 40
0.7496623081
 40
0.8122359743
 40
0.8748186062
 40
0.9374073766
 40
1.0
 40
1.0
 40
1.0
 40
1.0
 10
6.9701150364
 20
3.6793405988
 30
0.0
 10
6.9699956793
 20
3.6787347567
 30
0.0
 10
6.9696875269
 20
3.6775353629
 30
0.0
 10
6.9690105503
 20
3.6758057813
 30
0.0
 10
6.9681102615
 20
3.6741793757
 30
0.0
 10
6.966980382
 20
3.6727014788
 30
0.0
 10
6.96584534
 20
3.6716403537
 30
0.0
 10
6.9648307391
 20
3.670930721
 30
0.0
 10
6.964019391
 20
3.6704767194
 30
0.0
 10
6.9631643105
 20
3.6701110073
 30
0.0
 10
6.9622736064
 20
3.6698423288
 30
0.0
 10
6.961357818
 20
3.6696779173
 30
0.0
 10
6.9607382229
 20
3.6696410103
 30
0.0
 10
6.9604287285
 20
3.6696410103
 30
0.0
  0
SPLINE
  5
4A8
100
AcDbEntity
  8
0
100
AcDbSpline
 62
7
  6
CONTINUOUS
 70
0
 71
3
 72
18
 73
14
 74
0
 42
0.0000001
 43
0.0000001
 44
0.0000000001
 40
0.0
 40
0.0
 40
0.0
 40
0.0
 40
0.1250038981
 40
0.2499955564
 40
0.3749754295
 40
0.499935644
 40
0.6248656062
 40
0.6873907066
 40
0.749914937
 40
0.812437796
 40
0.8749594418
 40
0.9374797684
 40
1.0
 40
1.0
 40
1.0
 40
1.0
 10
6.9701176997
 20
3.6884712911
 30
0.0
 10
6.9699987531
 20
3.6878634391
 30
0.0
 10
6.9696913322
 20
3.6866600535
 30
0.0
 10
6.9690150898
 20
3.6849244588
 30
0.0
 10
6.9681151818
 20
3.683292243
 30
0.0
 10
6.9669852941
 20
3.6818088961
 30
0.0
 10
6.9658497485
 20
3.6807435885
 30
0.0
 10
6.9648344615
 20
3.6800311016
 30
0.0
 10
6.9640225564
 20
3.6795752898
 30
0.0
 10
6.9631668058
 20
3.6792080954
 30
0.0
 10
6.9622753325
 20
3.6789383125
 30
0.0
 10
6.9613587017
 20
3.678773218
 30
0.0
 10
6.9607385094
 20
3.6787361565
 30
0.0
 10
6.9604287285
 20
3.6787361565
 30
0.0
  0
SPLINE
  5
4A9
100
AcDbEntity
  8
0
100
AcDbSpline
 62
7
  6
CONTINUOUS
 70
0
 71
3
 72
18
 73
14
 74
0
 42
0.0000001
 43
0.0000001
 44
0.0000000001
 40
0.0
 40
0.0
 40
0.0
 40
0.0
 40
0.1249794667
 40
0.2499507616
 40
0.3749161103
 40
0.4998695193
 40
0.6248021135
 40
0.687332399
 40
0.7498643938
 40
0.8123974156
 40
0.8749312624
 40
0.937465283
 40
1.0
 40
1.0
 40
1.0
 40
1.0
 10
6.9701176997
 20
3.698203254
 30
0.0
 10
6.9699987517
 20
3.6975956727
 30
0.0
 10
6.9696913233
 20
3.696392815
 30
0.0
 10
6.9690150718
 20
3.6946580028
 30
0.0
 10
6.9681151509
 20
3.6930265238
 30
0.0
 10
6.966985247
 20
3.6915438501
 30
0.0
 10
6.9658497127
 20
3.6904790553
 30
0.0
 10
6.9648344452
 20
3.6897669108
 30
0.0
 10
6.9640225403
 20
3.6893113097
 30
0.0
 10
6.9631667914
 20
3.6889442858
 30
0.0
 10
6.9622753216
 20
3.6886746288
 30
0.0
 10
6.9613586957
 20
3.6885096117
 30
0.0
 10
6.9607385089
 20
3.6884725677
 30
0.0
 10
6.9604287285
 20
3.6884725677
 30
0.0
  0
SPLINE
  5
4AA
100
AcDbEntity
  8
0
100
AcDbSpline
 62
7
  6
CONTINUOUS
 70
0
 71
3
 72
18
 73
14
 74
0
 42
0.0000001
 43
0.0000001
 44
0.0000000001
 40
0.0
 40
0.0
 40
0.0
 40
0.0
 40
0.1248081684
 40
0.249636719
 40
0.374500295
 40
0.4994060714
 40
0.624357189
 40
0.6869238438
 40
0.7495102716
 40
0.812114518
 40
0.8747338545
 40
0.9373638099
 40
1.0
 40
1.0
 40
1.0
 40
1.0
 10
6.9701176997
 20
3.7085182302
 30
0.0
 10
6.9699987422
 20
3.7079125433
 30
0.0
 10
6.9696912607
 20
3.7067133777
 30
0.0
 10
6.9690149454
 20
3.70498404
 30
0.0
 10
6.9681149339
 20
3.7033577155
 30
0.0
 10
6.9669849168
 20
3.7018797524
 30
0.0
 10
6.9658494616
 20
3.7008185443
 30
0.0
 10
6.9648343311
 20
3.7001087957
 30
0.0
 10
6.9640224277
 20
3.6996546678
 30
0.0
 10
6.9631666909
 20
3.699288837
 30
0.0
 10
6.9622752455
 20
3.6990200609
 30
0.0
 10
6.9613586539
 20
3.6988555851
 30
0.0
 10
6.9607385054
 20
3.6988186634
 30
0.0
 10
6.9604287285
 20
3.6988186634
 30
0.0
  0
SPLINE
  5
4AB
100
AcDbEntity
  8
0
100
AcDbSpline
 62
7
  6
CONTINUOUS
 70
0
 71
3
 72
18
 73
14
 74
0
 42
0.0000001
 43
0.0000001
 44
0.0000000001
 40
0.0
 40
0.0
 40
0.0
 40
0.0
 40
0.1244887484
 40
0.2490512711
 40
0.3737253695
 40
0.4985427113
 40
0.6235286929
 40
0.6861632319
 40
0.7488511295
 40
0.8115880411
 40
0.8743665255
 40
0.9371750093
 40
1.0
 40
1.0
 40
1.0
 40
1.0
 10
6.9701176997
 20
3.7193879471
 30
0.0
 10
6.9699987242
 20
3.7187857727
 30
0.0
 10
6.9696911431
 20
3.7175934527
 30
0.0
 10
6.9690147086
 20
3.7158742668
 30
0.0
 10
6.9681145281
 20
3.7142575016
 30
0.0
 10
6.966984301
 20
3.7127882753
 30
0.0
 10
6.9658489948
 20
3.7117337181
 30
0.0
 10
6.9648341195
 20
3.7110284109
 30
0.0
 10
6.9640222191
 20
3.7105770148
 30
0.0
 10
6.9631665052
 20
3.710213396
 30
0.0
 10
6.962275105
 20
3.7099462529
 30
0.0
 10
6.9613585766
 20
3.7097827806
 30
0.0
 10
6.960738499
 20
3.7097460856
 30
0.0
 10
6.9604287285
 20
3.7097460856
 30
0.0
  0
SPLINE
  5
4AC
100
AcDbEntity
  8
0
100
AcDbSpline
 62
7
  6
CONTINUOUS
 70
0
 71
3
 72
18
 73
14
 74
0
 42
0.0000001
 43
0.0000001
 44
0.0000000001
 40
0.0
 40
0.0
 40
0.0
 40
0.0
 40
0.1240188675
 40
0.2481904021
 40
0.372586477
 40
0.4972746402
 40
0.6223126682
 40
0.6850472224
 40
0.7478843095
 40
0.8108160271
 40
0.8738280001
 40
0.9368982555
 40
1.0
 40
1.0
 40
1.0
 40
1.0
 10
6.9701176997
 20
3.7307826116
 30
0.0
 10
6.9699986975
 20
3.7301855575
 30
0.0
 10
6.9696909683
 20
3.7290032164
 30
0.0
 10
6.9690143573
 20
3.7272988326
 30
0.0
 10
6.9681139283
 20
3.7256960076
 30
0.0
 10
6.9669833948
 20
3.7242395242
 30
0.0
 10
6.9658483116
 20
3.7231946635
 30
0.0
 10
6.9648338106
 20
3.7224958287
 30
0.0
 10
6.9640219154
 20
3.7220484152
 30
0.0
 10
6.9631662354
 20
3.7216880208
 30
0.0
 10
6.9622749013
 20
3.7214232578
 30
0.0
 10
6.9613584648
 20
3.7212612477
 30
0.0
 10
6.9607384896
 20
3.7212248831
 30
0.0
 10
6.9604287285
 20
3.7212248831
 30
0.0
  0
LINE
  5
4AD
100
AcDbEntity
  8
0
100
AcDbLine
 62
7
  6
CONTINUOUS
 10
6.9604287285
 20
3.730952539
 11
6.9701176997
 21
3.7307826116
  0
SPLINE
  5
4AE
100
AcDbEntity
  8
0
100
AcDbSpline
 62
7
  6
CONTINUOUS
 70
0
 71
3
 72
18
 73
14
 74
0
 42
0.0000001
 43
0.0000001
 44
0.0000000001
 40
0.0
 40
0.0
 40
0.0
 40
0.0
 40
0.1233950293
 40
0.2470485679
 40
0.3710775659
 40
0.4955967121
 40
0.6207058266
 40
0.6835734699
 40
0.74660832
 40
0.8097976601
 40
0.8731179119
 40
0.9365334291
 40
1.0
 40
1.0
 40
1.0
 40
1.0
 10
6.9701150364
 20
3.7426648761
 30
0.0
 10
6.9699955938
 20
3.7420751728
 30
0.0
 10
6.9696869702
 20
3.740907231
 30
0.0
 10
6.9690094345
 20
3.7392243066
 30
0.0
 10
6.9681083605
 20
3.7376418395
 30
0.0
 10
6.9669775166
 20
3.7362041054
 30
0.0
 10
6.9658431849
 20
3.7351735329
 30
0.0
 10
6.9648297661
 20
3.734484289
 30
0.0
 10
6.9640184353
 20
3.7340428345
 30
0.0
 10
6.9631634621
 20
3.7336872795
 30
0.0
 10
6.9622729664
 20
3.7334260976
 30
0.0
 10
6.9613574668
 20
3.7332662915
 30
0.0
 10
6.9607381935
 20
3.7332304249
 30
0.0
 10
6.9604287285
 20
3.7332304249
 30
0.0
  0
SPLINE
  5
4AF
100
AcDbEntity
  8
0
100
AcDbSpline
 62
7
  6
CONTINUOUS
 70
0
 71
3
 72
18
 73
14
 74
0
 42
0.0000001
 43
0.0000001
 44
0.0000000001
 40
0.0
 40
0.0
 40
0.0
 40
0.0
 40
0.1891744315
 40
0.3683250305
 40
0.5299434933
 40
0.6698458315
 40
0.7864779138
 40
0.8360312161
 40
0.879836386
 40
0.9180012916
 40
0.9506523471
 40
0.9779334454
 40
1.0
 40
1.0
 40
1.0
 40
1.0
 10
6.9604287285
 20
3.7433431374
 30
0.0
 10
6.9610423283
 20
3.7433431374
 30
0.0
 10
6.9622370404
 20
3.7433333831
 30
0.0
 10
6.9639554944
 20
3.7432905846
 30
0.0
 10
6.965513249
 20
3.7432236909
 30
0.0
 10
6.9668669208
 20
3.7431376347
 30
0.0
 10
6.9678560355
 20
3.7430501292
 30
0.0
 10
6.9685327376
 20
3.7429723773
 30
0.0
 10
6.9689555229
 20
3.7429151494
 30
0.0
 10
6.9693226466
 20
3.7428562149
 30
0.0
 10
6.9696351513
 20
3.7427959528
 30
0.0
 10
6.9698940486
 20
3.7427347132
 30
0.0
 10
6.9700475849
 20
3.7426888173
 30
0.0
 10
6.9701150364
 20
3.7426648761
 30
0.0
  0
SPLINE
  5
4B0
100
AcDbEntity
  8
0
100
AcDbSpline
 62
7
  6
CONTINUOUS
 70
0
 71
3
 72
18
 73
14
 74
0
 42
0.0000001
 43
0.0000001
 44
0.0000000001
 40
0.0
 40
0.0
 40
0.0
 40
0.0
 40
0.122612848
 40
0.2456169543
 40
0.3691861562
 40
0.4934942574
 40
0.6186933523
 40
0.6817282284
 40
0.7450111423
 40
0.808523268
 40
0.8722294772
 40
0.9360770245
 40
1.0
 40
1.0
 40
1.0
 40
1.0
 10
6.9701176997
 20
3.7550205021
 30
0.0
 10
6.9699986152
 20
3.7544384475
 30
0.0
 10
6.9696904315
 20
3.7532853373
 30
0.0
 10
6.9690132852
 20
3.7516243394
 30
0.0
 10
6.968112113
 20
3.7500623878
 30
0.0
 10
6.9669806819
 20
3.7486432819
 30
0.0
 10
6.9658462924
 20
3.7476268329
 30
0.0
 10
6.9648329041
 20
3.7469469438
 30
0.0
 10
6.9640210295
 20
3.7465112
 30
0.0
 10
6.9631654525
 20
3.7461602503
 30
0.0
 10
6.9622743128
 20
3.7459024564
 30
0.0
 10
6.9613581427
 20
3.7457447263
 30
0.0
 10
6.9607384627
 20
3.7457093284
 30
0.0
 10
6.9604287285
 20
3.7457093284
 30
0.0
  0
SPLINE
  5
4B1
100
AcDbEntity
  8
0
100
AcDbSpline
 62
7
  6
CONTINUOUS
 70
0
 71
3
 72
19
 73
15
 74
0
 42
0.0000001
 43
0.0000001
 44
0.0000000001
 40
0.0
 40
0.0
 40
0.0
 40
0.0
 40
0.187590511
 40
0.365328973
 40
0.5258549156
 40
0.6651032719
 40
0.7262282135
 40
0.7816359273
 40
0.8313814376
 40
0.8755688429
 40
0.9143357537
 40
0.9478508828
 40
0.9763213374
 40
1.0
 40
1.0
 40
1.0
 40
1.0
 10
6.9604287285
 20
3.7562070973
 30
0.0
 10
6.9610429255
 20
3.7562070973
 30
0.0
 10
6.9622391373
 20
3.7561900107
 30
0.0
 10
6.9639594853
 20
3.7561150867
 30
0.0
 10
6.9655187966
 20
3.7559978818
 30
0.0
 10
6.9666935567
 20
3.7558673735
 30
0.0
 10
6.9675223338
 20
3.7557465797
 30
0.0
 10
6.9680589913
 20
3.7556545986
 30
0.0
 10
6.9685384217
 20
3.7555581291
 30
0.0
 10
6.9689612901
 20
3.7554579175
 30
0.0
 10
6.9693285096
 20
3.7553546475
 30
0.0
 10
6.9696412016
 20
3.7552489151
 30
0.0
 10
6.9699004387
 20
3.7551412721
 30
0.0
 10
6.9700518943
 20
3.7550614912
 30
0.0
 10
6.9701176997
 20
3.7550205021
 30
0.0
  0
SPLINE
  5
4B2
100
AcDbEntity
  8
0
100
AcDbSpline
 62
7
  6
CONTINUOUS
 70
0
 71
3
 72
18
 73
14
 74
0
 42
0.0000001
 43
0.0000001
 44
0.0000000001
 40
0.0
 40
0.0
 40
0.0
 40
0.0
 40
0.1216664513
 40
0.2438869098
 40
0.3669038321
 40
0.490961569
 40
0.6162734973
 40
0.6795113522
 40
0.7430938058
 40
0.8069944695
 40
0.8711642513
 40
0.9355299871
 40
1.0
 40
1.0
 40
1.0
 40
1.0
 10
6.9701176997
 20
3.7677972938
 30
0.0
 10
6.9699985577
 20
3.7672250743
 30
0.0
 10
6.9696900582
 20
3.7660911299
 30
0.0
 10
6.9690125456
 20
3.7644586012
 30
0.0
 10
6.9681108741
 20
3.7629234819
 30
0.0
 10
6.9669788556
 20
3.7615289249
 30
0.0
 10
6.9658449544
 20
3.7605311099
 30
0.0
 10
6.9648323085
 20
3.7598636313
 30
0.0
 10
6.9640204516
 20
3.7594355416
 30
0.0
 10
6.9631649453
 20
3.7590907842
 30
0.0
 10
6.9622739336
 20
3.7588375573
 30
0.0
 10
6.9613579358
 20
3.758682631
 30
0.0
 10
6.9607384454
 20
3.7586478661
 30
0.0
 10
6.9604287285
 20
3.7586478661
 30
0.0
  0
SPLINE
  5
4B3
100
AcDbEntity
  8
0
100
AcDbSpline
 62
7
  6
CONTINUOUS
 70
0
 71
3
 72
19
 73
15
 74
0
 42
0.0000001
 43
0.0000001
 44
0.0000000001
 40
0.0
 40
0.0
 40
0.0
 40
0.0
 40
0.1851538635
 40
0.3607416939
 40
0.5196400105
 40
0.6579622136
 40
0.7189375853
 40
0.7744278808
 40
0.8245105645
 40
0.8693176504
 40
0.9090231179
 40
0.9438445578
 40
0.9740561022
 40
1.0
 40
1.0
 40
1.0
 40
1.0
 10
6.9604287285
 20
3.7694880397
 30
0.0
 10
6.9610429922
 20
3.7694880397
 30
0.0
 10
6.9622399356
 20
3.7694636697
 30
0.0
 10
6.9639610932
 20
3.769356809
 30
0.0
 10
6.9655212867
 20
3.7691896277
 30
0.0
 10
6.9666956875
 20
3.7690035689
 30
0.0
 10
6.9675234365
 20
3.7688316147
 30
0.0
 10
6.9680603135
 20
3.768700454
 30
0.0
 10
6.9685400178
 20
3.7685628529
 30
0.0
 10
6.9689632336
 20
3.7684198496
 30
0.0
 10
6.9693308999
 20
3.7682723778
 30
0.0
 10
6.9696441617
 20
3.7681212021
 30
0.0
 10
6.9699040981
 20
3.7679670185
 30
0.0
 10
6.9700533259
 20
3.7678544274
 30
0.0
 10
6.9701176997
 20
3.7677972938
 30
0.0
  0
SPLINE
  5
4B4
100
AcDbEntity
  8
0
100
AcDbSpline
 62
7
  6
CONTINUOUS
 70
0
 71
3
 72
18
 73
14
 74
0
 42
0.0000001
 43
0.0000001
 44
0.0000000001
 40
0.0
 40
0.0
 40
0.0
 40
0.0
 40
0.1205490104
 40
0.2418464765
 40
0.3642158055
 40
0.4879835568
 40
0.6134331708
 40
0.6769114804
 40
0.7408469989
 40
0.805204186
 40
0.869917491
 40
0.9348899411
 40
1.0
 40
1.0
 40
1.0
 40
1.0
 10
6.9701176997
 20
3.7809663464
 30
0.0
 10
6.9699984877
 20
3.7804054819
 30
0.0
 10
6.9696896047
 20
3.7792936642
 30
0.0
 10
6.9690116534
 20
3.777694027
 30
0.0
 10
6.9681093939
 20
3.7761899197
 30
0.0
 10
6.9669766999
 20
3.7748237464
 30
0.0
 10
6.9658433967
 20
3.7738474482
 30
0.0
 10
6.9648316202
 20
3.7731942853
 30
0.0
 10
6.9640197881
 20
3.7727750347
 30
0.0
 10
6.9631643661
 20
3.7724374257
 30
0.0
 10
6.9622735023
 20
3.7721894694
 30
0.0
 10
6.9613577012
 20
3.7720377777
 30
0.0
 10
6.9607384258
 20
3.7720037426
 30
0.0
 10
6.9604287285
 20
3.7720037426
 30
0.0
  0
SPLINE
  5
4B5
100
AcDbEntity
  8
0
100
AcDbSpline
 62
7
  6
CONTINUOUS
 70
0
 71
3
 72
20
 73
16
 74
0
 42
0.0000001
 43
0.0000001
 44
0.0000000001
 40
0.0
 40
0.0
 40
0.0
 40
0.0
 40
0.1821509827
 40
0.3550985503
 40
0.5120189472
 40
0.5832233958
 40
0.6492709137
 40
0.7100938411
 40
0.7657209741
 40
0.8162546883
 40
0.8618564649
 40
0.9027362823
 40
0.9391561034
 40
0.9714438583
 40
1.0
 40
1.0
 40
1.0
 40
1.0
 10
6.9604287285
 20
3.7831566088
 30
0.0
 10
6.9610430815
 20
3.7831566088
 30
0.0
 10
6.96224102
 20
3.7831250069
 30
0.0
 10
6.9639631678
 20
3.7829863587
 30
0.0
 10
6.9653040059
 20
3.7828002428
 30
0.0
 10
6.9662787941
 20
3.782614382
 30
0.0
 10
6.9669303145
 20
3.7824659359
 30
0.0
 10
6.9675248288
 20
3.7823058358
 30
0.0
 10
6.9680619506
 20
3.7821357842
 30
0.0
 10
6.9685419423
 20
3.7819573156
 30
0.0
 10
6.9689654948
 20
3.7817717667
 30
0.0
 10
6.9693335479
 20
3.7815803037
 30
0.0
 10
6.9696472194
 20
3.7813838684
 30
0.0
 10
6.969907527
 20
3.7811833114
 30
0.0
 10
6.9700544929
 20
3.7810390178
 30
0.0
 10
6.9701176997
 20
3.7809663464
 30
0.0
  0
SPLINE
  5
4B6
100
AcDbEntity
  8
0
100
AcDbSpline
 62
7
  6
CONTINUOUS
 70
0
 71
3
 72
18
 73
14
 74
0
 42
0.0000001
 43
0.0000001
 44
0.0000000001
 40
0.0
 40
0.0
 40
0.0
 40
0.0
 40
0.1192524717
 40
0.2394821462
 40
0.3611062312
 40
0.4845451436
 40
0.6101604434
 40
0.6739187376
 40
0.7382629939
 40
0.803146809
 40
0.8684855801
 40
0.9341551221
 40
1.0
 40
1.0
 40
1.0
 40
1.0
 10
6.9701176997
 20
3.7944915644
 30
0.0
 10
6.9699984035
 20
3.7939435413
 30
0.0
 10
6.9696890605
 20
3.7928567458
 30
0.0
 10
6.9690105922
 20
3.7912943367
 30
0.0
 10
6.9681076533
 20
3.7898253465
 30
0.0
 10
6.9669742007
 20
3.7884913273
 30
0.0
 10
6.9658416193
 20
3.7875393647
 30
0.0
 10
6.9648308412
 20
3.7869023741
 30
0.0
 10
6.9640190426
 20
3.7864931225
 30
0.0
 10
6.9631637196
 20
3.7861635968
 30
0.0
 10
6.9622730233
 20
3.785921598
 30
0.0
 10
6.9613574414
 20
3.7857735612
 30
0.0
 10
6.9607384041
 20
3.7857403505
 30
0.0
 10
6.9604287285
 20
3.7857403505
 30
0.0
  0
SPLINE
  5
4B7
100
AcDbEntity
  8
0
100
AcDbSpline
 62
7
  6
CONTINUOUS
 70
0
 71
3
 72
21
 73
17
 74
0
 42
0.0000001
 43
0.0000001
 44
0.0000000001
 40
0.0
 40
0.0
 40
0.0
 40
0.0
 40
0.1787511426
 40
0.2653234295
 40
0.3487479586
 40
0.5034653912
 40
0.5739457542
 40
0.6395531111
 40
0.7002432066
 40
0.7560679131
 40
0.8071538539
 40
0.8536892624
 40
0.895914029
 40
0.9341227909
 40
0.9686765512
 40
1.0
 40
1.0
 40
1.0
 40
1.0
 10
6.9604287285
 20
3.79717534
 30
0.0
 10
6.9610431921
 20
3.79717534
 30
0.0
 10
6.9619556491
 20
3.7971458492
 30
0.0
 10
6.9631505738
 20
3.7970468418
 30
0.0
 10
6.9642592988
 20
3.7969164605
 30
0.0
 10
6.9653063264
 20
3.7967381797
 30
0.0
 10
6.9662799862
 20
3.7965106353
 30
0.0
 10
6.9669317087
 20
3.7963286241
 30
0.0
 10
6.9675264396
 20
3.796132298
 30
0.0
 10
6.9680637995
 20
3.7959237316
 30
0.0
 10
6.9685440496
 20
3.7957047885
 30
0.0
 10
6.9689678726
 20
3.795477088
 30
0.0
 10
6.9693361873
 20
3.7952420363
 30
0.0
 10
6.9696500578
 20
3.7950007825
 30
0.0
 10
6.9699104206
 20
3.7947543804
 30
0.0
 10
6.9700553744
 20
3.7945793686
 30
0.0
 10
6.9701176997
 20
3.7944915644
 30
0.0
  0
SPLINE
  5
4B8
100
AcDbEntity
  8
0
100
AcDbSpline
 62
7
  6
CONTINUOUS
 70
0
 71
3
 72
21
 73
17
 74
0
 42
0.0000001
 43
0.0000001
 44
0.0000000001
 40
0.0
 40
0.0
 40
0.0
 40
0.0
 40
0.1177319346
 40
0.2367069039
 40
0.2968643121
 40
0.3575328491
 40
0.418780029
 40
0.480667337
 40
0.5432482175
 40
0.6065613328
 40
0.6706220848
 40
0.7354135547
 40
0.8008766173
 40
0.8669049691
 40
0.9333438459
 40
1.0
 40
1.0
 40
1.0
 40
1.0
 10
6.9701176997
 20
3.8083358763
 30
0.0
 10
6.9699983027
 20
3.8078021426
 30
0.0
 10
6.9696884818
 20
3.8067432943
 30
0.0
 10
6.9691242457
 20
3.8054797507
 30
0.0
 10
6.9685632178
 20
3.8045163379
 30
0.0
 10
6.968083946
 20
3.8038183908
 30
0.0
 10
6.967547158
 20
3.8031532357
 30
0.0
 10
6.9669525366
 20
3.8025267992
 30
0.0
 10
6.9663004209
 20
3.8019457898
 30
0.0
 10
6.9655920559
 20
3.8014176165
 30
0.0
 10
6.9648299459
 20
3.8009503012
 30
0.0
 10
6.9640182277
 20
3.8005522198
 30
0.0
 10
6.9631630089
 20
3.8002316772
 30
0.0
 10
6.9622725018
 20
3.7999963072
 30
0.0
 10
6.9613571592
 20
3.7998523331
 30
0.0
 10
6.9607383806
 20
3.7998200386
 30
0.0
 10
6.9604287285
 20
3.7998200386
 30
0.0
  0
SPLINE
  5
4B9
100
AcDbEntity
  8
0
100
AcDbSpline
 62
7
  6
CONTINUOUS
 70
0
 71
3
 72
20
 73
16
 74
0
 42
0.0000001
 43
0.0000001
 44
0.0000000001
 40
0.0
 40
0.0
 40
0.0
 40
0.0
 40
0.1751264274
 40
0.2600402688
 40
0.3419771164
 40
0.4943936973
 40
0.5641390046
 40
0.6293220442
 40
0.6899219437
 40
0.7460122909
 40
0.7977408205
 40
0.845316892
 40
0.889001109
 40
0.9291066253
 40
1.0
 40
1.0
 40
1.0
 40
1.0
 10
6.9604287285
 20
3.8115058089
 30
0.0
 10
6.961043323
 20
3.8115058089
 30
0.0
 10
6.9619564704
 20
3.8114709176
 30
0.0
 10
6.963151161
 20
3.8113539632
 30
0.0
 10
6.9642611583
 20
3.8111997642
 30
0.0
 10
6.9653089838
 20
3.8109887888
 30
0.0
 10
6.9662813364
 20
3.8107202892
 30
0.0
 10
6.9669332603
 20
3.8105051614
 30
0.0
 10
6.9675281961
 20
3.8102730858
 30
0.0
 10
6.9680657598
 20
3.810026511
 30
0.0
 10
6.9685462201
 20
3.8097676098
 30
0.0
 10
6.9689701885
 20
3.809498348
 30
0.0
 10
6.9693387276
 20
3.8092201884
 30
0.0
 10
6.9697405865
 20
3.8088548858
 30
0.0
 10
6.9699895448
 20
3.8085491263
 30
0.0
 10
6.9701176997
 20
3.8083358763
 30
0.0
  0
SPLINE
  5
4BA
100
AcDbEntity
  8
0
100
AcDbSpline
 62
7
  6
CONTINUOUS
 70
0
 71
3
 72
19
 73
15
 74
0
 42
0.0000001
 43
0.0000001
 44
0.0000000001
 40
0.0
 40
0.0
 40
0.0
 40
0.0
 40
0.1160790628
 40
0.2337113405
 40
0.2933520847
 40
0.3536263133
 40
0.4146156611
 40
0.476394275
 40
0.6024371623
 40
0.7320765706
 40
0.798228128
 40
0.8650659654
 40
0.9324014817
 40
1.0
 40
1.0
 40
1.0
 40
1.0
 10
6.9701150364
 20
3.8224581204
 30
0.0
 10
6.9699951121
 20
3.8219406353
 30
0.0
 10
6.9696839421
 20
3.8209135185
 30
0.0
 10
6.9691190666
 20
3.8196904679
 30
0.0
 10
6.9685581342
 20
3.8187582984
 30
0.0
 10
6.9680786547
 20
3.8180824264
 30
0.0
 10
6.9675417103
 20
3.8174383335
 30
0.0
 10
6.9667439089
 20
3.8166245136
 30
0.0
 10
6.9655986335
 20
3.8157184025
 30
0.0
 10
6.9642911043
 20
3.8150210524
 30
0.0
 10
6.9631598696
 20
3.8146105374
 30
0.0
 10
6.9622702685
 20
3.8143828069
 30
0.0
 10
6.9613560118
 20
3.8142435518
 30
0.0
 10
6.9607380718
 20
3.8142123165
 30
0.0
 10
6.9604287285
 20
3.8142123165
 30
0.0
  0
SPLINE
  5
4BB
100
AcDbEntity
  8
0
100
AcDbSpline
 62
7
  6
CONTINUOUS
 70
0
 71
3
 72
18
 73
14
 74
0
 42
0.0000001
 43
0.0000001
 44
0.0000000001
 40
0.0
 40
0.0
 40
0.0
 40
0.0
 40
0.171300382
 40
0.3348106623
 40
0.4848595428
 40
0.6186060781
 40
0.6791631542
 40
0.7355840983
 40
0.7880320886
 40
0.8367294904
 40
0.8819464508
 40
0.9239999776
 40
1.0
 40
1.0
 40
1.0
 40
1.0
 10
6.9604287285
 20
3.8261005229
 30
0.0
 10
6.9610429175
 20
3.8261005229
 30
0.0
 10
6.9622440741
 20
3.8260476673
 30
0.0
 10
6.9639693941
 20
3.8258159824
 30
0.0
 10
6.9655341704
 20
3.8254533005
 30
0.0
 10
6.9667045961
 20
3.825051517
 30
0.0
 10
6.9675253326
 20
3.8246834838
 30
0.0
 10
6.9680630577
 20
3.8243999033
 30
0.0
 10
6.9685437437
 20
3.8241021218
 30
0.0
 10
6.9689679962
 20
3.8237923738
 30
0.0
 10
6.9693367977
 20
3.8234723927
 30
0.0
 10
6.9697418397
 20
3.8230492386
 30
0.0
 10
6.9699884415
 20
3.8226994229
 30
0.0
 10
6.9701150364
 20
3.8224581204
 30
0.0
  0
SPLINE
  5
4BC
100
AcDbEntity
  8
0
100
AcDbSpline
 62
7
  6
CONTINUOUS
 70
0
 71
3
 72
17
 73
13
 74
0
 42
0.0000001
 43
0.0000001
 44
0.0000000001
 40
0.0
 40
0.0
 40
0.0
 40
0.0
 40
0.114204908
 40
0.2303141007
 40
0.3491085261
 40
0.4713576301
 40
0.5976948321
 40
0.7283673713
 40
0.7952845176
 40
0.8630222536
 40
0.9313542905
 40
1.0
 40
1.0
 40
1.0
 40
1.0
 10
6.9701176997
 20
3.8368292255
 30
0.0
 10
6.9699980397
 20
3.8363282396
 30
0.0
 10
6.9696867394
 20
3.8353331058
 30
0.0
 10
6.9690061553
 20
3.8339073927
 30
0.0
 10
6.9681006769
 20
3.8325675351
 30
0.0
 10
6.9669642886
 20
3.8313517196
 30
0.0
 10
6.965598662
 20
3.8303081734
 30
0.0
 10
6.9642920663
 20
3.8296351014
 30
0.0
 10
6.9631614717
 20
3.8292385554
 30
0.0
 10
6.9622713388
 20
3.8290183212
 30
0.0
 10
6.9613565435
 20
3.8288836571
 30
0.0
 10
6.960738329
 20
3.8288534552
 30
0.0
 10
6.9604287285
 20
3.8288534552
 30
0.0
  0
SPLINE
  5
4BD
100
AcDbEntity
  8
0
100
AcDbSpline
 62
7
  6
CONTINUOUS
 70
0
 71
3
 72
16
 73
12
 74
0
 42
0.0000001
 43
0.0000001
 44
0.0000000001
 40
0.0
 40
0.0
 40
0.0
 40
0.0
 40
0.1675782884
 40
0.3278765801
 40
0.475639341
 40
0.6083148186
 40
0.7255620046
 40
0.8284736392
 40
0.8751956829
 40
0.9191380425
 40
1.0
 40
1.0
 40
1.0
 40
1.0
 10
6.9604287285
 20
3.8409440979
 30
0.0
 10
6.9610436396
 20
3.8409440979
 30
0.0
 10
6.9622476643
 20
3.8408842137
 30
0.0
 10
6.9639761269
 20
3.8406218149
 30
0.0
 10
6.9655436808
 20
3.8402110222
 30
0.0
 10
6.9669072587
 20
3.8396813975
 30
0.0
 10
6.9680481898
 20
3.839061511
 30
0.0
 10
6.9688351846
 20
3.8384710864
 30
0.0
 10
6.9693428072
 20
3.8379727873
 30
0.0
 10
6.9697494744
 20
3.8374917732
 30
0.0
 10
6.9699930445
 20
3.8370984848
 30
0.0
 10
6.9701176997
 20
3.8368292255
 30
0.0
  0
SPLINE
  5
4BE
100
AcDbEntity
  8
0
100
AcDbSpline
 62
7
  6
CONTINUOUS
 70
0
 71
3
 72
15
 73
11
 74
0
 42
0.0000001
 43
0.0000001
 44
0.0000000001
 40
0.0
 40
0.0
 40
0.0
 40
0.0
 40
0.1121198412
 40
0.2265489113
 40
0.3442185106
 40
0.4660350224
 40
0.5927297498
 40
0.724566619
 40
0.8609239239
 40
1.0
 40
1.0
 40
1.0
 40
1.0
 10
6.9701176997
 20
3.8514001645
 30
0.0
 10
6.9699978693
 20
3.8509175381
 30
0.0
 10
6.9696856629
 20
3.8499581888
 30
0.0
 10
6.9690041714
 20
3.8485860082
 30
0.0
 10
6.9680976203
 20
3.847296767
 30
0.0
 10
6.9669603164
 20
3.8461273967
 30
0.0
 10
6.9655939877
 20
3.8451242452
 30
0.0
 10
6.9640159879
 20
3.8443431021
 30
0.0
 10
6.9622702927
 20
3.8438425384
 30
0.0
 10
6.9610455665
 20
3.8437276052
 30
0.0
 10
6.9604287285
 20
3.8437276052
 30
0.0
  0
SPLINE
  5
4BF
100
AcDbEntity
  8
0
100
AcDbSpline
 62
7
  6
CONTINUOUS
 70
0
 71
3
 72
15
 73
11
 74
0
 42
0.0000001
 43
0.0000001
 44
0.0000000001
 40
0.0
 40
0.0
 40
0.0
 40
0.0
 40
0.1638205185
 40
0.3209004645
 40
0.4664150414
 40
0.5980965257
 40
0.7157631995
 40
0.8205724302
 40
0.9144877139
 40
1.0
 40
1.0
 40
1.0
 40
1.0
 10
6.9604287285
 20
3.8559712296
 30
0.0
 10
6.9610438217
 20
3.8559712296
 30
0.0
 10
6.9622498287
 20
3.855904523
 30
0.0
 10
6.9639801986
 20
3.855612347
 30
0.0
 10
6.9655494049
 20
3.855154897
 30
0.0
 10
6.9669141429
 20
3.8545650997
 30
0.0
 10
6.968055851
 20
3.8538746053
 30
0.0
 10
6.968971413
 20
3.8531094187
 30
0.0
 10
6.9696645131
 20
3.8522905444
 30
0.0
 10
6.969994189
 20
3.8516965287
 30
0.0
 10
6.9701176997
 20
3.8514001645
 30
0.0
  0
SPLINE
  5
4C0
100
AcDbEntity
  8
0
100
AcDbSpline
 62
7
  6
CONTINUOUS
 70
0
 71
3
 72
15
 73
11
 74
0
 42
0.0000001
 43
0.0000001
 44
0.0000000001
 40
0.0
 40
0.0
 40
0.0
 40
0.0
 40
0.1097619096
 40
0.2222947158
 40
0.3386945416
 40
0.4600125607
 40
0.5870774429
 40
0.7201602021
 40
0.8585039131
 40
1.0
 40
1.0
 40
1.0
 40
1.0
 10
6.9701176997
 20
3.8661342149
 30
0.0
 10
6.9699976655
 20
3.8656711981
 30
0.0
 10
6.9696843879
 20
3.8647500819
 30
0.0
 10
6.9690018631
 20
3.8634352087
 30
0.0
 10
6.9680941669
 20
3.8622002005
 30
0.0
 10
6.9669558905
 20
3.8610805779
 30
0.0
 10
6.9655891431
 20
3.8601207226
 30
0.0
 10
6.9640117114
 20
3.8593738586
 30
0.0
 10
6.9622676967
 20
3.8588956057
 30
0.0
 10
6.9610453433
 20
3.8587858963
 30
0.0
 10
6.9604287285
 20
3.8587858963
 30
0.0
  0
SPLINE
  5
4C1
100
AcDbEntity
  8
0
100
AcDbSpline
 62
7
  6
CONTINUOUS
 70
0
 71
3
 72
15
 73
11
 74
0
 42
0.0000001
 43
0.0000001
 44
0.0000000001
 40
0.0
 40
0.0
 40
0.0
 40
0.0
 40
0.1601362423
 40
0.3140767129
 40
0.4574265393
 40
0.5881906409
 40
0.7063221223
 40
0.8130050312
 40
0.9101298633
 40
1.0
 40
1.0
 40
1.0
 40
1.0
 10
6.9604287285
 20
3.8711489437
 30
0.0
 10
6.9610440171
 20
3.8711489437
 30
0.0
 10
6.9622521447
 20
3.871075547
 30
0.0
 10
6.9639844969
 20
3.8707542151
 30
0.0
 10
6.9655552785
 20
3.870251137
 30
0.0
 10
6.9669209946
 20
3.8696025556
 30
0.0
 10
6.9680629509
 20
3.8688433576
 30
0.0
 10
6.9689778274
 20
3.8680024722
 30
0.0
 10
6.9696692431
 20
3.8671034608
 30
0.0
 10
6.969995074
 20
3.8664570143
 30
0.0
 10
6.9701176997
 20
3.8661342149
 30
0.0
  0
SPLINE
  5
4C2
100
AcDbEntity
  8
0
100
AcDbSpline
 62
7
  6
CONTINUOUS
 70
0
 71
3
 72
18
 73
14
 74
0
 42
0.0000001
 43
0.0000001
 44
0.0000000001
 40
0.0
 40
0.0
 40
0.0
 40
0.0
 40
0.1071143225
 40
0.2175247302
 40
0.3325060644
 40
0.3921421084
 40
0.4533586389
 40
0.5808069495
 40
0.7152155052
 40
0.784866538
 40
0.855799702
 40
0.9276569282
 40
1.0
 40
1.0
 40
1.0
 40
1.0
 10
6.9701176997
 20
3.8809909915
 30
0.0
 10
6.9699974207
 20
3.8805487739
 30
0.0
 10
6.9696828503
 20
3.8796682097
 30
0.0
 10
6.9689992632
 20
3.8784143854
 30
0.0
 10
6.9682505039
 20
3.8774446662
 30
0.0
 10
6.9675426888
 20
3.8767242947
 30
0.0
 10
6.9667385989
 20
3.8760284211
 30
0.0
 10
6.9655840095
 20
3.8752564454
 30
0.0
 10
6.9642844196
 20
3.87467091
 30
0.0
 10
6.963158813
 20
3.8743245436
 30
0.0
 10
6.9622694334
 20
3.8741315212
 30
0.0
 10
6.9613555298
 20
3.874013509
 30
0.0
 10
6.9607382446
 20
3.8739870549
 30
0.0
 10
6.9604287285
 20
3.8739870549
 30
0.0
  0
SPLINE
  5
4C3
100
AcDbEntity
  8
0
100
AcDbSpline
 62
7
  6
CONTINUOUS
 70
0
 71
3
 72
15
 73
11
 74
0
 42
0.0000001
 43
0.0000001
 44
0.0000000001
 40
0.0
 40
0.0
 40
0.0
 40
0.0
 40
0.1565821996
 40
0.3075110645
 40
0.4488142393
 40
0.5787533662
 40
0.6973906595
 40
0.8059031622
 40
0.9060741282
 40
1.0
 40
1.0
 40
1.0
 40
1.0
 10
6.9604287285
 20
3.886435639
 30
0.0
 10
6.9610442237
 20
3.886435639
 30
0.0
 10
6.9622545867
 20
3.886355702
 30
0.0
 10
6.9639889582
 20
3.8860059231
 30
0.0
 10
6.9655612149
 20
3.8854583916
 30
0.0
 10
6.9669276608
 20
3.8847526622
 30
0.0
 10
6.968069524
 20
3.8839268656
 30
0.0
 10
6.9689834211
 20
3.8830128351
 30
0.0
 10
6.9696731074
 20
3.8820365752
 30
0.0
 10
6.9699957681
 20
3.8813394811
 30
0.0
 10
6.9701176997
 20
3.8809909915
 30
0.0
  0
SPLINE
  5
4C4
100
AcDbEntity
  8
0
100
AcDbSpline
 62
7
  6
CONTINUOUS
 70
0
 71
3
 72
17
 73
13
 74
0
 42
0.0000001
 43
0.0000001
 44
0.0000000001
 40
0.0
 40
0.0
 40
0.0
 40
0.0
 40
0.1042551642
 40
0.2124064736
 40
0.3259214055
 40
0.3851713832
 40
0.4462525835
 40
0.5742139328
 40
0.7101480108
 40
0.7808894015
 40
0.8530856579
 40
1.0
 40
1.0
 40
1.0
 40
1.0
 10
6.9701176997
 20
3.895929773
 30
0.0
 10
6.9699971246
 20
3.895509479
 30
0.0
 10
6.9696810426
 20
3.8946717158
 30
0.0
 10
6.9689961478
 20
3.8934823518
 30
0.0
 10
6.9682479948
 20
3.8925649735
 30
0.0
 10
6.9675414789
 20
3.8918834861
 30
0.0
 10
6.9667355296
 20
3.8912224476
 30
0.0
 10
6.9655785657
 20
3.890490111
 30
0.0
 10
6.9642817317
 20
3.8899369131
 30
0.0
 10
6.9631578153
 20
3.8896091546
 30
0.0
 10
6.9619661716
 20
3.8893639785
 30
0.0
 10
6.9610448891
 20
3.8892894157
 30
0.0
 10
6.9604287285
 20
3.8892894157
 30
0.0
  0
SPLINE
  5
4C5
100
AcDbEntity
  8
0
100
AcDbSpline
 62
7
  6
CONTINUOUS
 70
0
 71
3
 72
15
 73
11
 74
0
 42
0.0000001
 43
0.0000001
 44
0.0000000001
 40
0.0
 40
0.0
 40
0.0
 40
0.0
 40
0.1531870829
 40
0.3012550047
 40
0.4406416224
 40
0.569846496
 40
0.6890156833
 40
0.7992909107
 40
0.9023247293
 40
1.0
 40
1.0
 40
1.0
 40
1.0
 10
6.9604287285
 20
3.9017894157
 30
0.0
 10
6.9610444391
 20
3.9017894157
 30
0.0
 10
6.9622571271
 20
3.9017031071
 30
0.0
 10
6.9639935231
 20
3.9013256782
 30
0.0
 10
6.9655671258
 20
3.9007350222
 30
0.0
 10
6.9669340522
 20
3.8999739967
 30
0.0
 10
6.9680755359
 20
3.8990839508
 30
0.0
 10
6.9689882695
 20
3.8980995407
 30
0.0
 10
6.9696762781
 20
3.8970490436
 30
0.0
 10
6.9699963198
 20
3.8963031277
 30
0.0
 10
6.9701176997
 20
3.895929773
 30
0.0
  0
SPLINE
  5
4C6
100
AcDbEntity
  8
0
100
AcDbSpline
 62
7
  6
CONTINUOUS
 70
0
 71
3
 72
18
 73
14
 74
0
 42
0.0000001
 43
0.0000001
 44
0.0000000001
 40
0.0
 40
0.0
 40
0.0
 40
0.0
 40
0.1010999707
 40
0.1533079137
 40
0.2068751339
 40
0.3188112472
 40
0.4385018362
 40
0.5016685572
 40
0.567124658
 40
0.6348641905
 40
0.7047874525
 40
0.8500993315
 40
1.0
 40
1.0
 40
1.0
 40
1.0
 10
6.9701150364
 20
3.9109096131
 30
0.0
 10
6.969993685
 20
3.9105127118
 30
0.0
 10
6.9697573039
 20
3.909925248
 30
0.0
 10
6.9693447319
 20
3.9091821622
 30
0.0
 10
6.9688472699
 20
3.9084384837
 30
0.0
 10
6.968076256
 20
3.9075500656
 30
0.0
 10
6.9671422429
 20
3.9067720342
 30
0.0
 10
6.9662878683
 20
3.9062144526
 30
0.0
 10
6.9655796605
 20
3.9058276188
 30
0.0
 10
6.9648182426
 20
3.9054856143
 30
0.0
 10
6.9637240255
 20
3.9050925233
 30
0.0
 10
6.9622579615
 20
3.9047518877
 30
0.0
 10
6.9610441047
 20
3.9046596131
 30
0.0
 10
6.9604287285
 20
3.9046596131
 30
0.0
  0
SPLINE
  5
4C7
100
AcDbEntity
  8
0
100
AcDbSpline
 62
7
  6
CONTINUOUS
 70
0
 71
3
 72
18
 73
14
 74
0
 42
0.0000001
 43
0.0000001
 44
0.0000000001
 40
0.0
 40
0.0
 40
0.0
 40
0.0
 40
0.1499001714
 40
0.2952118885
 40
0.3651349506
 40
0.4328746728
 40
0.4983307801
 40
0.5614974735
 40
0.6811882062
 40
0.7931245493
 40
0.8466919485
 40
0.8988999723
 40
1.0
 40
1.0
 40
1.0
 40
1.0
 10
6.9604287285
 20
3.9171596131
 30
0.0
 10
6.9610441027
 20
3.9171596131
 30
0.0
 10
6.9622579568
 20
3.917067339
 30
0.0
 10
6.9637240175
 20
3.916726705
 30
0.0
 10
6.9648182343
 20
3.9163336155
 30
0.0
 10
6.9655796524
 20
3.9159916114
 30
0.0
 10
6.9662878613
 20
3.9156047781
 30
0.0
 10
6.9671422365
 20
3.9150471966
 30
0.0
 10
6.9680762516
 20
3.9142691654
 30
0.0
 10
6.9688472674
 20
3.9133807459
 30
0.0
 10
6.9693447309
 20
3.9126370659
 30
0.0
 10
6.9697573036
 20
3.9118939789
 30
0.0
 10
6.969993685
 20
3.9113065146
 30
0.0
 10
6.9701150364
 20
3.9109096131
 30
0.0
  0
SPLINE
  5
4C8
100
AcDbEntity
  8
0
100
AcDbSpline
 62
7
  6
CONTINUOUS
 70
0
 71
3
 72
15
 73
11
 74
0
 42
0.0000001
 43
0.0000001
 44
0.0000000001
 40
0.0
 40
0.0
 40
0.0
 40
0.0
 40
0.0976752157
 40
0.2007087792
 40
0.3109837768
 40
0.4301528121
 40
0.5593576991
 40
0.6987443268
 40
0.8468124101
 40
1.0
 40
1.0
 40
1.0
 40
1.0
 10
6.9701176997
 20
3.9258894533
 30
0.0
 10
6.9699963199
 20
3.9255160988
 30
0.0
 10
6.9696762787
 20
3.9247701841
 30
0.0
 10
6.9689882717
 20
3.9237196885
 30
0.0
 10
6.9680755404
 20
3.9227352798
 30
0.0
 10
6.9669340588
 20
3.9218452337
 30
0.0
 10
6.9655671333
 20
3.9210842075
 30
0.0
 10
6.9639935303
 20
3.9204935501
 30
0.0
 10
6.9622571319
 20
3.9201161195
 30
0.0
 10
6.9610444412
 20
3.9200298105
 30
0.0
 10
6.9604287285
 20
3.9200298105
 30
0.0
  0
SPLINE
  5
4C9
100
AcDbEntity
  8
0
100
AcDbSpline
 62
7
  6
CONTINUOUS
 70
0
 71
3
 72
17
 73
13
 74
0
 42
0.0000001
 43
0.0000001
 44
0.0000000001
 40
0.0
 40
0.0
 40
0.0
 40
0.0
 40
0.1469138551
 40
0.2191100017
 40
0.2898513409
 40
0.4257854002
 40
0.5537467254
 40
0.6148280109
 40
0.6740780439
 40
0.7875932039
 40
0.8957447773
 40
1.0
 40
1.0
 40
1.0
 40
1.0
 10
6.9604287285
 20
3.9325298105
 30
0.0
 10
6.961044887
 20
3.9325298105
 30
0.0
 10
6.9619661671
 20
3.9324552481
 30
0.0
 10
6.9631578082
 20
3.9322100733
 30
0.0
 10
6.9642817241
 20
3.9318823159
 30
0.0
 10
6.9655785583
 20
3.9313291192
 30
0.0
 10
6.9667355227
 20
3.9305967833
 30
0.0
 10
6.9675414732
 20
3.9299357454
 30
0.0
 10
6.9682479907
 20
3.9292542574
 30
0.0
 10
6.9689961457
 20
3.9283368778
 30
0.0
 10
6.969681042
 20
3.927147512
 30
0.0
 10
6.9699971245
 20
3.9263097474
 30
0.0
 10
6.9701176997
 20
3.9258894533
 30
0.0
  0
SPLINE
  5
4CA
100
AcDbEntity
  8
0
100
AcDbSpline
 62
7
  6
CONTINUOUS
 70
0
 71
3
 72
15
 73
11
 74
0
 42
0.0000001
 43
0.0000001
 44
0.0000000001
 40
0.0
 40
0.0
 40
0.0
 40
0.0
 40
0.0939258186
 40
0.1940965346
 40
0.3026088063
 40
0.4212459409
 40
0.5511850752
 40
0.6924882555
 40
0.8434172823
 40
1.0
 40
1.0
 40
1.0
 40
1.0
 10
6.9701176997
 20
3.9408282347
 30
0.0
 10
6.9699957682
 20
3.9404797454
 30
0.0
 10
6.969673108
 20
3.9397826524
 30
0.0
 10
6.9689834233
 20
3.9388063939
 30
0.0
 10
6.9680695285
 20
3.9378923647
 30
0.0
 10
6.9669276674
 20
3.9370665679
 30
0.0
 10
6.9655612224
 20
3.9363608379
 30
0.0
 10
6.9639889654
 20
3.935813305
 30
0.0
 10
6.9622545915
 20
3.9354635246
 30
0.0
 10
6.9610442257
 20
3.9353835873
 30
0.0
 10
6.9604287285
 20
3.9353835873
 30
0.0
  0
SPLINE
  5
4CB
100
AcDbEntity
  8
0
100
AcDbSpline
 62
7
  6
CONTINUOUS
 70
0
 71
3
 72
18
 73
14
 74
0
 42
0.0000001
 43
0.0000001
 44
0.0000000001
 40
0.0
 40
0.0
 40
0.0
 40
0.0
 40
0.0723429235
 40
0.1441998193
 40
0.2151328746
 40
0.2847838551
 40
0.4191923883
 40
0.54664067
 40
0.6078572827
 40
0.6674933798
 40
0.7824749416
 40
0.8928856175
 40
1.0
 40
1.0
 40
1.0
 40
1.0
 10
6.9604287285
 20
3.9478321713
 30
0.0
 10
6.960738244
 20
3.9478321713
 30
0.0
 10
6.9613555271
 20
3.9478057174
 30
0.0
 10
6.9622694283
 20
3.9476877057
 30
0.0
 10
6.9631588059
 20
3.9474946844
 30
0.0
 10
6.964284412
 20
3.9471483191
 30
0.0
 10
6.9655840021
 20
3.946562785
 30
0.0
 10
6.966738592
 20
3.9457908101
 30
0.0
 10
6.967542683
 20
3.9450949371
 30
0.0
 10
6.9682504998
 20
3.944374565
 30
0.0
 10
6.9689992611
 20
3.9434048444
 30
0.0
 10
6.9696828497
 20
3.9421510182
 30
0.0
 10
6.9699974206
 20
3.9412704526
 30
0.0
 10
6.9701176997
 20
3.9408282347
 30
0.0
  0
SPLINE
  5
4CC
100
AcDbEntity
  8
0
100
AcDbSpline
 62
7
  6
CONTINUOUS
 70
0
 71
3
 72
15
 73
11
 74
0
 42
0.0000001
 43
0.0000001
 44
0.0000000001
 40
0.0
 40
0.0
 40
0.0
 40
0.0
 40
0.0898700857
 40
0.1869946728
 40
0.2936773494
 40
0.4118086648
 40
0.5425727678
 40
0.6859225952
 40
0.8398632283
 40
1.0
 40
1.0
 40
1.0
 40
1.0
 10
6.9701176997
 20
3.9556850113
 30
0.0
 10
6.9699950741
 20
3.9553622121
 30
0.0
 10
6.9696692437
 20
3.9547157667
 30
0.0
 10
6.9689778296
 20
3.9538167566
 30
0.0
 10
6.9680629554
 20
3.9529758724
 30
0.0
 10
6.9669210011
 20
3.9522166742
 30
0.0
 10
6.965555286
 20
3.9515680922
 30
0.0
 10
6.9639845041
 20
3.9510650129
 30
0.0
 10
6.9622521494
 20
3.9507436795
 30
0.0
 10
6.9610440192
 20
3.9506702826
 30
0.0
 10
6.9604287285
 20
3.9506702826
 30
0.0
  0
SPLINE
  5
4CD
100
AcDbEntity
  8
0
100
AcDbSpline
 62
7
  6
CONTINUOUS
 70
0
 71
3
 72
15
 73
11
 74
0
 42
0.0000001
 43
0.0000001
 44
0.0000000001
 40
0.0
 40
0.0
 40
0.0
 40
0.0
 40
0.1414956173
 40
0.2798391676
 40
0.4129219003
 40
0.539986749
 40
0.6613048979
 40
0.777704951
 40
0.890238029
 40
1.0
 40
1.0
 40
1.0
 40
1.0
 10
6.9604287285
 20
3.9630333299
 30
0.0
 10
6.9610453412
 20
3.9630333299
 30
0.0
 10
6.9622676919
 20
3.962923621
 30
0.0
 10
6.9640117042
 20
3.9624453702
 30
0.0
 10
6.9655891356
 20
3.961698508
 30
0.0
 10
6.966955884
 20
3.9607386536
 30
0.0
 10
6.9680941626
 20
3.9596190312
 30
0.0
 10
6.969001861
 20
3.9583840211
 30
0.0
 10
6.9696843873
 20
3.957069146
 30
0.0
 10
6.9699976655
 20
3.9561480284
 30
0.0
 10
6.9701176997
 20
3.9556850113
 30
0.0
  0
SPLINE
  5
4CE
100
AcDbEntity
  8
0
100
AcDbSpline
 62
7
  6
CONTINUOUS
 70
0
 71
3
 72
15
 73
11
 74
0
 42
0.0000001
 43
0.0000001
 44
0.0000000001
 40
0.0
 40
0.0
 40
0.0
 40
0.0
 40
0.0855122372
 40
0.1794272813
 40
0.284236278
 40
0.401902778
 40
0.5335842578
 40
0.679098831
 40
0.8361789402
 40
1.0
 40
1.0
 40
1.0
 40
1.0
 10
6.9701176997
 20
3.9704190617
 30
0.0
 10
6.9699941891
 20
3.9701226977
 30
0.0
 10
6.9696645137
 20
3.969528683
 30
0.0
 10
6.9689714153
 20
3.9687098099
 30
0.0
 10
6.9680558556
 20
3.9679446244
 30
0.0
 10
6.9669141494
 20
3.9672541297
 30
0.0
 10
6.9655494124
 20
3.966664332
 30
0.0
 10
6.9639802057
 20
3.9662068808
 30
0.0
 10
6.9622498334
 20
3.9659147035
 30
0.0
 10
6.9610438238
 20
3.9658479966
 30
0.0
 10
6.9604287285
 20
3.9658479966
 30
0.0
  0
SPLINE
  5
4CF
100
AcDbEntity
  8
0
100
AcDbSpline
 62
7
  6
CONTINUOUS
 70
0
 71
3
 72
15
 73
11
 74
0
 42
0.0000001
 43
0.0000001
 44
0.0000000001
 40
0.0
 40
0.0
 40
0.0
 40
0.0
 40
0.1390756141
 40
0.2754327583
 40
0.4072695974
 40
0.5339642871
 40
0.6557809244
 40
0.7734507507
 40
0.8878800962
 40
1.0
 40
1.0
 40
1.0
 40
1.0
 10
6.9604287285
 20
3.9780916211
 30
0.0
 10
6.9610455645
 20
3.9780916211
 30
0.0
 10
6.9622702878
 20
3.9779766884
 30
0.0
 10
6.9640159806
 20
3.9774761269
 30
0.0
 10
6.9655939803
 20
3.9766949856
 30
0.0
 10
6.9669603099
 20
3.975691835
 30
0.0
 10
6.968097616
 20
3.9745224649
 30
0.0
 10
6.9690041693
 20
3.9732332218
 30
0.0
 10
6.9696856624
 20
3.9718610391
 30
0.0
 10
6.9699978693
 20
3.9709016884
 30
0.0
 10
6.9701176997
 20
3.9704190617
 30
0.0
  0
SPLINE
  5
4D0
100
AcDbEntity
  8
0
100
AcDbSpline
 62
7
  6
CONTINUOUS
 70
0
 71
3
 72
16
 73
12
 74
0
 42
0.0000001
 43
0.0000001
 44
0.0000000001
 40
0.0
 40
0.0
 40
0.0
 40
0.0
 40
0.0808619111
 40
0.1248042002
 40
0.1715260791
 40
0.2744374779
 40
0.3916844822
 40
0.5243599491
 40
0.6721227019
 40
0.8324211579
 40
1.0
 40
1.0
 40
1.0
 40
1.0
 10
6.9701176997
 20
3.9849900008
 30
0.0
 10
6.9699930446
 20
3.9847207416
 30
0.0
 10
6.9697494748
 20
3.9843274535
 30
0.0
 10
6.9693428082
 20
3.9838464402
 30
0.0
 10
6.9688351872
 20
3.983348142
 30
0.0
 10
6.9680481943
 20
3.9827577184
 30
0.0
 10
6.9669072652
 20
3.9821378316
 30
0.0
 10
6.9655436882
 20
3.9816082065
 30
0.0
 10
6.9639761341
 20
3.9811974127
 30
0.0
 10
6.962247669
 20
3.9809350128
 30
0.0
 10
6.9610436416
 20
3.9808751284
 30
0.0
 10
6.9604287285
 20
3.9808751284
 30
0.0
  0
SPLINE
  5
4D1
100
AcDbEntity
  8
0
100
AcDbSpline
 62
7
  6
CONTINUOUS
 70
0
 71
3
 72
17
 73
13
 74
0
 42
0.0000001
 43
0.0000001
 44
0.0000000001
 40
0.0
 40
0.0
 40
0.0
 40
0.0
 40
0.0686455687
 40
0.1369772908
 40
0.2047149201
 40
0.271632012
 40
0.4023045181
 40
0.5286416787
 40
0.6508909044
 40
0.7696855568
 40
0.8857950282
 40
1.0
 40
1.0
 40
1.0
 40
1.0
 10
6.9604287285
 20
3.992965771
 30
0.0
 10
6.9607383284
 20
3.992965771
 30
0.0
 10
6.9613565408
 20
3.9929355694
 30
0.0
 10
6.9622713336
 20
3.9928009059
 30
0.0
 10
6.9631614646
 20
3.9925806729
 30
0.0
 10
6.9642920587
 20
3.9921841282
 30
0.0
 10
6.9655986546
 20
3.9915110577
 30
0.0
 10
6.966964282
 20
3.9904675124
 30
0.0
 10
6.9681006725
 20
3.989251697
 30
0.0
 10
6.9690061532
 20
3.9879118374
 30
0.0
 10
6.9696867389
 20
3.9864861222
 30
0.0
 10
6.9699980397
 20
3.9854909869
 30
0.0
 10
6.9701176997
 20
3.9849900008
 30
0.0
  0
SPLINE
  5
4D2
100
AcDbEntity
  8
0
100
AcDbSpline
 62
7
  6
CONTINUOUS
 70
0
 71
3
 72
18
 73
14
 74
0
 42
0.0000001
 43
0.0000001
 44
0.0000000001
 40
0.0
 40
0.0
 40
0.0
 40
0.0
 40
0.0759999784
 40
0.1180534373
 40
0.1632702362
 40
0.2119674912
 40
0.264415391
 40
0.3208362584
 40
0.3813932215
 40
0.5151397404
 40
0.665188609
 40
0.8286990541
 40
1.0
 40
1.0
 40
1.0
 40
1.0
 10
6.9701150364
 20
3.9993611058
 30
0.0
 10
6.9699884416
 20
3.9991198035
 30
0.0
 10
6.96974184
 20
3.9987699881
 30
0.0
 10
6.9693367988
 20
3.9983468346
 30
0.0
 10
6.9689679984
 20
3.9980268543
 30
0.0
 10
6.9685437473
 20
3.9977171069
 30
0.0
 10
6.9680630624
 20
3.9974193257
 30
0.0
 10
6.9675253384
 20
3.9971357453
 30
0.0
 10
6.9667046029
 20
3.9967677118
 30
0.0
 10
6.9655341778
 20
3.9963659279
 30
0.0
 10
6.9639694012
 20
3.9960032451
 30
0.0
 10
6.9622440787
 20
3.9957715592
 30
0.0
 10
6.9610429196
 20
3.9957187033
 30
0.0
 10
6.9604287285
 20
3.9957187033
 30
0.0
  0
SPLINE
  5
4D3
100
AcDbEntity
  8
0
100
AcDbSpline
 62
7
  6
CONTINUOUS
 70
0
 71
3
 72
19
 73
15
 74
0
 42
0.0000001
 43
0.0000001
 44
0.0000000001
 40
0.0
 40
0.0
 40
0.0
 40
0.0
 40
0.0675983801
 40
0.1349335866
 40
0.2017713183
 40
0.2679228209
 40
0.3975621925
 40
0.5236050348
 40
0.5853837212
 40
0.6463731153
 40
0.7066474197
 40
0.7662883141
 40
0.8839208724
 40
1.0
 40
1.0
 40
1.0
 40
1.0
 10
6.9604287285
 20
4.0076069098
 30
0.0
 10
6.9607380712
 20
4.0076069098
 30
0.0
 10
6.9613560091
 20
4.0075756747
 30
0.0
 10
6.9622702633
 20
4.0074364202
 30
0.0
 10
6.9631598625
 20
4.007208691
 30
0.0
 10
6.9642910967
 20
4.0067981773
 30
0.0
 10
6.9655986261
 20
4.0061008287
 30
0.0
 10
6.966743902
 20
4.0051947184
 30
0.0
 10
6.9675417046
 20
4.0043808992
 30
0.0
 10
6.9680786501
 20
4.003736806
 30
0.0
 10
6.9685581306
 20
4.0030609332
 30
0.0
 10
6.9691190648
 20
4.0021287621
 30
0.0
 10
6.9696839415
 20
4.0009057095
 30
0.0
 10
6.9699951121
 20
3.9998785912
 30
0.0
 10
6.9701150364
 20
3.9993611058
 30
0.0
  0
SPLINE
  5
4D4
100
AcDbEntity
  8
0
100
AcDbSpline
 62
7
  6
CONTINUOUS
 70
0
 71
3
 72
20
 73
16
 74
0
 42
0.0000001
 43
0.0000001
 44
0.0000000001
 40
0.0
 40
0.0
 40
0.0
 40
0.0
 40
0.0708933332
 40
0.110998784
 40
0.1546828419
 40
0.2022587657
 40
0.2539872022
 40
0.3100774691
 40
0.3706772508
 40
0.4358603024
 40
0.5056055748
 40
0.6580221389
 40
0.7399590328
 40
0.8248729945
 40
1.0
 40
1.0
 40
1.0
 40
1.0
 10
6.9701176997
 20
4.01348335
 30
0.0
 10
6.9699895449
 20
4.0132701001
 30
0.0
 10
6.9697405868
 20
4.0129643408
 30
0.0
 10
6.9693387286
 20
4.0125990389
 30
0.0
 10
6.9689701908
 20
4.0123208798
 30
0.0
 10
6.9685462237
 20
4.0120516185
 30
0.0
 10
6.9680657645
 20
4.0117927177
 30
0.0
 10
6.9675282019
 20
4.011546143
 30
0.0
 10
6.9669332669
 20
4.0113140671
 30
0.0
 10
6.9662813436
 20
4.0110989393
 30
0.0
 10
6.9653089912
 20
4.0108304391
 30
0.0
 10
6.9642611658
 20
4.0106194634
 30
0.0
 10
6.9631511681
 20
4.0104652638
 30
0.0
 10
6.9619564749
 20
4.0103483088
 30
0.0
 10
6.9610433251
 20
4.0103134173
 30
0.0
 10
6.9604287285
 20
4.0103134173
 30
0.0
  0
SPLINE
  5
4D5
100
AcDbEntity
  8
0
100
AcDbSpline
 62
7
  6
CONTINUOUS
 70
0
 71
3
 72
21
 73
17
 74
0
 42
0.0000001
 43
0.0000001
 44
0.0000000001
 40
0.0
 40
0.0
 40
0.0
 40
0.0
 40
0.0666560172
 40
0.1330945871
 40
0.1991228331
 40
0.26458584
 40
0.3293771061
 40
0.3934380233
 40
0.4567511309
 40
0.5193319719
 40
0.5812193505
 40
0.6424665753
 40
0.7031351878
 40
0.763292747
 40
0.882268
 40
1.0
 40
1.0
 40
1.0
 40
1.0
 10
6.9604287285
 20
4.0219991876
 30
0.0
 10
6.9607383799
 20
4.0219991876
 30
0.0
 10
6.9613571565
 20
4.0219668934
 30
0.0
 10
6.9622724966
 20
4.0218229199
 30
0.0
 10
6.9631630018
 20
4.0215875513
 30
0.0
 10
6.9640182193
 20
4.02126701
 30
0.0
 10
6.9648299376
 20
4.0208689299
 30
0.0
 10
6.9655920477
 20
4.0204016152
 30
0.0
 10
6.9663004139
 20
4.0198734425
 30
0.0
 10
6.9669525299
 20
4.0192924332
 30
0.0
 10
6.9675471522
 20
4.0186659972
 30
0.0
 10
6.9680839413
 20
4.0180008419
 30
0.0
 10
6.9685632142
 20
4.0173028939
 30
0.0
 10
6.9691242439
 20
4.0163394794
 30
0.0
 10
6.9696884813
 20
4.0150759338
 30
0.0
 10
6.9699983027
 20
4.014017084
 30
0.0
 10
6.9701176997
 20
4.01348335
 30
0.0
  0
SPLINE
  5
4D6
100
AcDbEntity
  8
0
100
AcDbSpline
 62
7
  6
CONTINUOUS
 70
0
 71
3
 72
21
 73
17
 74
0
 42
0.0000001
 43
0.0000001
 44
0.0000000001
 40
0.0
 40
0.0
 40
0.0
 40
0.0
 40
0.0313234404
 40
0.0658771701
 40
0.1040858688
 40
0.1463104787
 40
0.192845739
 40
0.2439315845
 40
0.299756207
 40
0.3604461804
 40
0.4260535471
 40
0.4965338719
 40
0.6512512836
 40
0.7346758584
 40
0.8212482674
 40
1.0
 40
1.0
 40
1.0
 40
1.0
 10
6.9701176997
 20
4.0273276618
 30
0.0
 10
6.9700553744
 20
4.0272398577
 30
0.0
 10
6.9699104207
 20
4.0270648459
 30
0.0
 10
6.9696500582
 20
4.026818444
 30
0.0
 10
6.9693361884
 20
4.0265771908
 30
0.0
 10
6.9689678749
 20
4.0263421396
 30
0.0
 10
6.9685440532
 20
4.0261144396
 30
0.0
 10
6.9680638042
 20
4.0258954967
 30
0.0
 10
6.9675264454
 20
4.0256869303
 30
0.0
 10
6.9669317153
 20
4.025490604
 30
0.0
 10
6.9662799933
 20
4.0253085929
 30
0.0
 10
6.9653063338
 20
4.025081048
 30
0.0
 10
6.9642593064
 20
4.0249027668
 30
0.0
 10
6.9631505808
 20
4.0247723851
 30
0.0
 10
6.9619556536
 20
4.0246733771
 30
0.0
 10
6.9610431942
 20
4.0246438863
 30
0.0
 10
6.9604287285
 20
4.0246438863
 30
0.0
  0
SPLINE
  5
4D7
100
AcDbEntity
  8
0
100
AcDbSpline
 62
7
  6
CONTINUOUS
 70
0
 71
3
 72
18
 73
14
 74
0
 42
0.0000001
 43
0.0000001
 44
0.0000000001
 40
0.0
 40
0.0
 40
0.0
 40
0.0
 40
0.0658447428
 40
0.1315139815
 40
0.1968526474
 40
0.2617364062
 40
0.3260804585
 40
0.3898389159
 40
0.5154541647
 40
0.6388931895
 40
0.7605175011
 40
0.8807474619
 40
1.0
 40
1.0
 40
1.0
 40
1.0
 10
6.9604287285
 20
4.0360788757
 30
0.0
 10
6.9607384035
 20
4.0360788757
 30
0.0
 10
6.9613574388
 20
4.0360456653
 30
0.0
 10
6.9622730181
 20
4.0358976291
 30
0.0
 10
6.9631637125
 20
4.0356556317
 30
0.0
 10
6.9640190342
 20
4.0353261074
 30
0.0
 10
6.9648308329
 20
4.034916857
 30
0.0
 10
6.9658416112
 20
4.0342798676
 30
0.0
 10
6.9669741942
 20
4.0333279052
 30
0.0
 10
6.968107649
 20
4.0319938861
 30
0.0
 10
6.9690105901
 20
4.0305248937
 30
0.0
 10
6.96968906
 20
4.0289624823
 30
0.0
 10
6.9699984034
 20
4.0278756852
 30
0.0
 10
6.9701176997
 20
4.0273276618
 30
0.0
  0
SPLINE
  5
4D8
100
AcDbEntity
  8
0
100
AcDbSpline
 62
7
  6
CONTINUOUS
 70
0
 71
3
 72
20
 73
16
 74
0
 42
0.0000001
 43
0.0000001
 44
0.0000000001
 40
0.0
 40
0.0
 40
0.0
 40
0.0
 40
0.0285561339
 40
0.06084386
 40
0.0972636202
 40
0.1381432828
 40
0.1837449104
 40
0.2342785273
 40
0.289905573
 40
0.3507283741
 40
0.4167758999
 40
0.4879803073
 40
0.6449006799
 40
0.8178484165
 40
1.0
 40
1.0
 40
1.0
 40
1.0
 10
6.9701176997
 20
4.0408528799
 30
0.0
 10
6.9700544929
 20
4.0407802084
 30
0.0
 10
6.9699075272
 20
4.0406359149
 30
0.0
 10
6.9696472198
 20
4.0404353581
 30
0.0
 10
6.969333549
 20
4.0402389233
 30
0.0
 10
6.9689654971
 20
4.0400474606
 30
0.0
 10
6.9685419459
 20
4.0398619121
 30
0.0
 10
6.9680619554
 20
4.0396834437
 30
0.0
 10
6.9675248347
 20
4.0395133922
 30
0.0
 10
6.9669303211
 20
4.0393532918
 30
0.0
 10
6.9662788012
 20
4.0392048458
 30
0.0
 10
6.9653040133
 20
4.0390189845
 30
0.0
 10
6.9639631749
 20
4.0388328683
 30
0.0
 10
6.9622410246
 20
4.0386942195
 30
0.0
 10
6.9610430835
 20
4.0386626175
 30
0.0
 10
6.9604287285
 20
4.0386626175
 30
0.0
  0
SPLINE
  5
4D9
100
AcDbEntity
  8
0
100
AcDbSpline
 62
7
  6
CONTINUOUS
 70
0
 71
3
 72
18
 73
14
 74
0
 42
0.0000001
 43
0.0000001
 44
0.0000000001
 40
0.0
 40
0.0
 40
0.0
 40
0.0
 40
0.0651099252
 40
0.1300820751
 40
0.1947952751
 40
0.2591524055
 40
0.3230877198
 40
0.3865661906
 40
0.5120157511
 40
0.6357836125
 40
0.7581531682
 40
0.8794509226
 40
1.0
 40
1.0
 40
1.0
 40
1.0
 10
6.9604287285
 20
4.0498154836
 30
0.0
 10
6.9607384252
 20
4.0498154836
 30
0.0
 10
6.9613576985
 20
4.0497814488
 30
0.0
 10
6.9622734971
 20
4.0496297578
 30
0.0
 10
6.963164359
 20
4.0493818029
 30
0.0
 10
6.9640197797
 20
4.0490441952
 30
0.0
 10
6.9648316119
 20
4.048624946
 30
0.0
 10
6.9658433886
 20
4.0479717841
 30
0.0
 10
6.9669766934
 20
4.0469954862
 30
0.0
 10
6.9681093897
 20
4.0456293131
 30
0.0
 10
6.9690116514
 20
4.0441252036
 30
0.0
 10
6.9696896042
 20
4.042525564
 30
0.0
 10
6.9699984877
 20
4.0414137446
 30
0.0
 10
6.9701176997
 20
4.0408528799
 30
0.0
  0
SPLINE
  5
4DA
100
AcDbEntity
  8
0
100
AcDbSpline
 62
7
  6
CONTINUOUS
 70
0
 71
3
 72
19
 73
15
 74
0
 42
0.0000001
 43
0.0000001
 44
0.0000000001
 40
0.0
 40
0.0
 40
0.0
 40
0.0
 40
0.0259438901
 40
0.0561554074
 40
0.0909767885
 40
0.1306821026
 40
0.1754890376
 40
0.2255716219
 40
0.2810618293
 40
0.3420370696
 40
0.480359237
 40
0.639257523
 40
0.8148455248
 40
1.0
 40
1.0
 40
1.0
 40
1.0
 10
6.9701176997
 20
4.0540219324
 30
0.0
 10
6.9700533259
 20
4.0539647989
 30
0.0
 10
6.9699040982
 20
4.0538522078
 30
0.0
 10
6.9696441621
 20
4.0536980243
 30
0.0
 10
6.969330901
 20
4.053546849
 30
0.0
 10
6.9689632359
 20
4.0533993775
 30
0.0
 10
6.9685400214
 20
4.0532563744
 30
0.0
 10
6.9680603182
 20
4.0531187735
 30
0.0
 10
6.9675234424
 20
4.0529876129
 30
0.0
 10
6.9666956942
 20
4.0528156585
 30
0.0
 10
6.9655212941
 20
4.0526295995
 30
0.0
 10
6.9639611003
 20
4.0524624178
 30
0.0
 10
6.9622399402
 20
4.0523555567
 30
0.0
 10
6.9610429943
 20
4.0523311865
 30
0.0
 10
6.9604287285
 20
4.0523311865
 30
0.0
  0
SPLINE
  5
4DB
100
AcDbEntity
  8
0
100
AcDbSpline
 62
7
  6
CONTINUOUS
 70
0
 71
3
 72
18
 73
14
 74
0
 42
0.0000001
 43
0.0000001
 44
0.0000000001
 40
0.0
 40
0.0
 40
0.0
 40
0.0
 40
0.0644698794
 40
0.1288353164
 40
0.1930049939
 40
0.2569055987
 40
0.3204878524
 40
0.3837258684
 40
0.5090377376
 40
0.6330955798
 40
0.7561127321
 40
0.8783334809
 40
1.0
 40
1.0
 40
1.0
 40
1.0
 10
6.9604287285
 20
4.0631713602
 30
0.0
 10
6.9607384448
 20
4.0631713602
 30
0.0
 10
6.9613579331
 20
4.0631365955
 30
0.0
 10
6.9622739283
 20
4.0629816698
 30
0.0
 10
6.9631649382
 20
4.0627284445
 30
0.0
 10
6.9640204432
 20
4.0623836884
 30
0.0
 10
6.9648323002
 20
4.0619556001
 30
0.0
 10
6.9658449463
 20
4.0612881226
 30
0.0
 10
6.966978849
 20
4.0602903079
 30
0.0
 10
6.9681108698
 20
4.058895751
 30
0.0
 10
6.9690125435
 20
4.0573606295
 30
0.0
 10
6.9696900577
 20
4.0557280984
 30
0.0
 10
6.9699985577
 20
4.0545941523
 30
0.0
 10
6.9701176997
 20
4.0540219324
 30
0.0
  0
SPLINE
  5
4DC
100
AcDbEntity
  8
0
100
AcDbSpline
 62
7
  6
CONTINUOUS
 70
0
 71
3
 72
19
 73
15
 74
0
 42
0.0000001
 43
0.0000001
 44
0.0000000001
 40
0.0
 40
0.0
 40
0.0
 40
0.0
 40
0.0236786556
 40
0.0521490846
 40
0.0856641562
 40
0.1244309151
 40
0.1686181698
 40
0.2183635791
 40
0.2737712002
 40
0.334896009
 40
0.4741443244
 40
0.6346702373
 40
0.8124088705
 40
1.0
 40
1.0
 40
1.0
 40
1.0
 10
6.9701176997
 20
4.0667987241
 30
0.0
 10
6.9700518943
 20
4.066757735
 30
0.0
 10
6.9699004388
 20
4.0666779542
 30
0.0
 10
6.969641202
 20
4.0665703113
 30
0.0
 10
6.9693285107
 20
4.0664645792
 30
0.0
 10
6.9689612924
 20
4.0663613093
 30
0.0
 10
6.9685384254
 20
4.066261098
 30
0.0
 10
6.9680589961
 20
4.0661646285
 30
0.0
 10
6.9675223396
 20
4.0660726475
 30
0.0
 10
6.9666935634
 20
4.0659518535
 30
0.0
 10
6.965518804
 20
4.0658213452
 30
0.0
 10
6.9639594924
 20
4.06570414
 30
0.0
 10
6.9622391419
 20
4.0656292157
 30
0.0
 10
6.9610429275
 20
4.0656121289
 30
0.0
 10
6.9604287285
 20
4.0656121289
 30
0.0
  0
SPLINE
  5
4DD
100
AcDbEntity
  8
0
100
AcDbSpline
 62
7
  6
CONTINUOUS
 70
0
 71
3
 72
18
 73
14
 74
0
 42
0.0000001
 43
0.0000001
 44
0.0000000001
 40
0.0
 40
0.0
 40
0.0
 40
0.0
 40
0.0639228442
 40
0.1277700963
 40
0.191476201
 40
0.2549882691
 40
0.3182709785
 40
0.3813060125
 40
0.5065050499
 40
0.6308132574
 40
0.7543826861
 40
0.8773870838
 40
1.0
 40
1.0
 40
1.0
 40
1.0
 10
6.9604287285
 20
4.0761098978
 30
0.0
 10
6.960738462
 20
4.0761098978
 30
0.0
 10
6.96135814
 20
4.0760745002
 30
0.0
 10
6.9622743076
 20
4.0759167708
 30
0.0
 10
6.9631654454
 20
4.0756589783
 30
0.0
 10
6.964021021
 20
4.0753080301
 30
0.0
 10
6.9648328958
 20
4.0748722877
 30
0.0
 10
6.9658462843
 20
4.0741923997
 30
0.0
 10
6.9669806754
 20
4.073175951
 30
0.0
 10
6.9681121087
 20
4.0717568452
 30
0.0
 10
6.9690132831
 20
4.0701948914
 30
0.0
 10
6.969690431
 20
4.0685338909
 30
0.0
 10
6.9699986151
 20
4.0673807791
 30
0.0
 10
6.9701176997
 20
4.0667987241
 30
0.0
  0
SPLINE
  5
4DE
100
AcDbEntity
  8
0
100
AcDbSpline
 62
7
  6
CONTINUOUS
 70
0
 71
3
 72
18
 73
14
 74
0
 42
0.0000001
 43
0.0000001
 44
0.0000000001
 40
0.0
 40
0.0
 40
0.0
 40
0.0
 40
0.0220665477
 40
0.0493476214
 40
0.0819986205
 40
0.1201633753
 40
0.1639683944
 40
0.2135215951
 40
0.3301534488
 40
0.4700557443
 40
0.6316741766
 40
0.8108249468
 40
1.0
 40
1.0
 40
1.0
 40
1.0
 10
6.9701150364
 20
4.0791543502
 30
0.0
 10
6.9700475849
 20
4.079130409
 30
0.0
 10
6.9698940487
 20
4.0790845131
 30
0.0
 10
6.9696351517
 20
4.0790232735
 30
0.0
 10
6.9693226478
 20
4.0789630115
 30
0.0
 10
6.9689555252
 20
4.0789040772
 30
0.0
 10
6.9685327413
 20
4.0788468494
 30
0.0
 10
6.9678560407
 20
4.0787690976
 30
0.0
 10
6.9668669272
 20
4.078681592
 30
0.0
 10
6.9655132564
 20
4.0785955357
 30
0.0
 10
6.9639555014
 20
4.0785286418
 30
0.0
 10
6.962237045
 20
4.0784858432
 30
0.0
 10
6.9610423303
 20
4.0784760889
 30
0.0
 10
6.9604287285
 20
4.0784760889
 30
0.0
  0
SPLINE
  5
4DF
100
AcDbEntity
  8
0
100
AcDbSpline
 62
7
  6
CONTINUOUS
 70
0
 71
3
 72
18
 73
14
 74
0
 42
0.0000001
 43
0.0000001
 44
0.0000000001
 40
0.0
 40
0.0
 40
0.0
 40
0.0
 40
0.063466441
 40
0.1268816656
 40
0.1902018135
 40
0.2533910959
 40
0.3164257417
 40
0.3792935411
 40
0.5044025966
 40
0.6289218476
 40
0.7529510715
 40
0.876604902
 40
1.0
 40
1.0
 40
1.0
 40
1.0
 10
6.9604287285
 20
4.0885888013
 30
0.0
 10
6.9607381929
 20
4.0885888013
 30
0.0
 10
6.9613574641
 20
4.0885529351
 30
0.0
 10
6.9622729612
 20
4.0883931295
 30
0.0
 10
6.9631634551
 20
4.0881319492
 30
0.0
 10
6.9640184268
 20
4.0877763957
 30
0.0
 10
6.9648297578
 20
4.0873349425
 30
0.0
 10
6.9658431768
 20
4.0866456998
 30
0.0
 10
6.9669775101
 20
4.0856151276
 30
0.0
 10
6.9681083563
 20
4.0841773936
 30
0.0
 10
6.9690094324
 20
4.0825949242
 30
0.0
 10
6.9696869697
 20
4.0809119972
 30
0.0
 10
6.9699955938
 20
4.0797440538
 30
0.0
 10
6.9701150364
 20
4.0791543502
 30
0.0
  0
LINE
  5
4E0
100
AcDbEntity
  8
0
100
AcDbLine
 62
7
  6
CONTINUOUS
 10
6.9701176997
 20
4.0910366146
 11
6.9604287285
 21
4.0908666872
  0
SPLINE
  5
4E1
100
AcDbEntity
  8
0
100
AcDbSpline
 62
7
  6
CONTINUOUS
 70
0
 71
3
 72
18
 73
14
 74
0
 42
0.0000001
 43
0.0000001
 44
0.0000000001
 40
0.0
 40
0.0
 40
0.0
 40
0.0
 40
0.0631016148
 40
0.1261715782
 40
0.1891834471
 40
0.2521151065
 40
0.3149519889
 40
0.3776866988
 40
0.5027246666
 40
0.6274129336
 40
0.7518092352
 40
0.8759810636
 40
1.0
 40
1.0
 40
1.0
 40
1.0
 10
6.9604287285
 20
4.1005943432
 30
0.0
 10
6.960738489
 20
4.1005943432
 30
0.0
 10
6.9613584621
 20
4.1005579789
 30
0.0
 10
6.9622748961
 20
4.1003959694
 30
0.0
 10
6.9631662283
 20
4.1001312079
 30
0.0
 10
6.964021907
 20
4.099770815
 30
0.0
 10
6.9648338023
 20
4.0993234029
 30
0.0
 10
6.9658483035
 20
4.0986245693
 30
0.0
 10
6.9669833883
 20
4.097579709
 30
0.0
 10
6.968113924
 20
4.0961232256
 30
0.0
 10
6.9690143553
 20
4.0945203983
 30
0.0
 10
6.9696909678
 20
4.0928160119
 30
0.0
 10
6.9699986974
 20
4.0916336691
 30
0.0
 10
6.9701176997
 20
4.0910366146
 30
0.0
  0
SPLINE
  5
4E2
100
AcDbEntity
  8
0
100
AcDbSpline
 62
7
  6
CONTINUOUS
 70
0
 71
3
 72
18
 73
14
 74
0
 42
0.0000001
 43
0.0000001
 44
0.0000000001
 40
0.0
 40
0.0
 40
0.0
 40
0.0
 40
0.0628248617
 40
0.1256330546
 40
0.1884114351
 40
0.2511482882
 40
0.313835981
 40
0.376470675
 40
0.5014565954
 40
0.6262740401
 40
0.7509483652
 40
0.8755111824
 40
1.0
 40
1.0
 40
1.0
 40
1.0
 10
6.9604287285
 20
4.1120731406
 30
0.0
 10
6.9607384983
 20
4.1120731406
 30
0.0
 10
6.9613585739
 20
4.112036446
 30
0.0
 10
6.9622750998
 20
4.1118729743
 30
0.0
 10
6.963166498
 20
4.1116058327
 30
0.0
 10
6.9640222106
 20
4.1112422154
 30
0.0
 10
6.9648341112
 20
4.1107908207
 30
0.0
 10
6.9658489867
 20
4.1100855147
 30
0.0
 10
6.9669842945
 20
4.1090309579
 30
0.0
 10
6.9681145239
 20
4.1075617316
 30
0.0
 10
6.9690147066
 20
4.1059449641
 30
0.0
 10
6.9696911426
 20
4.1042257756
 30
0.0
 10
6.9699987242
 20
4.1030334539
 30
0.0
 10
6.9701176997
 20
4.1024312791
 30
0.0
  0
SPLINE
  5
4E3
100
AcDbEntity
  8
0
100
AcDbSpline
 62
7
  6
CONTINUOUS
 70
0
 71
3
 72
18
 73
14
 74
0
 42
0.0000001
 43
0.0000001
 44
0.0000000001
 40
0.0
 40
0.0
 40
0.0
 40
0.0
 40
0.0626360615
 40
0.1252657268
 40
0.1878849594
 40
0.2504891472
 40
0.3130753701
 40
0.3756421793
 40
0.5005932351
 40
0.6254991139
 40
0.7503629167
 40
0.8751917623
 40
1.0
 40
1.0
 40
1.0
 40
1.0
 10
6.9604287285
 20
4.1230005629
 30
0.0
 10
6.9607385048
 20
4.1230005629
 30
0.0
 10
6.9613586512
 20
4.1229636414
 30
0.0
 10
6.9622752403
 20
4.1227991663
 30
0.0
 10
6.9631666838
 20
4.1225303918
 30
0.0
 10
6.9640224192
 20
4.1221645625
 30
0.0
 10
6.9648343228
 20
4.121710436
 30
0.0
 10
6.9658494535
 20
4.1210006886
 30
0.0
 10
6.9669849103
 20
4.1199394809
 30
0.0
 10
6.9681149297
 20
4.1184615178
 30
0.0
 10
6.9690149434
 20
4.1168351909
 30
0.0
 10
6.9696912602
 20
4.1151058506
 30
0.0
 10
6.9699987421
 20
4.1139066832
 30
0.0
 10
6.9701176997
 20
4.113300996
 30
0.0
  0
SPLINE
  5
4E4
100
AcDbEntity
  8
0
100
AcDbSpline
 62
7
  6
CONTINUOUS
 70
0
 71
3
 72
18
 73
14
 74
0
 42
0.0000001
 43
0.0000001
 44
0.0000000001
 40
0.0
 40
0.0
 40
0.0
 40
0.0
 40
0.0625345885
 40
0.1250683193
 40
0.1876020623
 40
0.2501350255
 40
0.3126668153
 40
0.375197255
 40
0.5001297871
 40
0.6250832982
 40
0.7500488737
 40
0.8750204639
 40
1.0
 40
1.0
 40
1.0
 40
1.0
 10
6.9604287285
 20
4.1333466586
 30
0.0
 10
6.9607385083
 20
4.1333466586
 30
0.0
 10
6.961358693
 20
4.1333096148
 30
0.0
 10
6.9622753164
 20
4.1331445984
 30
0.0
 10
6.9631667843
 20
4.1328749429
 30
0.0
 10
6.9640225319
 20
4.1325079206
 30
0.0
 10
6.9648344369
 20
4.1320523209
 30
0.0
 10
6.9658497046
 20
4.1313401776
 30
0.0
 10
6.9669852405
 20
4.1302753831
 30
0.0
 10
6.9681151467
 20
4.1287927095
 30
0.0
 10
6.9690150698
 20
4.1271612282
 30
0.0
 10
6.9696913228
 20
4.1254264134
 30
0.0
 10
6.9699987517
 20
4.1242235539
 30
0.0
 10
6.9701176997
 20
4.1236159722
 30
0.0
  0
SPLINE
  5
4E5
100
AcDbEntity
  8
0
100
AcDbSpline
 62
7
  6
CONTINUOUS
 70
0
 71
3
 72
18
 73
14
 74
0
 42
0.0000001
 43
0.0000001
 44
0.0000000001
 40
0.0
 40
0.0
 40
0.0
 40
0.0
 40
0.0625201032
 40
0.1250401403
 40
0.1875616822
 40
0.2500844825
 40
0.3126085079
 40
0.3751337625
 40
0.5000636625
 40
0.6250239789
 40
0.7500040789
 40
0.8749960325
 40
1.0
 40
1.0
 40
1.0
 40
1.0
 10
6.9604287285
 20
4.1430830698
 30
0.0
 10
6.9607385088
 20
4.1430830698
 30
0.0
 10
6.961358699
 20
4.1430460085
 30
0.0
 10
6.9622753272
 20
4.1428809147
 30
0.0
 10
6.9631667986
 20
4.1426111334
 30
0.0
 10
6.964022548
 20
4.1422439405
 30
0.0
 10
6.9648344532
 20
4.1417881301
 30
0.0
 10
6.9658497404
 20
4.1410756444
 30
0.0
 10
6.9669852876
 20
4.1400103371
 30
0.0
 10
6.9681151776
 20
4.1385269902
 30
0.0
 10
6.9690150877
 20
4.1368947721
 30
0.0
 10
6.9696913317
 20
4.1351591748
 30
0.0
 10
6.969998753
 20
4.1339557875
 30
0.0
 10
6.9701176997
 20
4.1333479351
 30
0.0
  0
SPLINE
  5
4E6
100
AcDbEntity
  8
0
100
AcDbSpline
 62
7
  6
CONTINUOUS
 70
0
 71
3
 72
18
 73
14
 74
0
 42
0.0000001
 43
0.0000001
 44
0.0000000001
 40
0.0
 40
0.0
 40
0.0
 40
0.0
 40
0.0625924953
 40
0.1251809766
 40
0.187763505
 40
0.2503371128
 40
0.3128999625
 40
0.3754511514
 40
0.5003943631
 40
0.6253207347
 40
0.7502282255
 40
0.8751183098
 40
1.0
 40
1.0
 40
1.0
 40
1.0
 10
6.9604287285
 20
4.1521782159
 30
0.0
 10
6.9607382222
 20
4.1521782159
 30
0.0
 10
6.9613578153
 20
4.1521413092
 30
0.0
 10
6.9622736012
 20
4.1519768984
 30
0.0
 10
6.9631643034
 20
4.1517082215
 30
0.0
 10
6.9640193826
 20
4.1513425109
 30
0.0
 10
6.9648307309
 20
4.1508885107
 30
0.0
 10
6.9658453319
 20
4.1501788792
 30
0.0
 10
6.9669803755
 20
4.1491177544
 30
0.0
 10
6.9681102573
 20
4.1476398575
 30
0.0
 10
6.9690105482
 20
4.1460134495
 30
0.0
 10
6.9696875264
 20
4.1442838654
 30
0.0
 10
6.9699956792
 20
4.1430844698
 30
0.0
 10
6.9701150364
 20
4.1424786274
 30
0.0
  0
SPLINE
  5
4E7
100
AcDbEntity
  8
0
100
AcDbSpline
 62
7
  6
CONTINUOUS
 70
0
 71
3
 72
18
 73
14
 74
0
 42
0.0000001
 43
0.0000001
 44
0.0000000001
 40
0.0
 40
0.0
 40
0.0
 40
0.0
 40
0.0627521924
 40
0.1254916651
 40
0.1882087763
 40
0.2508945442
 40
0.3135431517
 40
0.3761516836
 40
0.501124123
 40
0.6259755766
 40
0.75072285
 40
0.8753881291
 40
1.0
 40
1.0
 40
1.0
 40
1.0
 10
6.9604287285
 20
4.1606218357
 30
0.0
 10
6.9607385008
 20
4.1606218357
 30
0.0
 10
6.9613586036
 20
4.1605850539
 30
0.0
 10
6.9622751537
 20
4.1604211966
 30
0.0
 10
6.9631665694
 20
4.1601534274
 30
0.0
 10
6.9640222908
 20
4.1597889598
 30
0.0
 10
6.9648341925
 20
4.1593365151
 30
0.0
 10
6.9658491663
 20
4.1586295021
 30
0.0
 10
6.9669845317
 20
4.1575723889
 30
0.0
 10
6.9681146804
 20
4.156099804
 30
0.0
 10
6.969014798
 20
4.1544793619
 30
0.0
 10
6.969691188
 20
4.1527562711
 30
0.0
 10
6.9699987311
 20
4.1515613182
 30
0.0
 10
6.9701176997
 20
4.1509577934
 30
0.0
  0
SPLINE
  5
4E8
100
AcDbEntity
  8
0
100
AcDbSpline
 62
7
  6
CONTINUOUS
 70
0
 71
3
 72
18
 73
14
 74
0
 42
0.0000001
 43
0.0000001
 44
0.0000000001
 40
0.0
 40
0.0
 40
0.0
 40
0.0
 40
0.0629995423
 40
0.1259729457
 40
0.1888986686
 40
0.251758427
 40
0.3145402216
 40
0.3772379748
 40
0.5022566158
 40
0.6269924649
 40
0.7514913482
 40
0.8758075243
 40
1.0
 40
1.0
 40
1.0
 40
1.0
 10
6.9604287285
 20
4.1683761179
 30
0.0
 10
6.9607384924
 20
4.1683761179
 30
0.0
 10
6.9613585032
 20
4.168339632
 30
0.0
 10
6.9622749709
 20
4.1681770844
 30
0.0
 10
6.9631663274
 20
4.167911447
 30
0.0
 10
6.9640220186
 20
4.1675498674
 30
0.0
 10
6.964833916
 20
4.1671009894
 30
0.0
 10
6.9658485553
 20
4.1663997738
 30
0.0
 10
6.9669837229
 20
4.1653513444
 30
0.0
 10
6.9681141459
 20
4.1638901699
 30
0.0
 10
6.9690144854
 20
4.162282211
 30
0.0
 10
6.9696910326
 20
4.160572376
 30
0.0
 10
6.9699987073
 20
4.1593863604
 30
0.0
 10
6.9701176997
 20
4.1587874214
 30
0.0
  0
SPLINE
  5
4E9
100
AcDbEntity
  8
0
100
AcDbSpline
 62
7
  6
CONTINUOUS
 70
0
 71
3
 72
18
 73
14
 74
0
 42
0.0000001
 43
0.0000001
 44
0.0000000001
 40
0.0
 40
0.0
 40
0.0
 40
0.0
 40
0.0633354138
 40
0.126626588
 40
0.1898358912
 40
0.2529324335
 40
0.3158957653
 40
0.3787154369
 40
0.5037982487
 40
0.6283778135
 40
0.7525389909
 40
0.8763795594
 40
1.0
 40
1.0
 40
1.0
 40
1.0
 10
6.9604287285
 20
4.1754247023
 30
0.0
 10
6.9607384812
 20
4.1754247023
 30
0.0
 10
6.961358369
 20
4.1753886152
 30
0.0
 10
6.9622747262
 20
4.1752278332
 30
0.0
 10
6.9631660027
 20
4.1749650698
 30
0.0
 10
6.9640216525
 20
4.1746073843
 30
0.0
 10
6.9648335428
 20
4.1741633169
 30
0.0
 10
6.9658477274
 20
4.1734699162
 30
0.0
 10
6.9669826195
 20
4.1724331991
 30
0.0
 10
6.9681134126
 20
4.1709874225
 30
0.0
 10
6.9690140546
 20
4.1693963057
 30
0.0
 10
6.9696908178
 20
4.167704352
 30
0.0
 10
6.9699986744
 20
4.1665303884
 30
0.0
 10
6.9701176997
 20
4.1659376335
 30
0.0
  0
SPLINE
  5
4EA
100
AcDbEntity
  8
0
100
AcDbSpline
 62
7
  6
CONTINUOUS
 70
0
 71
3
 72
18
 73
14
 74
0
 42
0.0000001
 43
0.0000001
 44
0.0000000001
 40
0.0
 40
0.0
 40
0.0
 40
0.0
 40
0.0637608868
 40
0.1274547865
 40
0.1910238158
 40
0.2544211439
 40
0.3176155619
 40
0.3805909496
 40
0.505757434
 40
0.6301402009
 40
0.7538729161
 40
0.8771084026
 40
1.0
 40
1.0
 40
1.0
 40
1.0
 10
6.9604287285
 20
4.1817482692
 30
0.0
 10
6.9607384673
 20
4.1817482692
 30
0.0
 10
6.9613582024
 20
4.1817126825
 30
0.0
 10
6.9622744218
 20
4.1815541159
 30
0.0
 10
6.9631655977
 20
4.1812949599
 30
0.0
 10
6.964021194
 20
4.1809421633
 30
0.0
 10
6.9648330734
 20
4.1805041368
 30
0.0
 10
6.9658466816
 20
4.1798205427
 30
0.0
 10
6.9669812132
 20
4.178798533
 30
0.0
 10
6.9681124709
 20
4.1773721064
 30
0.0
 10
6.9690134981
 20
4.1758021488
 30
0.0
 10
6.969690539
 20
4.1741326545
 30
0.0
 10
6.9699986317
 20
4.1729738221
 30
0.0
 10
6.9701176997
 20
4.1723888316
 30
0.0
  0
SPLINE
  5
4EB
100
AcDbEntity
  8
0
100
AcDbSpline
 62
7
  6
CONTINUOUS
 70
0
 71
3
 72
18
 73
14
 74
0
 42
0.0000001
 43
0.0000001
 44
0.0000000001
 40
0.0
 40
0.0
 40
0.0
 40
0.0
 40
0.0642772818
 40
0.1284602422
 40
0.1924666066
 40
0.2562302466
 40
0.3197068057
 40
0.3828730894
 40
0.5081447254
 40
0.632290453
 40
0.7555021775
 40
0.8779993779
 40
1.0
 40
1.0
 40
1.0
 40
1.0
 10
6.9604287285
 20
4.1873294861
 30
0.0
 10
6.9607384508
 20
4.1873294861
 30
0.0
 10
6.9613580052
 20
4.1872944996
 30
0.0
 10
6.9622740607
 20
4.187138591
 30
0.0
 10
6.9631651155
 20
4.1868837644
 30
0.0
 10
6.9640206455
 20
4.186536837
 30
0.0
 10
6.9648325092
 20
4.1861060645
 30
0.0
 10
6.9658454167
 20
4.1854342363
 30
0.0
 10
6.9669794938
 20
4.1844298871
 30
0.0
 10
6.9681113088
 20
4.1830267182
 30
0.0
 10
6.9690128063
 20
4.1814821847
 30
0.0
 10
6.9696901906
 20
4.1798396686
 30
0.0
 10
6.9699985781
 20
4.1786990019
 30
0.0
 10
6.9701176997
 20
4.1781233333
 30
0.0
  0
SPLINE
  5
4EC
100
AcDbEntity
  8
0
100
AcDbSpline
 62
7
  6
CONTINUOUS
 70
0
 71
3
 72
18
 73
14
 74
0
 42
0.0000001
 43
0.0000001
 44
0.0000000001
 40
0.0
 40
0.0
 40
0.0
 40
0.0
 40
0.0648841208
 40
0.1296422976
 40
0.1941639255
 40
0.2583603041
 40
0.3221714762
 40
0.3855656005
 40
0.5109676922
 40
0.6348385697
 40
0.7574365812
 40
0.8790589557
 40
1.0
 40
1.0
 40
1.0
 40
1.0
 10
6.9604287285
 20
4.1921505787
 30
0.0
 10
6.9607381481
 20
4.1921505787
 30
0.0
 10
6.9613569282
 20
4.1921163521
 30
0.0
 10
6.9622719789
 20
4.19196381
 30
0.0
 10
6.9631621415
 20
4.1917144614
 30
0.0
 10
6.9640169303
 20
4.1913749503
 30
0.0
 10
6.9648282152
 20
4.1909533279
 30
0.0
 10
6.9658397109
 20
4.1902962414
 30
0.0
 10
6.9669727779
 20
4.1893139546
 30
0.0
 10
6.9681051442
 20
4.1879398409
 30
0.0
 10
6.9690075129
 20
4.1864269175
 30
0.0
 10
6.9696859991
 20
4.1848177867
 30
0.0
 10
6.969995444
 20
4.1836995247
 30
0.0
 10
6.9701150364
 20
4.1831353161
 30
0.0
  0
SPLINE
  5
4ED
100
AcDbEntity
  8
0
100
AcDbSpline
 62
7
  6
CONTINUOUS
 70
0
 71
3
 72
20
 73
16
 74
0
 42
0.0000001
 43
0.0000001
 44
0.0000000001
 40
0.0
 40
0.0
 40
0.0
 40
0.0
 40
0.0655766723
 40
0.1309909293
 40
0.1960994726
 40
0.2607874405
 40
0.3249766929
 40
0.3886251703
 40
0.451721457
 40
0.5142786861
 40
0.6378080568
 40
0.7596685761
 40
0.8201304919
 40
0.8803176257
 40
1.0
 40
1.0
 40
1.0
 40
1.0
 10
6.9604287285
 20
4.1962057561
 30
0.0
 10
6.9607384109
 20
4.1962057561
 30
0.0
 10
6.9613575278
 20
4.1961722607
 30
0.0
 10
6.9622731833
 20
4.1960229594
 30
0.0
 10
6.9631639332
 20
4.1957789037
 30
0.0
 10
6.9640192986
 20
4.1954465723
 30
0.0
 10
6.9648310761
 20
4.1950338995
 30
0.0
 10
6.96559316
 20
4.194549525
 30
0.0
 10
6.9663014725
 20
4.1940020868
 30
0.0
 10
6.9671669252
 20
4.1932029146
 30
0.0
 10
6.9681084026
 20
4.1920856916
 30
0.0
 10
6.9688627726
 20
4.1908477085
 30
0.0
 10
6.9693524136
 20
4.1898115398
 30
0.0
 10
6.9697668527
 20
4.1887542715
 30
0.0
 10
6.9699984332
 20
4.1879338505
 30
0.0
 10
6.9701176997
 20
4.1873813837
 30
0.0
  0
SPLINE
  5
4EE
100
AcDbEntity
  8
0
100
AcDbSpline
 62
7
  6
CONTINUOUS
 70
0
 71
3
 72
21
 73
17
 74
0
 42
0.0000001
 43
0.0000001
 44
0.0000000001
 40
0.0
 40
0.0
 40
0.0
 40
0.0
 40
0.0663681205
 40
0.13253326
 40
0.1983155963
 40
0.2635707997
 40
0.3281999142
 40
0.3921487948
 40
0.4554016883
 40
0.5179736119
 40
0.5799011803
 40
0.6412343616
 40
0.7020306223
 40
0.7623530417
 40
0.881751603
 40
1.0
 40
1.0
 40
1.0
 40
1.0
 10
6.9604287285
 20
4.1994764798
 30
0.0
 10
6.960738388
 20
4.1994764798
 30
0.0
 10
6.9613572528
 20
4.1994438702
 30
0.0
 10
6.9622726751
 20
4.1992984975
 30
0.0
 10
6.9631632445
 20
4.1990608473
 30
0.0
 10
6.9640185017
 20
4.1987372084
 30
0.0
 10
6.9648302363
 20
4.1983352946
 30
0.0
 10
6.9655923424
 20
4.1978634941
 30
0.0
 10
6.9663006897
 20
4.1973302665
 30
0.0
 10
6.9669527769
 20
4.1967437102
 30
0.0
 10
6.9675473653
 20
4.1961113052
 30
0.0
 10
6.9680841188
 20
4.1954398213
 30
0.0
 10
6.968563357
 20
4.194735241
 30
0.0
 10
6.9691244962
 20
4.1937624118
 30
0.0
 10
6.9696887092
 20
4.1924866511
 30
0.0
 10
6.9699983382
 20
4.1914182122
 30
0.0
 10
6.9701176997
 20
4.1908795567
 30
0.0
  0
SPLINE
  5
4EF
100
AcDbEntity
  8
0
100
AcDbSpline
 62
7
  6
CONTINUOUS
 70
0
 71
3
 72
19
 73
15
 74
0
 42
0.0000001
 43
0.0000001
 44
0.0000000001
 40
0.0
 40
0.0
 40
0.0
 40
0.0
 40
0.0671157638
 40
0.1340014395
 40
0.2004487582
 40
0.2662897056
 40
0.3955877394
 40
0.5216410111
 40
0.583533471
 40
0.6446951166
 40
0.7051897186
 40
0.765087737
 40
0.8833043184
 40
1.0
 40
1.0
 40
1.0
 40
1.0
 10
6.9604287285
 20
4.2019562617
 30
0.0
 10
6.9607276835
 20
4.2019562617
 30
0.0
 10
6.9613249898
 20
4.2019267699
 30
0.0
 10
6.9622094667
 20
4.20179522
 30
0.0
 10
6.9630715964
 20
4.2015798304
 30
0.0
 10
6.9641714246
 20
4.2011906548
 30
0.0
 10
6.9654487037
 20
4.2005275786
 30
0.0
 10
6.9665757262
 20
4.1996634556
 30
0.0
 10
6.9673674966
 20
4.1988846991
 30
0.0
 10
6.9679041241
 20
4.198266746
 30
0.0
 10
6.9683869586
 20
4.1976170499
 30
0.0
 10
6.9689571014
 20
4.1967191187
 30
0.0
 10
6.9695415736
 20
4.1955382631
 30
0.0
 10
6.9698769574
 20
4.194543498
 30
0.0
 10
6.9700110402
 20
4.1940412892
 30
0.0
  0
SPLINE
  5
4F0
100
AcDbEntity
  8
0
100
AcDbSpline
 62
7
  6
CONTINUOUS
 70
0
 71
3
 72
17
 73
13
 74
0
 42
0.0000001
 43
0.0000001
 44
0.0000000001
 40
0.0
 40
0.0
 40
0.0
 40
0.0
 40
0.0682909772
 40
0.1362852536
 40
0.2037181702
 40
0.270376129
 40
0.4006998176
 40
0.5269408881
 40
0.6493395592
 40
0.7684970265
 40
0.885139199
 40
1.0
 40
1.0
 40
1.0
 40
1.0
 10
6.9604287285
 20
4.2036383051
 30
0.0
 10
6.9607383373
 20
4.2036383051
 30
0.0
 10
6.9613566482
 20
4.2036077308
 30
0.0
 10
6.9622715342
 20
4.2034714124
 30
0.0
 10
6.9631617407
 20
4.2032484775
 30
0.0
 10
6.9642928428
 20
4.2028469259
 30
0.0
 10
6.9656000874
 20
4.2021651258
 30
0.0
 10
6.9669655283
 20
4.2011087473
 30
0.0
 10
6.968101604
 20
4.1998782115
 30
0.0
 10
6.9690067513
 20
4.1985223009
 30
0.0
 10
6.9696870591
 20
4.1970796029
 30
0.0
 10
6.9699980901
 20
4.1960731015
 30
0.0
 10
6.9701176997
 20
4.1955662832
 30
0.0
  0
SPLINE
  5
4F1
100
AcDbEntity
  8
0
100
AcDbSpline
 62
7
  6
CONTINUOUS
 70
0
 71
3
 72
15
 73
11
 74
0
 42
0.0000001
 43
0.0000001
 44
0.0000000001
 40
0.0
 40
0.0
 40
0.0
 40
0.0
 40
0.1383140484
 40
0.2740480716
 40
0.4054971239
 40
0.5320803496
 40
0.654057233
 40
0.7721263525
 40
0.8871474873
 40
1.0
 40
1.0
 40
1.0
 40
1.0
 10
6.9604287285
 20
4.2045179994
 30
0.0
 10
6.9610456377
 20
4.2045179994
 30
0.0
 10
6.9622711378
 20
4.2044013896
 30
0.0
 10
6.9640173651
 20
4.203893683
 30
0.0
 10
6.9655955231
 20
4.2031015899
 30
0.0
 10
6.9669616929
 20
4.2020846323
 30
0.0
 10
6.9680986748
 20
4.2008994114
 30
0.0
 10
6.969004865
 20
4.1995928878
 30
0.0
 10
6.9696860413
 20
4.1982024354
 30
0.0
 10
6.9699979294
 20
4.1972308791
 30
0.0
 10
6.9701176997
 20
4.1967419908
 30
0.0
  0
LINE
  5
4F2
100
AcDbEntity
  8
0
100
AcDbLine
 62
7
  6
CONTINUOUS
 10
6.6923802555
 20
3.7747083733
 11
6.6925248359
 21
3.7749326036
  0
SPLINE
  5
4F3
100
AcDbEntity
  8
0
100
AcDbSpline
 62
7
  6
CONTINUOUS
 70
0
 71
3
 72
17
 73
13
 74
0
 42
0.0000001
 43
0.0000001
 44
0.0000000001
 40
0.0
 40
0.0
 40
0.0
 40
0.0
 40
0.2020343696
 40
0.3807870098
 40
0.5358244484
 40
0.6672886735
 40
0.7760062292
 40
0.864051469
 40
0.9016708651
 40
0.936066148
 40
0.9683844625
 40
1.0
 40
1.0
 40
1.0
 40
1.0
 10
6.6923802555
 20
3.8074521114
 30
0.0
 10
6.6923911218
 20
3.8075895321
 30
0.0
 10
6.6924164165
 20
3.8078482061
 30
0.0
 10
6.6924697946
 20
3.8082100728
 30
0.0
 10
6.6925359138
 20
3.8085208198
 30
0.0
 10
6.6926143656
 20
3.8087793323
 30
0.0
 10
6.6927046814
 20
3.8089849025
 30
0.0
 10
6.6927947161
 20
3.8091190317
 30
0.0
 10
6.6928740579
 20
3.8091947081
 30
0.0
 10
6.69293357
 20
3.8092345327
 30
0.0
 10
6.6929961134
 20
3.8092601226
 30
0.0
 10
6.6930395409
 20
3.8092674485
 30
0.0
 10
6.6930610754
 20
3.8092687124
 30
0.0
  0
SPLINE
  5
4F4
100
AcDbEntity
  8
0
100
AcDbSpline
 62
7
  6
CONTINUOUS
 70
0
 71
3
 72
20
 73
16
 74
0
 42
0.0000001
 43
0.0000001
 44
0.0000000001
 40
0.0
 40
0.0
 40
0.0
 40
0.0
 40
0.1996707321
 40
0.3799634833
 40
0.5386778957
 40
0.6094423498
 40
0.6742949961
 40
0.7331838605
 40
0.7861307881
 40
0.8332640472
 40
0.8748511298
 40
0.9113612929
 40
0.943554095
 40
0.9725759247
 40
1.0
 40
1.0
 40
1.0
 40
1.0
 10
6.6923802555
 20
3.8559463163
 30
0.0
 10
6.6923985987
 20
3.8562900736
 30
0.0
 10
6.6924457853
 20
3.8569436981
 30
0.0
 10
6.6925557785
 20
3.857866231
 30
0.0
 10
6.6926796986
 20
3.8585623737
 30
0.0
 10
6.692798124
 20
3.8590559533
 30
0.0
 10
6.69289112
 20
3.8593782846
 30
0.0
 10
6.6929912811
 20
3.8596661579
 30
0.0
 10
6.6930982443
 20
3.8599187592
 30
0.0
 10
6.6932116286
 20
3.860135469
 30
0.0
 10
6.6933311612
 20
3.8603158504
 30
0.0
 10
6.693456732
 20
3.8604595786
 30
0.0
 10
6.6935885465
 20
3.8605662435
 30
0.0
 10
6.6937267339
 20
3.8606347869
 30
0.0
 10
6.6938235562
 20
3.8606540795
 30
0.0
 10
6.6938707564
 20
3.8606568429
 30
0.0
  0
LINE
  5
4F5
100
AcDbEntity
  8
0
100
AcDbLine
 62
7
  6
CONTINUOUS
 10
6.6836717567
 20
3.8324162251
 11
6.6835272574
 21
3.8327475949
  0
SPLINE
  5
4F6
100
AcDbEntity
  8
0
100
AcDbSpline
 62
7
  6
CONTINUOUS
 70
0
 71
3
 72
27
 73
23
 74
0
 42
0.0000001
 43
0.0000001
 44
0.0000000001
 40
0.0
 40
0.0
 40
0.0
 40
0.0
 40
0.0161697349
 40
0.0348329511
 40
0.0559118315
 40
0.0793089209
 40
0.1325923482
 40
0.1936385034
 40
0.2612275372
 40
0.3339955182
 40
0.4104599825
 40
0.4890434344
 40
0.5681015817
 40
0.6459571241
 40
0.7209371399
 40
0.7914152006
 40
0.8558570913
 40
0.9128669525
 40
0.9381996623
 40
0.9612382022
 40
0.9818696952
 40
1.0
 40
1.0
 40
1.0
 40
1.0
 10
6.6835272574
 20
3.8327475949
 30
0.0
 10
6.6834922995
 20
3.8328392881
 30
0.0
 10
6.6834225085
 20
3.8330389219
 30
0.0
 10
6.6833226435
 20
3.833363264
 30
0.0
 10
6.6832205799
 20
3.8337326488
 30
0.0
 10
6.6830759971
 20
3.8343080871
 30
0.0
 10
6.6828963953
 20
3.8351245784
 30
0.0
 10
6.6826889262
 20
3.8362090345
 30
0.0
 10
6.6824858457
 20
3.8374144117
 30
0.0
 10
6.6822914832
 20
3.8387158925
 30
0.0
 10
6.6821100388
 20
3.8400865656
 30
0.0
 10
6.6819454229
 20
3.8414977968
 30
0.0
 10
6.6818012158
 20
3.8429197445
 30
0.0
 10
6.6816805783
 20
3.8443219406
 30
0.0
 10
6.6815861728
 20
3.8456739592
 30
0.0
 10
6.6815200414
 20
3.8469461647
 30
0.0
 10
6.6814836099
 20
3.8481104674
 30
0.0
 10
6.6814781583
 20
3.8490014068
 30
0.0
 10
6.6814910119
 20
3.8496408495
 30
0.0
 10
6.6815079561
 20
3.8500593082
 30
0.0
 10
6.6815324202
 20
3.8504336045
 30
0.0
 10
6.6815550936
 20
3.8506678111
 30
0.0
 10
6.6815681239
 20
3.8507770662
 30
0.0
  0
SPLINE
  5
4F7
100
AcDbEntity
  8
0
100
AcDbSpline
 62
7
  6
CONTINUOUS
 70
0
 71
3
 72
17
 73
13
 74
0
 42
0.0000001
 43
0.0000001
 44
0.0000000001
 40
0.0
 40
0.0
 40
0.0
 40
0.0
 40
0.2085319276
 40
0.3919653726
 40
0.5501569729
 40
0.683285023
 40
0.7919836749
 40
0.8778354949
 40
0.9132690699
 40
0.9446252521
 40
0.9730343225
 40
1.0
 40
1.0
 40
1.0
 40
1.0
 10
6.6815681239
 20
3.8507770662
 30
0.0
 10
6.6815765161
 20
3.850847432
 30
0.0
 10
6.6815941987
 20
3.8509794821
 30
0.0
 10
6.6816261561
 20
3.8511637503
 30
0.0
 10
6.681661736
 20
3.8513211924
 30
0.0
 10
6.6817007842
 20
3.8514515855
 30
0.0
 10
6.6817431713
 20
3.8515547425
 30
0.0
 10
6.6817836569
 20
3.8516223398
 30
0.0
 10
6.6818188071
 20
3.8516607385
 30
0.0
 10
6.6818445181
 20
3.8516806978
 30
0.0
 10
6.6818713286
 20
3.8516935488
 30
0.0
 10
6.6818900449
 20
3.8516972029
 30
0.0
 10
6.6818991918
 20
3.8516977564
 30
0.0
  0
ENDSEC
  0
SECTION
  2
OBJECTS
  0
DICTIONARY
  5
C
100
AcDbDictionary
280
0
281
1
  3
ACAD_GROUP
350
D
  3
ACAD_MLINESTYLE
350
17
  3
ACAD_LAYOUT
350
1A
  3
ACAD_PLOTSETTINGS
350
19
  3
ACAD_PLOTSTYLENAME
350
E
  0
DICTIONARY
  5
D
102
{ACAD_REACTORS
330
C
102
}
100
AcDbDictionary
280
0
281
1
  0
ACDBDICTIONARYWDFLT
  5
E
102
{ACAD_REACTORS
330
C
102
}
100
AcDbDictionary
281
1
  3
Normal
350
F
100
AcDbDictionaryWithDefault
340
F
  0
DICTIONARY
  5
17
102
{ACAD_REACTORS
330
C
102
}
100
AcDbDictionary
280
0
281
1
  3
Standard
350
18
  0
DICTIONARY
  5
19
102
{ACAD_REACTORS
330
C
102
}
100
AcDbDictionary
281
1
  0
DICTIONARY
  5
1A
102
{ACAD_REACTORS
330
C
102
}
100
AcDbDictionary
281
1
  3
Model
350
4F8
  3
Layout1
350
4F9
  0
ACDBPLACEHOLDER
  5
F
102
{ACAD_REACTORS
330
E
102
}
  0
MLINESTYLE
  5
18
102
{ACAD_REACTORS
330
17
102
}
100
AcDbMlineStyle
  2
STANDARD
 70
0
  3

 62
256
 51
90.0
 52
90.0
 71
2
 49
0.5
 62
256
  6
BYLAYER
 49
-0.5
 62
256
  6
BYLAYER
  0
LAYOUT
  5
4F8
102
{ACAD_REACTORS
330
1A
102
}
100
AcDbPlotSettings
  1

  2
none_device
  4
ANSI_A_(11.00_x_8.50_Inches)
  6

 40
0.0
 41
0.0
 42
0.0
 43
0.0
 44
279.4
 45
215.9
 46
0.0
 47
0.0
 48
0.0
 49
0.0
140
0.0
141
0.0
142
1.0
143
1.0
 70
1024
 72
0
 73
0
 74
0
  7

 75
0
147
1.0
148
0.0
149
0.0
100
AcDbLayout
  1
Model
 70
0
 71
0
 10
0.0
 20
0.0
 11
11.0
 21
8.5
 12
0.0
 22
0.0
 32
0.0
 14
0.0
 24
0.0
 34
0.0
 15
0.0
 25
0.0
 35
0.0
146
0.0
 13
0.0
 23
0.0
 33
0.0
 16
1.0
 26
0.0
 36
0.0
 17
0.0
 27
1.0
 37
0.0
 76
0
330
202
345
0
346
0
  0
LAYOUT
  5
4F9
102
{ACAD_REACTORS
330
1A
102
}
100
AcDbPlotSettings
  1

  2
none_device
  4
ANSI_A_(11.00_x_8.50_Inches)
  6

 40
0.0
 41
0.0
 42
0.0
 43
0.0
 44
279.4
 45
215.9
 46
0.0
 47
0.0
 48
0.0
 49
0.0
140
0.0
141
0.0
142
1.0
143
1.0
 70
0
 72
0
 73
0
 74
0
  7

 75
0
147
1.0
148
0.0
149
0.0
100
AcDbLayout
  1
Layout1
 70
0
 71
1
 10
0.0
 20
0.0
 11
11.0
 21
8.5
 12
0.0
 22
0.0
 32
0.0
 14
0.0
 24
0.0
 34
0.0
 15
0.0
 25
0.0
 35
0.0
146
0.0
 13
0.0
 23
0.0
 33
0.0
 16
1.0
 26
0.0
 36
0.0
 17
0.0
 27
1.0
 37
0.0
 76
0
330
203
345
0
346
0
  0
ENDSEC
  0
EOF
