999
DXF file: 2470-5433_top.dxf
999
Pro/ENGINEER 2018400 by Parametric Technology Corporation
  0
SECTION
  2
HEADER
  9
$ACADVER
  1
AC1027
  9
$DWGCODEPAGE
  3
ANSI_1252
  9
$EXTMAX
 10
11.0
 20
8.5
 30
0.0
  9
$EXTMIN
 10
0.0
 20
0.0
 30
0.0
  9
$LIMMIN
 10
0.0
 20
0.0
  9
$LIMMAX
 10
11.0
 20
8.5
  9
$VIEWCTR
 10
5.5
 20
4.25
  9
$VIEWSIZE
 40
8.5
  9
$CLAYER
  8
0
  9
$LTSCALE
 40
0.605
  9
$CELTYPE
  6
BYLAYER
  9
$DIMSCALE
 40
1.0
  9
$DIMASZ
 40
0.1
  9
$DIMEXO
 40
0.0625
  9
$DIMDLI
 40
0.418
  9
$DIMEXE
 40
0.125
  9
$DIMCEN
 40
0.099
  9
$DIMLFAC
 40
1.0
  9
$DIMBLK
  1
_FILLED
  9
$DIMALT
 70
1
  9
$DIMALTD
 70
1
  9
$DIMALTTD
 70
2
  9
$DIMALTF
 40
25.4
  9
$DIMTXT
 40
0.08
  9
$DIMTOL
 70
1
  9
$DIMLIM
 70
0
  9
$DIMTFAC
 40
1.0
  9
$DIMTP
 40
0.01
  9
$DIMTM
 40
0.01
  9
$DIMGAP
 40
0.09
  9
$DIMDSEP
 70
46
  9
$AUNITS
 70
0
  9
$PDMODE
 70
3
  9
$PDSIZE
 40
0.3125
  9
$HANDSEED
  5
4E2
  9
$TILEMODE
 70
1
  9
$MEASUREMENT
 70
0
  9
$INSUNITS
 70
1
  0
ENDSEC
  0
SECTION
  2
CLASSES
  0
CLASS
  1
ACDBDICTIONARYWDFLT
  2
AcDbDictionaryWithDefault
  3
AutoCAD 2000
 90
0
 91
1
280
0
281
0
  0
CLASS
  1
ACDBPLACEHOLDER
  2
AcDbPlaceHolder
  3
AutoCAD 2000
 90
0
 91
1
280
0
281
0
  0
CLASS
  1
LAYOUT
  2
AcDbLayout
  3
AutoCAD 2000
 90
0
 91
0
280
0
281
0
  0
ENDSEC
  0
SECTION
  2
TABLES
  0
TABLE
  2
VPORT
  5
8
100
AcDbSymbolTable
 70
2
  0
VPORT
  5
1F4
100
AcDbSymbolTableRecord
100
AcDbViewportTableRecord
  2
*ACTIVE
 70
0
 10
0.0
 20
0.0
 11
1.0
 21
1.0
 12
5.5
 22
4.25
 13
0.0
 23
0.0
 14
1.0
 24
1.0
 15
0.0
 25
0.0
 16
0.0
 26
0.0
 36
1.0
 17
0.0
 27
0.0
 37
0.0
 40
8.5
 41
1.2941176471
 42
50.0
 43
0.0
 44
0.0
 50
0.0
 51
0.0
 71
0
 72
100
 73
1
 74
1
 75
0
 76
0
 77
0
 78
0
  0
ENDTAB
  0
TABLE
  2
LTYPE
  5
5
100
AcDbSymbolTable
 70
6
  0
LTYPE
  5
14
100
AcDbSymbolTableRecord
100
AcDbLinetypeTableRecord
  2
BYBLOCK
 70
0
  3

 72
65
 73
0
 40
0.0
  0
LTYPE
  5
15
100
AcDbSymbolTableRecord
100
AcDbLinetypeTableRecord
  2
BYLAYER
 70
0
  3

 72
65
 73
0
 40
0.0
  0
LTYPE
  5
16
100
AcDbSymbolTableRecord
100
AcDbLinetypeTableRecord
  2
CONTINUOUS
 70
64
  3
Solid line
 72
65
 73
0
 40
0.0
  0
LTYPE
  5
1F5
100
AcDbSymbolTableRecord
100
AcDbLinetypeTableRecord
  2
CENTER
 70
64
  3
____ _ ____ _ ____ _ ____ _ ____ _ ____ _ ____
 72
65
 73
4
 40
0.6
 49
0.375
 74
0
 49
-0.075
 74
0
 49
0.075
 74
0
 49
-0.075
 74
0
  0
LTYPE
  5
1F6
100
AcDbSymbolTableRecord
100
AcDbLinetypeTableRecord
  2
HIDDEN
 70
64
  3
- - - - - - - - - - - - - - - - - - - -
 72
65
 73
2
 40
0.2
 49
0.1
 74
0
 49
-0.1
 74
0
  0
LTYPE
  5
1F7
100
AcDbSymbolTableRecord
100
AcDbLinetypeTableRecord
  2
PHANTOM
 70
64
  3
_____ _ _ _____ _ _ _____ _ _ _____
 72
65
 73
6
 40
0.8
 49
0.45
 74
0
 49
-0.05
 74
0
 49
0.1
 74
0
 49
-0.05
 74
0
 49
0.1
 74
0
 49
-0.05
 74
0
  0
LTYPE
  5
1F8
100
AcDbSymbolTableRecord
100
AcDbLinetypeTableRecord
  2
DOT
 70
64
  3
. . . . . . . . . . . . . . . . . . . .
 72
65
 73
2
 40
0.2
 49
0.1
 74
0
 49
-0.1
 74
0
  0
LTYPE
  5
1F9
100
AcDbSymbolTableRecord
100
AcDbLinetypeTableRecord
  2
DASHED
 70
64
  3
- - - - - - - - - - - - - - - - - - - -
 72
65
 73
2
 40
0.2
 49
0.1
 74
0
 49
-0.1
 74
0
  0
ENDTAB
  0
TABLE
  2
LAYER
  5
2
100
AcDbSymbolTable
 70
36
  0
LAYER
  5
10
100
AcDbSymbolTableRecord
100
AcDbLayerTableRecord
  2
0
 70
0
 62
7
  6
CONTINUOUS
370
-3
390
F
  0
LAYER
  5
1FA
100
AcDbSymbolTableRecord
100
AcDbLayerTableRecord
  2
DEFAULT_1
 70
0
 62
7
  6
CENTER
370
-3
390
F
  0
LAYER
  5
1FB
100
AcDbSymbolTableRecord
100
AcDbLayerTableRecord
  2
DEFAULT_2
 70
0
 62
8
  6
HIDDEN
370
-3
390
F
  0
LAYER
  5
1FC
100
AcDbSymbolTableRecord
100
AcDbLayerTableRecord
  2
DEFAULT_3
 70
0
 62
7
  6
PHANTOM
370
-3
390
F
  0
LAYER
  5
1FD
100
AcDbSymbolTableRecord
100
AcDbLayerTableRecord
  2
DEFAULT_COORDINATE_SYSTEM
 70
0
 62
7
  6
CONTINUOUS
370
-3
390
F
  0
LAYER
  5
1FE
100
AcDbSymbolTableRecord
100
AcDbLayerTableRecord
  2
DEFAULT_DATUM_AXES
 70
0
 62
7
  6
CONTINUOUS
370
-3
390
F
  0
LAYER
  5
1FF
100
AcDbSymbolTableRecord
100
AcDbLayerTableRecord
  2
DEFAULT_DATUM_PLANES
 70
0
 62
7
  6
CONTINUOUS
370
-3
390
F
  0
ENDTAB
  0
TABLE
  2
STYLE
  5
3
100
AcDbSymbolTable
 70
1
  0
STYLE
  5
11
100
AcDbSymbolTableRecord
100
AcDbTextStyleTableRecord
  2
STANDARD
 70
0
 40
0.0
 41
0.8
 50
0.0
 71
0
 42
0.2
  3
txt
  4

  0
STYLE
  5
200
100
AcDbSymbolTableRecord
100
AcDbTextStyleTableRecord
  2
TEXTSTYLE_1
 70
0
 40
0.0
 41
0.8
 50
0.0
 71
0
 42
0.2
  3
gdt
  4

  0
ENDTAB
  0
TABLE
  2
VIEW
  5
6
100
AcDbSymbolTable
 70
0
  0
ENDTAB
  0
TABLE
  2
UCS
  5
7
100
AcDbSymbolTable
 70
0
  0
ENDTAB
  0
TABLE
  2
APPID
  5
9
100
AcDbSymbolTable
 70
1
  0
APPID
  5
201
100
AcDbSymbolTableRecord
100
AcDbRegAppTableRecord
  2
ACAD
 70
0
  0
ENDTAB
  0
TABLE
  2
BLOCK_RECORD
  5
1
100
AcDbSymbolTable
 70
0
  0
BLOCK_RECORD
  5
202
100
AcDbSymbolTableRecord
100
AcDbBlockTableRecord
  2
*Model_Space
  0
BLOCK_RECORD
  5
203
100
AcDbSymbolTableRecord
100
AcDbBlockTableRecord
  2
*Paper_Space
  0
BLOCK_RECORD
  5
204
100
AcDbSymbolTableRecord
100
AcDbBlockTableRecord
  2
_FILLED
  0
ENDTAB
  0
TABLE
  2
DIMSTYLE
  5
A
100
AcDbSymbolTable
 70
1
100
AcDbDimStyleTable
 71
0
  0
DIMSTYLE
105
205
100
AcDbSymbolTableRecord
100
AcDbDimStyleTableRecord
  2
STANDARD
 70
0
  3

  4

 40
1.0
 41
0.1
 42
0.0625
 43
0.38
 44
0.125
 45
0.0
 46
0.0
 47
0.01
 48
0.01
140
0.08
141
0.09
142
0.0
143
25.4
144
1.0
145
0.0
146
1.0
147
0.09
 71
1.0
 72
0.0
 73
1
 74
1
 75
0
 76
0
 77
0
 78
4
 79
1
170
1
171
1
172
0
173
0
174
0
175
0
176
0
177
0
178
0
270
2
179
2
271
2
272
2
273
2
274
2
275
0
280
0
281
0
282
0
283
1
284
4
285
0
286
0
287
3
288
0
340
11
278
46
341
204
342
204
343
204
344
204
  0
ENDTAB
  0
ENDSEC
  0
SECTION
  2
BLOCKS
  0
BLOCK
  5
20
100
AcDbEntity
  8
0
100
AcDbBlockBegin
  2
*Model_Space
 70
0
 10
0.0
 20
0.0
 30
0.0
  3
*Model_Space
  1

  0
ENDBLK
  5
21
100
AcDbEntity
  8
0
100
AcDbBlockEnd
  0
BLOCK
  5
1C
100
AcDbEntity
  8
0
100
AcDbBlockBegin
  2
*Paper_Space
 70
0
 10
0.0
 20
0.0
 30
0.0
  3
*Paper_Space
  1

  0
ENDBLK
  5
1D
100
AcDbEntity
  8
0
100
AcDbBlockEnd
  0
BLOCK
  5
206
100
AcDbEntity
  8
0
100
AcDbBlockBegin
  2
_FILLED
 70
64
 10
0.0
 20
0.0
  3
_FILLED
  1

  0
SOLID
  5
207
100
AcDbEntity
  8
0
  6
BYBLOCK
 62
0
100
AcDbTrace
 10
0.0
 20
0.0
 11
-1.0
 21
0.2
 12
-1.0
 22
-0.2
 13
-1.0
 23
-0.2
  0
ENDBLK
  5
208
100
AcDbEntity
  8
0
  6
BYBLOCK
 62
0
100
AcDbBlockEnd
  0
ENDSEC
  0
SECTION
  2
ENTITIES
  0
MTEXT
  5
209
100
AcDbEntity
  8
0
100
AcDbMText
 62
2
  6
CONTINUOUS
  7
STANDARD
 71
3
 72
1
 10
4.9811723602
 20
0.5843167713
 30
0.0
 11
1.0
 21
0.0
 31
0.0
 73
2
 44
0.9
  1
SCALE  .500
 40
0.08
 41
0.704
  0
LINE
  5
20A
100
AcDbEntity
  8
0
100
AcDbLine
 62
7
  6
CONTINUOUS
 10
0.0
 20
0.0
 11
0.0
 21
8.5
  0
LINE
  5
20B
100
AcDbEntity
  8
0
100
AcDbLine
 62
7
  6
CONTINUOUS
 10
0.0
 20
0.0
 11
11.0
 21
0.0
  0
LINE
  5
20C
100
AcDbEntity
  8
0
100
AcDbLine
 62
7
  6
CONTINUOUS
 10
0.0
 20
8.5
 11
11.0
 21
8.5
  0
LINE
  5
20D
100
AcDbEntity
  8
0
100
AcDbLine
 62
7
  6
CONTINUOUS
 10
11.0
 20
0.0
 11
11.0
 21
8.5
  0
LINE
  5
20E
100
AcDbEntity
  8
0
100
AcDbLine
 62
7
  6
CONTINUOUS
 10
0.9790913558
 20
6.0450277872
 11
0.9790913558
 21
6.2945321078
  0
LINE
  5
20F
100
AcDbEntity
  8
0
100
AcDbLine
 62
7
  6
CONTINUOUS
 10
0.9903350105
 20
6.0216141264
 11
0.9903350105
 21
6.3179457686
  0
LINE
  5
210
100
AcDbEntity
  8
0
100
AcDbLine
 62
7
  6
CONTINUOUS
 10
1.0391142592
 20
5.9464213458
 11
1.0391142592
 21
6.3931385492
  0
LINE
  5
211
100
AcDbEntity
  8
0
100
AcDbLine
 62
7
  6
CONTINUOUS
 10
1.06813992
 20
5.9240049475
 11
1.06813992
 21
6.4155549475
  0
LINE
  5
212
100
AcDbEntity
  8
0
100
AcDbLine
 62
7
  6
CONTINUOUS
 10
1.0790913558
 20
5.9240049475
 11
1.0790913558
 21
6.4155549475
  0
LINE
  5
213
100
AcDbEntity
  8
0
100
AcDbLine
 62
7
  6
CONTINUOUS
 10
1.0990913558
 20
5.9440049475
 11
1.0990913558
 21
6.3955549475
  0
LINE
  5
214
100
AcDbEntity
  8
0
100
AcDbLine
 62
7
  6
CONTINUOUS
 10
2.1865913558
 20
6.0302799475
 11
2.1865913558
 21
6.3092799475
  0
LINE
  5
215
100
AcDbEntity
  8
0
100
AcDbLine
 62
7
  6
CONTINUOUS
 10
2.22677905
 20
6.00642796
 11
2.22677905
 21
6.333131935
  0
LINE
  5
216
100
AcDbEntity
  8
0
100
AcDbLine
 62
7
  6
CONTINUOUS
 10
2.3605902431
 20
6.0185900889
 11
2.3605902431
 21
6.3209698061
  0
LINE
  5
217
100
AcDbEntity
  8
0
100
AcDbLine
 62
7
  6
CONTINUOUS
 10
2.3840913558
 20
6.0382812598
 11
2.3840913558
 21
6.3012786352
  0
LINE
  5
218
100
AcDbEntity
  8
0
100
AcDbLine
 62
7
  6
CONTINUOUS
 10
2.4350913558
 20
6.2851049475
 11
2.4350913558
 21
6.0544549475
  0
LINE
  5
219
100
AcDbEntity
  8
0
100
AcDbLine
 62
7
  6
CONTINUOUS
 10
4.3008413558
 20
5.7540585405
 11
4.3008413558
 21
5.7575585405
  0
LINE
  5
21A
100
AcDbEntity
  8
0
100
AcDbLine
 62
7
  6
CONTINUOUS
 10
4.3465913558
 20
5.2565585405
 11
4.3465913558
 21
5.2647256121
  0
LINE
  5
21B
100
AcDbEntity
  8
0
100
AcDbLine
 62
7
  6
CONTINUOUS
 10
4.4115913558
 20
5.2175585405
 11
4.4115913558
 21
1.6426085405
  0
LINE
  5
21C
100
AcDbEntity
  8
0
100
AcDbLine
 62
7
  6
CONTINUOUS
 10
4.8465913558
 20
5.2175585405
 11
4.8465913558
 21
1.6426085405
  0
LINE
  5
21D
100
AcDbEntity
  8
0
100
AcDbLine
 62
7
  6
CONTINUOUS
 10
4.9115913558
 20
5.2565585405
 11
4.9115913558
 21
5.2647256121
  0
LINE
  5
21E
100
AcDbEntity
  8
0
100
AcDbLine
 62
7
  6
CONTINUOUS
 10
4.9573413558
 20
5.7540585405
 11
4.9573413558
 21
5.7575585405
  0
LWPOLYLINE
  5
21F
100
AcDbEntity
  8
0
100
AcDbPolyline
 62
7
  6
CONTINUOUS
 90
9
 70
0
 10
9.1700305543
 20
5.5216650553
 10
9.1702842964
 20
5.521727425
 10
9.1705278004
 20
5.5217872837
 10
9.1707600663
 20
5.5218443866
 10
9.1709809507
 20
5.5218986953
 10
9.1711905976
 20
5.5219502444
 10
9.1713884384
 20
5.5219988956
 10
9.1715744399
 20
5.5220446383
 10
9.1719105582
 20
5.5221273068
  0
LINE
  5
220
100
AcDbEntity
  8
0
100
AcDbLine
 62
7
  6
CONTINUOUS
 10
9.1694924468
 20
5.521532808
 11
9.1700305543
 21
5.5216650553
  0
LWPOLYLINE
  5
221
100
AcDbEntity
  8
0
100
AcDbPolyline
 62
7
  6
CONTINUOUS
 90
4
 70
0
 10
9.1625154474
 20
5.5198205773
 10
9.1629001367
 20
5.5199148661
 10
9.1632836227
 20
5.5200088733
 10
9.164046845
 20
5.5201960083
  0
LINE
  5
222
100
AcDbEntity
  8
0
100
AcDbLine
 62
7
  6
CONTINUOUS
 10
9.1524642546
 20
5.5173619001
 11
9.1728535287
 21
5.5223592882
  0
LINE
  5
223
100
AcDbEntity
  8
0
100
AcDbLine
 62
7
  6
CONTINUOUS
 10
9.1523009295
 20
5.5173220257
 11
9.1524642421
 21
5.5173618972
  0
LINE
  5
224
100
AcDbEntity
  8
0
100
AcDbLine
 62
7
  6
CONTINUOUS
 10
9.1521255414
 20
5.5172792089
 11
9.1523009295
 21
5.5173220257
  0
LINE
  5
225
100
AcDbEntity
  8
0
100
AcDbLine
 62
7
  6
CONTINUOUS
 10
9.1072652155
 20
5.5087018504
 11
9.1114747687
 21
5.5093270149
  0
LINE
  5
226
100
AcDbEntity
  8
0
100
AcDbLine
 62
7
  6
CONTINUOUS
 10
9.0918858892
 20
5.5064229149
 11
9.1072652298
 21
5.5087018529
  0
LINE
  5
227
100
AcDbEntity
  8
0
100
AcDbLine
 62
7
  6
CONTINUOUS
 10
8.7358160953
 20
6.3753774559
 11
8.7357640023
 21
6.375307987
  0
LINE
  5
228
100
AcDbEntity
  8
0
100
AcDbLine
 62
7
  6
CONTINUOUS
 10
8.7359544566
 20
6.3755635855
 11
8.7357640023
 21
6.375307987
  0
LINE
  5
229
100
AcDbEntity
  8
0
100
AcDbLine
 62
7
  6
CONTINUOUS
 10
4.8465913558
 20
5.2161085405
 11
4.4115913558
 21
5.2161085405
  0
LINE
  5
22A
100
AcDbEntity
  8
0
100
AcDbLine
 62
7
  6
CONTINUOUS
 10
4.8725912594
 20
5.2175585405
 11
4.3855914522
 21
5.2175585405
  0
LINE
  5
22B
100
AcDbEntity
  8
0
100
AcDbLine
 62
7
  6
CONTINUOUS
 10
4.9115913558
 20
5.2565585405
 11
4.3465913558
 21
5.2565585405
  0
LINE
  5
22C
100
AcDbEntity
  8
0
100
AcDbLine
 62
7
  6
CONTINUOUS
 10
4.9115913558
 20
5.2647256121
 11
4.3465913558
 21
5.2647256121
  0
LINE
  5
22D
100
AcDbEntity
  8
0
100
AcDbLine
 62
7
  6
CONTINUOUS
 10
4.9034258478
 20
5.2886051871
 11
4.3547568638
 21
5.2886051871
  0
LINE
  5
22E
100
AcDbEntity
  8
0
100
AcDbLine
 62
7
  6
CONTINUOUS
 10
4.8889329708
 20
5.3266893326
 11
4.3692497408
 21
5.3266893326
  0
LINE
  5
22F
100
AcDbEntity
  8
0
100
AcDbLine
 62
7
  6
CONTINUOUS
 10
6.8230913558
 20
6.0544549475
 11
6.8230913558
 21
6.2851049475
  0
LINE
  5
230
100
AcDbEntity
  8
0
100
AcDbLine
 62
7
  6
CONTINUOUS
 10
6.8740913558
 20
6.3012786352
 11
6.8740913558
 21
6.0382812598
  0
LINE
  5
231
100
AcDbEntity
  8
0
100
AcDbLine
 62
7
  6
CONTINUOUS
 10
6.8975924684
 20
6.3209698061
 11
6.8975924684
 21
6.0185900889
  0
LINE
  5
232
100
AcDbEntity
  8
0
100
AcDbLine
 62
7
  6
CONTINUOUS
 10
8.735764001
 20
6.375307988
 11
8.7358132467
 21
6.3753787223
  0
LWPOLYLINE
  5
233
100
AcDbEntity
  8
0
100
AcDbPolyline
 62
7
  6
CONTINUOUS
 90
74
 70
0
 10
9.1656661375
 20
6.5042407329
 10
9.1664102603
 20
6.5043630672
 10
9.167136508
 20
6.5044857522
 10
9.1678453005
 20
6.5046088203
 10
9.168536952
 20
6.5047322883
 10
9.1692121122
 20
6.5048562367
 10
9.1698711161
 20
6.5049806949
 10
9.1705143885
 20
6.5051057123
 10
9.171142748
 20
6.5052314229
 10
9.1717565426
 20
6.5053578766
 10
9.1723561939
 20
6.5054851426
 10
9.1729426585
 20
6.5056134147
 10
9.1735162844
 20
6.5057427677
 10
9.1740774967
 20
6.5058732983
 10
9.1746273938
 20
6.5060052731
 10
9.1751663574
 20
6.506138807
 10
9.1756947742
 20
6.5062740243
 10
9.1762137797
 20
6.5064112585
 10
9.1767238149
 20
6.5065506863
 10
9.1772251977
 20
6.5066924619
 10
9.1777189326
 20
6.5068369529
 10
9.1782053827
 20
6.5069843667
 10
9.1786849535
 20
6.5071349381
 10
9.1791587696
 20
6.5072891558
 10
9.1796271091
 20
6.50744727
 10
9.1800904301
 20
6.5076096086
 10
9.1805501449
 20
6.5077768765
 10
9.1810064607
 20
6.5079493956
 10
9.1814597926
 20
6.5081275889
 10
9.181911824
 20
6.5083124406
 10
9.1823627393
 20
6.5085044059
 10
9.1828127659
 20
6.5087039888
 10
9.1832635636
 20
6.5089124046
 10
9.1837154434
 20
6.5091303601
 10
9.1841682074
 20
6.509358361
 10
9.1846226546
 20
6.5095974705
 10
9.1850792347
 20
6.5098486766
 10
9.1855372876
 20
6.5101124163
 10
9.1859959113
 20
6.5103889712
 10
9.1864552538
 20
6.5106792657
 10
9.1869147083
 20
6.5109838029
 10
9.1873722817
 20
6.5113021028
 10
9.1878275745
 20
6.5116346859
 10
9.1882803396
 20
6.5119822152
 10
9.188728863
 20
6.5123441954
 10
9.1891726602
 20
6.5127210168
 10
9.1896113432
 20
6.5131131737
 10
9.1900433722
 20
6.5135200898
 10
9.1904681256
 20
6.5139419368
 10
9.1908851805
 20
6.5143790915
 10
9.1912933206
 20
6.5148310732
 10
9.1916916993
 20
6.5152976959
 10
9.1920799915
 20
6.5157793714
 10
9.1924577188
 20
6.5162763896
 10
9.1928240803
 20
6.5167886372
 10
9.193178464
 20
6.517316254
 10
9.1935205331
 20
6.5178598724
 10
9.1938496718
 20
6.5184198249
 10
9.1941647766
 20
6.518995635
 10
9.1944647195
 20
6.5195866442
 10
9.1947488473
 20
6.520193065
 10
9.1950160744
 20
6.5208142026
 10
9.1952648248
 20
6.5214478521
 10
9.1954944068
 20
6.5220935791
 10
9.1957041299
 20
6.5227509029
 10
9.1958927906
 20
6.523417345
 10
9.1960598873
 20
6.524092198
 10
9.1962049865
 20
6.5247749232
 10
9.1963273684
 20
6.5254631509
 10
9.1964267751
 20
6.5261561333
 10
9.1965029817
 20
6.5268531723
 10
9.1965556859
 20
6.5275518943
 10
9.1965848566
 20
6.5282509921
 10
9.1965913286
 20
6.5287707289
  0
LINE
  5
234
100
AcDbEntity
  8
0
100
AcDbLine
 62
7
  6
CONTINUOUS
 10
9.2078068704
 20
5.5325515354
 11
8.8003758411
 21
5.5325515354
  0
LINE
  5
235
100
AcDbEntity
  8
0
100
AcDbLine
 62
7
  6
CONTINUOUS
 10
9.2264391755
 20
5.5353704987
 11
8.7817435361
 21
5.5353704987
  0
LINE
  5
236
100
AcDbEntity
  8
0
100
AcDbLine
 62
7
  6
CONTINUOUS
 10
9.2305788056
 20
5.537566258
 11
8.7776039059
 21
5.537566258
  0
LINE
  5
237
100
AcDbEntity
  8
0
100
AcDbLine
 62
7
  6
CONTINUOUS
 10
9.2807309492
 20
5.6116003747
 11
8.7274517623
 21
5.6116003747
  0
LINE
  5
238
100
AcDbEntity
  8
0
100
AcDbLine
 62
7
  6
CONTINUOUS
 10
9.2815913558
 20
5.6144046155
 11
8.7265913558
 21
5.6144046155
  0
LINE
  5
239
100
AcDbEntity
  8
0
100
AcDbLine
 62
7
  6
CONTINUOUS
 10
9.2977748589
 20
5.6578704987
 11
8.7104829695
 21
5.6578704987
  0
LINE
  5
23A
100
AcDbEntity
  8
0
100
AcDbLine
 62
7
  6
CONTINUOUS
 10
4.3507186984
 20
5.6739863718
 11
4.9074640131
 21
5.6739863718
  0
LINE
  5
23B
100
AcDbEntity
  8
0
100
AcDbLine
 62
7
  6
CONTINUOUS
 10
4.319069502
 20
5.7210505098
 11
4.9391132096
 21
5.7210505098
  0
LINE
  5
23C
100
AcDbEntity
  8
0
100
AcDbLine
 62
7
  6
CONTINUOUS
 10
4.9573413558
 20
5.7540585405
 11
4.3008413558
 21
5.7540585405
  0
LINE
  5
23D
100
AcDbEntity
  8
0
100
AcDbLine
 62
7
  6
CONTINUOUS
 10
4.9573413558
 20
5.7575585405
 11
4.3008413558
 21
5.7575585405
  0
LINE
  5
23E
100
AcDbEntity
  8
0
100
AcDbLine
 62
7
  6
CONTINUOUS
 10
9.2977748589
 20
5.7853704987
 11
9.2976997421
 21
5.7853704987
  0
LINE
  5
23F
100
AcDbEntity
  8
0
100
AcDbLine
 62
7
  6
CONTINUOUS
 10
9.2970446448
 20
5.7853704987
 11
9.2968200477
 21
5.7853704987
  0
LINE
  5
240
100
AcDbEntity
  8
0
100
AcDbLine
 62
7
  6
CONTINUOUS
 10
9.2955116488
 20
5.7853704987
 11
9.2951380044
 21
5.7853704987
  0
LINE
  5
241
100
AcDbEntity
  8
0
100
AcDbLine
 62
7
  6
CONTINUOUS
 10
9.29317989
 20
5.7853704987
 11
9.2926582224
 21
5.7853704987
  0
LINE
  5
242
100
AcDbEntity
  8
0
100
AcDbLine
 62
7
  6
CONTINUOUS
 10
9.2900557597
 20
5.7853704987
 11
9.2893874987
 21
5.7853704987
  0
LINE
  5
243
100
AcDbEntity
  8
0
100
AcDbLine
 62
7
  6
CONTINUOUS
 10
9.2861478208
 20
5.7853704987
 11
9.2853323213
 21
5.7853704987
  0
LINE
  5
244
100
AcDbEntity
  8
0
100
AcDbLine
 62
7
  6
CONTINUOUS
 10
9.2814696089
 20
5.7853704987
 11
9.2805112288
 21
5.7853704987
  0
LINE
  5
245
100
AcDbEntity
  8
0
100
AcDbLine
 62
7
  6
CONTINUOUS
 10
9.2760254819
 20
5.7853704987
 11
9.2749300118
 21
5.7853704987
  0
LINE
  5
246
100
AcDbEntity
  8
0
100
AcDbLine
 62
7
  6
CONTINUOUS
 10
9.2698388265
 20
5.7853704987
 11
9.2686064449
 21
5.7853704987
  0
LINE
  5
247
100
AcDbEntity
  8
0
100
AcDbLine
 62
7
  6
CONTINUOUS
 10
9.2629237758
 20
5.7853704987
 11
9.2615578605
 21
5.7853704987
  0
LINE
  5
248
100
AcDbEntity
  8
0
100
AcDbLine
 62
7
  6
CONTINUOUS
 10
9.2552992834
 20
5.7853704987
 11
9.2538035784
 21
5.7853704987
  0
LINE
  5
249
100
AcDbEntity
  8
0
100
AcDbLine
 62
7
  6
CONTINUOUS
 10
9.2469862475
 20
5.7853704987
 11
9.2453599586
 21
5.7853704987
  0
LINE
  5
24A
100
AcDbEntity
  8
0
100
AcDbLine
 62
7
  6
CONTINUOUS
 10
9.2380126429
 20
5.7853704987
 11
9.2362648124
 21
5.7853704987
  0
LINE
  5
24B
100
AcDbEntity
  8
0
100
AcDbLine
 62
7
  6
CONTINUOUS
 10
9.228387512
 20
5.7853704987
 11
9.2265284012
 21
5.7853704987
  0
LINE
  5
24C
100
AcDbEntity
  8
0
100
AcDbLine
 62
7
  6
CONTINUOUS
 10
9.2181527902
 20
5.7853704987
 11
9.2161823055
 21
5.7853704987
  0
LINE
  5
24D
100
AcDbEntity
  8
0
100
AcDbLine
 62
7
  6
CONTINUOUS
 10
9.2073313408
 20
5.7853704987
 11
9.2052548833
 21
5.7853704987
  0
LINE
  5
24E
100
AcDbEntity
  8
0
100
AcDbLine
 62
7
  6
CONTINUOUS
 10
9.1959528248
 20
5.7853704987
 11
9.1937760858
 21
5.7853704987
  0
LINE
  5
24F
100
AcDbEntity
  8
0
100
AcDbLine
 62
7
  6
CONTINUOUS
 10
9.1840484299
 20
5.7853704987
 11
9.181770544
 21
5.7853704987
  0
LINE
  5
250
100
AcDbEntity
  8
0
100
AcDbLine
 62
7
  6
CONTINUOUS
 10
9.1716578315
 20
5.7853704987
 11
9.1692916405
 21
5.7853704987
  0
LINE
  5
251
100
AcDbEntity
  8
0
100
AcDbLine
 62
7
  6
CONTINUOUS
 10
9.1587938716
 20
5.7853704987
 11
9.1563531028
 21
5.7853704987
  0
LINE
  5
252
100
AcDbEntity
  8
0
100
AcDbLine
 62
7
  6
CONTINUOUS
 10
9.1455129292
 20
5.7853704987
 11
9.1429972263
 21
5.7853704987
  0
LINE
  5
253
100
AcDbEntity
  8
0
100
AcDbLine
 62
7
  6
CONTINUOUS
 10
9.1318443601
 20
5.7853704987
 11
9.1292606184
 21
5.7853704987
  0
LINE
  5
254
100
AcDbEntity
  8
0
100
AcDbLine
 62
7
  6
CONTINUOUS
 10
9.1178256289
 20
5.7853704987
 11
9.1151809303
 21
5.7853704987
  0
LINE
  5
255
100
AcDbEntity
  8
0
100
AcDbLine
 62
7
  6
CONTINUOUS
 10
9.10349516
 20
5.7853704987
 11
9.1007886524
 21
5.7853704987
  0
LINE
  5
256
100
AcDbEntity
  8
0
100
AcDbLine
 62
7
  6
CONTINUOUS
 10
9.088900446
 20
5.7853704987
 11
9.0861475137
 21
5.7853704987
  0
LINE
  5
257
100
AcDbEntity
  8
0
100
AcDbLine
 62
7
  6
CONTINUOUS
 10
9.074056871
 20
5.7853704987
 11
9.0712733637
 21
5.7853704987
  0
LINE
  5
258
100
AcDbEntity
  8
0
100
AcDbLine
 62
7
  6
CONTINUOUS
 10
9.0590297393
 20
5.7853704987
 11
9.0562150726
 21
5.7853704987
  0
LINE
  5
259
100
AcDbEntity
  8
0
100
AcDbLine
 62
7
  6
CONTINUOUS
 10
9.0438520252
 20
5.7853704987
 11
9.041013914
 21
5.7853704987
  0
LINE
  5
25A
100
AcDbEntity
  8
0
100
AcDbLine
 62
7
  6
CONTINUOUS
 10
9.0285653299
 20
5.7853704987
 11
9.0257115532
 21
5.7853704987
  0
LINE
  5
25B
100
AcDbEntity
  8
0
100
AcDbLine
 62
7
  6
CONTINUOUS
 10
9.0132115532
 20
5.7853704987
 11
9.0103413558
 21
5.7853704987
  0
LINE
  5
25C
100
AcDbEntity
  8
0
100
AcDbLine
 62
7
  6
CONTINUOUS
 10
8.9978413558
 20
5.7853704987
 11
8.9949711584
 21
5.7853704987
  0
LINE
  5
25D
100
AcDbEntity
  8
0
100
AcDbLine
 62
7
  6
CONTINUOUS
 10
8.9824711584
 20
5.7853704987
 11
8.9796173816
 21
5.7853704987
  0
LINE
  5
25E
100
AcDbEntity
  8
0
100
AcDbLine
 62
7
  6
CONTINUOUS
 10
8.9671687976
 20
5.7853704987
 11
8.9643306863
 21
5.7853704987
  0
LINE
  5
25F
100
AcDbEntity
  8
0
100
AcDbLine
 62
7
  6
CONTINUOUS
 10
8.951967639
 20
5.7853704987
 11
8.9491529723
 21
5.7853704987
  0
LINE
  5
260
100
AcDbEntity
  8
0
100
AcDbLine
 62
7
  6
CONTINUOUS
 10
8.9369093478
 20
5.7853704987
 11
8.9341258405
 21
5.7853704987
  0
LINE
  5
261
100
AcDbEntity
  8
0
100
AcDbLine
 62
7
  6
CONTINUOUS
 10
8.9220351979
 20
5.7853704987
 11
8.9192822656
 21
5.7853704987
  0
LINE
  5
262
100
AcDbEntity
  8
0
100
AcDbLine
 62
7
  6
CONTINUOUS
 10
8.9073940591
 20
5.7853704987
 11
8.9046875515
 21
5.7853704987
  0
LINE
  5
263
100
AcDbEntity
  8
0
100
AcDbLine
 62
7
  6
CONTINUOUS
 10
8.8930017813
 20
5.7853704987
 11
8.8903570826
 21
5.7853704987
  0
LINE
  5
264
100
AcDbEntity
  8
0
100
AcDbLine
 62
7
  6
CONTINUOUS
 10
8.8789220931
 20
5.7853704987
 11
8.8763383514
 21
5.7853704987
  0
LINE
  5
265
100
AcDbEntity
  8
0
100
AcDbLine
 62
7
  6
CONTINUOUS
 10
8.8651854853
 20
5.7853704987
 11
8.8626697824
 21
5.7853704987
  0
LINE
  5
266
100
AcDbEntity
  8
0
100
AcDbLine
 62
7
  6
CONTINUOUS
 10
8.8518296087
 20
5.7853704987
 11
8.84938884
 21
5.7853704987
  0
LINE
  5
267
100
AcDbEntity
  8
0
100
AcDbLine
 62
7
  6
CONTINUOUS
 10
8.8388910711
 20
5.7853704987
 11
8.83652488
 21
5.7853704987
  0
LINE
  5
268
100
AcDbEntity
  8
0
100
AcDbLine
 62
7
  6
CONTINUOUS
 10
8.8264121676
 20
5.7853704987
 11
8.8241342817
 21
5.7853704987
  0
LINE
  5
269
100
AcDbEntity
  8
0
100
AcDbLine
 62
7
  6
CONTINUOUS
 10
8.8144066257
 20
5.7853704987
 11
8.8122298867
 21
5.7853704987
  0
LINE
  5
26A
100
AcDbEntity
  8
0
100
AcDbLine
 62
7
  6
CONTINUOUS
 10
8.8029278282
 20
5.7853704987
 11
8.8008513707
 21
5.7853704987
  0
LINE
  5
26B
100
AcDbEntity
  8
0
100
AcDbLine
 62
7
  6
CONTINUOUS
 10
8.792000406
 20
5.7853704987
 11
8.7900299214
 21
5.7853704987
  0
LINE
  5
26C
100
AcDbEntity
  8
0
100
AcDbLine
 62
7
  6
CONTINUOUS
 10
8.7816543103
 20
5.7853704987
 11
8.7797951996
 21
5.7853704987
  0
LINE
  5
26D
100
AcDbEntity
  8
0
100
AcDbLine
 62
7
  6
CONTINUOUS
 10
8.7719178991
 20
5.7853704987
 11
8.7701700686
 21
5.7853704987
  0
LINE
  5
26E
100
AcDbEntity
  8
0
100
AcDbLine
 62
7
  6
CONTINUOUS
 10
8.762822753
 20
5.7853704987
 11
8.761196464
 21
5.7853704987
  0
LINE
  5
26F
100
AcDbEntity
  8
0
100
AcDbLine
 62
7
  6
CONTINUOUS
 10
8.7543791332
 20
5.7853704987
 11
8.7528834282
 21
5.7853704987
  0
LINE
  5
270
100
AcDbEntity
  8
0
100
AcDbLine
 62
7
  6
CONTINUOUS
 10
8.746624851
 20
5.7853704987
 11
8.7452589358
 21
5.7853704987
  0
LINE
  5
271
100
AcDbEntity
  8
0
100
AcDbLine
 62
7
  6
CONTINUOUS
 10
8.7395762666
 20
5.7853704987
 11
8.7383438851
 21
5.7853704987
  0
LINE
  5
272
100
AcDbEntity
  8
0
100
AcDbLine
 62
7
  6
CONTINUOUS
 10
8.7332526997
 20
5.7853704987
 11
8.7321572297
 21
5.7853704987
  0
LINE
  5
273
100
AcDbEntity
  8
0
100
AcDbLine
 62
7
  6
CONTINUOUS
 10
8.7276714827
 20
5.7853704987
 11
8.7267131026
 21
5.7853704987
  0
LINE
  5
274
100
AcDbEntity
  8
0
100
AcDbLine
 62
7
  6
CONTINUOUS
 10
8.7228503902
 20
5.7853704987
 11
8.7220348908
 21
5.7853704987
  0
LINE
  5
275
100
AcDbEntity
  8
0
100
AcDbLine
 62
7
  6
CONTINUOUS
 10
8.7187952128
 20
5.7853704987
 11
8.7181269519
 21
5.7853704987
  0
LINE
  5
276
100
AcDbEntity
  8
0
100
AcDbLine
 62
7
  6
CONTINUOUS
 10
8.7155244891
 20
5.7853704987
 11
8.7150028215
 21
5.7853704987
  0
LINE
  5
277
100
AcDbEntity
  8
0
100
AcDbLine
 62
7
  6
CONTINUOUS
 10
8.7130447072
 20
5.7853704987
 11
8.7126710627
 21
5.7853704987
  0
LINE
  5
278
100
AcDbEntity
  8
0
100
AcDbLine
 62
7
  6
CONTINUOUS
 10
8.7113626638
 20
5.7853704987
 11
8.7111380667
 21
5.7853704987
  0
LINE
  5
279
100
AcDbEntity
  8
0
100
AcDbLine
 62
7
  6
CONTINUOUS
 10
4.9383063434
 20
5.7910607683
 11
4.3198763681
 21
5.7910607683
  0
LINE
  5
27A
100
AcDbEntity
  8
0
100
AcDbLine
 62
7
  6
CONTINUOUS
 10
9.2878413193
 20
5.7953704987
 11
8.7203413922
 21
5.7953704987
  0
LINE
  5
27B
100
AcDbEntity
  8
0
100
AcDbLine
 62
7
  6
CONTINUOUS
 10
4.9361640951
 20
5.8152840621
 11
4.3220186165
 21
5.8152840621
  0
LINE
  5
27C
100
AcDbEntity
  8
0
100
AcDbLine
 62
7
  6
CONTINUOUS
 10
7.0314036616
 20
6.333131935
 11
7.0314036616
 21
6.00642796
  0
LINE
  5
27D
100
AcDbEntity
  8
0
100
AcDbLine
 62
7
  6
CONTINUOUS
 10
7.0715913558
 20
6.3092799475
 11
7.0715913558
 21
6.0302799475
  0
LWPOLYLINE
  5
27E
100
AcDbEntity
  8
0
100
AcDbPolyline
 62
7
  6
CONTINUOUS
 90
9
 70
0
 10
8.7406021632
 20
6.3824028601
 10
8.7402164713
 20
6.3817708449
 10
8.7396224075
 20
6.3808232375
 10
8.7390222039
 20
6.3798958288
 10
8.7384165256
 20
6.3789885972
 10
8.737806249
 20
6.3781018189
 10
8.7371920028
 20
6.3772353863
 10
8.7365744334
 20
6.376389218
 10
8.7359544566
 20
6.3755635855
  0
LINE
  5
27F
100
AcDbEntity
  8
0
100
AcDbLine
 62
7
  6
CONTINUOUS
 10
9.1641216858
 20
6.5039968583
 11
9.1656661375
 21
6.5042407329
  0
LINE
  5
280
100
AcDbEntity
  8
0
100
AcDbLine
 62
7
  6
CONTINUOUS
 10
9.1624990607
 20
6.5037538376
 11
9.1641216858
 21
6.5039968583
  0
LINE
  5
281
100
AcDbEntity
  8
0
100
AcDbLine
 62
7
  6
CONTINUOUS
 10
9.1607927131
 20
6.5035112487
 11
9.1624990607
 21
6.5037538376
  0
LINE
  5
282
100
AcDbEntity
  8
0
100
AcDbLine
 62
7
  6
CONTINUOUS
 10
9.1589972545
 20
6.5032687949
 11
9.1607927131
 21
6.5035112487
  0
LINE
  5
283
100
AcDbEntity
  8
0
100
AcDbLine
 62
7
  6
CONTINUOUS
 10
9.1571079649
 20
6.5030263482
 11
9.1589972545
 21
6.5032687949
  0
LINE
  5
284
100
AcDbEntity
  8
0
100
AcDbLine
 62
7
  6
CONTINUOUS
 10
9.1551195273
 20
6.5027837576
 11
9.1571079649
 21
6.5030263482
  0
LINE
  5
285
100
AcDbEntity
  8
0
100
AcDbLine
 62
7
  6
CONTINUOUS
 10
9.1530265526
 20
6.5025409318
 11
9.1551195273
 21
6.5027837576
  0
LINE
  5
286
100
AcDbEntity
  8
0
100
AcDbLine
 62
7
  6
CONTINUOUS
 10
9.1508225777
 20
6.5022977314
 11
9.1530265526
 21
6.5025409318
  0
LINE
  5
287
100
AcDbEntity
  8
0
100
AcDbLine
 62
7
  6
CONTINUOUS
 10
9.1484974374
 20
6.5020537216
 11
9.1508225777
 21
6.5022977314
  0
LINE
  5
288
100
AcDbEntity
  8
0
100
AcDbLine
 62
7
  6
CONTINUOUS
 10
9.1460362165
 20
6.5018081438
 11
9.1484974374
 21
6.5020537216
  0
LINE
  5
289
100
AcDbEntity
  8
0
100
AcDbLine
 62
7
  6
CONTINUOUS
 10
9.1434269383
 20
6.5015607339
 11
9.1460362165
 21
6.5018081438
  0
LINE
  5
28A
100
AcDbEntity
  8
0
100
AcDbLine
 62
7
  6
CONTINUOUS
 10
9.1406529844
 20
6.5013109795
 11
9.1434269383
 21
6.5015607339
  0
LINE
  5
28B
100
AcDbEntity
  8
0
100
AcDbLine
 62
7
  6
CONTINUOUS
 10
9.1376974487
 20
6.5010585744
 11
9.1406529844
 21
6.5013109795
  0
LWPOLYLINE
  5
28C
100
AcDbEntity
  8
0
100
AcDbPolyline
 62
7
  6
CONTINUOUS
 90
3
 70
0
 10
9.132898725
 20
6.5006757487
 10
9.1345488039
 20
6.5008038394
 10
9.1376974487
 20
6.5010585744
  0
LINE
  5
28D
100
AcDbEntity
  8
0
100
AcDbLine
 62
7
  6
CONTINUOUS
 10
1.0790913558
 20
5.9240049475
 11
1.06813992
 21
5.9240049475
  0
LINE
  5
28E
100
AcDbEntity
  8
0
100
AcDbLine
 62
7
  6
CONTINUOUS
 10
8.1790913558
 20
5.9240049475
 11
8.1900427916
 21
5.9240049475
  0
LINE
  5
28F
100
AcDbEntity
  8
0
100
AcDbLine
 62
7
  6
CONTINUOUS
 10
2.4350913558
 20
6.0544549475
 11
2.3840913558
 21
6.0544549475
  0
LINE
  5
290
100
AcDbEntity
  8
0
100
AcDbLine
 62
7
  6
CONTINUOUS
 10
6.8230913558
 20
6.0544549475
 11
6.8740913558
 21
6.0544549475
  0
LINE
  5
291
100
AcDbEntity
  8
0
100
AcDbLine
 62
7
  6
CONTINUOUS
 10
8.8967079431
 20
5.5093270148
 11
8.9162968224
 21
5.5064229149
  0
LWPOLYLINE
  5
292
100
AcDbEntity
  8
0
100
AcDbPolyline
 62
7
  6
CONTINUOUS
 90
6
 70
0
 10
9.2799314181
 20
5.9740216955
 10
9.2805911365
 20
5.9750960369
 10
9.2814333789
 20
5.9764358067
 10
9.2822777419
 20
5.9777448476
 10
9.2831231476
 20
5.9790229821
 10
9.2836359012
 20
5.9797829941
  0
LINE
  5
293
100
AcDbEntity
  8
0
100
AcDbLine
 62
7
  6
CONTINUOUS
 10
9.2837062701
 20
5.9798918643
 11
9.2836358933
 21
5.9797829699
  0
LINE
  5
294
100
AcDbEntity
  8
0
100
AcDbLine
 62
7
  6
CONTINUOUS
 10
9.1276360834
 20
6.5002899274
 11
9.132898725
 21
6.5006757487
  0
LINE
  5
295
100
AcDbEntity
  8
0
100
AcDbLine
 62
7
  6
CONTINUOUS
 10
9.1218832931
 20
6.49990385
 11
9.1276360834
 21
6.5002899274
  0
LINE
  5
296
100
AcDbEntity
  8
0
100
AcDbLine
 62
7
  6
CONTINUOUS
 10
9.1156028689
 20
6.4995198164
 11
9.1218832931
 21
6.49990385
  0
LINE
  5
297
100
AcDbEntity
  8
0
100
AcDbLine
 62
7
  6
CONTINUOUS
 10
9.1087512313
 20
6.4991403359
 11
9.1156028689
 21
6.4995198164
  0
LINE
  5
298
100
AcDbEntity
  8
0
100
AcDbLine
 62
7
  6
CONTINUOUS
 10
9.1012900669
 20
6.4987688073
 11
9.1087512313
 21
6.4991403359
  0
LINE
  5
299
100
AcDbEntity
  8
0
100
AcDbLine
 62
7
  6
CONTINUOUS
 10
9.0932346416
 20
6.4984114447
 11
9.1012900669
 21
6.4987688073
  0
LINE
  5
29A
100
AcDbEntity
  8
0
100
AcDbLine
 62
7
  6
CONTINUOUS
 10
9.0846967007
 20
6.4980774752
 11
9.0932346416
 21
6.4984114447
  0
LINE
  5
29B
100
AcDbEntity
  8
0
100
AcDbLine
 62
7
  6
CONTINUOUS
 10
9.0758217597
 20
6.4977748795
 11
9.0846967007
 21
6.4980774752
  0
LINE
  5
29C
100
AcDbEntity
  8
0
100
AcDbLine
 62
7
  6
CONTINUOUS
 10
9.0667616413
 20
6.4975091641
 11
9.0758217597
 21
6.4977748795
  0
LINE
  5
29D
100
AcDbEntity
  8
0
100
AcDbLine
 62
7
  6
CONTINUOUS
 10
9.0576090639
 20
6.4972820402
 11
9.0667616413
 21
6.4975091641
  0
LINE
  5
29E
100
AcDbEntity
  8
0
100
AcDbLine
 62
7
  6
CONTINUOUS
 10
9.0483634155
 20
6.497092351
 11
9.0576090639
 21
6.4972820402
  0
LINE
  5
29F
100
AcDbEntity
  8
0
100
AcDbLine
 62
7
  6
CONTINUOUS
 10
9.0390134989
 20
6.496939227
 11
9.0483634155
 21
6.497092351
  0
LINE
  5
2A0
100
AcDbEntity
  8
0
100
AcDbLine
 62
7
  6
CONTINUOUS
 10
9.0295512501
 20
6.4968223904
 11
9.0390134989
 21
6.496939227
  0
LINE
  5
2A1
100
AcDbEntity
  8
0
100
AcDbLine
 62
7
  6
CONTINUOUS
 10
9.0167859976
 20
6.4967236753
 11
9.0295512501
 21
6.4968223904
  0
LINE
  5
2A2
100
AcDbEntity
  8
0
100
AcDbLine
 62
7
  6
CONTINUOUS
 10
9.0039320211
 20
6.4966911932
 11
9.0167859976
 21
6.4967236753
  0
LINE
  5
2A3
100
AcDbEntity
  8
0
100
AcDbLine
 62
7
  6
CONTINUOUS
 10
2.4350913558
 20
6.2851049475
 11
2.3840913558
 21
6.2851049475
  0
LINE
  5
2A4
100
AcDbEntity
  8
0
100
AcDbLine
 62
7
  6
CONTINUOUS
 10
6.8230913558
 20
6.2851049475
 11
6.8740913558
 21
6.2851049475
  0
LINE
  5
2A5
100
AcDbEntity
  8
0
100
AcDbLine
 62
7
  6
CONTINUOUS
 10
1.0790913558
 20
6.4155549475
 11
1.06813992
 21
6.4155549475
  0
LINE
  5
2A6
100
AcDbEntity
  8
0
100
AcDbLine
 62
7
  6
CONTINUOUS
 10
8.1790913558
 20
6.4155549475
 11
8.1900427916
 21
6.4155549475
  0
LINE
  5
2A7
100
AcDbEntity
  8
0
100
AcDbLine
 62
7
  6
CONTINUOUS
 10
8.7637488139
 20
6.4947799475
 11
9.2444338976
 21
6.4947799475
  0
LINE
  5
2A8
100
AcDbEntity
  8
0
100
AcDbLine
 62
7
  6
CONTINUOUS
 10
8.9910791278
 20
6.4967253236
 11
9.0039320211
 21
6.4966911932
  0
LINE
  5
2A9
100
AcDbEntity
  8
0
100
AcDbLine
 62
7
  6
CONTINUOUS
 10
8.9783171239
 20
6.4968256684
 11
8.9910791278
 21
6.4967253236
  0
LINE
  5
2AA
100
AcDbEntity
  8
0
100
AcDbLine
 62
7
  6
CONTINUOUS
 10
8.8560506145
 20
5.5172808092
 11
8.8560571702
 21
5.5172792089
  0
LWPOLYLINE
  5
2AB
100
AcDbEntity
  8
0
100
AcDbPolyline
 62
7
  6
CONTINUOUS
 90
4
 70
0
 10
8.854413092
 20
5.517680683
 10
8.8546082174
 20
5.5176330213
 10
8.8547918716
 20
5.5175881647
 10
8.8549639359
 20
5.5175461417
  0
LWPOLYLINE
  5
2AC
100
AcDbEntity
  8
0
100
AcDbPolyline
 62
7
  6
CONTINUOUS
 90
4
 70
0
 10
8.8535174187
 20
5.5178995052
 10
8.8537585401
 20
5.5178405884
 10
8.8539883052
 20
5.5177844539
 10
8.854413092
 20
5.517680683
  0
LWPOLYLINE
  5
2AD
100
AcDbEntity
  8
0
100
AcDbPolyline
 62
7
  6
CONTINUOUS
 90
3
 70
0
 10
8.8527333572
 20
5.5180911217
 10
8.8530048268
 20
5.5180247708
 10
8.8535174187
 20
5.5178995052
  0
LWPOLYLINE
  5
2AE
100
AcDbEntity
  8
0
100
AcDbPolyline
 62
7
  6
CONTINUOUS
 90
5
 70
0
 10
8.8458501725
 20
5.5197757505
 10
8.8462317238
 20
5.5196822533
 10
8.8466115477
 20
5.5195891919
 10
8.846990071
 20
5.5194964619
 10
8.8477408104
 20
5.5193125861
  0
LINE
  5
2AF
100
AcDbEntity
  8
0
100
AcDbLine
 62
7
  6
CONTINUOUS
 10
8.8353224472
 20
5.5223609456
 11
8.8560506463
 21
5.5172808018
  0
LINE
  5
2B0
100
AcDbEntity
  8
0
100
AcDbLine
 62
7
  6
CONTINUOUS
 10
9.2799282786
 20
5.9740165289
 11
9.2799314181
 21
5.9740216955
  0
LINE
  5
2B1
100
AcDbEntity
  8
0
100
AcDbLine
 62
7
  6
CONTINUOUS
 10
9.2305788056
 20
5.537566258
 11
9.2807309492
 21
5.6116003747
  0
LWPOLYLINE
  5
2B2
100
AcDbEntity
  8
0
100
AcDbPolyline
 62
7
  6
CONTINUOUS
 90
78
 70
0
 10
8.8905184663
 20
6.8637429712
 10
8.8889565193
 20
6.8637278884
 10
8.8873957305
 20
6.8637002061
 10
8.8858376487
 20
6.8636599742
 10
8.8842823818
 20
6.8636072045
 10
8.8827285997
 20
6.8635418129
 10
8.8811771391
 20
6.863463755
 10
8.879628856
 20
6.8633729807
 10
8.8780824022
 20
6.8632693095
 10
8.8765383731
 20
6.8631527012
 10
8.8749975158
 20
6.8630231272
 10
8.8734586142
 20
6.8628803632
 10
8.8719223444
 20
6.8627243106
 10
8.8703895013
 20
6.8625548739
 10
8.868859085
 20
6.8623717269
 10
8.8673319106
 20
6.8621747094
 10
8.8658088068
 20
6.8619636594
 10
8.8642887705
 20
6.8617381785
 10
8.8627726602
 20
6.8614981139
 10
8.8612612742
 20
6.8612432922
 10
8.8597535322
 20
6.8609731777
 10
8.8582503508
 20
6.8606875248
 10
8.8567527316
 20
6.8603860856
 10
8.8552597533
 20
6.8600681722
 10
8.8537724089
 20
6.8597334255
 10
8.8522918031
 20
6.8593815427
 10
8.8508171599
 20
6.8590117629
 10
8.8493496419
 20
6.8586237311
 10
8.84789018
 20
6.8582170018
 10
8.8464376128
 20
6.857790456
 10
8.8449924333
 20
6.8573433147
 10
8.8435566091
 20
6.8568751929
 10
8.8421309989
 20
6.8563853126
 10
8.8407131451
 20
6.8558716405
 10
8.8393078927
 20
6.8553346889
 10
8.8379259108
 20
6.8547776051
 10
8.8365662747
 20
6.8541992649
 10
8.835230802
 20
6.8535996013
 10
8.8339322232
 20
6.8529839121
 10
8.8326696088
 20
6.8523517247
 10
8.8314427798
 20
6.8517028635
 10
8.8302632822
 20
6.8510439176
 10
8.8291320027
 20
6.8503765164
 10
8.8280447465
 20
6.8496992803
 10
8.8270041152
 20
6.8490149777
 10
8.8260106539
 20
6.8483254286
 10
8.8250603818
 20
6.8476293107
 10
8.8241492524
 20
6.8469247955
 10
8.8232758212
 20
6.846211702
 10
8.8224393783
 20
6.845490373
 10
8.8216376352
 20
6.8447596932
 10
8.8208696156
 20
6.8440195161
 10
8.8201349022
 20
6.8432701711
 10
8.8194324924
 20
6.8425113413
 10
8.8187619018
 20
6.8417431614
 10
8.8181227795
 20
6.8409658871
 10
8.8175146133
 20
6.840179539
 10
8.8169371642
 20
6.8393844374
 10
8.8163902135
 20
6.8385809231
 10
8.8158734781
 20
6.83776922
 10
8.8153867886
 20
6.8369496977
 10
8.8149300866
 20
6.83612292
 10
8.8145033568
 20
6.8352895835
 10
8.8141065562
 20
6.8344504336
 10
8.8137394914
 20
6.8336059571
 10
8.813401964
 20
6.8327566133
 10
8.8130939364
 20
6.831903298
 10
8.8128151984
 20
6.8310465108
 10
8.8125653925
 20
6.8301861872
 10
8.8123444517
 20
6.8293231242
 10
8.812152246
 20
6.8284579855
 10
8.8119884745
 20
6.8275905308
 10
8.8118530806
 20
6.8267215366
 10
8.8117459691
 20
6.8258517156
 10
8.8116669443
 20
6.8249807408
 10
8.8116159513
 20
6.8241090024
 10
8.8115929601
 20
6.8232376065
 10
8.8115915029
 20
6.8229643869
  0
LINE
  5
2B3
100
AcDbEntity
  8
0
100
AcDbLine
 62
7
  6
CONTINUOUS
 10
8.8315913558
 20
6.5760439076
 11
9.1765913558
 21
6.5760439076
  0
LINE
  5
2B4
100
AcDbEntity
  8
0
100
AcDbLine
 62
7
  6
CONTINUOUS
 10
8.8315913558
 20
6.6280893823
 11
9.1765913558
 21
6.6280893823
  0
LINE
  5
2B5
100
AcDbEntity
  8
0
100
AcDbLine
 62
7
  6
CONTINUOUS
 10
8.8915913558
 20
6.8626564522
 11
9.1165913558
 21
6.8626564522
  0
LINE
  5
2B6
100
AcDbEntity
  8
0
100
AcDbLine
 62
7
  6
CONTINUOUS
 10
8.8905184663
 20
6.8637429712
 11
9.1165913546
 21
6.8637460807
  0
LINE
  5
2B7
100
AcDbEntity
  8
0
100
AcDbLine
 62
7
  6
CONTINUOUS
 10
8.9657300088
 20
6.4969911263
 11
8.9783171239
 21
6.4968256684
  0
LINE
  5
2B8
100
AcDbEntity
  8
0
100
AcDbLine
 62
7
  6
CONTINUOUS
 10
8.9564199579
 20
6.4971575815
 11
8.9657300088
 21
6.4969911263
  0
LINE
  5
2B9
100
AcDbEntity
  8
0
100
AcDbLine
 62
7
  6
CONTINUOUS
 10
8.9472101099
 20
6.497360843
 11
8.9564199579
 21
6.4971575815
  0
LINE
  5
2BA
100
AcDbEntity
  8
0
100
AcDbLine
 62
7
  6
CONTINUOUS
 10
8.9380923878
 20
6.4976019186
 11
8.9472101099
 21
6.497360843
  0
LINE
  5
2BB
100
AcDbEntity
  8
0
100
AcDbLine
 62
7
  6
CONTINUOUS
 10
8.9290834647
 20
6.4978815779
 11
8.9380923878
 21
6.4976019186
  0
LINE
  5
2BC
100
AcDbEntity
  8
0
100
AcDbLine
 62
7
  6
CONTINUOUS
 10
8.9203128704
 20
6.4981964836
 11
8.9290834647
 21
6.4978815779
  0
LINE
  5
2BD
100
AcDbEntity
  8
0
100
AcDbLine
 62
7
  6
CONTINUOUS
 10
8.9119345703
 20
6.4985401069
 11
8.9203128704
 21
6.4981964836
  0
LINE
  5
2BE
100
AcDbEntity
  8
0
100
AcDbLine
 62
7
  6
CONTINUOUS
 10
8.9040834055
 20
6.4989038845
 11
8.9119345703
 21
6.4985401069
  0
LINE
  5
2BF
100
AcDbEntity
  8
0
100
AcDbLine
 62
7
  6
CONTINUOUS
 10
8.8968479141
 20
6.4992788879
 11
8.9040834055
 21
6.4989038845
  0
LINE
  5
2C0
100
AcDbEntity
  8
0
100
AcDbLine
 62
7
  6
CONTINUOUS
 10
8.8902095538
 20
6.4996604539
 11
8.8968479141
 21
6.4992788879
  0
LINE
  5
2C1
100
AcDbEntity
  8
0
100
AcDbLine
 62
7
  6
CONTINUOUS
 10
8.8841263302
 20
6.5000456033
 11
8.8902095538
 21
6.4996604539
  0
LINE
  5
2C2
100
AcDbEntity
  8
0
100
AcDbLine
 62
7
  6
CONTINUOUS
 10
8.8785561766
 20
6.5004319571
 11
8.8841263302
 21
6.5000456033
  0
LINE
  5
2C3
100
AcDbEntity
  8
0
100
AcDbLine
 62
7
  6
CONTINUOUS
 10
8.8734649915
 20
6.5008171558
 11
8.8785561766
 21
6.5004319571
  0
LINE
  5
2C4
100
AcDbEntity
  8
0
100
AcDbLine
 62
7
  6
CONTINUOUS
 10
8.8703257226
 20
6.5010718596
 11
8.8734649915
 21
6.5008171558
  0
LINE
  5
2C5
100
AcDbEntity
  8
0
100
AcDbLine
 62
7
  6
CONTINUOUS
 10
8.8673790149
 20
6.5013242183
 11
8.8703257226
 21
6.5010718596
  0
LINE
  5
2C6
100
AcDbEntity
  8
0
100
AcDbLine
 62
7
  6
CONTINUOUS
 10
8.8646132551
 20
6.5015739242
 11
8.8673790149
 21
6.5013242183
  0
LINE
  5
2C7
100
AcDbEntity
  8
0
100
AcDbLine
 62
7
  6
CONTINUOUS
 10
8.8620114677
 20
6.5018212987
 11
8.8646132551
 21
6.5015739242
  0
LINE
  5
2C8
100
AcDbEntity
  8
0
100
AcDbLine
 62
7
  6
CONTINUOUS
 10
8.859557103
 20
6.5020668577
 11
8.8620114677
 21
6.5018212987
  0
LWPOLYLINE
  5
2C9
100
AcDbEntity
  8
0
100
AcDbPolyline
 62
7
  6
CONTINUOUS
 90
3
 70
0
 10
8.8561242067
 20
6.5024326072
 10
8.8572382321
 20
6.502310869
 10
8.859557103
 20
6.5020668577
  0
LINE
  5
2CA
100
AcDbEntity
  8
0
100
AcDbLine
 62
7
  6
CONTINUOUS
 10
8.1590913558
 20
6.3955549475
 11
8.1590913558
 21
5.9440049475
  0
LINE
  5
2CB
100
AcDbEntity
  8
0
100
AcDbLine
 62
7
  6
CONTINUOUS
 10
8.1790913558
 20
6.4155549475
 11
8.1790913558
 21
5.9240049475
  0
LINE
  5
2CC
100
AcDbEntity
  8
0
100
AcDbLine
 62
7
  6
CONTINUOUS
 10
8.1900427916
 20
6.4155549475
 11
8.1900427916
 21
5.9240049475
  0
LINE
  5
2CD
100
AcDbEntity
  8
0
100
AcDbLine
 62
7
  6
CONTINUOUS
 10
8.2190684524
 20
6.3931385492
 11
8.2190684524
 21
5.9464213458
  0
LINE
  5
2CE
100
AcDbEntity
  8
0
100
AcDbLine
 62
7
  6
CONTINUOUS
 10
8.2678477011
 20
6.3179457686
 11
8.2678477011
 21
6.0216141264
  0
LINE
  5
2CF
100
AcDbEntity
  8
0
100
AcDbLine
 62
7
  6
CONTINUOUS
 10
8.2790913558
 20
6.2945321078
 11
8.2790913558
 21
6.0450277872
  0
LINE
  5
2D0
100
AcDbEntity
  8
0
100
AcDbLine
 62
7
  6
CONTINUOUS
 10
8.8539829855
 20
6.5026755393
 11
8.8561242067
 21
6.5024326072
  0
LINE
  5
2D1
100
AcDbEntity
  8
0
100
AcDbLine
 62
7
  6
CONTINUOUS
 10
8.8519481657
 20
6.5029182823
 11
8.8539829855
 21
6.5026755393
  0
LINE
  5
2D2
100
AcDbEntity
  8
0
100
AcDbLine
 62
7
  6
CONTINUOUS
 10
8.8500147586
 20
6.5031608552
 11
8.8519481657
 21
6.5029182823
  0
LINE
  5
2D3
100
AcDbEntity
  8
0
100
AcDbLine
 62
7
  6
CONTINUOUS
 10
8.848177939
 20
6.5034033156
 11
8.8500147586
 21
6.5031608552
  0
LINE
  5
2D4
100
AcDbEntity
  8
0
100
AcDbLine
 62
7
  6
CONTINUOUS
 10
8.846432416
 20
6.5036458377
 11
8.848177939
 21
6.5034033156
  0
LINE
  5
2D5
100
AcDbEntity
  8
0
100
AcDbLine
 62
7
  6
CONTINUOUS
 10
8.8447726693
 20
6.5038887027
 11
8.846432416
 21
6.5036458377
  0
LINE
  5
2D6
100
AcDbEntity
  8
0
100
AcDbLine
 62
7
  6
CONTINUOUS
 10
8.8431940755
 20
6.504132148
 11
8.8447726693
 21
6.5038887027
  0
LINE
  5
2D7
100
AcDbEntity
  8
0
100
AcDbLine
 62
7
  6
CONTINUOUS
 10
8.7104078527
 20
5.6578704987
 11
8.7104078527
 21
5.7853704987
  0
LINE
  5
2D8
100
AcDbEntity
  8
0
100
AcDbLine
 62
7
  6
CONTINUOUS
 10
8.7104829695
 20
5.6578704987
 11
8.7104829695
 21
5.7853704987
  0
LINE
  5
2D9
100
AcDbEntity
  8
0
100
AcDbLine
 62
7
  6
CONTINUOUS
 10
8.7111380667
 20
5.6578704987
 11
8.7111380667
 21
5.7853704987
  0
LINE
  5
2DA
100
AcDbEntity
  8
0
100
AcDbLine
 62
7
  6
CONTINUOUS
 10
8.7113626638
 20
5.6578704987
 11
8.7113626638
 21
5.7853704987
  0
LINE
  5
2DB
100
AcDbEntity
  8
0
100
AcDbLine
 62
7
  6
CONTINUOUS
 10
8.7126710627
 20
5.6578704987
 11
8.7126710627
 21
5.7853704987
  0
LINE
  5
2DC
100
AcDbEntity
  8
0
100
AcDbLine
 62
7
  6
CONTINUOUS
 10
8.7130447072
 20
5.6578704987
 11
8.7130447072
 21
5.7853704987
  0
LINE
  5
2DD
100
AcDbEntity
  8
0
100
AcDbLine
 62
7
  6
CONTINUOUS
 10
8.7150028215
 20
5.6578704987
 11
8.7150028215
 21
5.7853704987
  0
LINE
  5
2DE
100
AcDbEntity
  8
0
100
AcDbLine
 62
7
  6
CONTINUOUS
 10
8.7155244891
 20
5.6578704987
 11
8.7155244891
 21
5.7853704987
  0
LINE
  5
2DF
100
AcDbEntity
  8
0
100
AcDbLine
 62
7
  6
CONTINUOUS
 10
8.7181269519
 20
5.6578704987
 11
8.7181269519
 21
5.7853704987
  0
LINE
  5
2E0
100
AcDbEntity
  8
0
100
AcDbLine
 62
7
  6
CONTINUOUS
 10
8.7187952128
 20
5.6578704987
 11
8.7187952128
 21
5.7853704987
  0
LINE
  5
2E1
100
AcDbEntity
  8
0
100
AcDbLine
 62
7
  6
CONTINUOUS
 10
8.7220348908
 20
5.6578704987
 11
8.7220348908
 21
5.7853704987
  0
LINE
  5
2E2
100
AcDbEntity
  8
0
100
AcDbLine
 62
7
  6
CONTINUOUS
 10
8.7228503902
 20
5.6578704987
 11
8.7228503902
 21
5.7853704987
  0
LINE
  5
2E3
100
AcDbEntity
  8
0
100
AcDbLine
 62
7
  6
CONTINUOUS
 10
8.7265913558
 20
5.6144046155
 11
8.7265913558
 21
5.6578704987
  0
LINE
  5
2E4
100
AcDbEntity
  8
0
100
AcDbLine
 62
7
  6
CONTINUOUS
 10
8.7267131026
 20
5.6578704987
 11
8.7267131026
 21
5.7853704987
  0
LINE
  5
2E5
100
AcDbEntity
  8
0
100
AcDbLine
 62
7
  6
CONTINUOUS
 10
8.7276714827
 20
5.6578704987
 11
8.7276714827
 21
5.7853704987
  0
LINE
  5
2E6
100
AcDbEntity
  8
0
100
AcDbLine
 62
7
  6
CONTINUOUS
 10
8.7321572297
 20
5.6578704987
 11
8.7321572297
 21
5.7853704987
  0
LINE
  5
2E7
100
AcDbEntity
  8
0
100
AcDbLine
 62
7
  6
CONTINUOUS
 10
8.7332526997
 20
5.6578704987
 11
8.7332526997
 21
5.7853704987
  0
LINE
  5
2E8
100
AcDbEntity
  8
0
100
AcDbLine
 62
7
  6
CONTINUOUS
 10
8.7517622878
 20
6.4204654773
 11
8.7517591049
 21
6.4203518999
  0
LWPOLYLINE
  5
2E9
100
AcDbEntity
  8
0
100
AcDbPolyline
 62
7
  6
CONTINUOUS
 90
29
 70
0
 10
8.7517588318
 20
6.4203424682
 10
8.7517244319
 20
6.4193653551
 10
8.7516461622
 20
6.4178426995
 10
8.7515377704
 20
6.4163197672
 10
8.7513991676
 20
6.4147967867
 10
8.7512303699
 20
6.4132750263
 10
8.7510316009
 20
6.4117567846
 10
8.7508029792
 20
6.4102428015
 10
8.7505446423
 20
6.4087338028
 10
8.7502570554
 20
6.4072320372
 10
8.749940485
 20
6.4057381997
 10
8.7495952193
 20
6.4042529899
 10
8.7492219657
 20
6.4027786162
 10
8.7488211348
 20
6.4013157193
 10
8.7483931581
 20
6.3998649424
 10
8.7479389805
 20
6.3984284335
 10
8.7474590996
 20
6.3970066201
 10
8.7469541248
 20
6.3956002125
 10
8.7464253929
 20
6.3942116932
 10
8.7458735535
 20
6.3928414211
 10
8.745299359
 20
6.3914899728
 10
8.7447045565
 20
6.3901600301
 10
8.7440899806
 20
6.3888519157
 10
8.7434564948
 20
6.387565983
 10
8.7428061498
 20
6.386304802
 10
8.7421398944
 20
6.3850685274
 10
8.7414587253
 20
6.3838573843
 10
8.7407650117
 20
6.382673865
 10
8.7406010036
 20
6.3824009405
  0
LWPOLYLINE
  5
2EA
100
AcDbEntity
  8
0
100
AcDbPolyline
 62
7
  6
CONTINUOUS
 90
74
 70
0
 10
8.8115913887
 20
6.5287619695
 10
8.8115960315
 20
6.5283303934
 10
8.8116225407
 20
6.527631158
 10
8.811672591
 20
6.5269321659
 10
8.8117461613
 20
6.5262347241
 10
8.8118429634
 20
6.5255412055
 10
8.8119627799
 20
6.5248523121
 10
8.8121053603
 20
6.5241687932
 10
8.8122700005
 20
6.5234930161
 10
8.8124562741
 20
6.5228255241
 10
8.8126636869
 20
6.5221670296
 10
8.8128910518
 20
6.5215200119
 10
8.8131376866
 20
6.5208849546
 10
8.8134029044
 20
6.520262303
 10
8.813685139
 20
6.5196542763
 10
8.8139833196
 20
6.5190615614
 10
8.8142967871
 20
6.5184839701
 10
8.814624386
 20
6.517922223
 10
8.8149650029
 20
6.5173768168
 10
8.8153180256
 20
6.516847409
 10
8.8156831038
 20
6.5163333819
 10
8.816059614
 20
6.5158346085
 10
8.8164467576
 20
6.5153511968
 10
8.8168440632
 20
6.5148828459
 10
8.8172511959
 20
6.5144291533
 10
8.8176673108
 20
6.5139903042
 10
8.818091219
 20
6.5135667567
 10
8.8185225032
 20
6.5131581318
 10
8.8189605309
 20
6.5127642728
 10
8.8194037664
 20
6.5123857607
 10
8.8198518138
 20
6.5120221098
 10
8.8203041878
 20
6.5116729325
 10
8.8207591891
 20
6.5113387209
 10
8.8212165756
 20
6.5110188109
 10
8.821675935
 20
6.5107126935
 10
8.8221352638
 20
6.5104208627
 10
8.8225939645
 20
6.5101428109
 10
8.8230521678
 20
6.5098776232
 10
8.8235089193
 20
6.5096250477
 10
8.8239635558
 20
6.5093846457
 10
8.8244165199
 20
6.5091554268
 10
8.824868548
 20
6.5089363514
 10
8.8253194174
 20
6.5087269179
 10
8.8257694509
 20
6.5085264053
 10
8.8262203
 20
6.5083335923
 10
8.8266721845
 20
6.5081479716
 10
8.827125287
 20
6.5079690824
 10
8.8275812929
 20
6.5077959319
 10
8.8280406104
 20
6.5076280946
 10
8.8285034471
 20
6.5074652436
 10
8.8289712289
 20
6.5073066638
 10
8.8294444146
 20
6.5071520236
 10
8.829923279
 20
6.5070010708
 10
8.8304089567
 20
6.5068533096
 10
8.8309018559
 20
6.5067085024
 10
8.8314023369
 20
6.5065664401
 10
8.8319114076
 20
6.5064267516
 10
8.83242939
 20
6.50628928
 10
8.8329567221
 20
6.5061538477
 10
8.8334945317
 20
6.5060201206
 10
8.8340432005
 20
6.5058879744
 10
8.8346031149
 20
6.5057572913
 10
8.8351753791
 20
6.5056278016
 10
8.8357604182
 20
6.5054994073
 10
8.8363585805
 20
6.5053720326
 10
8.8369708296
 20
6.505245481
 10
8.8375975875
 20
6.5051196823
 10
8.8382392029
 20
6.5049945858
 10
8.8388965006
 20
6.5048700554
 10
8.8395699068
 20
6.5047460408
 10
8.8402597567
 20
6.5046225123
 10
8.8409667045
 20
6.5044993878
 10
8.8416910714
 20
6.5043766493
 10
8.8431940755
 20
6.504132148
  0
LINE
  5
2EB
100
AcDbEntity
  8
0
100
AcDbLine
 62
7
  6
CONTINUOUS
 10
8.7383438851
 20
5.6578704987
 11
8.7383438851
 21
5.7853704987
  0
LINE
  5
2EC
100
AcDbEntity
  8
0
100
AcDbLine
 62
7
  6
CONTINUOUS
 10
8.7395762666
 20
5.6578704987
 11
8.7395762666
 21
5.7853704987
  0
LINE
  5
2ED
100
AcDbEntity
  8
0
100
AcDbLine
 62
7
  6
CONTINUOUS
 10
8.7452589358
 20
5.6578704987
 11
8.7452589358
 21
5.7853704987
  0
LINE
  5
2EE
100
AcDbEntity
  8
0
100
AcDbLine
 62
7
  6
CONTINUOUS
 10
8.746624851
 20
5.6578704987
 11
8.746624851
 21
5.7853704987
  0
LINE
  5
2EF
100
AcDbEntity
  8
0
100
AcDbLine
 62
7
  6
CONTINUOUS
 10
8.7483413558
 20
5.7953704987
 11
8.7483413558
 21
5.9026150543
  0
LINE
  5
2F0
100
AcDbEntity
  8
0
100
AcDbLine
 62
7
  6
CONTINUOUS
 10
8.7528834282
 20
5.6578704987
 11
8.7528834282
 21
5.7853704987
  0
LINE
  5
2F1
100
AcDbEntity
  8
0
100
AcDbLine
 62
7
  6
CONTINUOUS
 10
8.7543791332
 20
5.6578704987
 11
8.7543791332
 21
5.7853704987
  0
LINE
  5
2F2
100
AcDbEntity
  8
0
100
AcDbLine
 62
7
  6
CONTINUOUS
 10
8.761196464
 20
5.6578704987
 11
8.761196464
 21
5.7853704987
  0
LINE
  5
2F3
100
AcDbEntity
  8
0
100
AcDbLine
 62
7
  6
CONTINUOUS
 10
8.762822753
 20
5.6578704987
 11
8.762822753
 21
5.7853704987
  0
LINE
  5
2F4
100
AcDbEntity
  8
0
100
AcDbLine
 62
7
  6
CONTINUOUS
 10
8.7701700686
 20
5.6578704987
 11
8.7701700686
 21
5.7853704987
  0
LINE
  5
2F5
100
AcDbEntity
  8
0
100
AcDbLine
 62
7
  6
CONTINUOUS
 10
8.7719178991
 20
5.6578704987
 11
8.7719178991
 21
5.7853704987
  0
LINE
  5
2F6
100
AcDbEntity
  8
0
100
AcDbLine
 62
7
  6
CONTINUOUS
 10
8.7797951996
 20
5.6578704987
 11
8.7797951996
 21
5.7853704987
  0
LINE
  5
2F7
100
AcDbEntity
  8
0
100
AcDbLine
 62
7
  6
CONTINUOUS
 10
8.7816543103
 20
5.6578704987
 11
8.7816543103
 21
5.7853704987
  0
LINE
  5
2F8
100
AcDbEntity
  8
0
100
AcDbLine
 62
7
  6
CONTINUOUS
 10
8.7900299214
 20
5.6578704987
 11
8.7900299214
 21
5.7853704987
  0
LINE
  5
2F9
100
AcDbEntity
  8
0
100
AcDbLine
 62
7
  6
CONTINUOUS
 10
8.792000406
 20
5.6578704987
 11
8.792000406
 21
5.7853704987
  0
LINE
  5
2FA
100
AcDbEntity
  8
0
100
AcDbLine
 62
7
  6
CONTINUOUS
 10
8.8008513707
 20
5.6578704987
 11
8.8008513707
 21
5.7853704987
  0
LINE
  5
2FB
100
AcDbEntity
  8
0
100
AcDbLine
 62
7
  6
CONTINUOUS
 10
8.8029278282
 20
5.6578704987
 11
8.8029278282
 21
5.7853704987
  0
LINE
  5
2FC
100
AcDbEntity
  8
0
100
AcDbLine
 62
7
  6
CONTINUOUS
 10
8.8115913574
 20
6.5287619695
 11
8.8115913558
 21
6.8229571479
  0
LINE
  5
2FD
100
AcDbEntity
  8
0
100
AcDbLine
 62
7
  6
CONTINUOUS
 10
8.8122298867
 20
5.6578704987
 11
8.8122298867
 21
5.7853704987
  0
LINE
  5
2FE
100
AcDbEntity
  8
0
100
AcDbLine
 62
7
  6
CONTINUOUS
 10
8.8144066257
 20
5.6578704987
 11
8.8144066257
 21
5.7853704987
  0
LINE
  5
2FF
100
AcDbEntity
  8
0
100
AcDbLine
 62
7
  6
CONTINUOUS
 10
8.8239643543
 20
5.7950594699
 11
8.8239643543
 21
5.6578704987
  0
LINE
  5
300
100
AcDbEntity
  8
0
100
AcDbLine
 62
7
  6
CONTINUOUS
 10
8.8241342817
 20
5.6578704987
 11
8.8241342817
 21
5.7853704987
  0
LINE
  5
301
100
AcDbEntity
  8
0
100
AcDbLine
 62
7
  6
CONTINUOUS
 10
8.8264121676
 20
5.6578704987
 11
8.8264121676
 21
5.7853704987
  0
LINE
  5
302
100
AcDbEntity
  8
0
100
AcDbLine
 62
7
  6
CONTINUOUS
 10
8.8315913558
 20
6.5735648444
 11
8.8315913558
 21
6.8418687086
  0
LINE
  5
303
100
AcDbEntity
  8
0
100
AcDbLine
 62
7
  6
CONTINUOUS
 10
8.8358466187
 20
5.7950568066
 11
8.8358466187
 21
5.6578704987
  0
LINE
  5
304
100
AcDbEntity
  8
0
100
AcDbLine
 62
7
  6
CONTINUOUS
 10
8.83652488
 20
5.6578704987
 11
8.83652488
 21
5.7853704987
  0
LINE
  5
305
100
AcDbEntity
  8
0
100
AcDbLine
 62
7
  6
CONTINUOUS
 10
8.8378413558
 20
6.4947799475
 11
8.8378413558
 21
6.5050721545
  0
LINE
  5
306
100
AcDbEntity
  8
0
100
AcDbLine
 62
7
  6
CONTINUOUS
 10
8.8388910711
 20
5.6578704987
 11
8.8388910711
 21
5.7853704987
  0
LINE
  5
307
100
AcDbEntity
  8
0
100
AcDbLine
 62
7
  6
CONTINUOUS
 10
8.8482022448
 20
5.7950594699
 11
8.8482022448
 21
5.6578704987
  0
LINE
  5
308
100
AcDbEntity
  8
0
100
AcDbLine
 62
7
  6
CONTINUOUS
 10
8.84938884
 20
5.6578704987
 11
8.84938884
 21
5.7853704987
  0
LINE
  5
309
100
AcDbEntity
  8
0
100
AcDbLine
 62
7
  6
CONTINUOUS
 10
8.8518296087
 20
5.6578704987
 11
8.8518296087
 21
5.7853704987
  0
LINE
  5
30A
100
AcDbEntity
  8
0
100
AcDbLine
 62
7
  6
CONTINUOUS
 10
8.8609790365
 20
5.7950594699
 11
8.8609790365
 21
5.6578704987
  0
LINE
  5
30B
100
AcDbEntity
  8
0
100
AcDbLine
 62
7
  6
CONTINUOUS
 10
8.8626697824
 20
5.6578704987
 11
8.8626697824
 21
5.7853704987
  0
LINE
  5
30C
100
AcDbEntity
  8
0
100
AcDbLine
 62
7
  6
CONTINUOUS
 10
8.8651854853
 20
5.6578704987
 11
8.8651854853
 21
5.7853704987
  0
LINE
  5
30D
100
AcDbEntity
  8
0
100
AcDbLine
 62
7
  6
CONTINUOUS
 10
8.874148089
 20
5.7950594699
 11
8.874148089
 21
5.6578704987
  0
LINE
  5
30E
100
AcDbEntity
  8
0
100
AcDbLine
 62
7
  6
CONTINUOUS
 10
8.8763383514
 20
5.6578704987
 11
8.8763383514
 21
5.7853704987
  0
LINE
  5
30F
100
AcDbEntity
  8
0
100
AcDbLine
 62
7
  6
CONTINUOUS
 10
8.8789220931
 20
5.6578704987
 11
8.8789220931
 21
5.7853704987
  0
LINE
  5
310
100
AcDbEntity
  8
0
100
AcDbLine
 62
7
  6
CONTINUOUS
 10
8.8876733071
 20
5.7950594699
 11
8.8876733071
 21
5.6578704987
  0
LINE
  5
311
100
AcDbEntity
  8
0
100
AcDbLine
 62
7
  6
CONTINUOUS
 10
8.8903570826
 20
5.6578704987
 11
8.8903570826
 21
5.7853704987
  0
LINE
  5
312
100
AcDbEntity
  8
0
100
AcDbLine
 62
7
  6
CONTINUOUS
 10
8.8915913558
 20
6.8637460807
 11
8.8915913558
 21
6.8626564522
  0
LINE
  5
313
100
AcDbEntity
  8
0
100
AcDbLine
 62
7
  6
CONTINUOUS
 10
8.8930017813
 20
5.6578704987
 11
8.8930017813
 21
5.7853704987
  0
LINE
  5
314
100
AcDbEntity
  8
0
100
AcDbLine
 62
7
  6
CONTINUOUS
 10
8.9015176189
 20
5.7950594699
 11
8.9015176189
 21
5.6578704987
  0
LINE
  5
315
100
AcDbEntity
  8
0
100
AcDbLine
 62
7
  6
CONTINUOUS
 10
8.9046875515
 20
5.6578704987
 11
8.9046875515
 21
5.7853704987
  0
LINE
  5
316
100
AcDbEntity
  8
0
100
AcDbLine
 62
7
  6
CONTINUOUS
 10
8.9073940591
 20
5.6578704987
 11
8.9073940591
 21
5.7853704987
  0
LINE
  5
317
100
AcDbEntity
  8
0
100
AcDbLine
 62
7
  6
CONTINUOUS
 10
8.9156398631
 20
5.7950568066
 11
8.9156398631
 21
5.6578704987
  0
LINE
  5
318
100
AcDbEntity
  8
0
100
AcDbLine
 62
7
  6
CONTINUOUS
 10
8.9192822656
 20
5.6578704987
 11
8.9192822656
 21
5.7853704987
  0
LINE
  5
319
100
AcDbEntity
  8
0
100
AcDbLine
 62
7
  6
CONTINUOUS
 10
8.9220351979
 20
5.6578704987
 11
8.9220351979
 21
5.785370677
  0
LINE
  5
31A
100
AcDbEntity
  8
0
100
AcDbLine
 62
7
  6
CONTINUOUS
 10
8.9300109681
 20
5.7950594699
 11
8.9300109681
 21
5.6578704987
  0
LINE
  5
31B
100
AcDbEntity
  8
0
100
AcDbLine
 62
7
  6
CONTINUOUS
 10
8.9341258405
 20
5.6578704987
 11
8.9341258405
 21
5.7853709437
  0
LINE
  5
31C
100
AcDbEntity
  8
0
100
AcDbLine
 62
7
  6
CONTINUOUS
 10
8.9369093478
 20
5.6578704987
 11
8.9369093478
 21
5.7853707795
  0
LINE
  5
31D
100
AcDbEntity
  8
0
100
AcDbLine
 62
7
  6
CONTINUOUS
 10
8.9445819072
 20
5.7950594699
 11
8.9445819072
 21
5.6578704987
  0
LINE
  5
31E
100
AcDbEntity
  8
0
100
AcDbLine
 62
7
  6
CONTINUOUS
 10
8.9491529723
 20
5.6578704987
 11
8.9491529723
 21
5.7853705187
  0
LINE
  5
31F
100
AcDbEntity
  8
0
100
AcDbLine
 62
7
  6
CONTINUOUS
 10
8.951967639
 20
5.6578704987
 11
8.951967639
 21
5.7853710029
  0
LINE
  5
320
100
AcDbEntity
  8
0
100
AcDbLine
 62
7
  6
CONTINUOUS
 10
8.9593159575
 20
5.7950594699
 11
8.9593159575
 21
5.6578704987
  0
LINE
  5
321
100
AcDbEntity
  8
0
100
AcDbLine
 62
7
  6
CONTINUOUS
 10
8.9643306863
 20
5.6578704987
 11
8.9643306863
 21
5.7853708158
  0
LINE
  5
322
100
AcDbEntity
  8
0
100
AcDbLine
 62
7
  6
CONTINUOUS
 10
8.9671687976
 20
5.6578704987
 11
8.9671687976
 21
5.7853707363
  0
LINE
  5
323
100
AcDbEntity
  8
0
100
AcDbLine
 62
7
  6
CONTINUOUS
 10
8.9741727341
 20
5.7950594699
 11
8.9741727341
 21
5.6578704987
  0
LINE
  5
324
100
AcDbEntity
  8
0
100
AcDbLine
 62
7
  6
CONTINUOUS
 10
8.9796173816
 20
5.6578704987
 11
8.9796173816
 21
5.7853709438
  0
LINE
  5
325
100
AcDbEntity
  8
0
100
AcDbLine
 62
7
  6
CONTINUOUS
 10
8.9824711584
 20
5.6578704987
 11
8.9824711584
 21
5.7853709177
  0
LINE
  5
326
100
AcDbEntity
  8
0
100
AcDbLine
 62
7
  6
CONTINUOUS
 10
8.9891115156
 20
5.7950594699
 11
8.9891115156
 21
5.6578704987
  0
LINE
  5
327
100
AcDbEntity
  8
0
100
AcDbLine
 62
7
  6
CONTINUOUS
 10
8.9949711584
 20
5.6578704987
 11
8.9949711584
 21
5.7853705053
  0
LINE
  5
328
100
AcDbEntity
  8
0
100
AcDbLine
 62
7
  6
CONTINUOUS
 10
8.9978413558
 20
5.6578704987
 11
8.9978413558
 21
5.7853705119
  0
LINE
  5
329
100
AcDbEntity
  8
0
100
AcDbLine
 62
7
  6
CONTINUOUS
 10
9.0040913558
 20
5.7950568066
 11
9.0040913558
 21
5.6578704987
  0
LINE
  5
32A
100
AcDbEntity
  8
0
100
AcDbLine
 62
7
  6
CONTINUOUS
 10
9.0103413558
 20
5.6578704987
 11
9.0103413558
 21
5.7853705186
  0
LINE
  5
32B
100
AcDbEntity
  8
0
100
AcDbLine
 62
7
  6
CONTINUOUS
 10
9.0132115532
 20
5.6578704987
 11
9.0132115532
 21
5.7853704987
  0
LINE
  5
32C
100
AcDbEntity
  8
0
100
AcDbLine
 62
7
  6
CONTINUOUS
 10
9.0190711959
 20
5.7950594699
 11
9.0190711959
 21
5.6578704987
  0
LINE
  5
32D
100
AcDbEntity
  8
0
100
AcDbLine
 62
7
  6
CONTINUOUS
 10
9.0257115532
 20
5.6578704987
 11
9.0257115532
 21
5.7853704987
  0
LINE
  5
32E
100
AcDbEntity
  8
0
100
AcDbLine
 62
7
  6
CONTINUOUS
 10
9.0285653299
 20
5.6578704987
 11
9.0285653299
 21
5.7853704987
  0
LINE
  5
32F
100
AcDbEntity
  8
0
100
AcDbLine
 62
7
  6
CONTINUOUS
 10
9.0340099774
 20
5.7950594699
 11
9.0340099774
 21
5.6578704987
  0
LINE
  5
330
100
AcDbEntity
  8
0
100
AcDbLine
 62
7
  6
CONTINUOUS
 10
9.041013914
 20
5.6578704987
 11
9.041013914
 21
5.7853704987
  0
LINE
  5
331
100
AcDbEntity
  8
0
100
AcDbLine
 62
7
  6
CONTINUOUS
 10
9.0438520252
 20
5.6578704987
 11
9.0438520252
 21
5.7853704987
  0
LINE
  5
332
100
AcDbEntity
  8
0
100
AcDbLine
 62
7
  6
CONTINUOUS
 10
9.048866754
 20
5.7950594699
 11
9.048866754
 21
5.6578704987
  0
LINE
  5
333
100
AcDbEntity
  8
0
100
AcDbLine
 62
7
  6
CONTINUOUS
 10
9.0562150726
 20
5.6578704987
 11
9.0562150726
 21
5.7853704987
  0
LINE
  5
334
100
AcDbEntity
  8
0
100
AcDbLine
 62
7
  6
CONTINUOUS
 10
9.0590297393
 20
5.6578704987
 11
9.0590297393
 21
5.7853704987
  0
LINE
  5
335
100
AcDbEntity
  8
0
100
AcDbLine
 62
7
  6
CONTINUOUS
 10
9.0636008043
 20
5.7950594699
 11
9.0636008043
 21
5.6578704987
  0
LINE
  5
336
100
AcDbEntity
  8
0
100
AcDbLine
 62
7
  6
CONTINUOUS
 10
9.0712733637
 20
5.6578704987
 11
9.0712733637
 21
5.7853704987
  0
LINE
  5
337
100
AcDbEntity
  8
0
100
AcDbLine
 62
7
  6
CONTINUOUS
 10
8.8115913558
 20
6.8229583371
 11
8.8115913568
 21
6.822964387
  0
LINE
  5
338
100
AcDbEntity
  8
0
100
AcDbLine
 62
7
  6
CONTINUOUS
 10
8.7776039059
 20
5.537566258
 11
8.7274517623
 21
5.6116003747
  0
LINE
  5
339
100
AcDbEntity
  8
0
100
AcDbLine
 62
7
  6
CONTINUOUS
 10
9.2564245823
 20
6.4203131244
 11
9.2564277406
 21
6.4202003551
  0
LWPOLYLINE
  5
33A
100
AcDbEntity
  8
0
100
AcDbPolyline
 62
7
  6
CONTINUOUS
 90
79
 70
0
 10
9.1965912242
 20
6.8229642143
 10
9.1965892195
 20
6.8232863101
 10
9.1965646857
 20
6.8241572777
 10
9.1965121724
 20
6.8250285733
 10
9.1964316491
 20
6.8258990925
 10
9.1963230598
 20
6.8267684455
 10
9.1961862061
 20
6.8276369583
 10
9.196020992
 20
6.8285039193
 10
9.1958273604
 20
6.8293685533
 10
9.1956050081
 20
6.8302310986
 10
9.1953538043
 20
6.8310908942
 10
9.1950736811
 20
6.8319471432
 10
9.194764281
 20
6.8327999055
 10
9.1944253951
 20
6.8336486774
 10
9.1940569832
 20
6.8344925708
 10
9.1936588401
 20
6.8353311395
 10
9.1932307665
 20
6.8361639038
 10
9.1927727186
 20
6.8369901125
 10
9.1922846827
 20
6.8378090624
 10
9.1917665968
 20
6.8386201931
 10
9.1912182899
 20
6.839423135
 10
9.1906394839
 20
6.8402176547
 10
9.1900299544
 20
6.8410034185
 10
9.1893894631
 20
6.8417801037
 10
9.1887175166
 20
6.8425476674
 10
9.1880137652
 20
6.8433058558
 10
9.187277722
 20
6.8440545395
 10
9.1865084019
 20
6.8447940203
 10
9.1857054017
 20
6.8455239613
 10
9.1848677341
 20
6.8462445244
 10
9.1839930871
 20
6.8469568423
 10
9.1830807507
 20
6.8476605741
 10
9.1821292789
 20
6.8483559027
 10
9.181134598
 20
6.8490446718
 10
9.180092701
 20
6.8497282156
 10
9.1790041543
 20
6.8504047015
 10
9.177871608
 20
6.8510713374
 10
9.1766908739
 20
6.8517294985
 10
9.1754628412
 20
6.8523775604
 10
9.1741991014
 20
6.8530089256
 10
9.1728994791
 20
6.8536237709
 10
9.1715630554
 20
6.8542225686
 10
9.1702026226
 20
6.854800012
 10
9.1688200377
 20
6.8553561608
 10
9.1674143615
 20
6.8558921518
 10
9.1659962431
 20
6.8564048587
 10
9.1645705473
 20
6.8568937692
 10
9.1631348063
 20
6.857360918
 10
9.1616898166
 20
6.8578071046
 10
9.1602375439
 20
6.8582327161
 10
9.1587784905
 20
6.8586385296
 10
9.1573114432
 20
6.8590256777
 10
9.1558373349
 20
6.8593946044
 10
9.1543573274
 20
6.8597456648
 10
9.1528705826
 20
6.8600796314
 10
9.1513781764
 20
6.8603968068
 10
9.149881114
 20
6.8606975437
 10
9.1483784595
 20
6.8609825301
 10
9.1468712035
 20
6.8612520137
 10
9.1453602682
 20
6.8615062369
 10
9.1438445821
 20
6.8617457312
 10
9.142324942
 20
6.8619706688
 10
9.1408022055
 20
6.8621812011
 10
9.1392753755
 20
6.8623777201
 10
9.1377452757
 20
6.8625603857
 10
9.1362127214
 20
6.8627293572
 10
9.1346767268
 20
6.862884958
 10
9.1331380857
 20
6.8630272833
 10
9.131597474
 20
6.8631564314
 10
9.1300536909
 20
6.8632726243
 10
9.1285074829
 20
6.863375891
 10
9.1269594425
 20
6.8634662698
 10
9.1254082281
 20
6.8635439358
 10
9.1238546946
 20
6.8636089398
 10
9.1222996791
 20
6.8636613266
 10
9.1207418697
 20
6.8637011802
 10
9.1191813805
 20
6.8637284897
 10
9.1176197543
 20
6.8637432066
 10
9.1165913546
 20
6.8637460054
  0
LINE
  5
33B
100
AcDbEntity
  8
0
100
AcDbLine
 62
7
  6
CONTINUOUS
 10
9.074056871
 20
5.6578704987
 11
9.074056871
 21
5.7853704987
  0
LINE
  5
33C
100
AcDbEntity
  8
0
100
AcDbLine
 62
7
  6
CONTINUOUS
 10
9.0781717434
 20
5.7950594699
 11
9.0781717434
 21
5.6578704987
  0
LINE
  5
33D
100
AcDbEntity
  8
0
100
AcDbLine
 62
7
  6
CONTINUOUS
 10
9.0861475137
 20
5.6578704987
 11
9.0861475137
 21
5.7853704987
  0
LINE
  5
33E
100
AcDbEntity
  8
0
100
AcDbLine
 62
7
  6
CONTINUOUS
 10
9.088900446
 20
5.6578704987
 11
9.088900446
 21
5.7853704987
  0
LINE
  5
33F
100
AcDbEntity
  8
0
100
AcDbLine
 62
7
  6
CONTINUOUS
 10
9.0925428485
 20
5.7950568066
 11
9.0925428485
 21
5.6578704987
  0
LINE
  5
340
100
AcDbEntity
  8
0
100
AcDbLine
 62
7
  6
CONTINUOUS
 10
9.1007886524
 20
5.6578704987
 11
9.1007886524
 21
5.7853704987
  0
LINE
  5
341
100
AcDbEntity
  8
0
100
AcDbLine
 62
7
  6
CONTINUOUS
 10
9.10349516
 20
5.6578704987
 11
9.10349516
 21
5.7853704987
  0
LINE
  5
342
100
AcDbEntity
  8
0
100
AcDbLine
 62
7
  6
CONTINUOUS
 10
9.1066650926
 20
5.7950594699
 11
9.1066650926
 21
5.6578704987
  0
LINE
  5
343
100
AcDbEntity
  8
0
100
AcDbLine
 62
7
  6
CONTINUOUS
 10
9.1151809303
 20
5.6578704987
 11
9.1151809303
 21
5.7853704987
  0
LINE
  5
344
100
AcDbEntity
  8
0
100
AcDbLine
 62
7
  6
CONTINUOUS
 10
9.1165913546
 20
6.8637460807
 11
9.1165913558
 21
6.8626564522
  0
LINE
  5
345
100
AcDbEntity
  8
0
100
AcDbLine
 62
7
  6
CONTINUOUS
 10
9.1178256289
 20
5.6578704987
 11
9.1178256289
 21
5.7853704987
  0
LINE
  5
346
100
AcDbEntity
  8
0
100
AcDbLine
 62
7
  6
CONTINUOUS
 10
9.1205094045
 20
5.7950594699
 11
9.1205094045
 21
5.6578704987
  0
LINE
  5
347
100
AcDbEntity
  8
0
100
AcDbLine
 62
7
  6
CONTINUOUS
 10
9.1292606184
 20
5.6578704987
 11
9.1292606184
 21
5.7853704987
  0
LINE
  5
348
100
AcDbEntity
  8
0
100
AcDbLine
 62
7
  6
CONTINUOUS
 10
9.1318443601
 20
5.6578704987
 11
9.1318443601
 21
5.7853704987
  0
LINE
  5
349
100
AcDbEntity
  8
0
100
AcDbLine
 62
7
  6
CONTINUOUS
 10
9.1340346225
 20
5.7950594699
 11
9.1340346225
 21
5.6578704987
  0
LINE
  5
34A
100
AcDbEntity
  8
0
100
AcDbLine
 62
7
  6
CONTINUOUS
 10
9.1429972263
 20
5.6578704987
 11
9.1429972263
 21
5.7853704987
  0
LINE
  5
34B
100
AcDbEntity
  8
0
100
AcDbLine
 62
7
  6
CONTINUOUS
 10
9.1455129292
 20
5.6578704987
 11
9.1455129292
 21
5.7853704987
  0
LINE
  5
34C
100
AcDbEntity
  8
0
100
AcDbLine
 62
7
  6
CONTINUOUS
 10
9.1472036751
 20
5.7950594699
 11
9.1472036751
 21
5.6578704987
  0
LINE
  5
34D
100
AcDbEntity
  8
0
100
AcDbLine
 62
7
  6
CONTINUOUS
 10
9.1563531028
 20
5.6578704987
 11
9.1563531028
 21
5.7853704987
  0
LINE
  5
34E
100
AcDbEntity
  8
0
100
AcDbLine
 62
7
  6
CONTINUOUS
 10
9.1587938716
 20
5.6578704987
 11
9.1587938716
 21
5.7853704987
  0
LINE
  5
34F
100
AcDbEntity
  8
0
100
AcDbLine
 62
7
  6
CONTINUOUS
 10
9.1599804668
 20
5.7950594699
 11
9.1599804668
 21
5.6578704987
  0
LINE
  5
350
100
AcDbEntity
  8
0
100
AcDbLine
 62
7
  6
CONTINUOUS
 10
9.1692916405
 20
5.6578704987
 11
9.1692916405
 21
5.7853704987
  0
LINE
  5
351
100
AcDbEntity
  8
0
100
AcDbLine
 62
7
  6
CONTINUOUS
 10
9.1703413558
 20
6.4947799475
 11
9.1703413558
 21
6.5050720841
  0
LINE
  5
352
100
AcDbEntity
  8
0
100
AcDbLine
 62
7
  6
CONTINUOUS
 10
9.1716578315
 20
5.6578704987
 11
9.1716578315
 21
5.7853704987
  0
LINE
  5
353
100
AcDbEntity
  8
0
100
AcDbLine
 62
7
  6
CONTINUOUS
 10
9.1723360928
 20
5.7950568066
 11
9.1723360928
 21
5.6578704987
  0
LINE
  5
354
100
AcDbEntity
  8
0
100
AcDbLine
 62
7
  6
CONTINUOUS
 10
9.1765913558
 20
6.8418687086
 11
9.1765913558
 21
6.5735648444
  0
LINE
  5
355
100
AcDbEntity
  8
0
100
AcDbLine
 62
7
  6
CONTINUOUS
 10
9.181770544
 20
5.6578704987
 11
9.181770544
 21
5.7853704987
  0
LINE
  5
356
100
AcDbEntity
  8
0
100
AcDbLine
 62
7
  6
CONTINUOUS
 10
9.1840484299
 20
5.6578704987
 11
9.1840484299
 21
5.7853704987
  0
LINE
  5
357
100
AcDbEntity
  8
0
100
AcDbLine
 62
7
  6
CONTINUOUS
 10
9.1842183573
 20
5.7950594699
 11
9.1842183573
 21
5.6578704987
  0
LINE
  5
358
100
AcDbEntity
  8
0
100
AcDbLine
 62
7
  6
CONTINUOUS
 10
9.1937760858
 20
5.6578704987
 11
9.1937760858
 21
5.7853704987
  0
LINE
  5
359
100
AcDbEntity
  8
0
100
AcDbLine
 62
7
  6
CONTINUOUS
 10
9.1959528248
 20
5.6578704987
 11
9.1959528248
 21
5.7853704987
  0
LINE
  5
35A
100
AcDbEntity
  8
0
100
AcDbLine
 62
7
  6
CONTINUOUS
 10
9.1965913558
 20
6.5287702676
 11
9.1965913548
 21
6.8229642143
  0
LINE
  5
35B
100
AcDbEntity
  8
0
100
AcDbLine
 62
7
  6
CONTINUOUS
 10
9.2052548833
 20
5.6578704987
 11
9.2052548833
 21
5.7853704987
  0
LINE
  5
35C
100
AcDbEntity
  8
0
100
AcDbLine
 62
7
  6
CONTINUOUS
 10
9.2073313408
 20
5.6578704987
 11
9.2073313408
 21
5.7853704987
  0
LINE
  5
35D
100
AcDbEntity
  8
0
100
AcDbLine
 62
7
  6
CONTINUOUS
 10
9.2161823055
 20
5.6578704987
 11
9.2161823055
 21
5.7853704987
  0
LINE
  5
35E
100
AcDbEntity
  8
0
100
AcDbLine
 62
7
  6
CONTINUOUS
 10
9.2181527902
 20
5.6578704987
 11
9.2181527902
 21
5.7853704987
  0
LINE
  5
35F
100
AcDbEntity
  8
0
100
AcDbLine
 62
7
  6
CONTINUOUS
 10
9.2265284012
 20
5.6578704987
 11
9.2265284012
 21
5.7853704987
  0
LINE
  5
360
100
AcDbEntity
  8
0
100
AcDbLine
 62
7
  6
CONTINUOUS
 10
9.228387512
 20
5.6578704987
 11
9.228387512
 21
5.7853704987
  0
LINE
  5
361
100
AcDbEntity
  8
0
100
AcDbLine
 62
7
  6
CONTINUOUS
 10
9.2362648124
 20
5.6578704987
 11
9.2362648124
 21
5.7853704987
  0
LINE
  5
362
100
AcDbEntity
  8
0
100
AcDbLine
 62
7
  6
CONTINUOUS
 10
9.2380126429
 20
5.6578704987
 11
9.2380126429
 21
5.7853704987
  0
LINE
  5
363
100
AcDbEntity
  8
0
100
AcDbLine
 62
7
  6
CONTINUOUS
 10
9.2453599586
 20
5.6578704987
 11
9.2453599586
 21
5.7853704987
  0
LINE
  5
364
100
AcDbEntity
  8
0
100
AcDbLine
 62
7
  6
CONTINUOUS
 10
9.2469862475
 20
5.6578704987
 11
9.2469862475
 21
5.7853704987
  0
LINE
  5
365
100
AcDbEntity
  8
0
100
AcDbLine
 62
7
  6
CONTINUOUS
 10
9.2538035784
 20
5.6578704987
 11
9.2538035784
 21
5.7853704987
  0
LINE
  5
366
100
AcDbEntity
  8
0
100
AcDbLine
 62
7
  6
CONTINUOUS
 10
9.2552992834
 20
5.6578704987
 11
9.2552992834
 21
5.7853704987
  0
LINE
  5
367
100
AcDbEntity
  8
0
100
AcDbLine
 62
7
  6
CONTINUOUS
 10
9.2598413558
 20
5.7953704987
 11
9.2598413558
 21
5.9022750759
  0
LINE
  5
368
100
AcDbEntity
  8
0
100
AcDbLine
 62
7
  6
CONTINUOUS
 10
9.2615578605
 20
5.6578704987
 11
9.2615578605
 21
5.7853704987
  0
LINE
  5
369
100
AcDbEntity
  8
0
100
AcDbLine
 62
7
  6
CONTINUOUS
 10
9.2629237758
 20
5.6578704987
 11
9.2629237758
 21
5.7853704987
  0
LINE
  5
36A
100
AcDbEntity
  8
0
100
AcDbLine
 62
7
  6
CONTINUOUS
 10
9.2686064449
 20
5.6578704987
 11
9.2686064449
 21
5.7853704987
  0
LINE
  5
36B
100
AcDbEntity
  8
0
100
AcDbLine
 62
7
  6
CONTINUOUS
 10
9.2698388265
 20
5.6578704987
 11
9.2698388265
 21
5.7853704987
  0
LINE
  5
36C
100
AcDbEntity
  8
0
100
AcDbLine
 62
7
  6
CONTINUOUS
 10
9.2749300118
 20
5.6578704987
 11
9.2749300118
 21
5.7853704987
  0
LINE
  5
36D
100
AcDbEntity
  8
0
100
AcDbLine
 62
7
  6
CONTINUOUS
 10
9.2760254819
 20
5.6578704987
 11
9.2760254819
 21
5.7853704987
  0
LINE
  5
36E
100
AcDbEntity
  8
0
100
AcDbLine
 62
7
  6
CONTINUOUS
 10
9.2805112288
 20
5.6578704987
 11
9.2805112288
 21
5.7853704987
  0
LINE
  5
36F
100
AcDbEntity
  8
0
100
AcDbLine
 62
7
  6
CONTINUOUS
 10
9.2814696089
 20
5.6578704987
 11
9.2814696089
 21
5.7853704987
  0
LINE
  5
370
100
AcDbEntity
  8
0
100
AcDbLine
 62
7
  6
CONTINUOUS
 10
9.2815913558
 20
5.6144046155
 11
9.2815913558
 21
5.6578704987
  0
LINE
  5
371
100
AcDbEntity
  8
0
100
AcDbLine
 62
7
  6
CONTINUOUS
 10
9.2853323213
 20
5.6578704987
 11
9.2853323213
 21
5.7853704987
  0
LINE
  5
372
100
AcDbEntity
  8
0
100
AcDbLine
 62
7
  6
CONTINUOUS
 10
9.2861478208
 20
5.6578704987
 11
9.2861478208
 21
5.7853704987
  0
LINE
  5
373
100
AcDbEntity
  8
0
100
AcDbLine
 62
7
  6
CONTINUOUS
 10
9.2893874987
 20
5.6578704987
 11
9.2893874987
 21
5.7853704987
  0
LINE
  5
374
100
AcDbEntity
  8
0
100
AcDbLine
 62
7
  6
CONTINUOUS
 10
9.2900557597
 20
5.6578704987
 11
9.2900557597
 21
5.7853704987
  0
LINE
  5
375
100
AcDbEntity
  8
0
100
AcDbLine
 62
7
  6
CONTINUOUS
 10
9.2926582224
 20
5.6578704987
 11
9.2926582224
 21
5.7853704987
  0
LINE
  5
376
100
AcDbEntity
  8
0
100
AcDbLine
 62
7
  6
CONTINUOUS
 10
9.29317989
 20
5.6578704987
 11
9.29317989
 21
5.7853704987
  0
LINE
  5
377
100
AcDbEntity
  8
0
100
AcDbLine
 62
7
  6
CONTINUOUS
 10
9.2951380044
 20
5.6578704987
 11
9.2951380044
 21
5.7853704987
  0
LINE
  5
378
100
AcDbEntity
  8
0
100
AcDbLine
 62
7
  6
CONTINUOUS
 10
9.2955116488
 20
5.6578704987
 11
9.2955116488
 21
5.7853704987
  0
LINE
  5
379
100
AcDbEntity
  8
0
100
AcDbLine
 62
7
  6
CONTINUOUS
 10
9.2968200477
 20
5.6578704987
 11
9.2968200477
 21
5.7853704987
  0
LINE
  5
37A
100
AcDbEntity
  8
0
100
AcDbLine
 62
7
  6
CONTINUOUS
 10
9.2970446448
 20
5.6578704987
 11
9.2970446448
 21
5.7853704987
  0
LINE
  5
37B
100
AcDbEntity
  8
0
100
AcDbLine
 62
7
  6
CONTINUOUS
 10
9.2976997421
 20
5.6578704987
 11
9.2976997421
 21
5.7853704987
  0
LINE
  5
37C
100
AcDbEntity
  8
0
100
AcDbLine
 62
7
  6
CONTINUOUS
 10
9.2977748589
 20
5.6578704987
 11
9.2977748589
 21
5.7853704987
  0
LWPOLYLINE
  5
37D
100
AcDbEntity
  8
0
100
AcDbPolyline
 62
7
  6
CONTINUOUS
 90
38
 70
0
 10
9.2598413558
 20
5.902275144
 10
9.2598520604
 20
5.9039812694
 10
9.2598942076
 20
5.9060676
 10
9.2599686185
 20
5.9081618345
 10
9.2600756234
 20
5.910263813
 10
9.2602154693
 20
5.9123719862
 10
9.2603882122
 20
5.9144834136
 10
9.2605939721
 20
5.9165972191
 10
9.2608328459
 20
5.9187125412
 10
9.2611046257
 20
5.9208264618
 10
9.2614092606
 20
5.9229381059
 10
9.2617466786
 20
5.9250466263
 10
9.2621164135
 20
5.9271491665
 10
9.2625182502
 20
5.9292448913
 10
9.262951949
 20
5.93133297
 10
9.2634167854
 20
5.9334105904
 10
9.2639123824
 20
5.9354769629
 10
9.2644383399
 20
5.9375313065
 10
9.2649936822
 20
5.9395708772
 10
9.2655778919
 20
5.9415949961
 10
9.266190405
 20
5.9436029036
 10
9.2668299606
 20
5.9455918106
 10
9.2674959011
 20
5.9475611412
 10
9.2681875083
 20
5.9495102036
 10
9.2689032108
 20
5.9514361326
 10
9.2696421865
 20
5.9533383935
 10
9.2704035987
 20
5.9552164653
 10
9.2711856396
 20
5.9570676227
 10
9.2719873758
 20
5.9588914779
 10
9.2728078404
 20
5.9606876051
 10
9.2736449762
 20
5.9624533603
 10
9.2744977688
 20
5.9641885352
 10
9.2753651299
 20
5.9658927951
 10
9.2762447027
 20
5.96756347
 10
9.2771353391
 20
5.9692004106
 10
9.2780359156
 20
5.9708035271
 10
9.2789439448
 20
5.9723704228
 10
9.2799282786
 20
5.9740165289
  0
LWPOLYLINE
  5
37E
100
AcDbEntity
  8
0
100
AcDbPolyline
 62
7
  6
CONTINUOUS
 90
6
 70
0
 10
8.7246831377
 20
5.9795825687
 10
8.7251120395
 20
5.9789485661
 10
8.7259351681
 20
5.977709282
 10
8.726757509
 20
5.9764403936
 10
8.7275780454
 20
5.9751420703
 10
8.7283548291
 20
5.9738817871
  0
LINE
  5
37F
100
AcDbEntity
  8
0
100
AcDbLine
 62
7
  6
CONTINUOUS
 10
8.7246831457
 20
5.9795825444
 11
8.7246122513
 21
5.9796920593
  0
LINE
  5
380
100
AcDbEntity
  8
0
100
AcDbLine
 62
7
  6
CONTINUOUS
 10
8.7283578739
 20
5.9738767853
 11
8.7283548291
 21
5.9738817871
  0
LWPOLYLINE
  5
381
100
AcDbEntity
  8
0
100
AcDbPolyline
 62
7
  6
CONTINUOUS
 90
38
 70
0
 10
8.7283578739
 20
5.9738767853
 10
8.7292039723
 20
5.9724674965
 10
8.7301108594
 20
5.9709122715
 10
8.731010635
 20
5.9693205224
 10
8.7319007866
 20
5.9676946397
 10
8.7327801764
 20
5.9660347018
 10
8.7336476387
 20
5.9643408529
 10
8.7345007857
 20
5.9626157688
 10
8.7353385113
 20
5.9608597805
 10
8.736159785
 20
5.95907309
 10
8.7369625216
 20
5.957258346
 10
8.737745736
 20
5.9554159747
 10
8.7385084782
 20
5.9535463594
 10
8.7392489164
 20
5.9516522268
 10
8.7399661967
 20
5.9497340968
 10
8.7406594793
 20
5.9477925063
 10
8.7413271679
 20
5.9458303293
 10
8.7419685291
 20
5.9438482546
 10
8.7425828868
 20
5.9418468677
 10
8.7431689524
 20
5.9398289878
 10
8.7437261476
 20
5.9377953778
 10
8.74425394
 20
5.9357467254
 10
8.7447513289
 20
5.9336858135
 10
8.7452179025
 20
5.9316134315
 10
8.7456532718
 20
5.9295303773
 10
8.746056693
 20
5.9274395049
 10
8.7464279174
 20
5.9253416553
 10
8.7467667217
 20
5.9232376737
 10
8.7470726257
 20
5.9211304593
 10
8.7473455523
 20
5.9190208702
 10
8.7475854456
 20
5.9169097932
 10
8.7477920897
 20
5.9148001902
 10
8.7479655796
 20
5.9126929343
 10
8.7481060345
 20
5.9105889137
 10
8.7482135079
 20
5.9084911133
 10
8.7482882485
 20
5.906401105
 10
8.7483305902
 20
5.9043190491
 10
8.7483413558
 20
5.9026151217
  0
LINE
  5
382
100
AcDbEntity
  8
0
100
AcDbLine
 62
7
  6
CONTINUOUS
 10
9.2722897138
 20
6.3754763371
 11
9.2723426686
 21
6.3754072094
  0
LWPOLYLINE
  5
383
100
AcDbEntity
  8
0
100
AcDbPolyline
 62
7
  6
CONTINUOUS
 90
8
 70
0
 10
9.2722928364
 20
6.3754786978
 10
9.2717580903
 20
6.3761844335
 10
9.2710126341
 20
6.3771976618
 10
9.2702714277
 20
6.3782411396
 10
9.2695360984
 20
6.3793143674
 10
9.2688078283
 20
6.380417432
 10
9.2680877367
 20
6.3815505156
 10
9.2675348723
 20
6.3824512974
  0
LINE
  5
384
100
AcDbEntity
  8
0
100
AcDbLine
 62
7
  6
CONTINUOUS
 10
9.2722903952
 20
6.3754768659
 11
9.2723426686
 21
6.3754072094
  0
LINE
  5
385
100
AcDbEntity
  8
0
100
AcDbLine
 62
7
  6
CONTINUOUS
 10
9.272293248
 20
6.3754781367
 11
9.2723426699
 21
6.3754072104
  0
LINE
  5
386
100
AcDbEntity
  8
0
100
AcDbLine
 62
7
  6
CONTINUOUS
 10
9.2675348728
 20
6.3824512977
 11
9.2675367776
 21
6.3824481461
  0
LWPOLYLINE
  5
387
100
AcDbEntity
  8
0
100
AcDbPolyline
 62
7
  6
CONTINUOUS
 90
28
 70
0
 10
9.2675367776
 20
6.3824481461
 10
9.2668138804
 20
6.3836695839
 10
9.2661286164
 20
6.3848772109
 10
9.2654580696
 20
6.386110479
 10
9.2648032667
 20
6.3873691715
 10
9.2641651859
 20
6.3886531428
 10
9.2635459414
 20
6.3899597786
 10
9.2629464257
 20
6.3912887271
 10
9.2623675002
 20
6.39263967
 10
9.2618109669
 20
6.3940098796
 10
9.261277601
 20
6.3953987852
 10
9.2607680799
 20
6.3968060176
 10
9.2602837946
 20
6.3982290188
 10
9.2598253776
 20
6.3996670637
 10
9.2593933433
 20
6.4011197252
 10
9.2589886723
 20
6.402584798
 10
9.2586118126
 20
6.4040616267
 10
9.2582631894
 20
6.4055495615
 10
9.2579435365
 20
6.4070463385
 10
9.2576531534
 20
6.4085512447
 10
9.2573923168
 20
6.4100635719
 10
9.25716151
 20
6.4115810138
 10
9.2569608765
 20
6.4131028296
 10
9.2567905402
 20
6.4146282642
 10
9.256650734
 20
6.4161549599
 10
9.2565414758
 20
6.4176816182
 10
9.256462675
 20
6.4192080089
 10
9.2564280113
 20
6.4201909552
  0
ARC
  5
388
100
AcDbEntity
  8
0
100
AcDbCircle
 62
7
  6
CONTINUOUS
 10
0.0926439476
 20
-14.5860636546
 40
21.0
100
AcDbArc
 50
84.2774261872
 51
87.2529863377
  0
ARC
  5
389
100
AcDbEntity
  8
0
100
AcDbCircle
 62
7
  6
CONTINUOUS
 10
0.0646942534
 20
6.1695828695
 40
9.19514938
100
AcDbArc
 50
1.5625158033
 51
1.9665448596
  0
ARC
  5
38A
100
AcDbEntity
  8
0
100
AcDbCircle
 62
7
  6
CONTINUOUS
 10
2.9389754754
 20
5.4245158029
 40
1.4336158804
100
AcDbArc
 50
356.0872344213
 51
10.0213382993
  0
ARC
  5
38B
100
AcDbEntity
  8
0
100
AcDbCircle
 62
7
  6
CONTINUOUS
 10
2.3159510569
 20
5.7675276603
 40
0.255
100
AcDbArc
 50
79.9181044226
 51
110.4686087921
  0
ARC
  5
38C
100
AcDbEntity
  8
0
100
AcDbCircle
 62
7
  6
CONTINUOUS
 10
0.9012423704
 20
5.9103992377
 40
0.1425
100
AcDbArc
 50
14.6424776248
 51
51.3022866218
  0
ARC
  5
38D
100
AcDbEntity
  8
0
100
AcDbCircle
 62
7
  6
CONTINUOUS
 10
4.2817866874
 20
5.6618053266
 40
0.07
100
AcDbArc
 50
10.0213382993
 51
57.8179170183
  0
ARC
  5
38E
100
AcDbEntity
  8
0
100
AcDbCircle
 62
7
  6
CONTINUOUS
 10
4.2994129038
 20
5.3314659628
 40
0.07
100
AcDbArc
 50
322.2442378696
 51
356.0872344213
  0
ARC
  5
38F
100
AcDbEntity
  8
0
100
AcDbCircle
 62
7
  6
CONTINUOUS
 10
4.3855913558
 20
5.2565585405
 40
0.039
100
AcDbArc
 50
180.0
 51
270.0
  0
ARC
  5
390
100
AcDbEntity
  8
0
100
AcDbCircle
 62
7
  6
CONTINUOUS
 10
4.3855913558
 20
5.2647256121
 40
0.039
100
AcDbArc
 50
142.2442378696
 51
180.0
  0
ARC
  5
391
100
AcDbEntity
  8
0
100
AcDbCircle
 62
7
  6
CONTINUOUS
 10
4.3398413558
 20
5.7540585405
 40
0.039
100
AcDbArc
 50
180.0
 51
237.8179170183
  0
ARC
  5
392
100
AcDbEntity
  8
0
100
AcDbCircle
 62
7
  6
CONTINUOUS
 10
4.3398413558
 20
5.7575585405
 40
0.039
100
AcDbArc
 50
120.791988891
 51
180.0
  0
ARC
  5
393
100
AcDbEntity
  8
0
100
AcDbCircle
 62
7
  6
CONTINUOUS
 10
1.06813992
 20
5.9540049475
 40
0.03
100
AcDbArc
 50
194.6424776246
 51
270.0
  0
ARC
  5
394
100
AcDbEntity
  8
0
100
AcDbCircle
 62
7
  6
CONTINUOUS
 10
1.0090913558
 20
6.0450277872
 40
0.03
100
AcDbArc
 50
180.0
 51
231.3022866217
  0
ARC
  5
395
100
AcDbEntity
  8
0
100
AcDbCircle
 62
7
  6
CONTINUOUS
 10
2.2162882255
 20
6.0345338775
 40
0.03
100
AcDbArc
 50
188.1518829448
 51
290.4686090761
  0
ARC
  5
396
100
AcDbEntity
  8
0
100
AcDbCircle
 62
7
  6
CONTINUOUS
 10
2.3640913558
 20
6.0382812598
 40
0.02
100
AcDbArc
 50
259.9181044225
 51
360.0
  0
ARC
  5
397
100
AcDbEntity
  8
0
100
AcDbCircle
 62
7
  6
CONTINUOUS
 10
1.0790913558
 20
5.9440049475
 40
0.02
100
AcDbArc
 50
270.0
 51
360.0
  0
ARC
  5
398
100
AcDbEntity
  8
0
100
AcDbCircle
 62
7
  6
CONTINUOUS
 10
4.3121975267
 20
5.8039462406
 40
0.015
100
AcDbArc
 50
300.791988891
 51
49.1001135168
  0
ARC
  5
399
100
AcDbEntity
  8
0
100
AcDbCircle
 62
7
  6
CONTINUOUS
 10
4.6290913558
 20
1.6426085405
 40
0.2945805891
100
AcDbArc
 50
137.590452614
 51
42.409547386
  0
ARC
  5
39A
100
AcDbEntity
  8
0
100
AcDbCircle
 62
7
  6
CONTINUOUS
 10
4.6290913558
 20
1.6426085405
 40
0.2545805891
100
AcDbArc
 50
148.6904561932
 51
31.3095438068
  0
ARC
  5
39B
100
AcDbEntity
  8
0
100
AcDbCircle
 62
7
  6
CONTINUOUS
 10
4.6290913558
 20
1.6426085405
 40
0.2175
100
AcDbArc
 50
180.0
 51
360.0
  0
ARC
  5
39C
100
AcDbEntity
  8
0
100
AcDbCircle
 62
7
  6
CONTINUOUS
 10
6.3192072362
 20
5.4245158029
 40
1.4336158804
100
AcDbArc
 50
169.9786617007
 51
183.9127655791
  0
ARC
  5
39D
100
AcDbEntity
  8
0
100
AcDbCircle
 62
7
  6
CONTINUOUS
 10
4.9763960241
 20
5.6618053266
 40
0.07
100
AcDbArc
 50
122.1820829817
 51
169.9786617007
  0
ARC
  5
39E
100
AcDbEntity
  8
0
100
AcDbCircle
 62
7
  6
CONTINUOUS
 10
4.9587698078
 20
5.3314659628
 40
0.07
100
AcDbArc
 50
183.9127655791
 51
217.7557621298
  0
ARC
  5
39F
100
AcDbEntity
  8
0
100
AcDbCircle
 62
7
  6
CONTINUOUS
 10
4.8725913558
 20
5.2565585405
 40
0.039
100
AcDbArc
 50
270.0
 51
360.0
  0
ARC
  5
3A0
100
AcDbEntity
  8
0
100
AcDbCircle
 62
7
  6
CONTINUOUS
 10
4.8725913558
 20
5.2647256121
 40
0.039
100
AcDbArc
 50
0.0
 51
37.7557621298
  0
ARC
  5
3A1
100
AcDbEntity
  8
0
100
AcDbCircle
 62
7
  6
CONTINUOUS
 10
4.9183413558
 20
5.7540585405
 40
0.039
100
AcDbArc
 50
302.1820829817
 51
360.0
  0
ARC
  5
3A2
100
AcDbEntity
  8
0
100
AcDbCircle
 62
7
  6
CONTINUOUS
 10
4.9183413558
 20
5.7575585405
 40
0.039
100
AcDbArc
 50
0.0
 51
59.208011109
  0
ARC
  5
3A3
100
AcDbEntity
  8
0
100
AcDbCircle
 62
7
  6
CONTINUOUS
 10
4.9459851848
 20
5.8039462406
 40
0.015
100
AcDbArc
 50
130.8998864832
 51
239.208011109
  0
ARC
  5
3A4
100
AcDbEntity
  8
0
100
AcDbCircle
 62
7
  6
CONTINUOUS
 10
9.0040913558
 20
6.1661369556
 40
0.6655302365
100
AcDbArc
 50
279.2852732631
 51
282.8518248541
  0
ARC
  5
3A5
100
AcDbEntity
  8
0
100
AcDbCircle
 62
7
  6
CONTINUOUS
 10
9.0040913558
 20
6.1661369556
 40
0.6655302365
100
AcDbArc
 50
284.6897937343
 51
287.8240571942
  0
ARC
  5
3A6
100
AcDbEntity
  8
0
100
AcDbCircle
 62
7
  6
CONTINUOUS
 10
9.0040913558
 20
6.1661369556
 40
0.6655302365
100
AcDbArc
 50
262.4196365177
 51
277.5803634823
  0
ARC
  5
3A7
100
AcDbEntity
  8
0
100
AcDbCircle
 62
7
  6
CONTINUOUS
 10
9.0040913558
 20
6.1661369556
 40
0.6655302365
100
AcDbArc
 50
257.1481751459
 51
260.7147267369
  0
ARC
  5
3A8
100
AcDbEntity
  8
0
100
AcDbCircle
 62
7
  6
CONTINUOUS
 10
9.0040913558
 20
6.1661369556
 40
0.6655302365
100
AcDbArc
 50
252.1759428058
 51
255.3102062657
  0
ARC
  5
3A9
100
AcDbEntity
  8
0
100
AcDbCircle
 62
7
  6
CONTINUOUS
 10
6.9422316546
 20
5.7675276603
 40
0.255
100
AcDbArc
 50
69.5313912079
 51
100.0818955774
  0
ARC
  5
3AA
100
AcDbEntity
  8
0
100
AcDbCircle
 62
7
  6
CONTINUOUS
 10
8.3569403412
 20
5.9103992377
 40
0.1425
100
AcDbArc
 50
128.6977133782
 51
165.3575223752
  0
ARC
  5
3AB
100
AcDbEntity
  8
0
100
AcDbCircle
 62
7
  6
CONTINUOUS
 10
8.6121110529
 20
5.9031160614
 40
0.1360896877
100
AcDbArc
 50
31.3318017218
 51
34.2418769956
  0
ARC
  5
3AC
100
AcDbEntity
  8
0
100
AcDbCircle
 62
7
  6
CONTINUOUS
 10
8.1900427916
 20
5.9540049475
 40
0.03
100
AcDbArc
 50
270.0
 51
345.3575223754
  0
ARC
  5
3AD
100
AcDbEntity
  8
0
100
AcDbCircle
 62
7
  6
CONTINUOUS
 10
8.2490913558
 20
6.0450277872
 40
0.03
100
AcDbArc
 50
308.6977133783
 51
360.0
  0
ARC
  5
3AE
100
AcDbEntity
  8
0
100
AcDbCircle
 62
7
  6
CONTINUOUS
 10
7.0418944861
 20
6.0345338775
 40
0.03
100
AcDbArc
 50
249.5313909201
 51
351.848117056
  0
ARC
  5
3AF
100
AcDbEntity
  8
0
100
AcDbCircle
 62
7
  6
CONTINUOUS
 10
6.8940913558
 20
6.0382812598
 40
0.02
100
AcDbArc
 50
180.0
 51
280.0818955775
  0
ARC
  5
3B0
100
AcDbEntity
  8
0
100
AcDbCircle
 62
7
  6
CONTINUOUS
 10
8.1790913558
 20
5.9440049475
 40
0.02
100
AcDbArc
 50
180.0
 51
270.0
  0
ARC
  5
3B1
100
AcDbEntity
  8
0
100
AcDbCircle
 62
7
  6
CONTINUOUS
 10
8.7240957707
 20
5.7832059127
 40
0.0121583171
100
AcDbArc
 50
102.8555635597
 51
104.9477411269
  0
ARC
  5
3B2
100
AcDbEntity
  8
0
100
AcDbCircle
 62
7
  6
CONTINUOUS
 10
8.7203413558
 20
5.7853704987
 40
0.01
100
AcDbArc
 50
90.0
 51
104.3890229413
  0
ARC
  5
3B3
100
AcDbEntity
  8
0
100
AcDbCircle
 62
7
  6
CONTINUOUS
 10
8.7203181926
 20
5.7854579691
 40
0.0099095174
100
AcDbArc
 50
104.3849770098
 51
110.3074070831
  0
ARC
  5
3B4
100
AcDbEntity
  8
0
100
AcDbCircle
 62
7
  6
CONTINUOUS
 10
8.7235522522
 20
5.7878115713
 40
0.0075633788
100
AcDbArc
 50
106.6068411675
 51
109.2319056475
  0
ARC
  5
3B5
100
AcDbEntity
  8
0
100
AcDbCircle
 62
7
  6
CONTINUOUS
 10
8.7817434994
 20
5.5403704987
 40
0.005
100
AcDbArc
 50
214.1144729454
 51
270.0
  0
ARC
  5
3B6
100
AcDbEntity
  8
0
100
AcDbCircle
 62
7
  6
CONTINUOUS
 10
8.7315913558
 20
5.6144046155
 40
0.005
100
AcDbArc
 50
180.0
 51
214.1144729453
  0
ARC
  5
3B7
100
AcDbEntity
  8
0
100
AcDbCircle
 62
7
  6
CONTINUOUS
 10
8.8019063164
 20
5.5373115402
 40
0.005
100
AcDbArc
 50
202.8483814575
 51
252.1759428058
  0
ARC
  5
3B8
100
AcDbEntity
  8
0
100
AcDbCircle
 62
7
  6
CONTINUOUS
 10
1.0090913558
 20
6.2945321078
 40
0.03
100
AcDbArc
 50
128.6977133783
 51
180.0
  0
ARC
  5
3B9
100
AcDbEntity
  8
0
100
AcDbCircle
 62
7
  6
CONTINUOUS
 10
0.9012423704
 20
6.4291606573
 40
0.1425
100
AcDbArc
 50
308.6977133782
 51
345.3575223752
  0
ARC
  5
3BA
100
AcDbEntity
  8
0
100
AcDbCircle
 62
7
  6
CONTINUOUS
 10
1.06813992
 20
6.3855549475
 40
0.03
100
AcDbArc
 50
90.0
 51
165.3575223754
  0
ARC
  5
3BB
100
AcDbEntity
  8
0
100
AcDbCircle
 62
7
  6
CONTINUOUS
 10
1.0790913558
 20
6.3955549475
 40
0.02
100
AcDbArc
 50
0.0
 51
90.0
  0
ARC
  5
3BC
100
AcDbEntity
  8
0
100
AcDbCircle
 62
7
  6
CONTINUOUS
 10
2.2162882255
 20
6.3050260175
 40
0.03
100
AcDbArc
 50
69.5313909201
 51
171.848117056
  0
ARC
  5
3BD
100
AcDbEntity
  8
0
100
AcDbCircle
 62
7
  6
CONTINUOUS
 10
2.3640913558
 20
6.3012786352
 40
0.02
100
AcDbArc
 50
0.0
 51
100.0818955775
  0
ARC
  5
3BE
100
AcDbEntity
  8
0
100
AcDbCircle
 62
7
  6
CONTINUOUS
 10
2.6290913558
 20
6.1697799475
 40
0.5567175759
100
AcDbArc
 50
195.4898968413
 51
164.5101031587
  0
ARC
  5
3BF
100
AcDbEntity
  8
0
100
AcDbCircle
 62
7
  6
CONTINUOUS
 10
2.6290913558
 20
6.1697799475
 40
0.5516114176
100
AcDbArc
 50
195.5840844819
 51
164.4159155175
  0
ARC
  5
3C0
100
AcDbEntity
  8
0
100
AcDbCircle
 62
7
  6
CONTINUOUS
 10
2.6290913558
 20
6.1697799475
 40
0.467361515
100
AcDbArc
 50
197.4105122085
 51
162.5894877959
  0
ARC
  5
3C1
100
AcDbEntity
  8
0
100
AcDbCircle
 62
7
  6
CONTINUOUS
 10
2.6290913558
 20
6.1697799475
 40
0.464
100
AcDbArc
 50
197.4976632611
 51
197.5178491288
  0
ARC
  5
3C2
100
AcDbEntity
  8
0
100
AcDbCircle
 62
7
  6
CONTINUOUS
 10
2.6290913558
 20
6.1697799475
 40
0.464
100
AcDbArc
 50
162.4821508728
 51
162.5023367389
  0
ARC
  5
3C3
100
AcDbEntity
  8
0
100
AcDbCircle
 62
7
  6
CONTINUOUS
 10
2.6290913558
 20
6.1697799475
 40
0.464
100
AcDbArc
 50
198.765647602
 51
161.2343523966
  0
ARC
  5
3C4
100
AcDbEntity
  8
0
100
AcDbCircle
 62
7
  6
CONTINUOUS
 10
2.6290913558
 20
6.1697799475
 40
0.457982941
100
AcDbArc
 50
200.5212673868
 51
159.4787326129
  0
ARC
  5
3C5
100
AcDbEntity
  8
0
100
AcDbCircle
 62
7
  6
CONTINUOUS
 10
2.6290913558
 20
6.1697799475
 40
0.4080474864
100
AcDbArc
 50
202.3944991684
 51
157.6055008316
  0
ARC
  5
3C6
100
AcDbEntity
  8
0
100
AcDbCircle
 62
7
  6
CONTINUOUS
 10
2.6290913558
 20
6.1697799475
 40
0.3777318852
100
AcDbArc
 50
203.3150659388
 51
156.6849340612
  0
ARC
  5
3C7
100
AcDbEntity
  8
0
100
AcDbCircle
 62
7
  6
CONTINUOUS
 10
2.6290913558
 20
6.1697799475
 40
0.2590523894
100
AcDbArc
 50
206.4356261292
 51
153.5643738708
  0
ARC
  5
3C8
100
AcDbEntity
  8
0
100
AcDbCircle
 62
7
  6
CONTINUOUS
 10
2.6290913558
 20
6.1697799475
 40
0.2378890471
100
AcDbArc
 50
208.9984511775
 51
151.0015486886
  0
ARC
  5
3C9
100
AcDbEntity
  8
0
100
AcDbCircle
 62
7
  6
CONTINUOUS
 10
2.6290913558
 20
6.1697799475
 40
0.2255
100
AcDbArc
 50
210.6485451413
 51
149.3514548587
  0
CIRCLE
  5
3CA
100
AcDbEntity
  8
0
100
AcDbCircle
 62
7
  6
CONTINUOUS
 10
2.6290913558
 20
6.1697799475
 40
0.1494309478
  0
CIRCLE
  5
3CB
100
AcDbEntity
  8
0
100
AcDbCircle
 62
7
  6
CONTINUOUS
 10
2.6290913558
 20
6.1697799475
 40
0.146117623
  0
CIRCLE
  5
3CC
100
AcDbEntity
  8
0
100
AcDbCircle
 62
7
  6
CONTINUOUS
 10
2.6290913558
 20
6.1697799475
 40
0.14
  0
CIRCLE
  5
3CD
100
AcDbEntity
  8
0
100
AcDbCircle
 62
7
  6
CONTINUOUS
 10
2.6290913558
 20
6.1697799475
 40
0.1129032258
  0
ARC
  5
3CE
100
AcDbEntity
  8
0
100
AcDbCircle
 62
7
  6
CONTINUOUS
 10
2.3159510569
 20
6.5720322347
 40
0.255
100
AcDbArc
 50
249.5313912079
 51
280.0818955774
  0
ARC
  5
3CF
100
AcDbEntity
  8
0
100
AcDbCircle
 62
7
  6
CONTINUOUS
 10
0.0926439476
 20
26.9256235497
 40
21.0
100
AcDbArc
 50
272.7470136623
 51
275.7225738128
  0
ARC
  5
3D0
100
AcDbEntity
  8
0
100
AcDbCircle
 62
7
  6
CONTINUOUS
 10
4.6290913558
 20
6.1697799475
 40
0.644608491
100
AcDbArc
 50
294.295832457
 51
245.704167543
  0
ARC
  5
3D1
100
AcDbEntity
  8
0
100
AcDbCircle
 62
7
  6
CONTINUOUS
 10
4.6290913558
 20
6.1697799475
 40
0.6400017264
100
AcDbArc
 50
294.5403240351
 51
245.4596759776
  0
ARC
  5
3D2
100
AcDbEntity
  8
0
100
AcDbCircle
 62
7
  6
CONTINUOUS
 10
4.6290913558
 20
6.1697799475
 40
0.575716612
100
AcDbArc
 50
298.7409589771
 51
241.2590411027
  0
ARC
  5
3D3
100
AcDbEntity
  8
0
100
AcDbCircle
 62
7
  6
CONTINUOUS
 10
4.6290913558
 20
6.1697799475
 40
0.572357015
100
AcDbArc
 50
299.008987398
 51
240.9910125772
  0
ARC
  5
3D4
100
AcDbEntity
  8
0
100
AcDbCircle
 62
7
  6
CONTINUOUS
 10
4.6290913558
 20
6.1697799475
 40
0.5720710451
100
AcDbArc
 50
299.0328051093
 51
240.9671948916
  0
ARC
  5
3D5
100
AcDbEntity
  8
0
100
AcDbCircle
 62
7
  6
CONTINUOUS
 10
4.6290913558
 20
6.1697799475
 40
0.5700399033
100
AcDbArc
 50
299.1975846519
 51
240.8024151198
  0
ARC
  5
3D6
100
AcDbEntity
  8
0
100
AcDbCircle
 62
7
  6
CONTINUOUS
 10
6.6290913558
 20
6.1697799475
 40
0.5567175759
100
AcDbArc
 50
15.4898968413
 51
344.5101031587
  0
ARC
  5
3D7
100
AcDbEntity
  8
0
100
AcDbCircle
 62
7
  6
CONTINUOUS
 10
6.6290913558
 20
6.1697799475
 40
0.5516114176
100
AcDbArc
 50
15.583995023
 51
344.4160049721
  0
ARC
  5
3D8
100
AcDbEntity
  8
0
100
AcDbCircle
 62
7
  6
CONTINUOUS
 10
4.6290913558
 20
6.1697799475
 40
0.5500688615
100
AcDbArc
 50
301.8803206241
 51
238.1196793754
  0
ARC
  5
3D9
100
AcDbEntity
  8
0
100
AcDbCircle
 62
7
  6
CONTINUOUS
 10
4.6290913558
 20
6.1697799475
 40
0.5244999997
100
AcDbArc
 50
308.7288666134
 51
231.2711333862
  0
ARC
  5
3DA
100
AcDbEntity
  8
0
100
AcDbCircle
 62
7
  6
CONTINUOUS
 10
4.6290913558
 20
6.1697799475
 40
0.469
100
AcDbArc
 50
310.8998864831
 51
229.1001135168
  0
ARC
  5
3DB
100
AcDbEntity
  8
0
100
AcDbCircle
 62
7
  6
CONTINUOUS
 10
6.6290913558
 20
6.1697799475
 40
0.467361515
100
AcDbArc
 50
17.4103009937
 51
342.589698998
  0
ARC
  5
3DC
100
AcDbEntity
  8
0
100
AcDbCircle
 62
7
  6
CONTINUOUS
 10
6.6290913558
 20
6.1697799475
 40
0.464
100
AcDbArc
 50
17.4976632611
 51
17.517949801
  0
ARC
  5
3DD
100
AcDbEntity
  8
0
100
AcDbCircle
 62
7
  6
CONTINUOUS
 10
6.6290913558
 20
6.1697799475
 40
0.464
100
AcDbArc
 50
342.4820502006
 51
342.5023367389
  0
ARC
  5
3DE
100
AcDbEntity
  8
0
100
AcDbCircle
 62
7
  6
CONTINUOUS
 10
6.6290913558
 20
6.1697799475
 40
0.464
100
AcDbArc
 50
18.7641437223
 51
341.2358562762
  0
ARC
  5
3DF
100
AcDbEntity
  8
0
100
AcDbCircle
 62
7
  6
CONTINUOUS
 10
6.6290913558
 20
6.1697799475
 40
0.457982941
100
AcDbArc
 50
20.52356559
 51
339.4764344097
  0
ARC
  5
3E0
100
AcDbEntity
  8
0
100
AcDbCircle
 62
7
  6
CONTINUOUS
 10
6.6290913558
 20
6.1697799475
 40
0.4080474864
100
AcDbArc
 50
22.3942733839
 51
337.6057266161
  0
ARC
  5
3E1
100
AcDbEntity
  8
0
100
AcDbCircle
 62
7
  6
CONTINUOUS
 10
6.6290913558
 20
6.1697799475
 40
0.3777318852
100
AcDbArc
 50
23.3156161999
 51
336.6843838001
  0
CIRCLE
  5
3E2
100
AcDbEntity
  8
0
100
AcDbCircle
 62
7
  6
CONTINUOUS
 10
4.6290913558
 20
6.1697799475
 40
0.29
  0
CIRCLE
  5
3E3
100
AcDbEntity
  8
0
100
AcDbCircle
 62
7
  6
CONTINUOUS
 10
4.6290913558
 20
6.1697799475
 40
0.2745150554
  0
ARC
  5
3E4
100
AcDbEntity
  8
0
100
AcDbCircle
 62
7
  6
CONTINUOUS
 10
6.6290913558
 20
6.1697799475
 40
0.2590523894
100
AcDbArc
 50
26.4356261292
 51
333.5643738708
  0
CIRCLE
  5
3E5
100
AcDbEntity
  8
0
100
AcDbCircle
 62
7
  6
CONTINUOUS
 10
4.6290913558
 20
6.1697799475
 40
0.2514038967
  0
ARC
  5
3E6
100
AcDbEntity
  8
0
100
AcDbCircle
 62
7
  6
CONTINUOUS
 10
6.6290913558
 20
6.1697799475
 40
0.2378890471
100
AcDbArc
 50
28.9986265357
 51
331.0013733314
  0
ARC
  5
3E7
100
AcDbEntity
  8
0
100
AcDbCircle
 62
7
  6
CONTINUOUS
 10
6.6290913558
 20
6.1697799475
 40
0.2255
100
AcDbArc
 50
30.6485451413
 51
329.3514548587
  0
CIRCLE
  5
3E8
100
AcDbEntity
  8
0
100
AcDbCircle
 62
7
  6
CONTINUOUS
 10
6.6290913558
 20
6.1697799475
 40
0.1494309478
  0
CIRCLE
  5
3E9
100
AcDbEntity
  8
0
100
AcDbCircle
 62
7
  6
CONTINUOUS
 10
6.6290913558
 20
6.1697799475
 40
0.146117623
  0
CIRCLE
  5
3EA
100
AcDbEntity
  8
0
100
AcDbCircle
 62
7
  6
CONTINUOUS
 10
6.6290913558
 20
6.1697799475
 40
0.14
  0
CIRCLE
  5
3EB
100
AcDbEntity
  8
0
100
AcDbCircle
 62
7
  6
CONTINUOUS
 10
6.6290913558
 20
6.1697799475
 40
0.1129032258
  0
ARC
  5
3EC
100
AcDbEntity
  8
0
100
AcDbCircle
 62
7
  6
CONTINUOUS
 10
7.0418944861
 20
6.3050260175
 40
0.03
100
AcDbArc
 50
8.1518829448
 51
110.4686090761
  0
ARC
  5
3ED
100
AcDbEntity
  8
0
100
AcDbCircle
 62
7
  6
CONTINUOUS
 10
6.8940913558
 20
6.3012786352
 40
0.02
100
AcDbArc
 50
79.9181044225
 51
180.0
  0
ARC
  5
3EE
100
AcDbEntity
  8
0
100
AcDbCircle
 62
7
  6
CONTINUOUS
 10
9.0040913558
 20
6.1697799475
 40
0.5786981069
100
AcDbArc
 50
300.4975029985
 51
70.5702531443
  0
ARC
  5
3EF
100
AcDbEntity
  8
0
100
AcDbCircle
 62
7
  6
CONTINUOUS
 10
9.0040913558
 20
6.1697799475
 40
0.5786981069
100
AcDbArc
 50
109.4297468557
 51
239.5024970015
  0
ARC
  5
3F0
100
AcDbEntity
  8
0
100
AcDbCircle
 62
7
  6
CONTINUOUS
 10
9.0040913558
 20
6.1697799475
 40
0.5766885975
100
AcDbArc
 50
300.6149629868
 51
70.499807442
  0
ARC
  5
3F1
100
AcDbEntity
  8
0
100
AcDbCircle
 62
7
  6
CONTINUOUS
 10
9.0040913558
 20
6.1697799475
 40
0.5766885975
100
AcDbArc
 50
109.500192558
 51
239.3850370132
  0
ARC
  5
3F2
100
AcDbEntity
  8
0
100
AcDbCircle
 62
7
  6
CONTINUOUS
 10
9.0040913558
 20
6.1697799475
 40
0.5401724202
100
AcDbArc
 50
110.8778036023
 51
237.0644600602
  0
ARC
  5
3F3
100
AcDbEntity
  8
0
100
AcDbCircle
 62
7
  6
CONTINUOUS
 10
9.0040913558
 20
6.1697799475
 40
0.5401724202
100
AcDbArc
 50
302.9355399398
 51
69.1221963977
  0
ARC
  5
3F4
100
AcDbEntity
  8
0
100
AcDbCircle
 62
7
  6
CONTINUOUS
 10
9.0040913558
 20
6.1697799475
 40
0.5362449378
100
AcDbArc
 50
303.2072967314
 51
68.962095242
  0
ARC
  5
3F5
100
AcDbEntity
  8
0
100
AcDbCircle
 62
7
  6
CONTINUOUS
 10
9.0040913558
 20
6.1697799475
 40
0.5362449378
100
AcDbArc
 50
111.037904758
 51
236.7927032686
  0
ARC
  5
3F6
100
AcDbEntity
  8
0
100
AcDbCircle
 62
7
  6
CONTINUOUS
 10
9.0040913558
 20
6.1697799475
 40
0.5335965871
100
AcDbArc
 50
303.3941766325
 51
68.8528065879
  0
ARC
  5
3F7
100
AcDbEntity
  8
0
100
AcDbCircle
 62
7
  6
CONTINUOUS
 10
9.0040913558
 20
6.1697799475
 40
0.5335965871
100
AcDbArc
 50
111.1471934121
 51
236.6058233675
  0
ARC
  5
3F8
100
AcDbEntity
  8
0
100
AcDbCircle
 62
7
  6
CONTINUOUS
 10
9.0040913558
 20
6.1697799475
 40
0.4963842813
100
AcDbArc
 50
306.2746717684
 51
67.1817521652
  0
ARC
  5
3F9
100
AcDbEntity
  8
0
100
AcDbCircle
 62
7
  6
CONTINUOUS
 10
9.0040913558
 20
6.1697799475
 40
0.4963842813
100
AcDbArc
 50
112.8182478348
 51
233.7253282316
  0
ARC
  5
3FA
100
AcDbEntity
  8
0
100
AcDbCircle
 62
7
  6
CONTINUOUS
 10
9.0040913558
 20
6.1697799475
 40
0.4829148167
100
AcDbArc
 50
113.4920640148
 51
232.5516035558
  0
ARC
  5
3FB
100
AcDbEntity
  8
0
100
AcDbCircle
 62
7
  6
CONTINUOUS
 10
9.0040913558
 20
6.1697799475
 40
0.4829148167
100
AcDbArc
 50
307.4483964442
 51
66.5079359853
  0
ARC
  5
3FC
100
AcDbEntity
  8
0
100
AcDbCircle
 62
7
  6
CONTINUOUS
 10
9.0040913558
 20
6.1697799475
 40
0.4636465106
100
AcDbArc
 50
114.5317043337
 51
233.8575205501
  0
ARC
  5
3FD
100
AcDbEntity
  8
0
100
AcDbCircle
 62
7
  6
CONTINUOUS
 10
9.0040913558
 20
6.1697799475
 40
0.4636465106
100
AcDbArc
 50
306.1424794499
 51
65.4682956663
  0
ARC
  5
3FE
100
AcDbEntity
  8
0
100
AcDbCircle
 62
7
  6
CONTINUOUS
 10
9.0040913558
 20
6.1697799475
 40
0.354630425
100
AcDbArc
 50
135.3753325666
 51
223.35959368
  0
ARC
  5
3FF
100
AcDbEntity
  8
0
100
AcDbCircle
 62
7
  6
CONTINUOUS
 10
9.0040913558
 20
6.1697799475
 40
0.354630425
100
AcDbArc
 50
316.6526528562
 51
44.62554745
  0
ARC
  5
400
100
AcDbEntity
  8
0
100
AcDbCircle
 62
7
  6
CONTINUOUS
 10
9.0040913558
 20
6.1697799475
 40
0.338
100
AcDbArc
 50
325.7973279695
 51
37.4865380179
  0
ARC
  5
401
100
AcDbEntity
  8
0
100
AcDbCircle
 62
7
  6
CONTINUOUS
 10
9.0040913558
 20
6.1697799475
 40
0.338
100
AcDbArc
 50
142.5346969352
 51
214.2437615625
  0
ARC
  5
402
100
AcDbEntity
  8
0
100
AcDbCircle
 62
7
  6
CONTINUOUS
 10
8.2490913558
 20
6.2945321078
 40
0.03
100
AcDbArc
 50
0.0
 51
51.3022866217
  0
ARC
  5
403
100
AcDbEntity
  8
0
100
AcDbCircle
 62
7
  6
CONTINUOUS
 10
6.9422316546
 20
6.5720322347
 40
0.255
100
AcDbArc
 50
259.9181044226
 51
290.4686087921
  0
ARC
  5
404
100
AcDbEntity
  8
0
100
AcDbCircle
 62
7
  6
CONTINUOUS
 10
8.3569403412
 20
6.4291606573
 40
0.1425
100
AcDbArc
 50
194.6424776248
 51
231.3022866218
  0
ARC
  5
405
100
AcDbEntity
  8
0
100
AcDbCircle
 62
7
  6
CONTINUOUS
 10
8.674137375
 20
6.4225274026
 40
0.0776372781
100
AcDbArc
 50
327.4060489654
 51
328.8790485519
  0
ARC
  5
406
100
AcDbEntity
  8
0
100
AcDbCircle
 62
7
  6
CONTINUOUS
 10
8.6741550503
 20
6.4225161629
 40
0.0776163319
100
AcDbArc
 50
327.1487581127
 51
327.4060106735
  0
ARC
  5
407
100
AcDbEntity
  8
0
100
AcDbCircle
 62
7
  6
CONTINUOUS
 10
8.6741740093
 20
6.422503878
 40
0.0775937407
100
AcDbArc
 50
326.3348174658
 51
327.148784566
  0
ARC
  5
408
100
AcDbEntity
  8
0
100
AcDbCircle
 62
7
  6
CONTINUOUS
 10
8.6741861059
 20
6.422496031
 40
0.0775793234
100
AcDbArc
 50
324.6145094797
 51
326.0044978093
  0
ARC
  5
409
100
AcDbEntity
  8
0
100
AcDbCircle
 62
7
  6
CONTINUOUS
 10
8.6741980171
 20
6.4224879479
 40
0.0775649286
100
AcDbArc
 50
326.0045285716
 51
326.3347805962
  0
ARC
  5
40A
100
AcDbEntity
  8
0
100
AcDbCircle
 62
7
  6
CONTINUOUS
 10
8.6742141695
 20
6.4224758804
 40
0.0775447755
100
AcDbArc
 50
322.5998807112
 51
324.614607197
  0
ARC
  5
40B
100
AcDbEntity
  8
0
100
AcDbCircle
 62
7
  6
CONTINUOUS
 10
8.1900427916
 20
6.3855549475
 40
0.03
100
AcDbArc
 50
14.6424776246
 51
90.0
  0
ARC
  5
40C
100
AcDbEntity
  8
0
100
AcDbCircle
 62
7
  6
CONTINUOUS
 10
8.1790913558
 20
6.3955549475
 40
0.02
100
AcDbArc
 50
90.0
 51
180.0
  0
ARC
  5
40D
100
AcDbEntity
  8
0
100
AcDbCircle
 62
7
  6
CONTINUOUS
 10
8.8315636144
 20
6.5560648167
 40
0.0199756942
100
AcDbArc
 50
89.9204438195
 51
179.9202197721
  0
ARC
  5
40E
100
AcDbEntity
  8
0
100
AcDbCircle
 62
7
  6
CONTINUOUS
 10
8.8315636144
 20
6.5535857535
 40
0.0199756942
100
AcDbArc
 50
89.9204438195
 51
179.9202197721
  0
ARC
  5
40F
100
AcDbEntity
  8
0
100
AcDbCircle
 62
7
  6
CONTINUOUS
 10
8.76374882
 20
6.4847799475
 40
0.01
100
AcDbArc
 50
90.0000345276
 51
178.0334849771
  0
ARC
  5
410
100
AcDbEntity
  8
0
100
AcDbCircle
 62
7
  6
CONTINUOUS
 10
9.1655387639
 20
-14.5860636546
 40
21.0
100
AcDbArc
 50
92.7470136623
 51
95.7225738128
  0
ARC
  5
411
100
AcDbEntity
  8
0
100
AcDbCircle
 62
7
  6
CONTINUOUS
 10
17.9434951908
 20
6.1695826587
 40
9.195156116
100
AcDbArc
 50
178.0334552673
 51
178.4365343508
  0
ARC
  5
412
100
AcDbEntity
  8
0
100
AcDbCircle
 62
7
  6
CONTINUOUS
 10
9.3971762428
 20
5.9027754468
 40
0.1371946666
100
AcDbArc
 50
145.7992042647
 51
148.7141745058
  0
ARC
  5
413
100
AcDbEntity
  8
0
100
AcDbCircle
 62
7
  6
CONTINUOUS
 10
9.28408268
 20
5.7831886961
 40
0.0121760501
100
AcDbArc
 50
75.0547130709
 51
77.1429144371
  0
ARC
  5
414
100
AcDbEntity
  8
0
100
AcDbCircle
 62
7
  6
CONTINUOUS
 10
9.2878413558
 20
5.7853704987
 40
0.01
100
AcDbArc
 50
75.6109770587
 51
90.0
  0
ARC
  5
415
100
AcDbEntity
  8
0
100
AcDbCircle
 62
7
  6
CONTINUOUS
 10
9.2878619007
 20
5.7854495863
 40
0.0099182878
100
AcDbArc
 50
69.6952144416
 51
75.6124028537
  0
ARC
  5
416
100
AcDbEntity
  8
0
100
AcDbCircle
 62
7
  6
CONTINUOUS
 10
9.2846271158
 20
5.7878012314
 40
0.0075742431
100
AcDbArc
 50
70.7688075276
 51
73.3912754656
  0
ARC
  5
417
100
AcDbEntity
  8
0
100
AcDbCircle
 62
7
  6
CONTINUOUS
 10
9.2264392122
 20
5.5403704987
 40
0.005
100
AcDbArc
 50
270.0
 51
325.8855270546
  0
ARC
  5
418
100
AcDbEntity
  8
0
100
AcDbCircle
 62
7
  6
CONTINUOUS
 10
9.2765913558
 20
5.6144046155
 40
0.005
100
AcDbArc
 50
325.8855270547
 51
360.0
  0
ARC
  5
419
100
AcDbEntity
  8
0
100
AcDbCircle
 62
7
  6
CONTINUOUS
 10
9.2062763951
 20
5.5373115402
 40
0.005
100
AcDbArc
 50
287.8240571942
 51
337.1516185425
  0
ARC
  5
41A
100
AcDbEntity
  8
0
100
AcDbCircle
 62
7
  6
CONTINUOUS
 10
9.1655387639
 20
26.9256235497
 40
21.0
100
AcDbArc
 50
264.2774261872
 51
267.2529863377
  0
ARC
  5
41B
100
AcDbEntity
  8
0
100
AcDbCircle
 62
7
  6
CONTINUOUS
 10
9.3335764743
 20
6.4223614845
 40
0.0771642152
100
AcDbArc
 50
211.1481638139
 51
212.4066499979
  0
ARC
  5
41C
100
AcDbEntity
  8
0
100
AcDbCircle
 62
7
  6
CONTINUOUS
 10
9.3335621171
 20
6.4223523928
 40
0.0771472215
100
AcDbArc
 50
212.4066637794
 51
212.8044653176
  0
ARC
  5
41D
100
AcDbEntity
  8
0
100
AcDbCircle
 62
7
  6
CONTINUOUS
 10
9.3335411104
 20
6.4223388139
 40
0.0771222081
100
AcDbArc
 50
212.8044412042
 51
213.6491585475
  0
ARC
  5
41E
100
AcDbEntity
  8
0
100
AcDbCircle
 62
7
  6
CONTINUOUS
 10
9.333527401
 20
6.4223299181
 40
0.0771058671
100
AcDbArc
 50
214.0887037781
 51
215.5362489951
  0
ARC
  5
41F
100
AcDbEntity
  8
0
100
AcDbCircle
 62
7
  6
CONTINUOUS
 10
9.3335160946
 20
6.4223222268
 40
0.0770921928
100
AcDbArc
 50
213.6491983026
 51
214.0886794531
  0
ARC
  5
420
100
AcDbEntity
  8
0
100
AcDbCircle
 62
7
  6
CONTINUOUS
 10
9.3334959077
 20
6.4223072263
 40
0.077067051
100
AcDbArc
 50
215.5361601775
 51
217.4208015204
  0
ARC
  5
421
100
AcDbEntity
  8
0
100
AcDbCircle
 62
7
  6
CONTINUOUS
 10
9.1766190947
 20
6.5535857526
 40
0.0199756942
100
AcDbArc
 50
0.0797826989
 51
90.0795493664
  0
ARC
  5
422
100
AcDbEntity
  8
0
100
AcDbCircle
 62
7
  6
CONTINUOUS
 10
9.1766190947
 20
6.5560648158
 40
0.0199756942
100
AcDbArc
 50
0.0797826929
 51
90.0795493713
  0
ARC
  5
423
100
AcDbEntity
  8
0
100
AcDbCircle
 62
7
  6
CONTINUOUS
 10
9.2444338972
 20
6.4847799475
 40
0.01
100
AcDbArc
 50
1.9665161311
 51
89.9999977672
  0
LINE
  5
424
100
AcDbEntity
  8
0
100
AcDbLine
 62
7
  6
CONTINUOUS
 10
9.0633032125
 20
5.506840962
 11
9.0635653197
 21
5.5071105421
  0
SPLINE
  5
425
100
AcDbEntity
  8
0
100
AcDbSpline
 62
7
  6
CONTINUOUS
 70
0
 71
3
 72
24
 73
20
 74
0
 42
0.0000001
 43
0.0000001
 44
0.0000000001
 40
0.0
 40
0.0
 40
0.0
 40
0.0
 40
0.0112228308
 40
0.022524767
 40
0.0342857457
 40
0.0468440307
 40
0.0604766252
 40
0.0753978586
 40
0.1096612066
 40
0.1504601784
 40
0.198129131
 40
0.2527301187
 40
0.3141417523
 40
0.3821055695
 40
0.4562525289
 40
0.5361198909
 40
0.6211633448
 40
0.8042509275
 40
1.0
 40
1.0
 40
1.0
 40
1.0
 10
8.9331088649
 20
5.5207567348
 30
0.0
 10
8.9331068952
 20
5.5207903169
 30
0.0
 10
8.9331092693
 20
5.5208582815
 30
0.0
 10
8.9331327499
 20
5.5209589478
 30
0.0
 10
8.9331759499
 20
5.521057202
 30
0.0
 10
8.9332385316
 20
5.5211527317
 30
0.0
 10
8.9333202076
 20
5.5212454755
 30
0.0
 10
8.9334609245
 20
5.5213711309
 30
0.0
 10
8.9336884726
 20
5.5215186287
 30
0.0
 10
8.9340220206
 20
5.5216753896
 30
0.0
 10
8.9344267716
 20
5.5218187706
 30
0.0
 10
8.9349005245
 20
5.5219476269
 30
0.0
 10
8.9354404967
 20
5.5220608592
 30
0.0
 10
8.9360430484
 20
5.5221574021
 30
0.0
 10
8.9367038692
 20
5.5222363221
 30
0.0
 10
8.9374179944
 20
5.5222968505
 30
0.0
 10
8.9384596872
 20
5.5223535594
 30
0.0
 10
8.939850632
 20
5.5223720921
 30
0.0
 10
8.9409859818
 20
5.5223361578
 30
0.0
 10
8.9415719438
 20
5.5223058319
 30
0.0
  0
SPLINE
  5
426
100
AcDbEntity
  8
0
100
AcDbSpline
 62
7
  6
CONTINUOUS
 70
0
 71
3
 72
35
 73
31
 74
0
 42
0.0000001
 43
0.0000001
 44
0.0000000001
 40
0.0
 40
0.0
 40
0.0
 40
0.0
 40
0.0031827113
 40
0.006541791
 40
0.0102710082
 40
0.0145122292
 40
0.0193598109
 40
0.024873831
 40
0.0310923877
 40
0.0380377097
 40
0.0541474245
 40
0.0732313815
 40
0.0952439073
 40
0.1200942477
 40
0.1476580983
 40
0.1777840267
 40
0.2102966237
 40
0.2449989296
 40
0.3200898335
 40
0.4011385126
 40
0.486014137
 40
0.5724493457
 40
0.658119158
 40
0.7407270588
 40
0.8180860809
 40
0.8881954584
 40
0.9199753751
 40
0.9493097643
 40
0.9760348298
 40
1.0
 40
1.0
 40
1.0
 40
1.0
 10
8.9942978665
 20
5.5078603306
 30
0.0
 10
8.9942966744
 20
5.5078800092
 30
0.0
 10
8.9942999273
 20
5.5079210094
 30
0.0
 10
8.9943218581
 20
5.5079813918
 30
0.0
 10
8.9943600645
 20
5.5080408053
 30
0.0
 10
8.9944140986
 20
5.5080993846
 30
0.0
 10
8.9944838023
 20
5.5081573437
 30
0.0
 10
8.994569122
 20
5.5082147538
 30
0.0
 10
8.9946700001
 20
5.5082715984
 30
0.0
 10
8.9948333669
 20
5.5083505011
 30
0.0
 10
8.9950769741
 20
5.5084452598
 30
0.0
 10
8.9954154163
 20
5.508550806
 30
0.0
 10
8.9958112577
 20
5.5086522826
 30
0.0
 10
8.9962621192
 20
5.5087489722
 30
0.0
 10
8.9967652752
 20
5.5088401508
 30
0.0
 10
8.9973175674
 20
5.5089251526
 30
0.0
 10
8.9979154773
 20
5.5090033641
 30
0.0
 10
8.9987916539
 20
5.5091003779
 30
0.0
 10
8.9999698991
 20
5.5091989237
 30
0.0
 10
9.0014607764
 20
5.5092802112
 30
0.0
 10
9.0030234966
 20
5.5093248159
 30
0.0
 10
9.0046154522
 20
5.5093313819
 30
0.0
 10
9.0061930592
 20
5.5092996934
 30
0.0
 10
9.0077132248
 20
5.5092307526
 30
0.0
 10
9.0091347693
 20
5.5091266471
 30
0.0
 10
9.0102392163
 20
5.5090099075
 30
0.0
 10
9.0110445195
 20
5.5088990404
 30
0.0
 10
9.0115816823
 20
5.5088120149
 30
0.0
 10
9.0120686469
 20
5.5087190198
 30
0.0
 10
9.0123749707
 20
5.5086496259
 30
0.0
 10
9.012518962
 20
5.5086135269
 30
0.0
  0
SPLINE
  5
427
100
AcDbEntity
  8
0
100
AcDbSpline
 62
7
  6
CONTINUOUS
 70
0
 71
3
 72
29
 73
25
 74
0
 42
0.0000001
 43
0.0000001
 44
0.0000000001
 40
0.0
 40
0.0
 40
0.0
 40
0.0
 40
0.0023551856
 40
0.0047790081
 40
0.0074301842
 40
0.0104311438
 40
0.0177813865
 40
0.0272326042
 40
0.0389438975
 40
0.0529773488
 40
0.0693463461
 40
0.0880347777
 40
0.1090073973
 40
0.1322130064
 40
0.1575890075
 40
0.1850608878
 40
0.2459495562
 40
0.3141124012
 40
0.3886643189
 40
0.4686252275
 40
0.5529386206
 40
0.640492955
 40
0.8207130558
 40
1.0
 40
1.0
 40
1.0
 40
1.0
 10
8.9252915651
 20
5.5088944598
 30
0.0
 10
8.9252909874
 20
5.5089041559
 30
0.0
 10
8.925292486
 20
5.5089241092
 30
0.0
 10
8.925303252
 20
5.5089531646
 30
0.0
 10
8.9253221335
 20
5.5089809234
 30
0.0
 10
8.9253603975
 20
5.5090188444
 30
0.0
 10
8.9254305406
 20
5.509062261
 30
0.0
 10
8.9255393708
 20
5.5091072998
 30
0.0
 10
8.9256787454
 20
5.5091486204
 30
0.0
 10
8.9258484447
 20
5.5091860299
 30
0.0
 10
8.9260482167
 20
5.5092193633
 30
0.0
 10
8.9262775038
 20
5.5092484516
 30
0.0
 10
8.9265356346
 20
5.5092731545
 30
0.0
 10
8.9268218042
 20
5.5092933622
 30
0.0
 10
8.9271350967
 20
5.5093089837
 30
0.0
 10
8.9276039485
 20
5.5093241152
 30
0.0
 10
8.9282495486
 20
5.5093299707
 30
0.0
 10
8.9290892295
 20
5.5093181867
 30
0.0
 10
8.9300071425
 20
5.5092877921
 30
0.0
 10
8.9309909552
 20
5.5092391713
 30
0.0
 10
8.9320274776
 20
5.5091729658
 30
0.0
 10
8.9334753088
 20
5.5090613316
 30
0.0
 10
8.9353108791
 20
5.5088855537
 30
0.0
 10
8.9367833249
 20
5.5087101787
 30
0.0
 10
8.9375164028
 20
5.5086135269
 30
0.0
  0
SPLINE
  5
428
100
AcDbEntity
  8
0
100
AcDbSpline
 62
7
  6
CONTINUOUS
 70
0
 71
3
 72
28
 73
24
 74
0
 42
0.0000001
 43
0.0000001
 44
0.0000000001
 40
0.0
 40
0.0
 40
0.0
 40
0.0
 40
0.0093716901
 40
0.0195776555
 40
0.0311821304
 40
0.0445500932
 40
0.059894362
 40
0.0773278775
 40
0.0968975008
 40
0.1186069192
 40
0.142429073
 40
0.1683129201
 40
0.2259683094
 40
0.2908542568
 40
0.3620411874
 40
0.4384257531
 40
0.5187485252
 40
0.6016141418
 40
0.6855183539
 40
0.7688853336
 40
0.850116368
 40
0.9276437873
 40
1.0
 40
1.0
 40
1.0
 40
1.0
 10
9.0543441259
 20
5.5188125266
 30
0.0
 10
9.0543409996
 20
5.5188659263
 30
0.0
 10
9.0543521457
 20
5.518979039
 30
0.0
 10
9.0544180759
 20
5.5191461783
 30
0.0
 10
9.054530569
 20
5.5193139025
 30
0.0
 10
9.0546882744
 20
5.5194824731
 30
0.0
 10
9.0548904704
 20
5.5196520142
 30
0.0
 10
9.0551364845
 20
5.5198221495
 30
0.0
 10
9.0554254445
 20
5.5199923311
 30
0.0
 10
9.055756281
 20
5.5201618816
 30
0.0
 10
9.0561277186
 20
5.5203300997
 30
0.0
 10
9.0566959099
 20
5.5205599648
 30
0.0
 10
9.0574977371
 20
5.5208352847
 30
0.0
 10
9.0585614976
 20
5.5211384892
 30
0.0
 10
9.0597415067
 20
5.5214194427
 30
0.0
 10
9.0610176616
 20
5.5216726496
 30
0.0
 10
9.0623674723
 20
5.5218929214
 30
0.0
 10
9.0637661614
 20
5.5220755987
 30
0.0
 10
9.0651871164
 20
5.522216678
 30
0.0
 10
9.0666024606
 20
5.5223129835
 30
0.0
 10
9.0679838299
 20
5.5223623259
 30
0.0
 10
9.0693032373
 20
5.5223636317
 30
0.0
 10
9.0701584274
 20
5.5223312589
 30
0.0
 10
9.0705706339
 20
5.5223058319
 30
0.0
  0
SPLINE
  5
429
100
AcDbEntity
  8
0
100
AcDbSpline
 62
7
  6
CONTINUOUS
 70
0
 71
3
 72
38
 73
34
 74
0
 42
0.0000001
 43
0.0000001
 44
0.0000000001
 40
0.0
 40
0.0
 40
0.0
 40
0.0
 40
0.0050366024
 40
0.006769434
 40
0.0087232408
 40
0.0133255141
 40
0.0188862835
 40
0.0254200327
 40
0.0329261892
 40
0.0413968362
 40
0.0611692049
 40
0.0845822712
 40
0.1114358452
 40
0.1414990059
 40
0.1745169775
 40
0.2102155561
 40
0.2884784546
 40
0.3738119699
 40
0.4635632518
 40
0.5549341492
 40
0.6450106821
 40
0.7308078055
 40
0.8093496556
 40
0.8450023845
 40
0.8777934292
 40
0.9074153169
 40
0.9335921694
 40
0.9560876857
 40
0.9747146985
 40
0.9825378039
 40
0.9893566202
 40
0.9951725384
 40
1.0
 40
1.0
 40
1.0
 40
1.0
 10
9.1400683653
 20
5.5174666061
 30
0.0
 10
9.1400662641
 20
5.517502313
 30
0.0
 10
9.140092861
 20
5.5175494435
 30
0.0
 10
9.1401331732
 20
5.5175955223
 30
0.0
 10
9.1401755408
 20
5.5176367469
 30
0.0
 10
9.1402430165
 20
5.5176902635
 30
0.0
 10
9.1403417425
 20
5.5177561541
 30
0.0
 10
9.1404619572
 20
5.517826431
 30
0.0
 10
9.1406034049
 20
5.5179010126
 30
0.0
 10
9.1408319317
 20
5.5180116926
 30
0.0
 10
9.1411686198
 20
5.5181577195
 30
0.0
 10
9.1416317694
 20
5.5183392681
 30
0.0
 10
9.1421683233
 20
5.5185332379
 30
0.0
 10
9.1427733748
 20
5.5187379008
 30
0.0
 10
9.1434416146
 20
5.5189514663
 30
0.0
 10
9.1444403177
 20
5.5192550986
 30
0.0
 10
9.1458020418
 20
5.5196414484
 30
0.0
 10
9.1475421837
 20
5.5200990405
 30
0.0
 10
9.1493802951
 20
5.5205490257
 30
0.0
 10
9.1512582338
 20
5.5209769039
 30
0.0
 10
9.1531153914
 20
5.5213685088
 30
0.0
 10
9.1548896562
 20
5.5217103222
 30
0.0
 10
9.1562895756
 20
5.5219508653
 30
0.0
 10
9.1573217088
 20
5.5221070764
 30
0.0
 10
9.1580118545
 20
5.5222007333
 30
0.0
 10
9.1586367767
 20
5.5222738352
 30
0.0
 10
9.1591904487
 20
5.5223257154
 30
0.0
 10
9.1596675119
 20
5.5223558795
 30
0.0
 10
9.160015223
 20
5.5223634776
 30
0.0
 10
9.1602514411
 20
5.5223566385
 30
0.0
 10
9.1603964213
 20
5.5223462756
 30
0.0
 10
9.1605194891
 20
5.5223304753
 30
0.0
 10
9.160593629
 20
5.5223149978
 30
0.0
 10
9.1606266644
 20
5.5223058319
 30
0.0
  0
SPLINE
  5
42A
100
AcDbEntity
  8
0
100
AcDbSpline
 62
7
  6
CONTINUOUS
 70
0
 71
3
 72
21
 73
17
 74
0
 42
0.0000001
 43
0.0000001
 44
0.0000000001
 40
0.0
 40
0.0
 40
0.0
 40
0.0
 40
0.0111760011
 40
0.0222549588
 40
0.0454643023
 40
0.0722310624
 40
0.1042258879
 40
0.1424041043
 40
0.1872659392
 40
0.2390491025
 40
0.2978213082
 40
0.3635374772
 40
0.4360705214
 40
0.6007352213
 40
0.7896547933
 40
1.0
 40
1.0
 40
1.0
 40
1.0
 10
8.8817186528
 20
5.5215960417
 30
0.0
 10
8.881717583
 20
5.5216145613
 30
0.0
 10
8.8817186592
 20
5.5216517252
 30
0.0
 10
8.8817348013
 20
5.5217258557
 30
0.0
 10
8.8817843023
 20
5.5218167733
 30
0.0
 10
8.881883053
 20
5.5219123563
 30
0.0
 10
8.8820199316
 20
5.5219984186
 30
0.0
 10
8.8821950635
 20
5.5220756615
 30
0.0
 10
8.8824083818
 20
5.5221442613
 30
0.0
 10
8.8826595471
 20
5.5222039702
 30
0.0
 10
8.8829478685
 20
5.5222545212
 30
0.0
 10
8.8832723976
 20
5.5222956563
 30
0.0
 10
8.8837733786
 20
5.5223394477
 30
0.0
 10
8.8844805917
 20
5.5223659295
 30
0.0
 10
8.8854168107
 20
5.5223574756
 30
0.0
 10
8.8860789817
 20
5.5223269888
 30
0.0
 10
8.8864274815
 20
5.5223058319
 30
0.0
  0
SPLINE
  5
42B
100
AcDbEntity
  8
0
100
AcDbSpline
 62
7
  6
CONTINUOUS
 70
0
 71
3
 72
26
 73
22
 74
0
 42
0.0000001
 43
0.0000001
 44
0.0000000001
 40
0.0
 40
0.0
 40
0.0
 40
0.0
 40
0.0105730569
 40
0.0215138932
 40
0.0332684178
 40
0.0461924093
 40
0.0605445199
 40
0.0765034083
 40
0.0941844749
 40
0.1136590697
 40
0.1349632889
 40
0.1581094621
 40
0.2098662552
 40
0.2686941649
 40
0.3341488638
 40
0.4056283983
 40
0.4823951001
 40
0.5635915279
 40
0.6482578041
 40
0.8237522362
 40
1.0
 40
1.0
 40
1.0
 40
1.0
 10
8.9937269261
 20
5.5197785745
 30
0.0
 10
8.9937241907
 20
5.5198252669
 30
0.0
 10
8.9937294827
 20
5.5199212543
 30
0.0
 10
8.9937702366
 20
5.5200637639
 30
0.0
 10
8.993842923
 20
5.5202045606
 30
0.0
 10
8.9939467699
 20
5.520343297
 30
0.0
 10
8.9940812349
 20
5.520479962
 30
0.0
 10
8.9942459777
 20
5.5206144095
 30
0.0
 10
8.9944406381
 20
5.5207464437
 30
0.0
 10
8.9946648224
 20
5.5208757434
 30
0.0
 10
8.9949180252
 20
5.5210019974
 30
0.0
 10
8.9953083025
 20
5.521172128
 30
0.0
 10
8.995865968
 20
5.5213715677
 30
0.0
 10
8.9966153096
 20
5.5215850256
 30
0.0
 10
8.9974599565
 20
5.5217777325
 30
0.0
 10
8.9983903077
 20
5.521946966
 30
0.0
 10
8.9993953652
 20
5.522090214
 30
0.0
 10
9.0004627
 20
5.5222053195
 30
0.0
 10
9.0019686088
 20
5.522320158
 30
0.0
 10
9.0038992549
 20
5.5223817972
 30
0.0
 10
9.0054557975
 20
5.5223463206
 30
0.0
 10
9.0062344199
 20
5.5223058319
 30
0.0
  0
SPLINE
  5
42C
100
AcDbEntity
  8
0
100
AcDbSpline
 62
7
  6
CONTINUOUS
 70
0
 71
3
 72
34
 73
30
 74
0
 42
0.0000001
 43
0.0000001
 44
0.0000000001
 40
0.0
 40
0.0
 40
0.0
 40
0.0
 40
0.0036619285
 40
0.007598484
 40
0.0119538163
 40
0.0168311319
 40
0.0223006382
 40
0.0284075631
 40
0.0426291685
 40
0.0596092992
 40
0.079348046
 40
0.1017872784
 40
0.1268318503
 40
0.1543606399
 40
0.184232244
 40
0.2162881614
 40
0.2503554163
 40
0.3237644879
 40
0.4028293418
 40
0.4857394079
 40
0.5705249458
 40
0.6550880825
 40
0.7372493774
 40
0.814817479
 40
0.8856840132
 40
0.9179979857
 40
0.9479410932
 40
0.9753298047
 40
1.0
 40
1.0
 40
1.0
 40
1.0
 10
9.1057322565
 20
5.5180028456
 30
0.0
 10
9.1057308305
 20
5.5180271422
 30
0.0
 10
9.1057340804
 20
5.5180780671
 30
0.0
 10
9.1057561863
 20
5.5181548802
 30
0.0
 10
9.1057950353
 20
5.5182337285
 30
0.0
 10
9.105850286
 20
5.518314628
 30
0.0
 10
9.1059217508
 20
5.5183976409
 30
0.0
 10
9.1060448569
 20
5.5185172423
 30
0.0
 10
9.1062411926
 20
5.5186697926
 30
0.0
 10
9.10652704
 20
5.5188517535
 30
0.0
 10
9.1068725945
 20
5.5190398551
 30
0.0
 10
9.1072756668
 20
5.5192329351
 30
0.0
 10
9.1077338422
 20
5.5194297879
 30
0.0
 10
9.1082443207
 20
5.5196291904
 30
0.0
 10
9.1088040408
 20
5.5198299175
 30
0.0
 10
9.1094096774
 20
5.5200307587
 30
0.0
 10
9.1102959777
 20
5.5203039084
 30
0.0
 10
9.1114911565
 20
5.5206346538
 30
0.0
 10
9.1130115928
 20
5.5210040294
 30
0.0
 10
9.1146158953
 20
5.5213456345
 30
0.0
 10
9.116264755
 20
5.5216504599
 30
0.0
 10
9.117916302
 20
5.5219100866
 30
0.0
 10
9.1195269449
 20
5.5221171075
 30
0.0
 10
9.1210526351
 20
5.522265358
 30
0.0
 10
9.1222520952
 20
5.5223386099
 30
0.0
 10
9.12313666
 20
5.5223617137
 30
0.0
 10
9.1237325615
 20
5.5223616052
 30
0.0
 10
9.1242774035
 20
5.5223446772
 30
0.0
 10
9.1246227219
 20
5.5223210554
 30
0.0
 10
9.1247859804
 20
5.5223058319
 30
0.0
  0
SPLINE
  5
42D
100
AcDbEntity
  8
0
100
AcDbSpline
 62
7
  6
CONTINUOUS
 70
0
 71
3
 72
19
 73
15
 74
0
 42
0.0000001
 43
0.0000001
 44
0.0000000001
 40
0.0
 40
0.0
 40
0.0
 40
0.0
 40
0.0190746707
 40
0.0391818043
 40
0.0631236958
 40
0.0926201771
 40
0.1285913556
 40
0.1715209038
 40
0.2216558223
 40
0.2791254304
 40
0.4161726473
 40
0.5825029201
 40
0.7774744426
 40
1.0
 40
1.0
 40
1.0
 40
1.0
 10
8.8473804816
 20
5.5221614231
 30
0.0
 10
8.8473797866
 20
5.5221734229
 30
0.0
 10
8.8473833583
 20
5.5221987657
 30
0.0
 10
8.8474057729
 20
5.5222328181
 30
0.0
 10
8.8474427085
 20
5.522261655
 30
0.0
 10
8.8474935506
 20
5.5222865055
 30
0.0
 10
8.8475586155
 20
5.5223077782
 30
0.0
 10
8.8476380474
 20
5.5223255563
 30
0.0
 10
8.8477318832
 20
5.5223398316
 30
0.0
 10
8.8478853561
 20
5.5223549931
 30
0.0
 10
8.8481127911
 20
5.5223631084
 30
0.0
 10
8.848426862
 20
5.5223583697
 30
0.0
 10
8.8487943332
 20
5.5223392854
 30
0.0
 10
8.8490566168
 20
5.5223183977
 30
0.0
 10
8.8491962774
 20
5.5223058319
 30
0.0
  0
SPLINE
  5
42E
100
AcDbEntity
  8
0
100
AcDbSpline
 62
7
  6
CONTINUOUS
 70
0
 71
3
 72
25
 73
21
 74
0
 42
0.0000001
 43
0.0000001
 44
0.0000000001
 40
0.0
 40
0.0
 40
0.0
 40
0.0
 40
0.2018827964
 40
0.389796589
 40
0.4769636415
 40
0.5588350354
 40
0.6348822778
 40
0.7046163811
 40
0.7675945574
 40
0.8234261354
 40
0.8717809215
 40
0.9124050839
 40
0.9297707553
 40
0.9451629618
 40
0.9585952817
 40
0.9701038647
 40
0.9797682884
 40
0.9877404927
 40
0.9943093973
 40
1.0
 40
1.0
 40
1.0
 40
1.0
 10
8.9375164028
 20
5.5086135269
 30
0.0
 10
8.9380281497
 20
5.5085460562
 30
0.0
 10
8.9390151128
 20
5.5084070827
 30
0.0
 10
8.9402191873
 20
5.5082130348
 30
0.0
 10
8.9411174411
 20
5.5080513977
 30
0.0
 10
8.941732647
 20
5.5079321377
 30
0.0
 10
8.9423023343
 20
5.5078126154
 30
0.0
 10
8.9428227019
 20
5.5076936524
 30
0.0
 10
8.9432902597
 20
5.5075760797
 30
0.0
 10
8.9437018892
 20
5.5074607571
 30
0.0
 10
8.9440547975
 20
5.5073485046
 30
0.0
 10
8.9443099426
 20
5.5072539998
 30
0.0
 10
8.9444820799
 20
5.5071792372
 30
0.0
 10
8.9445882309
 20
5.5071273611
 30
0.0
 10
8.9446781994
 20
5.5070768104
 30
0.0
 10
8.94475189
 20
5.5070276319
 30
0.0
 10
8.9448093152
 20
5.5069798406
 30
0.0
 10
8.9448505317
 20
5.506933216
 30
0.0
 10
8.9448754942
 20
5.5068871782
 30
0.0
 10
8.9448803883
 20
5.5068553038
 30
0.0
 10
8.9448794884
 20
5.5068407818
 30
0.0
  0
SPLINE
  5
42F
100
AcDbEntity
  8
0
100
AcDbSpline
 62
7
  6
CONTINUOUS
 70
0
 71
3
 72
17
 73
13
 74
0
 42
0.0000001
 43
0.0000001
 44
0.0000000001
 40
0.0
 40
0.0
 40
0.0
 40
0.0
 40
0.2026684099
 40
0.3820508517
 40
0.5377698866
 40
0.6699416011
 40
0.7792506019
 40
0.8674184113
 40
0.9047490483
 40
0.9385165134
 40
0.9698107594
 40
1.0
 40
1.0
 40
1.0
 40
1.0
 10
9.012518962
 20
5.5086135269
 30
0.0
 10
9.012626123
 20
5.5085866613
 30
0.0
 10
9.0128273003
 20
5.508532562
 30
0.0
 10
9.0131067968
 20
5.5084437364
 30
0.0
 10
9.0133448171
 20
5.5083525498
 30
0.0
 10
9.0135406439
 20
5.5082593839
 30
0.0
 10
9.0136937861
 20
5.5081646394
 30
0.0
 10
9.0137910613
 20
5.5080796999
 30
0.0
 10
9.0138435899
 20
5.5080101816
 30
0.0
 10
9.0138695454
 20
5.5079604113
 30
0.0
 10
9.0138840369
 20
5.5079101553
 30
0.0
 10
9.0138858445
 20
5.5078763371
 30
0.0
 10
9.01388482
 20
5.5078599124
 30
0.0
  0
SPLINE
  5
430
100
AcDbEntity
  8
0
100
AcDbSpline
 62
7
  6
CONTINUOUS
 70
0
 71
3
 72
37
 73
33
 74
0
 42
0.0000001
 43
0.0000001
 44
0.0000000001
 40
0.0
 40
0.0
 40
0.0
 40
0.0
 40
0.0063955967
 40
0.0137161306
 40
0.0311144633
 40
0.052123014
 40
0.0766090736
 40
0.1043963182
 40
0.1352764767
 40
0.2053435272
 40
0.2846444417
 40
0.3706957352
 40
0.4607656352
 40
0.5519477225
 40
0.6412481445
 40
0.725689636
 40
0.765191955
 40
0.8024310267
 40
0.8370936753
 40
0.8688912725
 40
0.8975639646
 40
0.9228853468
 40
0.9446680804
 40
0.9627722221
 40
0.9704196937
 40
0.9771261398
 40
0.9829002069
 40
0.9877633774
 40
0.9917620436
 40
0.9949888696
 40
0.9976258382
 40
1.0
 40
1.0
 40
1.0
 40
1.0
 10
9.0635653197
 20
5.5071105421
 30
0.0
 10
9.0636020584
 20
5.5071306749
 30
0.0
 10
9.063682424
 20
5.5071709894
 30
0.0
 10
9.0638690578
 20
5.5072530249
 30
0.0
 10
9.0641503495
 20
5.5073566644
 30
0.0
 10
9.0645436067
 20
5.5074797207
 30
0.0
 10
9.0650067202
 20
5.5076063399
 30
0.0
 10
9.0655359342
 20
5.5077354536
 30
0.0
 10
9.0663594411
 20
5.5079171448
 30
0.0
 10
9.0675192927
 20
5.5081391747
 30
0.0
 10
9.0690411453
 20
5.5083889276
 30
0.0
 10
9.0706978691
 20
5.5086233863
 30
0.0
 10
9.0724361072
 20
5.5088347087
 30
0.0
 10
9.0741991634
 20
5.5090157012
 30
0.0
 10
9.0759285925
 20
5.5091601629
 30
0.0
 10
9.0773227887
 20
5.5092479416
 30
0.0
 10
9.0783775765
 20
5.5092948917
 30
0.0
 10
9.0791069884
 20
5.5093175019
 30
0.0
 10
9.0797862035
 20
5.5093281416
 30
0.0
 10
9.0804093976
 20
5.509326746
 30
0.0
 10
9.0809712551
 20
5.5093133759
 30
0.0
 10
9.0814670693
 20
5.5092882605
 30
0.0
 10
9.0818927286
 20
5.5092516924
 30
0.0
 10
9.082201555
 20
5.5092102775
 30
0.0
 10
9.0824103663
 20
5.5091699367
 30
0.0
 10
9.082538542
 20
5.5091387766
 30
0.0
 10
9.0826471465
 20
5.5091051072
 30
0.0
 10
9.0827361217
 20
5.509068985
 30
0.0
 10
9.0828055736
 20
5.5090303719
 30
0.0
 10
9.0828558052
 20
5.5089889211
 30
0.0
 10
9.0828866198
 20
5.5089432324
 30
0.0
 10
9.0828920999
 20
5.5089095741
 30
0.0
 10
9.0828911218
 20
5.5088940533
 30
0.0
  0
SPLINE
  5
431
100
AcDbEntity
  8
0
100
AcDbSpline
 62
7
  6
CONTINUOUS
 70
0
 71
3
 72
33
 73
29
 74
0
 42
0.0000001
 43
0.0000001
 44
0.0000000001
 40
0.0
 40
0.0
 40
0.0
 40
0.0
 40
0.0256313314
 40
0.0539760735
 40
0.1179823557
 40
0.1902526638
 40
0.2688304826
 40
0.351665362
 40
0.4366812167
 40
0.5218260251
 40
0.605101828
 40
0.6845852115
 40
0.7584411466
 40
0.824938495
 40
0.8549213016
 40
0.8824751385
 40
0.9074258179
 40
0.929614077
 40
0.948898755
 40
0.9651620585
 40
0.9721338233
 40
0.9783232547
 40
0.9837298009
 40
0.988359639
 40
0.9922324574
 40
0.9953902241
 40
0.9979200698
 40
1.0
 40
1.0
 40
1.0
 40
1.0
 10
8.8491962774
 20
5.5223058319
 30
0.0
 10
8.849363583
 20
5.5222907787
 30
0.0
 10
8.8497155214
 20
5.522254749
 30
0.0
 10
8.8504831557
 20
5.5221616524
 30
0.0
 10
8.8515509584
 20
5.5220063595
 30
0.0
 10
8.8529396062
 20
5.5217726056
 30
0.0
 10
8.854445036
 20
5.5214908047
 30
0.0
 10
8.8560276737
 20
5.5211686558
 30
0.0
 10
8.8576475461
 20
5.5208145432
 30
0.0
 10
8.8592651694
 20
5.5204373655
 30
0.0
 10
8.8608421587
 20
5.5200462876
 30
0.0
 10
8.862341625
 20
5.5196506475
 30
0.0
 10
8.8637284272
 20
5.5192598025
 30
0.0
 10
8.8647968079
 20
5.5189357214
 30
0.0
 10
8.865569856
 20
5.5186842752
 30
0.0
 10
8.8660813482
 20
5.5185091923
 30
0.0
 10
8.8665415186
 20
5.5183421513
 30
0.0
 10
8.8669472629
 20
5.5181842761
 30
0.0
 10
8.8672957271
 20
5.5180366443
 30
0.0
 10
8.8675479059
 20
5.5179177553
 30
0.0
 10
8.86771834
 20
5.5178274582
 30
0.0
 10
8.8678236588
 20
5.5177664262
 30
0.0
 10
8.8679130152
 20
5.5177086748
 30
0.0
 10
8.867986269
 20
5.5176542778
 30
0.0
 10
8.8680434003
 20
5.517603309
 30
0.0
 10
8.8680844326
 20
5.517555608
 30
0.0
 10
8.8681095648
 20
5.5175107774
 30
0.0
 10
8.8681151497
 20
5.5174801422
 30
0.0
 10
8.8681143398
 20
5.5174665349
 30
0.0
  0
SPLINE
  5
432
100
AcDbEntity
  8
0
100
AcDbSpline
 62
7
  6
CONTINUOUS
 70
0
 71
3
 72
30
 73
26
 74
0
 42
0.0000001
 43
0.0000001
 44
0.0000000001
 40
0.0
 40
0.0
 40
0.0
 40
0.0
 40
0.0736669432
 40
0.1522547209
 40
0.2342606812
 40
0.3181409871
 40
0.4023654424
 40
0.4854489723
 40
0.5659776069
 40
0.6426252816
 40
0.7141638618
 40
0.779472669
 40
0.8375494523
 40
0.8636024855
 40
0.8875368627
 40
0.9092738318
 40
0.9287504503
 40
0.9459272862
 40
0.9607974375
 40
0.9734058602
 40
0.9838878945
 40
0.9884232762
 40
0.9925606501
 40
0.9963835224
 40
1.0
 40
1.0
 40
1.0
 40
1.0
 10
8.8864274815
 20
5.5223058319
 30
0.0
 10
8.8868418606
 20
5.5222806754
 30
0.0
 10
8.8876974275
 20
5.5222137454
 30
0.0
 10
8.8890102346
 20
5.5220733389
 30
0.0
 10
8.8903760989
 20
5.5218920159
 30
0.0
 10
8.891768668
 20
5.5216735879
 30
0.0
 10
8.8931618901
 20
5.521422511
 30
0.0
 10
8.8945305637
 20
5.5211437248
 30
0.0
 10
8.8958507271
 20
5.5208425147
 30
0.0
 10
8.8970999004
 20
5.5205243965
 30
0.0
 10
8.8982572698
 20
5.5201950626
 30
0.0
 10
8.8993036939
 20
5.519860262
 30
0.0
 10
8.90009538
 20
5.5195721534
 30
0.0
 10
8.9006588947
 20
5.519341056
 30
0.0
 10
8.9010280339
 20
5.5191762184
 30
0.0
 10
8.9013576254
 20
5.5190142634
 30
0.0
 10
8.9016462152
 20
5.5188558803
 30
0.0
 10
8.9018925278
 20
5.5187017799
 30
0.0
 10
8.9020955818
 20
5.5185525545
 30
0.0
 10
8.9022545154
 20
5.5184087582
 30
0.0
 10
8.9023544017
 20
5.5182880546
 30
0.0
 10
8.9024083208
 20
5.5181942449
 30
0.0
 10
8.9024350499
 20
5.5181288206
 30
0.0
 10
8.9024498759
 20
5.518064974
 30
0.0
 10
8.9024516548
 20
5.5180227737
 30
0.0
 10
8.9024504311
 20
5.5180024302
 30
0.0
  0
SPLINE
  5
433
100
AcDbEntity
  8
0
100
AcDbSpline
 62
7
  6
CONTINUOUS
 70
0
 71
3
 72
26
 73
22
 74
0
 42
0.0000001
 43
0.0000001
 44
0.0000000001
 40
0.0
 40
0.0
 40
0.0
 40
0.0
 40
0.1767079128
 40
0.3518675535
 40
0.4362186625
 40
0.5171100989
 40
0.5936597948
 40
0.6650728341
 40
0.7306500364
 40
0.7897964703
 40
0.8420369237
 40
0.8654632359
 40
0.8870566886
 40
0.9068093337
 40
0.9247352206
 40
0.9408749079
 40
0.9553088056
 40
0.9681715372
 40
0.9796766192
 40
0.990140947
 40
1.0
 40
1.0
 40
1.0
 40
1.0
 10
8.9415719438
 20
5.5223058319
 30
0.0
 10
8.9423462258
 20
5.5222657596
 30
0.0
 10
8.9438861162
 20
5.5221452086
 30
0.0
 10
8.9457853665
 20
5.5219016922
 30
0.0
 10
8.9472582376
 20
5.5216531074
 30
0.0
 10
8.9482991201
 20
5.521447304
 30
0.0
 10
8.949277949
 20
5.5212226185
 30
0.0
 10
8.9501836447
 20
5.5209819584
 30
0.0
 10
8.9510062843
 20
5.5207283815
 30
0.0
 10
8.9517370145
 20
5.520464989
 30
0.0
 10
8.9522813824
 20
5.5202322966
 30
0.0
 10
8.9526632443
 20
5.520041549
 30
0.0
 10
8.9529115994
 20
5.5199031646
 30
0.0
 10
8.9531318352
 20
5.5197645894
 30
0.0
 10
8.9533233946
 20
5.5196261874
 30
0.0
 10
8.9534857926
 20
5.5194882678
 30
0.0
 10
8.9536186333
 20
5.5193510922
 30
0.0
 10
8.9537215246
 20
5.5192147937
 30
0.0
 10
8.9537939901
 20
5.5190793528
 30
0.0
 10
8.9538352088
 20
5.5189448771
 30
0.0
 10
8.9538411302
 20
5.5188548746
 30
0.0
 10
8.9538385349
 20
5.5188116952
 30
0.0
  0
SPLINE
  5
434
100
AcDbEntity
  8
0
100
AcDbSpline
 62
7
  6
CONTINUOUS
 70
0
 71
3
 72
23
 73
19
 74
0
 42
0.0000001
 43
0.0000001
 44
0.0000000001
 40
0.0
 40
0.0
 40
0.0
 40
0.0
 40
0.1931153588
 40
0.3733359785
 40
0.4570475494
 40
0.5357595147
 40
0.60900852
 40
0.6764046886
 40
0.7376407157
 40
0.7925053786
 40
0.8409078894
 40
0.8829174367
 40
0.9188372758
 40
0.9347231261
 40
0.9493837523
 40
0.9757194526
 40
0.9879705657
 40
1.0
 40
1.0
 40
1.0
 40
1.0
 10
9.0062344199
 20
5.5223058319
 30
0.0
 10
9.0068119876
 20
5.5222757981
 30
0.0
 10
9.0079274685
 20
5.5221934664
 30
0.0
 10
9.0092867424
 20
5.5220266251
 30
0.0
 10
9.0102989468
 20
5.5218570722
 30
0.0
 10
9.0109910944
 20
5.5217182269
 30
0.0
 10
9.0116302695
 20
5.521565789
 30
0.0
 10
9.0122121967
 20
5.5214010163
 30
0.0
 10
9.0127331556
 20
5.521225242
 30
0.0
 10
9.0131899774
 20
5.5210398327
 30
0.0
 10
9.0135801623
 20
5.5208461144
 30
0.0
 10
9.0139016567
 20
5.5206453543
 30
0.0
 10
9.0141196628
 20
5.5204660932
 30
0.0
 10
9.014254304
 20
5.5203189615
 30
0.0
 10
9.0143552784
 20
5.5201815741
 30
0.0
 10
9.0144257764
 20
5.5200355396
 30
0.0
 10
9.0144559585
 20
5.5198863338
 30
0.0
 10
9.0144578909
 20
5.5198132015
 30
0.0
 10
9.0144557064
 20
5.5197772417
 30
0.0
  0
SPLINE
  5
435
100
AcDbEntity
  8
0
100
AcDbSpline
 62
7
  6
CONTINUOUS
 70
0
 71
3
 72
20
 73
16
 74
0
 42
0.0000001
 43
0.0000001
 44
0.0000000001
 40
0.0
 40
0.0
 40
0.0
 40
0.0
 40
0.2023478749
 40
0.3841268966
 40
0.5431810727
 40
0.6137188032
 40
0.6781066913
 40
0.7363239926
 40
0.7884351746
 40
0.8346321554
 40
0.8752731433
 40
0.9109648691
 40
0.9426586782
 40
0.9717412737
 40
1.0
 40
1.0
 40
1.0
 40
1.0
 10
9.0705706339
 20
5.5223058319
 30
0.0
 10
9.0709093775
 20
5.5222849364
 30
0.0
 10
9.0715517957
 20
5.5222327149
 30
0.0
 10
9.0724555214
 20
5.5221144869
 30
0.0
 10
9.0731336096
 20
5.5219833451
 30
0.0
 10
9.0736109164
 20
5.5218590103
 30
0.0
 10
9.0739201622
 20
5.5217620039
 30
0.0
 10
9.0741943223
 20
5.5216579372
 30
0.0
 10
9.0744326528
 20
5.521547171
 30
0.0
 10
9.0746346147
 20
5.5214300825
 30
0.0
 10
9.0747998248
 20
5.5213068756
 30
0.0
 10
9.07492796
 20
5.5211775702
 30
0.0
 10
9.0750183937
 20
5.5210418563
 30
0.0
 10
9.0750696843
 20
5.5208998758
 30
0.0
 10
9.0750766614
 20
5.5208025345
 30
0.0
 10
9.0750737555
 20
5.5207552267
 30
0.0
  0
SPLINE
  5
436
100
AcDbEntity
  8
0
100
AcDbSpline
 62
7
  6
CONTINUOUS
 70
0
 71
3
 72
18
 73
14
 74
0
 42
0.0000001
 43
0.0000001
 44
0.0000000001
 40
0.0
 40
0.0
 40
0.0
 40
0.0
 40
0.2035344006
 40
0.3826882602
 40
0.5371526451
 40
0.6672825711
 40
0.7742739066
 40
0.8199338272
 40
0.8610483421
 40
0.8984179719
 40
0.9331191452
 40
0.9664845562
 40
1.0
 40
1.0
 40
1.0
 40
1.0
 10
9.1247859804
 20
5.5223058319
 30
0.0
 10
9.1249175814
 20
5.5222935603
 30
0.0
 10
9.1251646202
 20
5.5222655579
 30
0.0
 10
9.1255088356
 20
5.5222079212
 30
0.0
 10
9.1258020472
 20
5.5221376955
 30
0.0
 10
9.126043065
 20
5.5220553639
 30
0.0
 10
9.1262083173
 20
5.5219729438
 30
0.0
 10
9.1263106958
 20
5.5218993209
 30
0.0
 10
9.126369762
 20
5.521844056
 30
0.0
 10
9.1264151133
 20
5.5217857544
 30
0.0
 10
9.126446504
 20
5.5217243779
 30
0.0
 10
9.1264636024
 20
5.5216601413
 30
0.0
 10
9.1264653235
 20
5.5216163518
 30
0.0
 10
9.1264639738
 20
5.5215946293
 30
0.0
  0
LINE
  5
437
100
AcDbEntity
  8
0
100
AcDbLine
 62
7
  6
CONTINUOUS
 10
9.1606266644
 20
5.5223058319
 11
9.160802206
 21
5.5221609693
  0
SPLINE
  5
438
100
AcDbEntity
  8
0
100
AcDbSpline
 62
7
  6
CONTINUOUS
 70
0
 71
3
 72
15
 73
11
 74
0
 42
0.0000001
 43
0.0000001
 44
0.0000000001
 40
0.0
 40
0.0
 40
0.0
 40
0.0
 40
0.1406515627
 40
0.2783037726
 40
0.4109549472
 40
0.537893997
 40
0.6593882617
 40
0.7762312851
 40
0.8894227443
 40
1.0
 40
1.0
 40
1.0
 40
1.0
 10
9.2977748589
 20
5.7853704987
 30
0.0
 10
9.2977748589
 20
5.7859866259
 30
0.0
 10
9.2976635764
 20
5.7872086782
 30
0.0
 10
9.2971785889
 20
5.7889518485
 30
0.0
 10
9.2964213125
 20
5.7905284666
 30
0.0
 10
9.2954482102
 20
5.7918945247
 30
0.0
 10
9.2943132587
 20
5.7930323665
 30
0.0
 10
9.2930614299
 20
5.7939399756
 30
0.0
 10
9.2917286751
 20
5.7946228261
 30
0.0
 10
9.2907955902
 20
5.7949364345
 30
0.0
 10
9.2903263989
 20
5.7950568066
 30
0.0
  0
SPLINE
  5
439
100
AcDbEntity
  8
0
100
AcDbSpline
 62
7
  6
CONTINUOUS
 70
0
 71
3
 72
18
 73
14
 74
0
 42
0.0000001
 43
0.0000001
 44
0.0000000001
 40
0.0
 40
0.0
 40
0.0
 40
0.0
 40
0.0718854853
 40
0.1433055531
 40
0.2138413457
 40
0.2831506589
 40
0.4170859427
 40
0.5443834239
 40
0.605648368
 40
0.6654114181
 40
0.7808630203
 40
0.8919881039
 40
1.0
 40
1.0
 40
1.0
 40
1.0
 10
9.2970446448
 20
5.7853704987
 30
0.0
 10
9.2970446448
 20
5.7856800238
 30
0.0
 10
9.2970177413
 20
5.7862974125
 30
0.0
 10
9.2968977304
 20
5.7872114162
 30
0.0
 10
9.2967014411
 20
5.7881008826
 30
0.0
 10
9.2963490682
 20
5.7892270768
 30
0.0
 10
9.2957530864
 20
5.7905275251
 30
0.0
 10
9.2949683877
 20
5.7916813324
 30
0.0
 10
9.2942613343
 20
5.792484831
 30
0.0
 10
9.2935284419
 20
5.793193044
 30
0.0
 10
9.2925418946
 20
5.7939419705
 30
0.0
 10
9.291267356
 20
5.7946251545
 30
0.0
 10
9.2903730127
 20
5.7949392775
 30
0.0
 10
9.2899237335
 20
5.7950594699
 30
0.0
  0
SPLINE
  5
43A
100
AcDbEntity
  8
0
100
AcDbSpline
 62
7
  6
CONTINUOUS
 70
0
 71
3
 72
18
 73
14
 74
0
 42
0.0000001
 43
0.0000001
 44
0.0000000001
 40
0.0
 40
0.0
 40
0.0
 40
0.0
 40
0.0732920293
 40
0.1460558304
 40
0.2178147056
 40
0.2881773958
 40
0.4235769294
 40
0.5513491034
 40
0.6124700357
 40
0.6718459004
 40
0.7858522236
 40
0.8947697492
 40
1.0
 40
1.0
 40
1.0
 40
1.0
 10
9.2955116488
 20
5.7853704987
 30
0.0
 10
9.2955116488
 20
5.785679995
 30
0.0
 10
9.2954861174
 20
5.7862970666
 30
0.0
 10
9.2953722088
 20
5.7872107613
 30
0.0
 10
9.2951858955
 20
5.7880999584
 30
0.0
 10
9.2948518428
 20
5.7892243708
 30
0.0
 10
9.294287705
 20
5.7905221785
 30
0.0
 10
9.2935419152
 20
5.7916783416
 30
0.0
 10
9.2928690524
 20
5.7924836596
 30
0.0
 10
9.2921743872
 20
5.7931906292
 30
0.0
 10
9.2912392556
 20
5.7939390064
 30
0.0
 10
9.2900280207
 20
5.7946234511
 30
0.0
 10
9.2891757487
 20
5.7949389998
 30
0.0
 10
9.2887480259
 20
5.7950594699
 30
0.0
  0
SPLINE
  5
43B
100
AcDbEntity
  8
0
100
AcDbSpline
 62
7
  6
CONTINUOUS
 70
0
 71
3
 72
17
 73
13
 74
0
 42
0.0000001
 43
0.0000001
 44
0.0000000001
 40
0.0
 40
0.0
 40
0.0
 40
0.0
 40
0.1479480249
 40
0.2917725493
 40
0.4285704789
 40
0.4939299322
 40
0.5571764272
 40
0.6774809152
 40
0.7904751046
 40
0.8446725218
 40
0.8975457975
 40
1.0
 40
1.0
 40
1.0
 40
1.0
 10
9.29317989
 20
5.7853704987
 30
0.0
 10
9.29317989
 20
5.7859654728
 30
0.0
 10
9.2930916319
 20
5.7871408377
 30
0.0
 10
9.2927055427
 20
5.7888267446
 30
0.0
 10
9.292192734
 20
5.7901264964
 30
0.0
 10
9.2916886432
 20
5.7910683181
 30
0.0
 10
9.2911499816
 20
5.7919129966
 30
0.0
 10
9.2903961933
 20
5.792843555
 30
0.0
 10
9.2895342194
 20
5.7936216435
 30
0.0
 10
9.2888104069
 20
5.7941323772
 30
0.0
 10
9.2880852317
 20
5.7945626405
 30
0.0
 10
9.2875109562
 20
5.7948171055
 30
0.0
 10
9.2871219254
 20
5.7949528104
 30
0.0
  0
SPLINE
  5
43C
100
AcDbEntity
  8
0
100
AcDbSpline
 62
7
  6
CONTINUOUS
 70
0
 71
3
 72
16
 73
12
 74
0
 42
0.0000001
 43
0.0000001
 44
0.0000000001
 40
0.0
 40
0.0
 40
0.0
 40
0.0
 40
0.1520794552
 40
0.2992155767
 40
0.3698272444
 40
0.4380775421
 40
0.5670445022
 40
0.6863827652
 40
0.7972168817
 40
0.9011520889
 40
1.0
 40
1.0
 40
1.0
 40
1.0
 10
9.2900557597
 20
5.7853704987
 30
0.0
 10
9.2900557597
 20
5.7859862827
 30
0.0
 10
9.2899674114
 20
5.7871996268
 30
0.0
 10
9.2896409355
 20
5.7886668811
 30
0.0
 10
9.2892635841
 20
5.7897627691
 30
0.0
 10
9.2888344203
 20
5.7907595985
 30
0.0
 10
9.2881971557
 20
5.7918779683
 30
0.0
 10
9.287286303
 20
5.793019163
 30
0.0
 10
9.2862790672
 20
5.79393151
 30
0.0
 10
9.285204517
 20
5.7946189745
 30
0.0
 10
9.2844427453
 20
5.7949382486
 30
0.0
 10
9.2840612993
 20
5.7950594699
 30
0.0
  0
SPLINE
  5
43D
100
AcDbEntity
  8
0
100
AcDbSpline
 62
7
  6
CONTINUOUS
 70
0
 71
3
 72
15
 73
11
 74
0
 42
0.0000001
 43
0.0000001
 44
0.0000000001
 40
0.0
 40
0.0
 40
0.0
 40
0.0
 40
0.1554317007
 40
0.3053893047
 40
0.4460387717
 40
0.5757232454
 40
0.6945356345
 40
0.8036440725
 40
0.9047903661
 40
1.0
 40
1.0
 40
1.0
 40
1.0
 10
9.2861478208
 20
5.7853704987
 30
0.0
 10
9.2861478208
 20
5.7859860648
 30
0.0
 10
9.2860657403
 20
5.7871971942
 30
0.0
 10
9.2857066517
 20
5.7889322414
 30
0.0
 10
9.2851445901
 20
5.7905049623
 30
0.0
 10
9.2844202125
 20
5.7918715957
 30
0.0
 10
9.2835727273
 20
5.7930133612
 30
0.0
 10
9.2826349203
 20
5.7939268861
 30
0.0
 10
9.2816335742
 20
5.7946160041
 30
0.0
 10
9.2809199999
 20
5.7949377361
 30
0.0
 10
9.2805631263
 20
5.7950594699
 30
0.0
  0
SPLINE
  5
43E
100
AcDbEntity
  8
0
100
AcDbSpline
 62
7
  6
CONTINUOUS
 70
0
 71
3
 72
15
 73
11
 74
0
 42
0.0000001
 43
0.0000001
 44
0.0000000001
 40
0.0
 40
0.0
 40
0.0
 40
0.0
 40
0.1588951072
 40
0.3117873373
 40
0.4544293981
 40
0.5849129194
 40
0.703225702
 40
0.8105470461
 40
0.9087286656
 40
1.0
 40
1.0
 40
1.0
 40
1.0
 10
9.2814696089
 20
5.7853704987
 30
0.0
 10
9.2814696089
 20
5.7859852982
 30
0.0
 10
9.2813941469
 20
5.7871931015
 30
0.0
 10
9.2810638154
 20
5.7889247345
 30
0.0
 10
9.280546623
 20
5.7904950067
 30
0.0
 10
9.2798798175
 20
5.791860418
 30
0.0
 10
9.2790992871
 20
5.7930022379
 30
0.0
 10
9.278234881
 20
5.7939170839
 30
0.0
 10
9.2773109525
 20
5.7946085776
 30
0.0
 10
9.2766481696
 20
5.794934008
 30
0.0
 10
9.2763170588
 20
5.7950568066
 30
0.0
  0
SPLINE
  5
43F
100
AcDbEntity
  8
0
100
AcDbSpline
 62
7
  6
CONTINUOUS
 70
0
 71
3
 72
15
 73
11
 74
0
 42
0.0000001
 43
0.0000001
 44
0.0000000001
 40
0.0
 40
0.0
 40
0.0
 40
0.0
 40
0.162580173
 40
0.3186012275
 40
0.4633821489
 40
0.5947476296
 40
0.7125637144
 40
0.8180006993
 40
0.9130022734
 40
1.0
 40
1.0
 40
1.0
 40
1.0
 10
9.2760254819
 20
5.7853704987
 30
0.0
 10
9.2760254819
 20
5.7859856557
 30
0.0
 10
9.2759565297
 20
5.7871923552
 30
0.0
 10
9.2756545617
 20
5.7889233797
 30
0.0
 10
9.2751817812
 20
5.7904931201
 30
0.0
 10
9.2745722212
 20
5.791858211
 30
0.0
 10
9.273858608
 20
5.7930000426
 30
0.0
 10
9.2730679196
 20
5.7939154163
 30
0.0
 10
9.2722220201
 20
5.7946079682
 30
0.0
 10
9.2716103299
 20
5.7949362792
 30
0.0
 10
9.271305076
 20
5.7950594699
 30
0.0
  0
SPLINE
  5
440
100
AcDbEntity
  8
0
100
AcDbSpline
 62
7
  6
CONTINUOUS
 70
0
 71
3
 72
15
 73
11
 74
0
 42
0.0000001
 43
0.0000001
 44
0.0000000001
 40
0.0
 40
0.0
 40
0.0
 40
0.0
 40
0.1663297245
 40
0.3255577807
 40
0.4725715902
 40
0.6049148754
 40
0.7223022672
 40
0.8258524988
 40
0.917552852
 40
1.0
 40
1.0
 40
1.0
 40
1.0
 10
9.2698388265
 20
5.7853704987
 30
0.0
 10
9.2698388265
 20
5.7859854689
 30
0.0
 10
9.2697766542
 20
5.7871901382
 30
0.0
 10
9.2695042671
 20
5.7889192235
 30
0.0
 10
9.2690778127
 20
5.7904873424
 30
0.0
 10
9.2685280034
 20
5.7918512988
 30
0.0
 10
9.2678843465
 20
5.7929926314
 30
0.0
 10
9.2671709181
 20
5.7939084256
 30
0.0
 10
9.2664070051
 20
5.7946025486
 30
0.0
 10
9.2658489387
 20
5.7949352304
 30
0.0
 10
9.2655705743
 20
5.7950594699
 30
0.0
  0
SPLINE
  5
441
100
AcDbEntity
  8
0
100
AcDbSpline
 62
7
  6
CONTINUOUS
 70
0
 71
3
 72
18
 73
14
 74
0
 42
0.0000001
 43
0.0000001
 44
0.0000000001
 40
0.0
 40
0.0
 40
0.0
 40
0.0
 40
0.1700943058
 40
0.3325562491
 40
0.4818464331
 40
0.6152203353
 40
0.6757592743
 40
0.7322817781
 40
0.7849561465
 40
0.8340087317
 40
0.8797121751
 40
0.922383827
 40
1.0
 40
1.0
 40
1.0
 40
1.0
 10
9.2629237758
 20
5.7853704987
 30
0.0
 10
9.2629237758
 20
5.7859852967
 30
0.0
 10
9.262868505
 20
5.7871880801
 30
0.0
 10
9.2626262617
 20
5.7889153638
 30
0.0
 10
9.262247074
 20
5.7904816868
 30
0.0
 10
9.2618272779
 20
5.7916521941
 30
0.0
 10
9.2614430947
 20
5.7924724137
 30
0.0
 10
9.2611468198
 20
5.7930101822
 30
0.0
 10
9.2608357182
 20
5.7934907949
 30
0.0
 10
9.2605121252
 20
5.79391486
 30
0.0
 10
9.2601778685
 20
5.7942833438
 30
0.0
 10
9.2597349624
 20
5.7946886587
 30
0.0
 10
9.2593702248
 20
5.7949338606
 30
0.0
 10
9.2591193762
 20
5.7950594699
 30
0.0
  0
SPLINE
  5
442
100
AcDbEntity
  8
0
100
AcDbSpline
 62
7
  6
CONTINUOUS
 70
0
 71
3
 72
20
 73
16
 74
0
 42
0.0000001
 43
0.0000001
 44
0.0000000001
 40
0.0
 40
0.0
 40
0.0
 40
0.0
 40
0.1738765392
 40
0.2582195567
 40
0.3396455494
 40
0.4912768884
 40
0.5607747245
 40
0.6258183964
 40
0.6863945647
 40
0.7425834593
 40
0.7945388454
 40
0.8424755636
 40
0.886658861
 40
0.9274049704
 40
1.0
 40
1.0
 40
1.0
 40
1.0
 10
9.2552992834
 20
5.7853704987
 30
0.0
 10
9.2552992834
 20
5.7859851411
 30
0.0
 10
9.2552626065
 20
5.7868985406
 30
0.0
 10
9.2551397376
 20
5.7880931448
 30
0.0
 10
9.2549776701
 20
5.7892036028
 30
0.0
 10
9.2547558846
 20
5.7902517051
 30
0.0
 10
9.2544739178
 20
5.7912235848
 30
0.0
 10
9.2542478668
 20
5.7918755737
 30
0.0
 10
9.2540039997
 20
5.7924705716
 30
0.0
 10
9.2537448873
 20
5.7930081946
 30
0.0
 10
9.2534728116
 20
5.7934887052
 30
0.0
 10
9.2531898351
 20
5.7939127137
 30
0.0
 10
9.2528975072
 20
5.794281255
 30
0.0
 10
9.2525126569
 20
5.7946840845
 30
0.0
 10
9.2521919116
 20
5.7949320465
 30
0.0
 10
9.251969164
 20
5.7950594699
 30
0.0
  0
SPLINE
  5
443
100
AcDbEntity
  8
0
100
AcDbSpline
 62
7
  6
CONTINUOUS
 70
0
 71
3
 72
20
 73
16
 74
0
 42
0.0000001
 43
0.0000001
 44
0.0000000001
 40
0.0
 40
0.0
 40
0.0
 40
0.0
 40
0.1775788914
 40
0.2636146242
 40
0.34655763
 40
0.5005295939
 40
0.5707714498
 40
0.6362409529
 40
0.6969017184
 40
0.7528131018
 40
0.8041092233
 40
0.8509861042
 40
0.893691668
 40
0.9325283381
 40
1.0
 40
1.0
 40
1.0
 40
1.0
 10
9.2469862475
 20
5.7853704987
 30
0.0
 10
9.2469862475
 20
5.7859850038
 30
0.0
 10
9.2469549497
 20
5.7868976795
 30
0.0
 10
9.2468499279
 20
5.7880925305
 30
0.0
 10
9.246711574
 20
5.7892016604
 30
0.0
 10
9.2465223542
 20
5.7902489473
 30
0.0
 10
9.2462810703
 20
5.791222191
 30
0.0
 10
9.2460879661
 20
5.791873981
 30
0.0
 10
9.2458796645
 20
5.7924687833
 30
0.0
 10
9.2456583688
 20
5.7930062129
 30
0.0
 10
9.2454260341
 20
5.7934865491
 30
0.0
 10
9.2451844323
 20
5.7939104035
 30
0.0
 10
9.2449348647
 20
5.7942788992
 30
0.0
 10
9.2446088591
 20
5.7946785821
 30
0.0
 10
9.244333579
 20
5.7949296173
 30
0.0
 10
9.244139536
 20
5.7950594699
 30
0.0
  0
SPLINE
  5
444
100
AcDbEntity
  8
0
100
AcDbSpline
 62
7
  6
CONTINUOUS
 70
0
 71
3
 72
20
 73
16
 74
0
 42
0.0000001
 43
0.0000001
 44
0.0000000001
 40
0.0
 40
0.0
 40
0.0
 40
0.0
 40
0.180966709
 40
0.3528848234
 40
0.5090533563
 40
0.5800149027
 40
0.6459183343
 40
0.7067031158
 40
0.7624050674
 40
0.8131340699
 40
0.8590601113
 40
0.9004029918
 40
0.9374357958
 40
0.970498211
 40
1.0
 40
1.0
 40
1.0
 40
1.0
 10
9.2380126429
 20
5.7853704987
 30
0.0
 10
9.2380126429
 20
5.785984332
 30
0.0
 10
9.237978697
 20
5.7871816211
 30
0.0
 10
9.2378297724
 20
5.7889028048
 30
0.0
 10
9.2376298943
 20
5.7902426485
 30
0.0
 10
9.2374303819
 20
5.7912165819
 30
0.0
 10
9.2372709407
 20
5.7918679528
 30
0.0
 10
9.2370989645
 20
5.7924624344
 30
0.0
 10
9.2369162776
 20
5.7929996376
 30
0.0
 10
9.2367245218
 20
5.7934798209
 30
0.0
 10
9.2365251259
 20
5.7939036691
 30
0.0
 10
9.2363193334
 20
5.7942721127
 30
0.0
 10
9.2361081517
 20
5.7945862492
 30
0.0
 10
9.2358924932
 20
5.7948470666
 30
0.0
 10
9.23573804
 20
5.7949937098
 30
0.0
 10
9.2356603701
 20
5.7950568066
 30
0.0
  0
SPLINE
  5
445
100
AcDbEntity
  8
0
100
AcDbSpline
 62
7
  6
CONTINUOUS
 70
0
 71
3
 72
20
 73
16
 74
0
 42
0.0000001
 43
0.0000001
 44
0.0000000001
 40
0.0
 40
0.0
 40
0.0
 40
0.0
 40
0.1842050865
 40
0.3589573715
 40
0.517227047
 40
0.5888831387
 40
0.6552138657
 40
0.7161368006
 40
0.7716655945
 40
0.8218859017
 40
0.8669396177
 40
0.9070130932
 40
0.9423396669
 40
0.9732134421
 40
1.0
 40
1.0
 40
1.0
 40
1.0
 10
9.228387512
 20
5.7853704987
 30
0.0
 10
9.228387512
 20
5.7859847897
 30
0.0
 10
9.2283607326
 20
5.7871820457
 30
0.0
 10
9.2282432245
 20
5.7889034741
 30
0.0
 10
9.2280854285
 20
5.7902444548
 30
0.0
 10
9.2279277032
 20
5.7912198747
 30
0.0
 10
9.227801836
 20
5.7918712694
 30
0.0
 10
9.2276661003
 20
5.7924656418
 30
0.0
 10
9.2275219465
 20
5.7930025995
 30
0.0
 10
9.227370686
 20
5.7934824004
 30
0.0
 10
9.227213467
 20
5.7939057329
 30
0.0
 10
9.2270512989
 20
5.7942735392
 30
0.0
 10
9.2268850035
 20
5.79458696
 30
0.0
 10
9.2267153236
 20
5.7948470595
 30
0.0
 10
9.2265920457
 20
5.7949955184
 30
0.0
 10
9.2265296778
 20
5.7950594699
 30
0.0
  0
SPLINE
  5
446
100
AcDbEntity
  8
0
100
AcDbSpline
 62
7
  6
CONTINUOUS
 70
0
 71
3
 72
19
 73
15
 74
0
 42
0.0000001
 43
0.0000001
 44
0.0000000001
 40
0.0
 40
0.0
 40
0.0
 40
0.0
 40
0.1868516855
 40
0.3639372304
 40
0.5239673854
 40
0.6629308692
 40
0.7240077886
 40
0.7794375516
 40
0.8292821791
 40
0.8736546019
 40
0.9127041517
 40
0.9466156874
 40
0.9756192404
 40
1.0
 40
1.0
 40
1.0
 40
1.0
 10
9.2181527902
 20
5.7853704987
 30
0.0
 10
9.2181527902
 20
5.7859847154
 30
0.0
 10
9.2181332718
 20
5.7871811432
 30
0.0
 10
9.2180476851
 20
5.7889017312
 30
0.0
 10
9.217913796
 20
5.7904613058
 30
0.0
 10
9.2177647326
 20
5.7916359636
 30
0.0
 10
9.2176268261
 20
5.7924644352
 30
0.0
 10
9.2175217605
 20
5.7930011611
 30
0.0
 10
9.2174115578
 20
5.7934806782
 30
0.0
 10
9.2172970631
 20
5.7939036592
 30
0.0
 10
9.2171790463
 20
5.7942710279
 30
0.0
 10
9.2170581613
 20
5.7945839202
 30
0.0
 10
9.2169350113
 20
5.7948434192
 30
0.0
 10
9.2168441696
 20
5.7949941626
 30
0.0
 10
9.2167977149
 20
5.7950594699
 30
0.0
  0
SPLINE
  5
447
100
AcDbEntity
  8
0
100
AcDbSpline
 62
7
  6
CONTINUOUS
 70
0
 71
3
 72
18
 73
14
 74
0
 42
0.0000001
 43
0.0000001
 44
0.0000000001
 40
0.0
 40
0.0
 40
0.0
 40
0.0
 40
0.1888164384
 40
0.3676399386
 40
0.5289931699
 40
0.6687225738
 40
0.7853054409
 40
0.8348932828
 40
0.8787802477
 40
0.9170831658
 40
0.9499412694
 40
0.9775179672
 40
1.0
 40
1.0
 40
1.0
 40
1.0
 10
9.2073313408
 20
5.7853704987
 30
0.0
 10
9.2073313408
 20
5.785984664
 30
0.0
 10
9.2073191304
 20
5.7871805305
 30
0.0
 10
9.207265558
 20
5.7889004836
 30
0.0
 10
9.2071818277
 20
5.7904593901
 30
0.0
 10
9.2070741185
 20
5.7918138125
 30
0.0
 10
9.2069646115
 20
5.7928030266
 30
0.0
 10
9.2068673577
 20
5.7934793832
 30
0.0
 10
9.206795742
 20
5.7939020493
 30
0.0
 10
9.206721982
 20
5.794268994
 30
0.0
 10
9.2066465319
 20
5.7945812915
 30
0.0
 10
9.2065698192
 20
5.7948399765
 30
0.0
 10
9.2065124952
 20
5.7949926703
 30
0.0
 10
9.2064827387
 20
5.7950594699
 30
0.0
  0
SPLINE
  5
448
100
AcDbEntity
  8
0
100
AcDbSpline
 62
7
  6
CONTINUOUS
 70
0
 71
3
 72
17
 73
13
 74
0
 42
0.0000001
 43
0.0000001
 44
0.0000000001
 40
0.0
 40
0.0
 40
0.0
 40
0.0
 40
0.1899355918
 40
0.3697513275
 40
0.5318645475
 40
0.6720416898
 40
0.788691144
 40
0.8817601089
 40
0.9196442912
 40
0.9519024937
 40
0.9786512465
 40
1.0
 40
1.0
 40
1.0
 40
1.0
 10
9.1959528248
 20
5.7853704987
 30
0.0
 10
9.1959528248
 20
5.7859846362
 30
0.0
 10
9.1959479365
 20
5.7871801958
 30
0.0
 10
9.1959264973
 20
5.7888998132
 30
0.0
 10
9.1958929727
 20
5.7904583168
 30
0.0
 10
9.1958499122
 20
5.7918122633
 30
0.0
 10
9.1957997198
 20
5.7929425298
 30
0.0
 10
9.1957512143
 20
5.7937417244
 30
0.0
 10
9.1957089307
 20
5.7942677707
 30
0.0
 10
9.1956787841
 20
5.7945796257
 30
0.0
 10
9.1956481829
 20
5.7948376575
 30
0.0
 10
9.1956251434
 20
5.7949915135
 30
0.0
 10
9.1956130218
 20
5.7950594699
 30
0.0
  0
SPLINE
  5
449
100
AcDbEntity
  8
0
100
AcDbSpline
 62
7
  6
CONTINUOUS
 70
0
 71
3
 72
17
 73
13
 74
0
 42
0.0000001
 43
0.0000001
 44
0.0000000001
 40
0.0
 40
0.0
 40
0.0
 40
0.0
 40
0.0213487468
 40
0.0480974754
 40
0.0803556218
 40
0.1182396533
 40
0.2113083642
 40
0.3279575877
 40
0.468134686
 40
0.6302478741
 40
0.810063782
 40
1.0
 40
1.0
 40
1.0
 40
1.0
 10
8.8125696898
 20
5.7950594699
 30
0.0
 10
8.8125575681
 20
5.7949915135
 30
0.0
 10
8.8125345287
 20
5.7948376576
 30
0.0
 10
8.8125039275
 20
5.7945796261
 30
0.0
 10
8.812473781
 20
5.7942677718
 30
0.0
 10
8.8124314975
 20
5.7937417271
 30
0.0
 10
8.812382992
 20
5.7929425344
 30
0.0
 10
8.8123327995
 20
5.7918122697
 30
0.0
 10
8.812289739
 20
5.7904583242
 30
0.0
 10
8.8122562144
 20
5.7888998203
 30
0.0
 10
8.8122347751
 20
5.7871802004
 30
0.0
 10
8.8122298867
 20
5.7859846382
 30
0.0
 10
8.8122298867
 20
5.7853704987
 30
0.0
  0
SPLINE
  5
44A
100
AcDbEntity
  8
0
100
AcDbSpline
 62
7
  6
CONTINUOUS
 70
0
 71
3
 72
18
 73
14
 74
0
 42
0.0000001
 43
0.0000001
 44
0.0000000001
 40
0.0
 40
0.0
 40
0.0
 40
0.0
 40
0.0224820259
 40
0.0500586988
 40
0.0829167458
 40
0.1212195125
 40
0.1651063263
 40
0.2146940665
 40
0.3312767055
 40
0.4710060668
 40
0.6323592673
 40
0.8111829392
 40
1.0
 40
1.0
 40
1.0
 40
1.0
 10
8.8016999729
 20
5.7950594699
 30
0.0
 10
8.8016702164
 20
5.7949926703
 30
0.0
 10
8.8016128924
 20
5.7948399766
 30
0.0
 10
8.8015361798
 20
5.7945812919
 30
0.0
 10
8.8014607298
 20
5.7942689952
 30
0.0
 10
8.80138697
 20
5.7939020516
 30
0.0
 10
8.8013153544
 20
5.7934793868
 30
0.0
 10
8.8012181008
 20
5.7928030317
 30
0.0
 10
8.8011085936
 20
5.7918138189
 30
0.0
 10
8.8010008843
 20
5.7904593975
 30
0.0
 10
8.8009171539
 20
5.7889004907
 30
0.0
 10
8.8008635812
 20
5.7871805351
 30
0.0
 10
8.8008513707
 20
5.785984666
 30
0.0
 10
8.8008513707
 20
5.7853704987
 30
0.0
  0
SPLINE
  5
44B
100
AcDbEntity
  8
0
100
AcDbSpline
 62
7
  6
CONTINUOUS
 70
0
 71
3
 72
19
 73
15
 74
0
 42
0.0000001
 43
0.0000001
 44
0.0000000001
 40
0.0
 40
0.0
 40
0.0
 40
0.0
 40
0.0243807524
 40
0.0533842794
 40
0.0872957572
 40
0.1263451547
 40
0.1707174271
 40
0.2205619542
 40
0.2759916253
 40
0.3370684127
 40
0.4760318567
 40
0.6360619827
 40
0.8131476986
 40
1.0
 40
1.0
 40
1.0
 40
1.0
 10
8.7913849966
 20
5.7950594699
 30
0.0
 10
8.791338542
 20
5.7949941626
 30
0.0
 10
8.7912477003
 20
5.7948434193
 30
0.0
 10
8.7911245504
 20
5.7945839206
 30
0.0
 10
8.7910036656
 20
5.794271029
 30
0.0
 10
8.7908856491
 20
5.7939036615
 30
0.0
 10
8.7907711547
 20
5.7934806818
 30
0.0
 10
8.790660952
 20
5.7930011658
 30
0.0
 10
8.7905558865
 20
5.792464441
 30
0.0
 10
8.7904179799
 20
5.7916359703
 30
0.0
 10
8.7902689163
 20
5.7904613132
 30
0.0
 10
8.7901350269
 20
5.7889017383
 30
0.0
 10
8.7900494398
 20
5.7871811478
 30
0.0
 10
8.7900299214
 20
5.7859847174
 30
0.0
 10
8.7900299214
 20
5.7853704987
 30
0.0
  0
SPLINE
  5
44C
100
AcDbEntity
  8
0
100
AcDbSpline
 62
7
  6
CONTINUOUS
 70
0
 71
3
 72
20
 73
16
 74
0
 42
0.0000001
 43
0.0000001
 44
0.0000000001
 40
0.0
 40
0.0
 40
0.0
 40
0.0
 40
0.0267865503
 40
0.057660298
 40
0.092986812
 40
0.133060134
 40
0.1781137005
 40
0.228333909
 40
0.2838626135
 40
0.3447854196
 40
0.4111161534
 40
0.4827722021
 40
0.6410418511
 40
0.8157943059
 40
1.0
 40
1.0
 40
1.0
 40
1.0
 10
8.7816530338
 20
5.7950594699
 30
0.0
 10
8.7815906658
 20
5.7949955184
 30
0.0
 10
8.781467388
 20
5.7948470596
 30
0.0
 10
8.7812977083
 20
5.7945869603
 30
0.0
 10
8.7811314132
 20
5.7942735403
 30
0.0
 10
8.7809692455
 20
5.7939057352
 30
0.0
 10
8.7808120267
 20
5.793482404
 30
0.0
 10
8.7806607665
 20
5.7930026043
 30
0.0
 10
8.7805166127
 20
5.7924656476
 30
0.0
 10
8.7803808768
 20
5.791871276
 30
0.0
 10
8.7802550097
 20
5.7912198818
 30
0.0
 10
8.780097284
 20
5.7902444622
 30
0.0
 10
8.7799394877
 20
5.7889034812
 30
0.0
 10
8.779821979
 20
5.7871820503
 30
0.0
 10
8.7797951996
 20
5.7859847917
 30
0.0
 10
8.7797951996
 20
5.7853704987
 30
0.0
  0
SPLINE
  5
44D
100
AcDbEntity
  8
0
100
AcDbSpline
 62
7
  6
CONTINUOUS
 70
0
 71
3
 72
20
 73
16
 74
0
 42
0.0000001
 43
0.0000001
 44
0.0000000001
 40
0.0
 40
0.0
 40
0.0
 40
0.0
 40
0.029501781
 40
0.0625641667
 40
0.0995969092
 40
0.1409396346
 40
0.1868655278
 40
0.237594434
 40
0.2932962995
 40
0.3540809563
 40
0.4199843968
 40
0.4909459031
 40
0.6471144134
 40
0.8190326958
 40
1.0
 40
1.0
 40
1.0
 40
1.0
 10
8.7725223415
 20
5.7950568066
 30
0.0
 10
8.7724446715
 20
5.7949937098
 30
0.0
 10
8.7722902185
 20
5.7948470668
 30
0.0
 10
8.7720745602
 20
5.7945862496
 30
0.0
 10
8.7718633789
 20
5.7942721138
 30
0.0
 10
8.7716575868
 20
5.7939036714
 30
0.0
 10
8.7714581913
 20
5.7934798245
 30
0.0
 10
8.7712664357
 20
5.7929996423
 30
0.0
 10
8.7710837489
 20
5.7924624402
 30
0.0
 10
8.7709117725
 20
5.7918679594
 30
0.0
 10
8.7707523313
 20
5.791216589
 30
0.0
 10
8.7705528185
 20
5.7902426559
 30
0.0
 10
8.77035294
 20
5.7889028119
 30
0.0
 10
8.7702040147
 20
5.7871816257
 30
0.0
 10
8.7701700686
 20
5.785984334
 30
0.0
 10
8.7701700686
 20
5.7853704987
 30
0.0
  0
SPLINE
  5
44E
100
AcDbEntity
  8
0
100
AcDbSpline
 62
7
  6
CONTINUOUS
 70
0
 71
3
 72
20
 73
16
 74
0
 42
0.0000001
 43
0.0000001
 44
0.0000000001
 40
0.0
 40
0.0
 40
0.0
 40
0.0
 40
0.0674716221
 40
0.1063082283
 40
0.1490136345
 40
0.1958903674
 40
0.2471863944
 40
0.303097695
 40
0.3637583397
 40
0.4292278533
 40
0.4994696722
 40
0.6534416166
 40
0.7363846684
 40
0.8224205226
 40
1.0
 40
1.0
 40
1.0
 40
1.0
 10
8.7640431755
 20
5.7950594699
 30
0.0
 10
8.7638491327
 20
5.7949296174
 30
0.0
 10
8.7635738528
 20
5.7946785824
 30
0.0
 10
8.7632478477
 20
5.7942789003
 30
0.0
 10
8.7629982807
 20
5.7939104058
 30
0.0
 10
8.7627566793
 20
5.7934865528
 30
0.0
 10
8.7625243449
 20
5.7930062177
 30
0.0
 10
8.7623030493
 20
5.7924687891
 30
0.0
 10
8.7620947475
 20
5.7918739876
 30
0.0
 10
8.7619016433
 20
5.7912221981
 30
0.0
 10
8.7616603589
 20
5.7902489547
 30
0.0
 10
8.7614711387
 20
5.7892016679
 30
0.0
 10
8.7613327844
 20
5.7880925375
 30
0.0
 10
8.7612277619
 20
5.786897684
 30
0.0
 10
8.761196464
 20
5.7859850058
 30
0.0
 10
8.761196464
 20
5.7853704987
 30
0.0
  0
SPLINE
  5
44F
100
AcDbEntity
  8
0
100
AcDbSpline
 62
7
  6
CONTINUOUS
 70
0
 71
3
 72
20
 73
16
 74
0
 42
0.0000001
 43
0.0000001
 44
0.0000000001
 40
0.0
 40
0.0
 40
0.0
 40
0.0
 40
0.0725949872
 40
0.1133410308
 40
0.1575241675
 40
0.205460736
 40
0.257416029
 40
0.3136048495
 40
0.3741808983
 40
0.4392245819
 40
0.5087223895
 40
0.6603537057
 40
0.7417797466
 40
0.8261228837
 40
1.0
 40
1.0
 40
1.0
 40
1.0
 10
8.7562135475
 20
5.7950594699
 30
0.0
 10
8.7559908001
 20
5.7949320466
 30
0.0
 10
8.7556700551
 20
5.7946840849
 30
0.0
 10
8.7552852054
 20
5.7942812561
 30
0.0
 10
8.7549928781
 20
5.793912716
 30
0.0
 10
8.7547099022
 20
5.7934887088
 30
0.0
 10
8.7544378268
 20
5.7930081993
 30
0.0
 10
8.7541787144
 20
5.7924705775
 30
0.0
 10
8.7539348471
 20
5.7918755803
 30
0.0
 10
8.7537087961
 20
5.7912235919
 30
0.0
 10
8.7534268287
 20
5.7902517126
 30
0.0
 10
8.7532050428
 20
5.7892036104
 30
0.0
 10
8.7530429748
 20
5.7880931519
 30
0.0
 10
8.7529201052
 20
5.7868985451
 30
0.0
 10
8.7528834282
 20
5.7859851432
 30
0.0
 10
8.7528834282
 20
5.7853704987
 30
0.0
  0
SPLINE
  5
450
100
AcDbEntity
  8
0
100
AcDbSpline
 62
7
  6
CONTINUOUS
 70
0
 71
3
 72
18
 73
14
 74
0
 42
0.0000001
 43
0.0000001
 44
0.0000000001
 40
0.0
 40
0.0
 40
0.0
 40
0.0
 40
0.0776161283
 40
0.1202877113
 40
0.1659909919
 40
0.21504343
 40
0.2677177082
 40
0.3242401364
 40
0.3847789637
 40
0.5181528512
 40
0.6674430241
 40
0.8299051325
 40
1.0
 40
1.0
 40
1.0
 40
1.0
 10
8.7490633354
 20
5.7950594699
 30
0.0
 10
8.7488124869
 20
5.7949338607
 30
0.0
 10
8.7484477496
 20
5.794688659
 30
0.0
 10
8.7480048442
 20
5.7942833448
 30
0.0
 10
8.7476705882
 20
5.7939148623
 30
0.0
 10
8.7473469959
 20
5.7934907985
 30
0.0
 10
8.7470358947
 20
5.7930101869
 30
0.0
 10
8.7467396198
 20
5.7924724195
 30
0.0
 10
8.7463554363
 20
5.7916522008
 30
0.0
 10
8.7459356398
 20
5.7904816943
 30
0.0
 10
8.7455564512
 20
5.7889153709
 30
0.0
 10
8.7453142067
 20
5.7871880848
 30
0.0
 10
8.7452589358
 20
5.7859852988
 30
0.0
 10
8.7452589358
 20
5.7853704987
 30
0.0
  0
SPLINE
  5
451
100
AcDbEntity
  8
0
100
AcDbSpline
 62
7
  6
CONTINUOUS
 70
0
 71
3
 72
15
 73
11
 74
0
 42
0.0000001
 43
0.0000001
 44
0.0000000001
 40
0.0
 40
0.0
 40
0.0
 40
0.0
 40
0.0824471007
 40
0.1741472177
 40
0.2776972141
 40
0.3950844269
 40
0.5274277034
 40
0.6744415061
 40
0.8336697262
 40
1.0
 40
1.0
 40
1.0
 40
1.0
 10
8.7426121373
 20
5.7950594699
 30
0.0
 10
8.742333773
 20
5.7949352304
 30
0.0
 10
8.7417757075
 20
5.7946025492
 30
0.0
 10
8.7410117956
 20
5.7939084278
 30
0.0
 10
8.7402983682
 20
5.7929926359
 30
0.0
 10
8.7396547111
 20
5.7918513053
 30
0.0
 10
8.7391049014
 20
5.7904873498
 30
0.0
 10
8.7386784459
 20
5.7889192306
 30
0.0
 10
8.7384060576
 20
5.7871901428
 30
0.0
 10
8.7383438851
 20
5.7859854709
 30
0.0
 10
8.7383438851
 20
5.7853704987
 30
0.0
  0
SPLINE
  5
452
100
AcDbEntity
  8
0
100
AcDbSpline
 62
7
  6
CONTINUOUS
 70
0
 71
3
 72
15
 73
11
 74
0
 42
0.0000001
 43
0.0000001
 44
0.0000000001
 40
0.0
 40
0.0
 40
0.0
 40
0.0
 40
0.086997677
 40
0.1819990096
 40
0.2874357612
 40
0.4052516747
 40
0.5366171529
 40
0.6813980721
 40
0.8374192897
 40
1.0
 40
1.0
 40
1.0
 40
1.0
 10
8.7368776356
 20
5.7950594699
 30
0.0
 10
8.7365723818
 20
5.7949362792
 30
0.0
 10
8.7359606926
 20
5.7946079688
 30
0.0
 10
8.7351147943
 20
5.7939154186
 30
0.0
 10
8.7343241071
 20
5.7930000472
 30
0.0
 10
8.7336104937
 20
5.7918582175
 30
0.0
 10
8.7330009331
 20
5.7904931276
 30
0.0
 10
8.7325281515
 20
5.7889233869
 30
0.0
 10
8.7322261821
 20
5.7871923599
 30
0.0
 10
8.7321572297
 20
5.7859856577
 30
0.0
 10
8.7321572297
 20
5.7853704987
 30
0.0
  0
SPLINE
  5
453
100
AcDbEntity
  8
0
100
AcDbSpline
 62
7
  6
CONTINUOUS
 70
0
 71
3
 72
15
 73
11
 74
0
 42
0.0000001
 43
0.0000001
 44
0.0000000001
 40
0.0
 40
0.0
 40
0.0
 40
0.0
 40
0.0912712826
 40
0.1894526559
 40
0.2967737691
 40
0.4150863883
 40
0.5455699134
 40
0.6882119771
 40
0.8411043689
 40
1.0
 40
1.0
 40
1.0
 40
1.0
 10
8.7318656528
 20
5.7950568066
 30
0.0
 10
8.7315345421
 20
5.7949340081
 30
0.0
 10
8.7308717603
 20
5.7946085782
 30
0.0
 10
8.7299478331
 20
5.7939170861
 30
0.0
 10
8.7290834283
 20
5.7930022424
 30
0.0
 10
8.7283028977
 20
5.7918604245
 30
0.0
 10
8.7276360915
 20
5.7904950141
 30
0.0
 10
8.7271188979
 20
5.7889247417
 30
0.0
 10
8.726788565
 20
5.7871931062
 30
0.0
 10
8.7267131026
 20
5.7859853002
 30
0.0
 10
8.7267131026
 20
5.7853704987
 30
0.0
  0
SPLINE
  5
454
100
AcDbEntity
  8
0
100
AcDbSpline
 62
7
  6
CONTINUOUS
 70
0
 71
3
 72
15
 73
11
 74
0
 42
0.0000001
 43
0.0000001
 44
0.0000000001
 40
0.0
 40
0.0
 40
0.0
 40
0.0
 40
0.0952095801
 40
0.196355622
 40
0.3054638294
 40
0.4242760621
 40
0.5539605452
 40
0.6946100193
 40
0.844567785
 40
1.0
 40
1.0
 40
1.0
 40
1.0
 10
8.7276195852
 20
5.7950594699
 30
0.0
 10
8.7272627118
 20
5.7949377362
 30
0.0
 10
8.7265491387
 20
5.7946160047
 30
0.0
 10
8.7255477941
 20
5.7939268883
 30
0.0
 10
8.7246099884
 20
5.7930133657
 30
0.0
 10
8.7237625029
 20
5.7918716022
 30
0.0
 10
8.7230381248
 20
5.7905049698
 30
0.0
 10
8.7224760618
 20
5.7889322486
 30
0.0
 10
8.7221169716
 20
5.7871971989
 30
0.0
 10
8.7220348908
 20
5.7859860669
 30
0.0
 10
8.7220348908
 20
5.7853704987
 30
0.0
  0
SPLINE
  5
455
100
AcDbEntity
  8
0
100
AcDbSpline
 62
7
  6
CONTINUOUS
 70
0
 71
3
 72
16
 73
12
 74
0
 42
0.0000001
 43
0.0000001
 44
0.0000000001
 40
0.0
 40
0.0
 40
0.0
 40
0.0
 40
0.0988478555
 40
0.2027828062
 40
0.3136166932
 40
0.4329548064
 40
0.5619217818
 40
0.6301718869
 40
0.7007837583
 40
0.847920041
 40
1.0
 40
1.0
 40
1.0
 40
1.0
 10
8.7241214122
 20
5.7950594699
 30
0.0
 10
8.7237399665
 20
5.7949382486
 30
0.0
 10
8.7229781959
 20
5.794618975
 30
0.0
 10
8.7219036474
 20
5.7939315121
 30
0.0
 10
8.720896413
 20
5.7930191675
 30
0.0
 10
8.7199855601
 20
5.7918779748
 30
0.0
 10
8.7193482953
 20
5.7907596066
 30
0.0
 10
8.7189191308
 20
5.7897627775
 30
0.0
 10
8.7185417781
 20
5.7886668891
 30
0.0
 10
8.7182153005
 20
5.7871996316
 30
0.0
 10
8.7181269519
 20
5.7859862847
 30
0.0
 10
8.7181269519
 20
5.7853704987
 30
0.0
  0
SPLINE
  5
456
100
AcDbEntity
  8
0
100
AcDbSpline
 62
7
  6
CONTINUOUS
 70
0
 71
3
 72
17
 73
13
 74
0
 42
0.0000001
 43
0.0000001
 44
0.0000000001
 40
0.0
 40
0.0
 40
0.0
 40
0.0
 40
0.1024539776
 40
0.1553270381
 40
0.2095241415
 40
0.3225179445
 40
0.4428220557
 40
0.506068577
 40
0.5714279345
 40
0.7082260778
 40
0.8520510518
 40
1.0
 40
1.0
 40
1.0
 40
1.0
 10
8.7210609321
 20
5.7949528613
 30
0.0
 10
8.7206718944
 20
5.7948171629
 30
0.0
 10
8.7200976083
 20
5.7945627062
 30
0.0
 10
8.719372419
 20
5.7941324516
 30
0.0
 10
8.718648592
 20
5.793621725
 30
0.0
 10
8.7177865991
 20
5.7928436417
 30
0.0
 10
8.7170327917
 20
5.7919130827
 30
0.0
 10
8.7164941161
 20
5.7910684001
 30
0.0
 10
8.7159900101
 20
5.7901265704
 30
0.0
 10
8.7154771857
 20
5.7888268029
 30
0.0
 10
8.7150910828
 20
5.7871408696
 30
0.0
 10
8.7150028215
 20
5.7859654841
 30
0.0
 10
8.7150028215
 20
5.7853704987
 30
0.0
  0
SPLINE
  5
457
100
AcDbEntity
  8
0
100
AcDbSpline
 62
7
  6
CONTINUOUS
 70
0
 71
3
 72
18
 73
14
 74
0
 42
0.0000001
 43
0.0000001
 44
0.0000000001
 40
0.0
 40
0.0
 40
0.0
 40
0.0
 40
0.1052301917
 40
0.214147452
 40
0.3281535471
 40
0.3875293573
 40
0.4486502053
 40
0.5764224051
 40
0.7118219586
 40
0.7821847004
 40
0.853943685
 40
0.9267078205
 40
1.0
 40
1.0
 40
1.0
 40
1.0
 10
8.7194346857
 20
5.7950594699
 30
0.0
 10
8.7190069631
 20
5.7949389999
 30
0.0
 10
8.7181546924
 20
5.7946234517
 30
0.0
 10
8.7169434593
 20
5.7939390085
 30
0.0
 10
8.7160083291
 20
5.7931906333
 30
0.0
 10
8.7153136645
 20
5.7924836654
 30
0.0
 10
8.714640801
 20
5.7916783485
 30
0.0
 10
8.7138950106
 20
5.790522186
 30
0.0
 10
8.7133308716
 20
5.7892243784
 30
0.0
 10
8.7129968178
 20
5.7880999655
 30
0.0
 10
8.7128105034
 20
5.7872107664
 30
0.0
 10
8.7126965943
 20
5.7862970693
 30
0.0
 10
8.7126710627
 20
5.7856799957
 30
0.0
 10
8.7126710627
 20
5.7853704987
 30
0.0
  0
SPLINE
  5
458
100
AcDbEntity
  8
0
100
AcDbSpline
 62
7
  6
CONTINUOUS
 70
0
 71
3
 72
18
 73
14
 74
0
 42
0.0000001
 43
0.0000001
 44
0.0000000001
 40
0.0
 40
0.0
 40
0.0
 40
0.0
 40
0.1080118356
 40
0.2191366497
 40
0.3345880244
 40
0.3943510221
 40
0.4556158849
 40
0.5829133965
 40
0.7168487042
 40
0.7861580698
 40
0.8566939709
 40
0.9281143673
 40
1.0
 40
1.0
 40
1.0
 40
1.0
 10
8.7182589781
 20
5.7950594699
 30
0.0
 10
8.7178096991
 20
5.7949392776
 30
0.0
 10
8.7169153572
 20
5.7946251551
 30
0.0
 10
8.7156408205
 20
5.7939419726
 30
0.0
 10
8.7146542747
 20
5.7931930481
 30
0.0
 10
8.7139213828
 20
5.7924848367
 30
0.0
 10
8.7132143289
 20
5.7916813392
 30
0.0
 10
8.7124296294
 20
5.7905275326
 30
0.0
 10
8.7118336463
 20
5.7892270843
 30
0.0
 10
8.7114812723
 20
5.7881008897
 30
0.0
 10
8.7112849819
 20
5.7872114214
 30
0.0
 10
8.7111649705
 20
5.7862974151
 30
0.0
 10
8.7111380667
 20
5.7856800244
 30
0.0
 10
8.7111380667
 20
5.7853704987
 30
0.0
  0
SPLINE
  5
459
100
AcDbEntity
  8
0
100
AcDbSpline
 62
7
  6
CONTINUOUS
 70
0
 71
3
 72
15
 73
11
 74
0
 42
0.0000001
 43
0.0000001
 44
0.0000000001
 40
0.0
 40
0.0
 40
0.0
 40
0.0
 40
0.1105771935
 40
0.2237683801
 40
0.3406111751
 40
0.4621053133
 40
0.5890444007
 40
0.721695599
 40
0.8593479702
 40
1.0
 40
1.0
 40
1.0
 40
1.0
 10
8.7178563126
 20
5.7950568066
 30
0.0
 10
8.7173871216
 20
5.7949364346
 30
0.0
 10
8.7164540381
 20
5.7946228266
 30
0.0
 10
8.7151212853
 20
5.7939399777
 30
0.0
 10
8.7138694584
 20
5.7930323709
 30
0.0
 10
8.7127345066
 20
5.7918945313
 30
0.0
 10
8.7117614035
 20
5.7905284741
 30
0.0
 10
8.7110041253
 20
5.7889518557
 30
0.0
 10
8.7105191357
 20
5.7872086831
 30
0.0
 10
8.7104078527
 20
5.785986628
 30
0.0
 10
8.7104078527
 20
5.7853704987
 30
0.0
  0
SPLINE
  5
45A
100
AcDbEntity
  8
0
100
AcDbSpline
 62
7
  6
CONTINUOUS
 70
0
 71
3
 72
23
 73
19
 74
0
 42
0.0000001
 43
0.0000001
 44
0.0000000001
 40
0.0
 40
0.0
 40
0.0
 40
0.0
 40
0.0607468466
 40
0.121561747
 40
0.1825120151
 40
0.2436571055
 40
0.3050496648
 40
0.3667318283
 40
0.4287342287
 40
0.4910747831
 40
0.5537582401
 40
0.6167762008
 40
0.6801076334
 40
0.7437198948
 40
0.8075699012
 40
0.8716064219
 40
0.9357702436
 40
1.0
 40
1.0
 40
1.0
 40
1.0
 10
8.8115913558
 20
6.6091790108
 30
0.0
 10
8.8115913558
 20
6.6097976941
 30
0.0
 10
8.8116557463
 20
6.6110367145
 30
0.0
 10
8.811944522
 20
6.6128761671
 30
0.0
 10
8.8124226757
 20
6.6146800917
 30
0.0
 10
8.8130855709
 20
6.6164308111
 30
0.0
 10
8.8139267527
 20
6.6181115032
 30
0.0
 10
8.8149380616
 20
6.619705955
 30
0.0
 10
8.8161096933
 20
6.6211988274
 30
0.0
 10
8.8174303106
 20
6.6225757698
 30
0.0
 10
8.8188871521
 20
6.6238235644
 30
0.0
 10
8.82046616
 20
6.624930245
 30
0.0
 10
8.8221521146
 20
6.6258852102
 30
0.0
 10
8.8239287875
 20
6.626679316
 30
0.0
 10
8.8257790725
 20
6.6273049712
 30
0.0
 10
8.8276852363
 20
6.6277561825
 30
0.0
 10
8.829628747
 20
6.628028653
 30
0.0
 10
8.8309372003
 20
6.6280893823
 30
0.0
 10
8.8315913558
 20
6.6280893823
 30
0.0
  0
SPLINE
  5
45B
100
AcDbEntity
  8
0
100
AcDbSpline
 62
7
  6
CONTINUOUS
 70
0
 71
3
 72
23
 73
19
 74
0
 42
0.0000001
 43
0.0000001
 44
0.0000000001
 40
0.0
 40
0.0
 40
0.0
 40
0.0
 40
0.0607468466
 40
0.121561747
 40
0.1825120151
 40
0.2436571055
 40
0.3050496648
 40
0.3667318283
 40
0.4287342287
 40
0.4910747831
 40
0.5537582401
 40
0.6167762008
 40
0.6801076334
 40
0.7437198948
 40
0.8075699012
 40
0.8716064219
 40
0.9357702436
 40
1.0
 40
1.0
 40
1.0
 40
1.0
 10
9.1965913558
 20
6.6091790108
 30
0.0
 10
9.1965913558
 20
6.6097976941
 30
0.0
 10
9.1965269652
 20
6.6110367145
 30
0.0
 10
9.1962381895
 20
6.6128761671
 30
0.0
 10
9.1957600358
 20
6.6146800917
 30
0.0
 10
9.1950971407
 20
6.6164308111
 30
0.0
 10
9.1942559588
 20
6.6181115032
 30
0.0
 10
9.1932446499
 20
6.619705955
 30
0.0
 10
9.1920730182
 20
6.6211988274
 30
0.0
 10
9.1907524009
 20
6.6225757698
 30
0.0
 10
9.1892955595
 20
6.6238235644
 30
0.0
 10
9.1877165516
 20
6.624930245
 30
0.0
 10
9.186030597
 20
6.6258852102
 30
0.0
 10
9.1842539241
 20
6.626679316
 30
0.0
 10
9.1824036391
 20
6.6273049712
 30
0.0
 10
9.1804974752
 20
6.6277561825
 30
0.0
 10
9.1785539645
 20
6.628028653
 30
0.0
 10
9.1772455112
 20
6.6280893823
 30
0.0
 10
9.1765913558
 20
6.6280893823
 30
0.0
  0
SPLINE
  5
45C
100
AcDbEntity
  8
0
100
AcDbSpline
 62
7
  6
CONTINUOUS
 70
0
 71
3
 72
34
 73
30
 74
0
 42
0.0000001
 43
0.0000001
 44
0.0000000001
 40
0.0
 40
0.0
 40
0.0
 40
0.0
 40
0.00320891
 40
0.006678171
 40
0.0105737751
 40
0.0150125376
 40
0.0200707472
 40
0.0257969547
 40
0.0393570937
 40
0.0558158714
 40
0.0751813219
 40
0.0974021531
 40
0.1223862411
 40
0.1500103006
 40
0.1801256973
 40
0.2125613845
 40
0.2471259189
 40
0.3217858499
 40
0.4022502992
 40
0.4864629665
 40
0.5722380084
 40
0.6573335725
 40
0.7395322962
 40
0.8167176577
 40
0.8869453396
 40
0.9189070757
 40
0.9485096866
 40
0.9755909524
 40
1.0
 40
1.0
 40
1.0
 40
1.0
 10
9.01388482
 20
5.5078599124
 30
0.0
 10
9.0138835909
 20
5.5078402087
 30
0.0
 10
9.01387525
 20
5.5077994061
 30
0.0
 10
9.0138467301
 20
5.5077403717
 30
0.0
 10
9.0138026333
 20
5.5076822049
 30
0.0
 10
9.0137432288
 20
5.5076247628
 30
0.0
 10
9.0136686205
 20
5.507567876
 30
0.0
 10
9.0135415975
 20
5.5074882215
 30
0.0
 10
9.0133429615
 20
5.5073925007
 30
0.0
 10
9.0130582401
 20
5.5072858326
 30
0.0
 10
9.0127161896
 20
5.5071825126
 30
0.0
 10
9.012318724
 20
5.5070832448
 30
0.0
 10
9.0118680646
 20
5.5069887531
 30
0.0
 10
9.0113669116
 20
5.506899702
 30
0.0
 10
9.010818318
 20
5.5068167219
 30
0.0
 10
9.0102256896
 20
5.5067403882
 30
0.0
 10
9.009359266
 20
5.5066457592
 30
0.0
 10
9.008196008
 20
5.5065495079
 30
0.0
 10
9.0067255339
 20
5.5064698463
 30
0.0
 10
9.0051851578
 20
5.5064257084
 30
0.0
 10
9.0036156862
 20
5.5064183823
 30
0.0
 10
9.0020588689
 20
5.5064480962
 30
0.0
 10
9.000556035
 20
5.50651395
 30
0.0
 10
8.9991467703
 20
5.5066140285
 30
0.0
 10
8.9980487019
 20
5.5067266007
 30
0.0
 10
8.9972449275
 20
5.5068336813
 30
0.0
 10
8.9967060542
 20
5.5069179964
 30
0.0
 10
8.9962153171
 20
5.5070082516
 30
0.0
 10
8.9959056781
 20
5.5070755421
 30
0.0
 10
8.9957596426
 20
5.5071105421
 30
0.0
  0
SPLINE
  5
45D
100
AcDbEntity
  8
0
100
AcDbSpline
 62
7
  6
CONTINUOUS
 70
0
 71
3
 72
41
 73
37
 74
0
 42
0.0000001
 43
0.0000001
 44
0.0000000001
 40
0.0
 40
0.0
 40
0.0
 40
0.0
 40
0.0086503057
 40
0.0173268242
 40
0.0260554744
 40
0.0348615859
 40
0.0437696407
 40
0.0528030698
 40
0.071326861
 40
0.0906000926
 40
0.1107582387
 40
0.1212068914
 40
0.1319161466
 40
0.1541520184
 40
0.1775352373
 40
0.2021115256
 40
0.2279095906
 40
0.2549432924
 40
0.2832135608
 40
0.3127100442
 40
0.3434125132
 40
0.3752920713
 40
0.4083121744
 40
0.4424294999
 40
0.4775946966
 40
0.5137530364
 40
0.5508449831
 40
0.5888067178
 40
0.6275706116
 40
0.6670656565
 40
0.7072178609
 40
0.7479506298
 40
0.7891851203
 40
0.830840536
 40
0.9150792195
 40
1.0
 40
1.0
 40
1.0
 40
1.0
 10
4.8465913558
 20
2.8528824373
 30
0.0
 10
4.8465913558
 20
2.8536064484
 30
0.0
 10
4.8465475141
 20
2.8550570434
 30
0.0
 10
4.846350436
 20
2.8572301533
 30
0.0
 10
4.846022103
 20
2.8594005901
 30
0.0
 10
4.8455627821
 20
2.8615668699
 30
0.0
 10
4.8449727673
 20
2.8637277312
 30
0.0
 10
4.8440044958
 20
2.8666235443
 30
0.0
 10
4.8424564777
 20
2.8702332616
 30
0.0
 10
4.8400995765
 20
2.874481194
 30
0.0
 10
4.8377405978
 20
2.877932857
 30
0.0
 10
4.8356138348
 20
2.880660536
 30
0.0
 10
4.8332664165
 20
2.8834331275
 30
0.0
 10
4.8300126962
 20
2.8868513116
 30
0.0
 10
4.8256741619
 20
2.8908190514
 30
0.0
 10
4.8208639262
 20
2.8946942795
 30
0.0
 10
4.8155936517
 20
2.8984679746
 30
0.0
 10
4.8098758093
 20
2.9021314774
 30
0.0
 10
4.803723996
 20
2.9056762226
 30
0.0
 10
4.7971528363
 20
2.9090938714
 30
0.0
 10
4.7901779863
 20
2.9123763293
 30
0.0
 10
4.7828160893
 20
2.9155157837
 30
0.0
 10
4.7750847393
 20
2.9185047344
 30
0.0
 10
4.7670024374
 20
2.9213360204
 30
0.0
 10
4.7585885459
 20
2.9240028446
 30
0.0
 10
4.749863241
 20
2.9264987936
 30
0.0
 10
4.7408474637
 20
2.9288178613
 30
0.0
 10
4.7315628658
 20
2.9309544628
 30
0.0
 10
4.7220317547
 20
2.9329034491
 30
0.0
 10
4.7122770395
 20
2.93466012
 30
0.0
 10
4.7023221704
 20
2.9362202394
 30
0.0
 10
4.6921910979
 20
2.937580036
 30
0.0
 10
4.6819081543
 20
2.9387362495
 30
0.0
 10
4.667976857
 20
2.9400072836
 30
0.0
 10
4.650358819
 20
2.9410658548
 30
0.0
 10
4.6361990338
 20
2.9413476572
 30
0.0
 10
4.6290913558
 20
2.9413476572
 30
0.0
  0
SPLINE
  5
45E
100
AcDbEntity
  8
0
100
AcDbSpline
 62
7
  6
CONTINUOUS
 70
0
 71
3
 72
41
 73
37
 74
0
 42
0.0000001
 43
0.0000001
 44
0.0000000001
 40
0.0
 40
0.0
 40
0.0
 40
0.0
 40
0.0086503057
 40
0.0173268242
 40
0.0260554744
 40
0.0348615859
 40
0.0437696407
 40
0.0528030698
 40
0.071326861
 40
0.0906000926
 40
0.1107582387
 40
0.1212068914
 40
0.1319161466
 40
0.1541520184
 40
0.1775352373
 40
0.2021115256
 40
0.2279095906
 40
0.2549432924
 40
0.2832135608
 40
0.3127100442
 40
0.3434125132
 40
0.3752920713
 40
0.4083121744
 40
0.4424294999
 40
0.4775946966
 40
0.5137530364
 40
0.5508449831
 40
0.5888067178
 40
0.6275706116
 40
0.6670656565
 40
0.7072178609
 40
0.7479506298
 40
0.7891851203
 40
0.830840536
 40
0.9150792195
 40
1.0
 40
1.0
 40
1.0
 40
1.0
 10
4.8465913558
 20
4.8226085405
 30
0.0
 10
4.8465913558
 20
4.8233325516
 30
0.0
 10
4.8465475141
 20
4.8247831466
 30
0.0
 10
4.846350436
 20
4.8269562565
 30
0.0
 10
4.846022103
 20
4.8291266933
 30
0.0
 10
4.8455627821
 20
4.8312929731
 30
0.0
 10
4.8449727673
 20
4.8334538344
 30
0.0
 10
4.8440044958
 20
4.8363496475
 30
0.0
 10
4.8424564777
 20
4.8399593648
 30
0.0
 10
4.8400995765
 20
4.8442072973
 30
0.0
 10
4.8377405978
 20
4.8476589603
 30
0.0
 10
4.8356138348
 20
4.8503866393
 30
0.0
 10
4.8332664165
 20
4.8531592308
 30
0.0
 10
4.8300126962
 20
4.8565774149
 30
0.0
 10
4.8256741619
 20
4.8605451546
 30
0.0
 10
4.8208639262
 20
4.8644203828
 30
0.0
 10
4.8155936517
 20
4.8681940778
 30
0.0
 10
4.8098758093
 20
4.8718575807
 30
0.0
 10
4.803723996
 20
4.8754023258
 30
0.0
 10
4.7971528363
 20
4.8788199746
 30
0.0
 10
4.7901779863
 20
4.8821024325
 30
0.0
 10
4.7828160893
 20
4.885241887
 30
0.0
 10
4.7750847393
 20
4.8882308376
 30
0.0
 10
4.7670024374
 20
4.8910621237
 30
0.0
 10
4.7585885459
 20
4.8937289479
 30
0.0
 10
4.749863241
 20
4.8962248968
 30
0.0
 10
4.7408474637
 20
4.8985439645
 30
0.0
 10
4.7315628658
 20
4.900680566
 30
0.0
 10
4.7220317547
 20
4.9026295523
 30
0.0
 10
4.7122770395
 20
4.9043862232
 30
0.0
 10
4.7023221704
 20
4.9059463426
 30
0.0
 10
4.6921910979
 20
4.9073061392
 30
0.0
 10
4.6819081543
 20
4.9084623527
 30
0.0
 10
4.667976857
 20
4.9097333869
 30
0.0
 10
4.650358819
 20
4.910791958
 30
0.0
 10
4.6361990338
 20
4.9110737604
 30
0.0
 10
4.6290913558
 20
4.9110737604
 30
0.0
  0
SPLINE
  5
45F
100
AcDbEntity
  8
0
100
AcDbSpline
 62
7
  6
CONTINUOUS
 70
0
 71
3
 72
20
 73
16
 74
0
 42
0.0000001
 43
0.0000001
 44
0.0000000001
 40
0.0
 40
0.0
 40
0.0
 40
0.0
 40
0.0221792494
 40
0.0461377621
 40
0.0740016719
 40
0.1071390587
 40
0.1463279744
 40
0.1919884644
 40
0.2443136497
 40
0.3033619959
 40
0.3690872681
 40
0.441375736
 40
0.6048763931
 40
0.7919299134
 40
1.0
 40
1.0
 40
1.0
 40
1.0
 10
8.9024504311
 20
5.5180024302
 30
0.0
 10
8.9024483303
 20
5.5179675037
 30
0.0
 10
8.9024305412
 20
5.5178950261
 30
0.0
 10
8.9023645356
 20
5.5177965735
 30
0.0
 10
8.9022626159
 20
5.5177078649
 30
0.0
 10
8.9021257221
 20
5.5176276273
 30
0.0
 10
8.9019538168
 20
5.517555261
 30
0.0
 10
8.9017469786
 20
5.5174908013
 30
0.0
 10
8.9015055757
 20
5.5174344147
 30
0.0
 10
8.90123023
 20
5.5173863693
 30
0.0
 10
8.9009217803
 20
5.5173468614
 30
0.0
 10
8.9004479508
 20
5.5173041262
 30
0.0
 10
8.8997810907
 20
5.5172762459
 30
0.0
 10
8.8988996197
 20
5.5172794219
 30
0.0
 10
8.898276635
 20
5.5173042502
 30
0.0
 10
8.8979488682
 20
5.5173220257
 30
0.0
  0
LINE
  5
460
100
AcDbEntity
  8
0
100
AcDbLine
 62
7
  6
CONTINUOUS
 10
9.160802206
 20
5.5221609693
 11
9.1599664266
 21
5.5215932513
  0
SPLINE
  5
461
100
AcDbEntity
  8
0
100
AcDbSpline
 62
7
  6
CONTINUOUS
 70
0
 71
3
 72
27
 73
23
 74
0
 42
0.0000001
 43
0.0000001
 44
0.0000000001
 40
0.0
 40
0.0
 40
0.0
 40
0.0
 40
0.0181374919
 40
0.0387926037
 40
0.0618499177
 40
0.0871807488
 40
0.144093117
 40
0.2083063994
 40
0.2784814651
 40
0.3531883907
 40
0.430921111
 40
0.5101066757
 40
0.5891161988
 40
0.6662792336
 40
0.7399061175
 40
0.8083223423
 40
0.8699174906
 40
0.9232054092
 40
0.9463224006
 40
0.9669000286
 40
0.9848226138
 40
1.0
 40
1.0
 40
1.0
 40
1.0
 10
9.1599664266
 20
5.5215932513
 30
0.0
 10
9.1598571785
 20
5.5215444373
 30
0.0
 10
9.1596214413
 20
5.5214446697
 30
0.0
 10
9.1592413824
 20
5.5212960782
 30
0.0
 10
9.1588136125
 20
5.5211394963
 30
0.0
 10
9.1581570684
 20
5.5209123631
 30
0.0
 10
9.157236853
 20
5.5206173974
 30
0.0
 10
9.1560268158
 20
5.5202585319
 30
0.0
 10
9.1546974042
 20
5.5198900988
 30
0.0
 10
9.1532761596
 20
5.5195197786
 30
0.0
 10
9.1517921348
 20
5.5191552561
 30
0.0
 10
9.1502757394
 20
5.51880411
 30
0.0
 10
9.1487585189
 20
5.5184737807
 30
0.0
 10
9.14727287
 20
5.5181714635
 30
0.0
 10
9.1458516047
 20
5.5179039845
 30
0.0
 10
9.1445272891
 20
5.5176775604
 30
0.0
 10
9.1433313831
 20
5.5174976987
 30
0.0
 10
9.1424277739
 20
5.5173851483
 30
0.0
 10
9.1417908309
 20
5.5173241248
 30
0.0
 10
9.1413853486
 20
5.5172946308
 30
0.0
 10
9.1410315048
 20
5.5172792854
 30
0.0
 10
9.1408130335
 20
5.517278365
 30
0.0
 10
9.1407129403
 20
5.5172810462
 30
0.0
  0
LINE
  5
462
100
AcDbEntity
  8
0
100
AcDbLine
 62
7
  6
CONTINUOUS
 10
9.1407129403
 20
5.5172810462
 11
9.1402925956
 21
5.5173220257
  0
SPLINE
  5
463
100
AcDbEntity
  8
0
100
AcDbSpline
 62
7
  6
CONTINUOUS
 70
0
 71
3
 72
28
 73
24
 74
0
 42
0.0000001
 43
0.0000001
 44
0.0000000001
 40
0.0
 40
0.0
 40
0.0
 40
0.0
 40
0.0095659888
 40
0.0201655352
 40
0.032260721
 40
0.0461417947
 40
0.0619765687
 40
0.0798511841
 40
0.0997980756
 40
0.12181357
 40
0.1458663447
 40
0.1719057731
 40
0.2296520808
 40
0.2943589345
 40
0.3651391253
 40
0.4409440942
 40
0.5205802968
 40
0.6027286768
 40
0.6859685627
 40
0.7688110907
 40
0.8497432358
 40
0.9272743749
 40
1.0
 40
1.0
 40
1.0
 40
1.0
 10
9.0750737555
 20
5.5207552267
 30
0.0
 10
9.0750704611
 20
5.5207015945
 30
0.0
 10
9.0750463392
 20
5.5205892265
 30
0.0
 10
9.074965276
 20
5.5204256722
 30
0.0
 10
9.074840361
 20
5.5202613743
 30
0.0
 10
9.0746725422
 20
5.5200962312
 30
0.0
 10
9.0744624335
 20
5.5199303053
 30
0.0
 10
9.0742107238
 20
5.5197640241
 30
0.0
 10
9.073918277
 20
5.5195979424
 30
0.0
 10
9.073586139
 20
5.5194327114
 30
0.0
 10
9.0732155422
 20
5.5192689722
 30
0.0
 10
9.0726522685
 20
5.5190458233
 30
0.0
 10
9.0718615393
 20
5.5187786279
 30
0.0
 10
9.0708164177
 20
5.5184843248
 30
0.0
 10
9.0696609864
 20
5.518211637
 30
0.0
 10
9.0684140605
 20
5.5179655978
 30
0.0
 10
9.0670966331
 20
5.5177509459
 30
0.0
 10
9.0657317755
 20
5.5175719429
 30
0.0
 10
9.0643442357
 20
5.5174322619
 30
0.0
 10
9.0629599349
 20
5.5173348402
 30
0.0
 10
9.0616052918
 20
5.5172817482
 30
0.0
 10
9.0603064565
 20
5.5172740789
 30
0.0
 10
9.0594625812
 20
5.5173002582
 30
0.0
 10
9.0590546526
 20
5.5173220257
 30
0.0
  0
SPLINE
  5
464
100
AcDbEntity
  8
0
100
AcDbSpline
 62
7
  6
CONTINUOUS
 70
0
 71
3
 72
28
 73
24
 74
0
 42
0.0000001
 43
0.0000001
 44
0.0000000001
 40
0.0
 40
0.0
 40
0.0
 40
0.0
 40
0.002353017
 40
0.0048444134
 40
0.0076141408
 40
0.0107648529
 40
0.0184549477
 40
0.0282455682
 40
0.040269111
 40
0.0545755374
 40
0.0711735157
 40
0.09004439
 40
0.1111528981
 40
0.1344482175
 40
0.1873424704
 40
0.2481218798
 40
0.3160453542
 40
0.3902614924
 40
0.4698285015
 40
0.5537317089
 40
0.640902599
 40
0.8206100566
 40
1.0
 40
1.0
 40
1.0
 40
1.0
 10
8.9448794884
 20
5.5068407818
 30
0.0
 10
8.9448788976
 20
5.5068312489
 30
0.0
 10
8.9448749308
 20
5.5068116972
 30
0.0
 10
8.9448609629
 20
5.5067838047
 30
0.0
 10
8.9448393049
 20
5.5067571315
 30
0.0
 10
8.9447975642
 20
5.5067206368
 30
0.0
 10
8.9447242146
 20
5.5066788516
 30
0.0
 10
8.94461247
 20
5.5066353026
 30
0.0
 10
8.9444712002
 20
5.5065953782
 30
0.0
 10
8.9443006577
 20
5.5065592372
 30
0.0
 10
8.9441011274
 20
5.5065270509
 30
0.0
 10
8.9438731547
 20
5.5064989656
 30
0.0
 10
8.9436173924
 20
5.5064751092
 30
0.0
 10
8.9432233504
 20
5.5064479317
 30
0.0
 10
8.9426676469
 20
5.5064268221
 30
0.0
 10
8.9419304791
 20
5.5064200335
 30
0.0
 10
8.9411068143
 20
5.5064312144
 30
0.0
 10
8.9402072986
 20
5.5064602744
 30
0.0
 10
8.9392435836
 20
5.5065068996
 30
0.0
 10
8.9382281501
 20
5.5065704927
 30
0.0
 10
8.9368082998
 20
5.5066779392
 30
0.0
 10
8.9350046194
 20
5.5068476221
 30
0.0
 10
8.933556717
 20
5.5070170669
 30
0.0
 10
8.93283457
 20
5.5071105421
 30
0.0
  0
SPLINE
  5
465
100
AcDbEntity
  8
0
100
AcDbSpline
 62
7
  6
CONTINUOUS
 70
0
 71
3
 72
25
 73
21
 74
0
 42
0.0000001
 43
0.0000001
 44
0.0000000001
 40
0.0
 40
0.0
 40
0.0
 40
0.0
 40
0.0106372334
 40
0.0218503407
 40
0.0340190412
 40
0.0474349368
 40
0.0623068536
 40
0.0787768248
 40
0.0969370921
 40
0.1168419978
 40
0.1619593092
 40
0.2141275495
 40
0.2730918799
 40
0.338424397
 40
0.4095550686
 40
0.4857909967
 40
0.5663303351
 40
0.6502779505
 40
0.8244417708
 40
1.0
 40
1.0
 40
1.0
 40
1.0
 10
9.0144557064
 20
5.5197772417
 30
0.0
 10
9.0144529224
 20
5.5197314111
 30
0.0
 10
9.0144366443
 20
5.5196376428
 30
0.0
 10
9.0143820787
 20
5.5195003915
 30
0.0
 10
9.0142978381
 20
5.5193649017
 30
0.0
 10
9.0141845049
 20
5.5192313794
 30
0.0
 10
9.0140424642
 20
5.5190998743
 30
0.0
 10
9.0138720269
 20
5.5189705487
 30
0.0
 10
9.0136735282
 20
5.5188436274
 30
0.0
 10
9.0133586026
 20
5.5186707284
 30
0.0
 10
9.0128950183
 20
5.5184660874
 30
0.0
 10
9.0122576253
 20
5.5182441434
 30
0.0
 10
9.0115235432
 20
5.51803931
 30
0.0
 10
9.0107002562
 20
5.5178541757
 30
0.0
 10
9.0097964863
 20
5.5176912015
 30
0.0
 10
9.0088223542
 20
5.5175526147
 30
0.0
 10
9.0077891922
 20
5.517440345
 30
0.0
 10
9.0063316711
 20
5.5173265792
 30
0.0
 10
9.0044599383
 20
5.5172608905
 30
0.0
 10
9.0029497885
 20
5.5172875866
 30
0.0
 10
9.002192784
 20
5.5173220257
 30
0.0
  0
SPLINE
  5
466
100
AcDbEntity
  8
0
100
AcDbSpline
 62
7
  6
CONTINUOUS
 70
0
 71
3
 72
41
 73
37
 74
0
 42
0.0000001
 43
0.0000001
 44
0.0000000001
 40
0.0
 40
0.0
 40
0.0
 40
0.0
 40
0.0849207805
 40
0.169159464
 40
0.2108148797
 40
0.2520493702
 40
0.2927821391
 40
0.3329343435
 40
0.3724293884
 40
0.4111932822
 40
0.4491550169
 40
0.4862469636
 40
0.5224053034
 40
0.5575705001
 40
0.5916878256
 40
0.6247079287
 40
0.6565874868
 40
0.6872899558
 40
0.7167864392
 40
0.7450567076
 40
0.7720904094
 40
0.7978884744
 40
0.8224647627
 40
0.8458479816
 40
0.8680838534
 40
0.8787931086
 40
0.8892417613
 40
0.9093999074
 40
0.928673139
 40
0.9471969302
 40
0.9562303593
 40
0.9651384141
 40
0.9739445256
 40
0.9826731758
 40
0.9913496943
 40
1.0
 40
1.0
 40
1.0
 40
1.0
 10
4.6290913558
 20
4.9110737604
 30
0.0
 10
4.6219836777
 20
4.9110737604
 30
0.0
 10
4.6078238925
 20
4.910791958
 30
0.0
 10
4.5902058545
 20
4.9097333869
 30
0.0
 10
4.5762745572
 20
4.9084623527
 30
0.0
 10
4.5659916137
 20
4.9073061392
 30
0.0
 10
4.5558605412
 20
4.9059463426
 30
0.0
 10
4.5459056721
 20
4.9043862232
 30
0.0
 10
4.5361509569
 20
4.9026295523
 30
0.0
 10
4.5266198458
 20
4.900680566
 30
0.0
 10
4.5173352478
 20
4.8985439645
 30
0.0
 10
4.5083194705
 20
4.8962248968
 30
0.0
 10
4.4995941656
 20
4.8937289479
 30
0.0
 10
4.4911802741
 20
4.8910621237
 30
0.0
 10
4.4830979722
 20
4.8882308376
 30
0.0
 10
4.4753666223
 20
4.885241887
 30
0.0
 10
4.4680047253
 20
4.8821024325
 30
0.0
 10
4.4610298752
 20
4.8788199746
 30
0.0
 10
4.4544587156
 20
4.8754023258
 30
0.0
 10
4.4483069022
 20
4.8718575807
 30
0.0
 10
4.4425890598
 20
4.8681940778
 30
0.0
 10
4.4373187854
 20
4.8644203828
 30
0.0
 10
4.4325085496
 20
4.8605451546
 30
0.0
 10
4.4281700154
 20
4.8565774149
 30
0.0
 10
4.4249162951
 20
4.8531592308
 30
0.0
 10
4.4225688767
 20
4.8503866393
 30
0.0
 10
4.4204421138
 20
4.8476589603
 30
0.0
 10
4.418083135
 20
4.8442072973
 30
0.0
 10
4.4157262339
 20
4.8399593648
 30
0.0
 10
4.4141782157
 20
4.8363496475
 30
0.0
 10
4.4132099442
 20
4.8334538344
 30
0.0
 10
4.4126199294
 20
4.8312929731
 30
0.0
 10
4.4121606085
 20
4.8291266933
 30
0.0
 10
4.4118322756
 20
4.8269562565
 30
0.0
 10
4.4116351974
 20
4.8247831466
 30
0.0
 10
4.4115913558
 20
4.8233325516
 30
0.0
 10
4.4115913558
 20
4.8226085405
 30
0.0
  0
SPLINE
  5
467
100
AcDbEntity
  8
0
100
AcDbSpline
 62
7
  6
CONTINUOUS
 70
0
 71
3
 72
41
 73
37
 74
0
 42
0.0000001
 43
0.0000001
 44
0.0000000001
 40
0.0
 40
0.0
 40
0.0
 40
0.0
 40
0.0849207805
 40
0.169159464
 40
0.2108148797
 40
0.2520493702
 40
0.2927821391
 40
0.3329343435
 40
0.3724293884
 40
0.4111932822
 40
0.4491550169
 40
0.4862469636
 40
0.5224053034
 40
0.5575705001
 40
0.5916878256
 40
0.6247079287
 40
0.6565874868
 40
0.6872899558
 40
0.7167864392
 40
0.7450567076
 40
0.7720904094
 40
0.7978884744
 40
0.8224647627
 40
0.8458479816
 40
0.8680838534
 40
0.8787931086
 40
0.8892417613
 40
0.9093999074
 40
0.928673139
 40
0.9471969302
 40
0.9562303593
 40
0.9651384141
 40
0.9739445256
 40
0.9826731758
 40
0.9913496943
 40
1.0
 40
1.0
 40
1.0
 40
1.0
 10
4.6290913558
 20
2.9413476572
 30
0.0
 10
4.6219836777
 20
2.9413476572
 30
0.0
 10
4.6078238925
 20
2.9410658548
 30
0.0
 10
4.5902058545
 20
2.9400072836
 30
0.0
 10
4.5762745572
 20
2.9387362495
 30
0.0
 10
4.5659916137
 20
2.937580036
 30
0.0
 10
4.5558605412
 20
2.9362202394
 30
0.0
 10
4.5459056721
 20
2.93466012
 30
0.0
 10
4.5361509569
 20
2.9329034491
 30
0.0
 10
4.5266198458
 20
2.9309544628
 30
0.0
 10
4.5173352478
 20
2.9288178613
 30
0.0
 10
4.5083194705
 20
2.9264987936
 30
0.0
 10
4.4995941656
 20
2.9240028446
 30
0.0
 10
4.4911802741
 20
2.9213360204
 30
0.0
 10
4.4830979722
 20
2.9185047344
 30
0.0
 10
4.4753666223
 20
2.9155157837
 30
0.0
 10
4.4680047253
 20
2.9123763293
 30
0.0
 10
4.4610298752
 20
2.9090938714
 30
0.0
 10
4.4544587156
 20
2.9056762226
 30
0.0
 10
4.4483069022
 20
2.9021314774
 30
0.0
 10
4.4425890598
 20
2.8984679746
 30
0.0
 10
4.4373187854
 20
2.8946942795
 30
0.0
 10
4.4325085496
 20
2.8908190514
 30
0.0
 10
4.4281700154
 20
2.8868513116
 30
0.0
 10
4.4249162951
 20
2.8834331275
 30
0.0
 10
4.4225688767
 20
2.880660536
 30
0.0
 10
4.4204421138
 20
2.877932857
 30
0.0
 10
4.418083135
 20
2.874481194
 30
0.0
 10
4.4157262339
 20
2.8702332616
 30
0.0
 10
4.4141782157
 20
2.8666235443
 30
0.0
 10
4.4132099442
 20
2.8637277312
 30
0.0
 10
4.4126199294
 20
2.8615668699
 30
0.0
 10
4.4121606085
 20
2.8594005901
 30
0.0
 10
4.4118322756
 20
2.8572301533
 30
0.0
 10
4.4116351974
 20
2.8550570434
 30
0.0
 10
4.4115913558
 20
2.8536064484
 30
0.0
 10
4.4115913558
 20
2.8528824373
 30
0.0
  0
SPLINE
  5
468
100
AcDbEntity
  8
0
100
AcDbSpline
 62
7
  6
CONTINUOUS
 70
0
 71
3
 72
25
 73
21
 74
0
 42
0.0000001
 43
0.0000001
 44
0.0000000001
 40
0.0
 40
0.0
 40
0.0
 40
0.0
 40
0.1996618134
 40
0.3860848805
 40
0.4727772473
 40
0.5543512625
 40
0.6302751522
 40
0.7000554399
 40
0.7632440123
 40
0.819443615
 40
0.8683151217
 40
0.9095918958
 40
0.9273288296
 40
0.9431169761
 40
0.9569643826
 40
0.968897793
 40
0.9789802233
 40
0.9873347908
 40
0.9941954911
 40
1.0
 40
1.0
 40
1.0
 40
1.0
 10
8.93283457
 20
5.5071105421
 30
0.0
 10
8.9323171333
 20
5.5071775194
 30
0.0
 10
8.9313176833
 20
5.5073158443
 30
0.0
 10
8.9300973772
 20
5.5075093973
 30
0.0
 10
8.9291846939
 20
5.5076710692
 30
0.0
 10
8.9285578673
 20
5.507790677
 30
0.0
 10
8.9279761867
 20
5.5079107575
 30
0.0
 10
8.9274435672
 20
5.5080304796
 30
0.0
 10
8.9269636098
 20
5.5081489998
 30
0.0
 10
8.9265395462
 20
5.5082654476
 30
0.0
 10
8.9261742763
 20
5.5083789869
 30
0.0
 10
8.9259088902
 20
5.5084746221
 30
0.0
 10
8.9257286143
 20
5.5085502965
 30
0.0
 10
8.9256165276
 20
5.5086029497
 30
0.0
 10
8.9255207294
 20
5.508654299
 30
0.0
 10
8.9254413373
 20
5.5087042859
 30
0.0
 10
8.9253783716
 20
5.5087528627
 30
0.0
 10
8.9253317883
 20
5.5088001809
 30
0.0
 10
8.9253015117
 20
5.5088466167
 30
0.0
 10
8.9252924673
 20
5.5088793184
 30
0.0
 10
8.9252915651
 20
5.5088944598
 30
0.0
  0
SPLINE
  5
469
100
AcDbEntity
  8
0
100
AcDbSpline
 62
7
  6
CONTINUOUS
 70
0
 71
3
 72
17
 73
13
 74
0
 42
0.0000001
 43
0.0000001
 44
0.0000000001
 40
0.0
 40
0.0
 40
0.0
 40
0.0
 40
0.200441315
 40
0.3786509169
 40
0.5341831674
 40
0.6670398425
 40
0.7776956779
 40
0.8674592837
 40
0.9054263949
 40
0.9395290996
 40
0.9706606273
 40
1.0
 40
1.0
 40
1.0
 40
1.0
 10
8.9957596426
 20
5.5071105421
 30
0.0
 10
8.9956487093
 20
5.5071371292
 30
0.0
 10
8.9954399297
 20
5.5071907509
 30
0.0
 10
8.9951488192
 20
5.5072787747
 30
0.0
 10
8.9948990152
 20
5.5073693117
 30
0.0
 10
8.9946913378
 20
5.5074619478
 30
0.0
 10
8.9945263948
 20
5.5075562664
 30
0.0
 10
8.9944189261
 20
5.5076406307
 30
0.0
 10
8.9943578229
 20
5.5077098941
 30
0.0
 10
8.9943257552
 20
5.5077594217
 30
0.0
 10
8.994305021
 20
5.5078094534
 30
0.0
 10
8.9942988762
 20
5.5078436636
 30
0.0
 10
8.9942978665
 20
5.5078603306
 30
0.0
  0
LINE
  5
46A
100
AcDbEntity
  8
0
100
AcDbLine
 62
7
  6
CONTINUOUS
 10
9.0825847438
 20
5.5086135269
 11
9.0822534198
 21
5.5084690451
  0
SPLINE
  5
46B
100
AcDbEntity
  8
0
100
AcDbSpline
 62
7
  6
CONTINUOUS
 70
0
 71
3
 72
27
 73
23
 74
0
 42
0.0000001
 43
0.0000001
 44
0.0000000001
 40
0.0
 40
0.0
 40
0.0
 40
0.0
 40
0.0161707511
 40
0.0348356023
 40
0.0559167021
 40
0.0793165542
 40
0.1326069296
 40
0.1936615168
 40
0.2612598635
 40
0.3340373286
 40
0.4105107213
 40
0.4891018161
 40
0.5681656029
 40
0.646024084
 40
0.7210036805
 40
0.7914773955
 40
0.8559105936
 40
0.9129071662
 40
0.9382314896
 40
0.9612605017
 40
0.9818813646
 40
1.0
 40
1.0
 40
1.0
 40
1.0
 10
9.0822534198
 20
5.5084690451
 30
0.0
 10
9.0821617129
 20
5.5084340809
 30
0.0
 10
9.081962046
 20
5.5083642777
 30
0.0
 10
9.0816376458
 20
5.5082643959
 30
0.0
 10
9.0812681881
 20
5.5081623148
 30
0.0
 10
9.080692626
 20
5.5080177064
 30
0.0
 10
9.0798759509
 20
5.5078380738
 30
0.0
 10
9.0787912465
 20
5.5076305716
 30
0.0
 10
9.0775855941
 20
5.5074274618
 30
0.0
 10
9.0762838257
 20
5.5072330762
 30
0.0
 10
9.0749128684
 20
5.5070516168
 30
0.0
 10
9.0735013723
 20
5.5068869957
 30
0.0
 10
9.0720791946
 20
5.5067427945
 30
0.0
 10
9.070676819
 20
5.5066221748
 30
0.0
 10
9.069324686
 20
5.5065277996
 30
0.0
 10
9.0680524441
 20
5.5064617109
 30
0.0
 10
9.0668881937
 20
5.5064253339
 30
0.0
 10
9.0659973572
 20
5.5064199378
 30
0.0
 10
9.0653580468
 20
5.5064328435
 30
0.0
 10
9.064939725
 20
5.5064498269
 30
0.0
 10
9.0645655907
 20
5.506474332
 30
0.0
 10
9.0643315015
 20
5.506497037
 30
0.0
 10
9.0642223097
 20
5.5065100843
 30
0.0
  0
SPLINE
  5
46C
100
AcDbEntity
  8
0
100
AcDbSpline
 62
7
  6
CONTINUOUS
 70
0
 71
3
 72
17
 73
13
 74
0
 42
0.0000001
 43
0.0000001
 44
0.0000000001
 40
0.0
 40
0.0
 40
0.0
 40
0.0
 40
0.2085076499
 40
0.3919205243
 40
0.5500967519
 40
0.6832161856
 40
0.7919148045
 40
0.8777773119
 40
0.91322105
 40
0.9445906942
 40
0.9730161554
 40
1.0
 40
1.0
 40
1.0
 40
1.0
 10
9.0642223097
 20
5.5065100843
 30
0.0
 10
9.0641520646
 20
5.5065184778
 30
0.0
 10
9.0640202413
 20
5.5065361611
 30
0.0
 10
9.0638362913
 20
5.5065681123
 30
0.0
 10
9.0636791219
 20
5.5066036792
 30
0.0
 10
9.0635489548
 20
5.5066427078
 30
0.0
 10
9.0634459759
 20
5.5066850693
 30
0.0
 10
9.0633784974
 20
5.5067255264
 30
0.0
 10
9.0633401672
 20
5.5067606475
 30
0.0
 10
9.0633202424
 20
5.5067863376
 30
0.0
 10
9.0633074137
 20
5.5068131248
 30
0.0
 10
9.0633037655
 20
5.5068318233
 30
0.0
 10
9.0633032125
 20
5.506840962
 30
0.0
  0
SPLINE
  5
46D
100
AcDbEntity
  8
0
100
AcDbSpline
 62
7
  6
CONTINUOUS
 70
0
 71
3
 72
31
 73
27
 74
0
 42
0.0000001
 43
0.0000001
 44
0.0000000001
 40
0.0
 40
0.0
 40
0.0
 40
0.0
 40
0.0247576644
 40
0.0522906352
 40
0.1148783851
 40
0.1860183304
 40
0.2637581214
 40
0.346038027
 40
0.4307634948
 40
0.5158585876
 40
0.5992999371
 40
0.6791396032
 40
0.753519196
 40
0.8206842544
 40
0.8790065329
 40
0.9043876354
 40
0.9270255433
 40
0.9467744097
 40
0.9635116283
 40
0.9771470769
 40
0.9827889108
 40
0.9876498765
 40
0.9917444947
 40
0.9951072479
 40
0.9978100942
 40
1.0
 40
1.0
 40
1.0
 40
1.0
 10
8.8664370121
 20
5.5173220257
 30
0.0
 10
8.8662742271
 20
5.517335373
 30
0.0
 10
8.8659307766
 20
5.5173681084
 30
0.0
 10
8.8651778577
 20
5.5174549414
 30
0.0
 10
8.8641242087
 20
5.5176031976
 30
0.0
 10
8.8627475152
 20
5.517829551
 30
0.0
 10
8.8612475633
 20
5.5181052933
 30
0.0
 10
8.8596644117
 20
5.5184228923
 30
0.0
 10
8.8580386923
 20
5.5187740608
 30
0.0
 10
8.8564106438
 20
5.5191499328
 30
0.0
 10
8.8548194215
 20
5.5195413025
 30
0.0
 10
8.8533026773
 20
5.5199387694
 30
0.0
 10
8.8518962239
 20
5.5203327833
 30
0.0
 10
8.8506338232
 20
5.5207138205
 30
0.0
 10
8.8496883065
 20
5.5210252543
 30
0.0
 10
8.8490282857
 20
5.521263197
 30
0.0
 10
8.8486111736
 20
5.5214242398
 30
0.0
 10
8.8482513887
 20
5.5215751008
 30
0.0
 10
8.8479515598
 20
5.5217147144
 30
0.0
 10
8.8477417225
 20
5.5218266753
 30
0.0
 10
8.847606776
 20
5.5219113536
 30
0.0
 10
8.8475283658
 20
5.521967396
 30
0.0
 10
8.8474662335
 20
5.5220199651
 30
0.0
 10
8.847420382
 20
5.5220691805
 30
0.0
 10
8.8473906029
 20
5.5221152243
 30
0.0
 10
8.8473813169
 20
5.522147
 30
0.0
 10
8.8473804816
 20
5.5221614231
 30
0.0
  0
SPLINE
  5
46E
100
AcDbEntity
  8
0
100
AcDbSpline
 62
7
  6
CONTINUOUS
 70
0
 71
3
 72
29
 73
25
 74
0
 42
0.0000001
 43
0.0000001
 44
0.0000000001
 40
0.0
 40
0.0
 40
0.0
 40
0.0
 40
0.0720350688
 40
0.1492084092
 40
0.2300370761
 40
0.3129885502
 40
0.3965359957
 40
0.479192144
 40
0.5595368966
 40
0.6362358329
 40
0.708051376
 40
0.7738527327
 40
0.8326258068
 40
0.8590984402
 40
0.8834969809
 40
0.9057387197
 40
0.9257567118
 40
0.9435037357
 40
0.9589624593
 40
0.9721596961
 40
0.983197281
 40
0.9879794747
 40
0.9923286648
 40
1.0
 40
1.0
 40
1.0
 40
1.0
 10
8.8979488682
 20
5.5173220257
 30
0.0
 10
8.8975393894
 20
5.5173442325
 30
0.0
 10
8.8966920138
 20
5.5174054544
 30
0.0
 10
8.8953890081
 20
5.5175376976
 30
0.0
 10
8.8940282025
 20
5.5177113494
 30
0.0
 10
8.8926360604
 20
5.5179228016
 30
0.0
 10
8.8912388643
 20
5.5181677739
 30
0.0
 10
8.8898621357
 20
5.5184414688
 30
0.0
 10
8.8885302079
 20
5.5187387113
 30
0.0
 10
8.8872659523
 20
5.5190540635
 30
0.0
 10
8.8860905742
 20
5.5193818839
 30
0.0
 10
8.8850235884
 20
5.5197164435
 30
0.0
 10
8.8842132701
 20
5.5200051102
 30
0.0
 10
8.8836337573
 20
5.520237183
 30
0.0
 10
8.8832520336
 20
5.5204032634
 30
0.0
 10
8.8829094898
 20
5.5205667623
 30
0.0
 10
8.8826076301
 20
5.5207269609
 30
0.0
 10
8.8823477976
 20
5.5208831529
 30
0.0
 10
8.8821310575
 20
5.5210346824
 30
0.0
 10
8.8819583517
 20
5.5211809702
 30
0.0
 10
8.8818465496
 20
5.5213036571
 30
0.0
 10
8.8817826831
 20
5.5213994067
 30
0.0
 10
8.8817392913
 20
5.5214847165
 30
0.0
 10
8.8817211713
 20
5.5215524431
 30
0.0
 10
8.8817186528
 20
5.5215960417
 30
0.0
  0
SPLINE
  5
46F
100
AcDbEntity
  8
0
100
AcDbSpline
 62
7
  6
CONTINUOUS
 70
0
 71
3
 72
25
 73
21
 74
0
 42
0.0000001
 43
0.0000001
 44
0.0000000001
 40
0.0
 40
0.0
 40
0.0
 40
0.0
 40
0.1736074922
 40
0.3466291932
 40
0.430299053
 40
0.5107724405
 40
0.5871656421
 40
0.6586786589
 40
0.724603878
 40
0.7843341324
 40
0.8373758982
 40
0.8833738433
 40
0.9036765165
 40
0.9221771701
 40
0.9389022375
 40
0.953911437
 40
0.9673091163
 40
0.979265345
 40
0.9900387971
 40
1.0
 40
1.0
 40
1.0
 40
1.0
 10
8.9456199558
 20
5.5173220257
 30
0.0
 10
8.9448485755
 20
5.5173572883
 30
0.0
 10
8.9433100716
 20
5.5174685416
 30
0.0
 10
8.9414093664
 20
5.5177000828
 30
0.0
 10
8.939928758
 20
5.5179394205
 30
0.0
 10
8.9388775319
 20
5.5181391214
 30
0.0
 10
8.9378854887
 20
5.5183583108
 30
0.0
 10
8.9369638963
 20
5.518594175
 30
0.0
 10
8.9361229273
 20
5.5188437519
 30
0.0
 10
8.9353715458
 20
5.5191039723
 30
0.0
 10
8.9347176702
 20
5.5193717434
 30
0.0
 10
8.9342412002
 20
5.5196073592
 30
0.0
 10
8.9339165636
 20
5.5197997414
 30
0.0
 10
8.9337117133
 20
5.5199380236
 30
0.0
 10
8.9335356894
 20
5.5200760178
 30
0.0
 10
8.933388922
 20
5.5202134384
 30
0.0
 10
8.9332718016
 20
5.5203500884
 30
0.0
 10
8.9331847238
 20
5.5204859209
 30
0.0
 10
8.9331283284
 20
5.5206208634
 30
0.0
 10
8.9331114592
 20
5.5207125045
 30
0.0
 10
8.9331088649
 20
5.5207567348
 30
0.0
  0
SPLINE
  5
470
100
AcDbEntity
  8
0
100
AcDbSpline
 62
7
  6
CONTINUOUS
 70
0
 71
3
 72
22
 73
18
 74
0
 42
0.0000001
 43
0.0000001
 44
0.0000000001
 40
0.0
 40
0.0
 40
0.0
 40
0.0
 40
0.1900782339
 40
0.3683487958
 40
0.4515045907
 40
0.5299393577
 40
0.6031830268
 40
0.6708347818
 40
0.7325707371
 40
0.7881552271
 40
0.8374604119
 40
0.8804988244
 40
0.9174816887
 40
0.9489263944
 40
0.9758368587
 40
0.9881326177
 40
1.0
 40
1.0
 40
1.0
 40
1.0
 10
9.002192784
 20
5.5173220257
 30
0.0
 10
9.0016135191
 20
5.5173483787
 30
0.0
 10
9.0004918987
 20
5.5174234115
 30
0.0
 10
8.9991227953
 20
5.5175801023
 30
0.0
 10
8.9980984809
 20
5.5177413987
 30
0.0
 10
8.9973944318
 20
5.5178745368
 30
0.0
 10
8.9967415145
 20
5.5180214987
 30
0.0
 10
8.9961441163
 20
5.5181810892
 30
0.0
 10
8.9956060898
 20
5.5183520316
 30
0.0
 10
8.9951307319
 20
5.5185330059
 30
0.0
 10
8.9947207563
 20
5.5187227044
 30
0.0
 10
8.9943782533
 20
5.5189198495
 30
0.0
 10
8.9941046739
 20
5.5191236106
 30
0.0
 10
8.9939010216
 20
5.5193334308
 30
0.0
 10
8.9937878434
 20
5.5195202217
 30
0.0
 10
8.9937398213
 20
5.5196690828
 30
0.0
 10
8.9937290433
 20
5.5197424331
 30
0.0
 10
8.9937269261
 20
5.5197785745
 30
0.0
  0
SPLINE
  5
471
100
AcDbEntity
  8
0
100
AcDbSpline
 62
7
  6
CONTINUOUS
 70
0
 71
3
 72
20
 73
16
 74
0
 42
0.0000001
 43
0.0000001
 44
0.0000000001
 40
0.0
 40
0.0
 40
0.0
 40
0.0
 40
0.1996707308
 40
0.3799634815
 40
0.538677893
 40
0.6094423393
 40
0.6742949792
 40
0.733183828
 40
0.7861307526
 40
0.8332640007
 40
0.8748510959
 40
0.9113612634
 40
0.9435540819
 40
0.9725759188
 40
1.0
 40
1.0
 40
1.0
 40
1.0
 10
9.0590546526
 20
5.5173220257
 30
0.0
 10
9.0587108953
 20
5.5173403689
 30
0.0
 10
9.0580572708
 20
5.5173875554
 30
0.0
 10
9.0571347379
 20
5.5174975487
 30
0.0
 10
9.0564385952
 20
5.5176214688
 30
0.0
 10
9.0559450157
 20
5.5177398942
 30
0.0
 10
9.0556226843
 20
5.5178328901
 30
0.0
 10
9.0553348112
 20
5.5179330513
 30
0.0
 10
9.0550822099
 20
5.5180400144
 30
0.0
 10
9.0548655001
 20
5.5181533987
 30
0.0
 10
9.0546851186
 20
5.5182729312
 30
0.0
 10
9.0545413904
 20
5.5183985021
 30
0.0
 10
9.0544347254
 20
5.5185303166
 30
0.0
 10
9.054366182
 20
5.5186685041
 30
0.0
 10
9.0543468893
 20
5.5187653264
 30
0.0
 10
9.0543441259
 20
5.5188125266
 30
0.0
  0
SPLINE
  5
472
100
AcDbEntity
  8
0
100
AcDbSpline
 62
7
  6
CONTINUOUS
 70
0
 71
3
 72
17
 73
13
 74
0
 42
0.0000001
 43
0.0000001
 44
0.0000000001
 40
0.0
 40
0.0
 40
0.0
 40
0.0
 40
0.2020343253
 40
0.380787015
 40
0.535824459
 40
0.6672886625
 40
0.776006235
 40
0.8640514801
 40
0.9016708698
 40
0.936066145
 40
0.9683844647
 40
1.0
 40
1.0
 40
1.0
 40
1.0
 10
9.1075488575
 20
5.5173220257
 30
0.0
 10
9.1074114368
 20
5.517332892
 30
0.0
 10
9.1071527628
 20
5.5173581867
 30
0.0
 10
9.1067908961
 20
5.5174115647
 30
0.0
 10
9.106480149
 20
5.517477684
 30
0.0
 10
9.1062216366
 20
5.5175561358
 30
0.0
 10
9.1060160664
 20
5.5176464516
 30
0.0
 10
9.1058819372
 20
5.5177364863
 30
0.0
 10
9.1058062608
 20
5.5178158281
 30
0.0
 10
9.1057664362
 20
5.5178753402
 30
0.0
 10
9.1057408462
 20
5.5179378836
 30
0.0
 10
9.1057335204
 20
5.5179813111
 30
0.0
 10
9.1057322565
 20
5.5180028456
 30
0.0
  0
LINE
  5
473
100
AcDbEntity
  8
0
100
AcDbLine
 62
7
  6
CONTINUOUS
 10
9.1402925956
 20
5.5173220257
 11
9.1400683653
 21
5.5174666061
  0
SPLINE
  5
474
100
AcDbEntity
  8
0
100
AcDbSpline
 62
7
  6
CONTINUOUS
 70
0
 71
3
 72
33
 73
29
 74
0
 42
0.0000001
 43
0.0000001
 44
0.0000000001
 40
0.0
 40
0.0
 40
0.0
 40
0.0
 40
0.0037681891
 40
0.0078781987
 40
0.0124480442
 40
0.0175598852
 40
0.0232689734
 40
0.0296111798
 40
0.0442670396
 40
0.0616111137
 40
0.0816318444
 40
0.1042674854
 40
0.1294238787
 40
0.1569829907
 40
0.186807633
 40
0.2526268329
 40
0.3255090965
 40
0.4038890078
 40
0.4860329453
 40
0.5700580532
 40
0.6539576948
 40
0.7356467751
 40
0.8130252172
 40
0.8840638269
 40
0.9166181924
 40
0.9469108081
 40
0.9747603866
 40
1.0
 40
1.0
 40
1.0
 40
1.0
 10
9.1264639738
 20
5.5215946293
 30
0.0
 10
9.1264624342
 20
5.5215698522
 30
0.0
 10
9.1264532015
 20
5.5215183186
 30
0.0
 10
9.1264233616
 20
5.5214415215
 30
0.0
 10
9.1263775275
 20
5.5213627222
 30
0.0
 10
9.1263159507
 20
5.5212819131
 30
0.0
 10
9.1262387829
 20
5.5211990662
 30
0.0
 10
9.126108876
 20
5.521080185
 30
0.0
 10
9.1259060152
 20
5.5209287252
 30
0.0
 10
9.1256144469
 20
5.5207481306
 30
0.0
 10
9.1252655362
 20
5.52056189
 30
0.0
 10
9.1248614128
 20
5.5203711224
 30
0.0
 10
9.1244044182
 20
5.5201769886
 30
0.0
 10
9.1238972425
 20
5.5199806424
 30
0.0
 10
9.1231325001
 20
5.5197084314
 30
0.0
 10
9.1220733966
 20
5.5193740933
 30
0.0
 10
9.1206944659
 20
5.518993906
 30
0.0
 10
9.1191997661
 20
5.5186318908
 30
0.0
 10
9.1176236874
 20
5.5182968813
 30
0.0
 10
9.1160034896
 20
5.5179973682
 30
0.0
 10
9.1143789064
 20
5.517741204
 30
0.0
 10
9.1127913024
 20
5.5175353404
 30
0.0
 10
9.1112825368
 20
5.5173855802
 30
0.0
 10
9.1100924324
 20
5.517308746
 30
0.0
 10
9.109210756
 20
5.5172810219
 30
0.0
 10
9.1086131847
 20
5.5172770206
 30
0.0
 10
9.1080639185
 20
5.5172891656
 30
0.0
 10
9.1077146191
 20
5.5173089184
 30
0.0
 10
9.1075488575
 20
5.5173220257
 30
0.0
  0
SPLINE
  5
475
100
AcDbEntity
  8
0
100
AcDbSpline
 62
7
  6
CONTINUOUS
 70
0
 71
3
 72
23
 73
19
 74
0
 42
0.0000001
 43
0.0000001
 44
0.0000000001
 40
0.0
 40
0.0
 40
0.0
 40
0.0
 40
0.0607466884
 40
0.1215615231
 40
0.1825118976
 40
0.2436571999
 40
0.3050500359
 40
0.3667324972
 40
0.4287351778
 40
0.4910759622
 40
0.5537595743
 40
0.6167775988
 40
0.6801089965
 40
0.7437211255
 40
0.8075709111
 40
0.8716071379
 40
0.935770616
 40
1.0
 40
1.0
 40
1.0
 40
1.0
 10
8.8115913568
 20
6.822964387
 30
0.0
 10
8.8115915664
 20
6.8235829463
 30
0.0
 10
8.8116563498
 20
6.8248216972
 30
0.0
 10
8.8119456312
 20
6.826660695
 30
0.0
 10
8.8124242021
 20
6.8284641283
 30
0.0
 10
8.8130874246
 20
6.8302143328
 30
0.0
 10
8.8139288431
 20
6.8318944981
 30
0.0
 10
8.8149402991
 20
6.8334884231
 30
0.0
 10
8.816111991
 20
6.8349807798
 30
0.0
 10
8.8174325857
 20
6.8363572286
 30
0.0
 10
8.8188893272
 20
6.8376045617
 30
0.0
 10
8.8204681645
 20
6.8387108224
 30
0.0
 10
8.8221538857
 20
6.8396654173
 30
0.0
 10
8.8239302714
 20
6.8404592101
 30
0.0
 10
8.825780225
 20
6.8410846152
 30
0.0
 10
8.8276860237
 20
6.8415356444
 30
0.0
 10
8.8296291465
 20
6.8418080042
 30
0.0
 10
8.8309373335
 20
6.8418687086
 30
0.0
 10
8.8315913558
 20
6.8418687086
 30
0.0
  0
SPLINE
  5
476
100
AcDbEntity
  8
0
100
AcDbSpline
 62
7
  6
CONTINUOUS
 70
0
 71
3
 72
23
 73
19
 74
0
 42
0.0000001
 43
0.0000001
 44
0.0000000001
 40
0.0
 40
0.0
 40
0.0
 40
0.0
 40
0.0607466909
 40
0.1215615256
 40
0.1825118955
 40
0.2436571907
 40
0.3050500181
 40
0.3667324705
 40
0.4287351432
 40
0.4910759214
 40
0.5537595297
 40
0.6167775533
 40
0.680108953
 40
0.7437210868
 40
0.8075708798
 40
0.871607116
 40
0.9357706047
 40
1.0
 40
1.0
 40
1.0
 40
1.0
 10
9.1965913548
 20
6.8229642143
 30
0.0
 10
9.1965911512
 20
6.8235827772
 30
0.0
 10
9.196526379
 20
6.8248215357
 30
0.0
 10
9.196237112
 20
6.8266605464
 30
0.0
 10
9.195758553
 20
6.8284639937
 30
0.0
 10
9.1950953399
 20
6.8302142128
 30
0.0
 10
9.1942539281
 20
6.8318943932
 30
0.0
 10
9.1932424763
 20
6.8334883331
 30
0.0
 10
9.1920707861
 20
6.8349807045
 30
0.0
 10
9.1907501908
 20
6.8363571674
 30
0.0
 10
9.1892934465
 20
6.8376045137
 30
0.0
 10
9.1877146043
 20
6.8387107863
 30
0.0
 10
9.1860288764
 20
6.8396653919
 30
0.0
 10
9.1842524825
 20
6.8404591936
 30
0.0
 10
9.1824025194
 20
6.8410846059
 30
0.0
 10
9.1804967103
 20
6.8415356404
 30
0.0
 10
9.1785535764
 20
6.8418080034
 30
0.0
 10
9.1772453819
 20
6.8418687086
 30
0.0
 10
9.1765913558
 20
6.8418687086
 30
0.0
  0
SPLINE
  5
477
100
AcDbEntity
  8
0
100
AcDbSpline
 62
7
  6
CONTINUOUS
 70
0
 71
3
 72
50
 73
46
 74
0
 42
0.0000001
 43
0.0000001
 44
0.0000000001
 40
0.0
 40
0.0
 40
0.0
 40
0.0
 40
0.001408736
 40
0.0028299151
 40
0.0042781341
 40
0.0057671838
 40
0.0089146313
 40
0.0123620772
 40
0.0161752048
 40
0.0204013721
 40
0.0250745271
 40
0.0302188614
 40
0.0358516626
 40
0.0419853019
 40
0.0486284565
 40
0.0557863601
 40
0.0634622072
 40
0.0716582922
 40
0.0803756878
 40
0.0896133982
 40
0.099369319
 40
0.1096403258
 40
0.131712036
 40
0.1557950046
 40
0.1818451877
 40
0.2098142575
 40
0.2396438453
 40
0.2712687614
 40
0.3046201021
 40
0.3396221836
 40
0.3761970034
 40
0.4142607308
 40
0.4537260187
 40
0.4945016372
 40
0.5364901667
 40
0.5795926694
 40
0.6237068091
 40
0.6687283581
 40
0.7145501881
 40
0.7610617893
 40
0.8081515922
 40
0.8557055903
 40
0.9036089803
 40
0.9517459532
 40
1.0
 40
1.0
 40
1.0
 40
1.0
 10
8.7483413558
 20
5.9026150543
 30
0.0
 10
8.7483413565
 20
5.9024925376
 30
0.0
 10
8.7483542336
 20
5.9022462305
 30
0.0
 10
8.7484121594
 20
5.9018780759
 30
0.0
 10
8.7485086484
 20
5.9015108546
 30
0.0
 10
8.7486918746
 20
5.9010136561
 30
0.0
 10
8.7490251038
 20
5.900390424
 30
0.0
 10
8.7495700077
 20
5.8996642397
 30
0.0
 10
8.7502657894
 20
5.8989444303
 30
0.0
 10
8.751111851
 20
5.8982303851
 30
0.0
 10
8.7521079626
 20
5.8975216842
 30
0.0
 10
8.7532537717
 20
5.8968181846
 30
0.0
 10
8.7545488952
 20
5.8961199353
 30
0.0
 10
8.7559928357
 20
5.8954270819
 30
0.0
 10
8.7575849494
 20
5.8947398674
 30
0.0
 10
8.7593244489
 20
5.8940586174
 30
0.0
 10
8.7612104744
 20
5.893383725
 30
0.0
 10
8.7632420117
 20
5.8927151625
 30
0.0
 10
8.7654179702
 20
5.8920528658
 30
0.0
 10
8.7677372435
 20
5.8913972801
 30
0.0
 10
8.7701985296
 20
5.8907489331
 30
0.0
 10
8.7737537349
 20
5.8898734339
 30
0.0
 10
8.7785441974
 20
5.8888060236
 30
0.0
 10
8.7847046698
 20
5.8875862636
 30
0.0
 10
8.7913934997
 20
5.8864018339
 30
0.0
 10
8.7985949627
 20
5.8852526917
 30
0.0
 10
8.8062926597
 20
5.8841423982
 30
0.0
 10
8.8144684302
 20
5.8830730817
 30
0.0
 10
8.8231028863
 20
5.8820468962
 30
0.0
 10
8.8321757992
 20
5.8810669191
 30
0.0
 10
8.8416654905
 20
5.8801334143
 30
0.0
 10
8.8515497162
 20
5.8792497952
 30
0.0
 10
8.8618048999
 20
5.8784167036
 30
0.0
 10
8.8724064903
 20
5.8776359773
 30
0.0
 10
8.883329131
 20
5.8769118474
 30
0.0
 10
8.8945463091
 20
5.8762453633
 30
0.0
 10
8.9060311093
 20
5.8756401299
 30
0.0
 10
8.9177557482
 20
5.8750966804
 30
0.0
 10
8.9296918344
 20
5.874616689
 30
0.0
 10
8.9418104202
 20
5.8742041276
 30
0.0
 10
8.9540818379
 20
5.873859642
 30
0.0
 10
8.9664761568
 20
5.8735878442
 30
0.0
 10
8.9789629722
 20
5.8733906888
 30
0.0
 10
8.9915116514
 20
5.8732705869
 30
0.0
 10
8.99989473
 20
5.8732438715
 30
0.0
 10
9.0040913476
 20
5.8732438712
 30
0.0
  0
SPLINE
  5
478
100
AcDbEntity
  8
0
100
AcDbSpline
 62
7
  6
CONTINUOUS
 70
0
 71
3
 72
50
 73
46
 74
0
 42
0.0000001
 43
0.0000001
 44
0.0000000001
 40
0.0
 40
0.0
 40
0.0
 40
0.0
 40
0.0482622376
 40
0.0964073971
 40
0.1443189591
 40
0.1918811025
 40
0.2389790016
 40
0.2854986211
 40
0.3313283525
 40
0.3763576364
 40
0.4204792901
 40
0.4635890129
 40
0.5055843934
 40
0.5463664092
 40
0.5858375467
 40
0.6239064851
 40
0.6604857697
 40
0.6954914699
 40
0.7288454742
 40
0.7604719917
 40
0.7903020211
 40
0.8182702681
 40
0.8443182836
 40
0.8683976452
 40
0.8904642324
 40
0.9007320881
 40
0.9104844553
 40
0.919718202
 40
0.9284312245
 40
0.936622527
 40
0.9442931793
 40
0.951445476
 40
0.9580826185
 40
0.9642098525
 40
0.9698358772
 40
0.9749730997
 40
0.9796388636
 40
0.9838574506
 40
0.9876629525
 40
0.9911029489
 40
0.9942434468
 40
0.9957293463
 40
0.9971747058
 40
0.9985933742
 40
1.0
 40
1.0
 40
1.0
 40
1.0
 10
9.0040913476
 20
5.8732438712
 30
0.0
 10
9.008287691
 20
5.8732438706
 30
0.0
 10
9.016670222
 20
5.8732700025
 30
0.0
 10
9.0292181068
 20
5.8733875442
 30
0.0
 10
9.041704179
 20
5.8735805375
 30
0.0
 10
9.0540978257
 20
5.8738466949
 30
0.0
 10
9.0663686587
 20
5.874184177
 30
0.0
 10
9.0784867578
 20
5.8745884735
 30
0.0
 10
9.0904224654
 20
5.8750590285
 30
0.0
 10
9.1021468358
 20
5.8755920054
 30
0.0
 10
9.1136314753
 20
5.8761858893
 30
0.0
 10
9.124848607
 20
5.876840109
 30
0.0
 10
9.1357713044
 20
5.8775512366
 30
0.0
 10
9.1463730466
 20
5.8783183358
 30
0.0
 10
9.1566284666
 20
5.8791372452
 30
0.0
 10
9.1665129976
 20
5.8800062621
 30
0.0
 10
9.1760030533
 20
5.8809248277
 30
0.0
 10
9.1850763704
 20
5.8818896458
 30
0.0
 10
9.1937112579
 20
5.8829005522
 30
0.0
 10
9.2018874698
 20
5.8839545705
 30
0.0
 10
9.2095856005
 20
5.8850496667
 30
0.0
 10
9.2167874786
 20
5.8861838026
 30
0.0
 10
9.2234766843
 20
5.8873535495
 30
0.0
 10
9.2296374885
 20
5.8885590504
 30
0.0
 10
9.2344282938
 20
5.8896147842
 30
0.0
 10
9.2379837643
 20
5.890481258
 30
0.0
 10
9.2404451609
 20
5.8911231624
 30
0.0
 10
9.2427645292
 20
5.8917724975
 30
0.0
 10
9.2449405665
 20
5.8924287536
 30
0.0
 10
9.2469721662
 20
5.8930915012
 30
0.0
 10
9.2488582389
 20
5.8937608194
 30
0.0
 10
9.2505977714
 20
5.8944367518
 30
0.0
 10
9.2521899048
 20
5.8951189204
 30
0.0
 10
9.2536338535
 20
5.8958070141
 30
0.0
 10
9.2549289762
 20
5.8965008069
 30
0.0
 10
9.2560747785
 20
5.8972001697
 30
0.0
 10
9.2570708816
 20
5.8979050709
 30
0.0
 10
9.2579169384
 20
5.8986156728
 30
0.0
 10
9.2586127238
 20
5.8993324181
 30
0.0
 10
9.2591576418
 20
5.9000559432
 30
0.0
 10
9.2594908741
 20
5.900677272
 30
0.0
 10
9.2596740843
 20
5.9011731457
 30
0.0
 10
9.2597705663
 20
5.9015395128
 30
0.0
 10
9.2598284845
 20
5.9019069234
 30
0.0
 10
9.2598413551
 20
5.9021527715
 30
0.0
 10
9.2598413558
 20
5.9022750759
 30
0.0
  0
LINE
  5
479
100
AcDbEntity
  8
0
100
AcDbLine
 62
7
  6
CONTINUOUS
 10
8.7537547034
 20
6.4851231019
 11
9.2544280081
 21
6.4851231019
  0
LINE
  5
47A
100
AcDbEntity
  8
0
100
AcDbLine
 62
7
  6
CONTINUOUS
 10
9.2564245834
 20
6.4203131245
 11
9.2563852473
 21
6.4205077733
  0
SPLINE
  5
47B
100
AcDbEntity
  8
0
100
AcDbSpline
 62
7
  6
CONTINUOUS
 70
0
 71
3
 72
49
 73
45
 74
0
 42
0.0000001
 43
0.0000001
 44
0.0000000001
 40
0.0
 40
0.0
 40
0.0
 40
0.0
 40
0.0013451176
 40
0.002155631
 40
0.0030758368
 40
0.004114759
 40
0.005278634
 40
0.0065718633
 40
0.0079975567
 40
0.009557862
 40
0.011254339
 40
0.0150598435
 40
0.0194201465
 40
0.0243379172
 40
0.0298142266
 40
0.0358490831
 40
0.0424409273
 40
0.0495870031
 40
0.0572845296
 40
0.0655307226
 40
0.0836523654
 40
0.103911934
 40
0.1262642961
 40
0.1506601678
 40
0.1770451402
 40
0.2053617943
 40
0.2355428207
 40
0.267518131
 40
0.3012133628
 40
0.3365491732
 40
0.3734447594
 40
0.4118135494
 40
0.4515673167
 40
0.4926127022
 40
0.5348515363
 40
0.5781851206
 40
0.6225114069
 40
0.6677274198
 40
0.7137268882
 40
0.7604008898
 40
0.8076398792
 40
0.9033646689
 40
0.9516253033
 40
1.0
 40
1.0
 40
1.0
 40
1.0
 10
9.2563852473
 20
6.4205077733
 30
0.0
 10
9.2563452812
 20
6.4206140357
 30
0.0
 10
9.2562387475
 20
6.4207681103
 30
0.0
 10
9.2560515437
 20
6.4209476595
 30
0.0
 10
9.255865729
 20
6.4210904524
 30
0.0
 10
9.2556435293
 20
6.4212325811
 30
0.0
 10
9.2553846013
 20
6.4213744971
 30
0.0
 10
9.2550889503
 20
6.4215161581
 30
0.0
 10
9.254756523
 20
6.4216576129
 30
0.0
 10
9.2543873326
 20
6.4217988442
 30
0.0
 10
9.2538241672
 20
6.421994376
 30
0.0
 10
9.2530270239
 20
6.4222351926
 30
0.0
 10
9.2519581293
 20
6.4225132116
 30
0.0
 10
9.2507437971
 20
6.4227898659
 30
0.0
 10
9.2493846311
 20
6.4230649803
 30
0.0
 10
9.2478812956
 20
6.4233384145
 30
0.0
 10
9.246234627
 20
6.4236099765
 30
0.0
 10
9.2444455682
 20
6.4238793809
 30
0.0
 10
9.2425151212
 20
6.4241465584
 30
0.0
 10
9.2396631775
 20
6.4245115212
 30
0.0
 10
9.2357529363
 20
6.4249575814
 30
0.0
 10
9.2306522317
 20
6.4254673518
 30
0.0
 10
9.2250185431
 20
6.4259652685
 30
0.0
 10
9.2188650185
 20
6.4264503382
 30
0.0
 10
9.2122056633
 20
6.4269213201
 30
0.0
 10
9.2050560691
 20
6.4273793462
 30
0.0
 10
9.1974328453
 20
6.4278222066
 30
0.0
 10
9.1893540906
 20
6.4282491274
 30
0.0
 10
9.1808388876
 20
6.4286596717
 30
0.0
 10
9.1719071198
 20
6.4290517144
 30
0.0
 10
9.1625797967
 20
6.4294257144
 30
0.0
 10
9.1528785683
 20
6.4297800611
 30
0.0
 10
9.1428261998
 20
6.4301148676
 30
0.0
 10
9.1324463994
 20
6.4304298772
 30
0.0
 10
9.1217636727
 20
6.4307219968
 30
0.0
 10
9.1108033536
 20
6.430991454
 30
0.0
 10
9.0995911189
 20
6.4312363233
 30
0.0
 10
9.0881533386
 20
6.4314570745
 30
0.0
 10
9.0765169314
 20
6.431653273
 30
0.0
 10
9.0647093393
 20
6.4318224314
 30
0.0
 10
9.0487047958
 20
6.4320134607
 30
0.0
 10
9.0325656553
 20
6.4321442488
 30
0.0
 10
9.016330351
 20
6.4322138737
 30
0.0
 10
9.0081742041
 20
6.432227203
 30
0.0
 10
9.0040913179
 20
6.4322286363
 30
0.0
  0
SPLINE
  5
47C
100
AcDbEntity
  8
0
100
AcDbSpline
 62
7
  6
CONTINUOUS
 70
0
 71
3
 72
49
 73
45
 74
0
 42
0.0000001
 43
0.0000001
 44
0.0000000001
 40
0.0
 40
0.0
 40
0.0
 40
0.0
 40
0.0488469947
 40
0.0975762979
 40
0.1942135966
 40
0.2418894148
 40
0.2889827247
 40
0.3353806538
 40
0.3809709702
 40
0.4256443972
 40
0.4692948898
 40
0.511817454
 40
0.553110523
 40
0.6316097565
 40
0.6686299993
 40
0.7040450832
 40
0.7377723662
 40
0.7697304251
 40
0.7998437188
 40
0.8280404077
 40
0.8542526025
 40
0.8784227617
 40
0.9004952511
 40
0.9204207591
 40
0.9381535136
 40
0.94618498
 40
0.9536549853
 40
0.9605607332
 40
0.9668992828
 40
0.9726682973
 40
0.9778672101
 40
0.9824966436
 40
0.986558567
 40
0.9900573607
 40
0.9915983596
 40
0.9930024725
 40
0.9942721274
 40
0.9954108581
 40
0.9964236576
 40
0.9973176734
 40
0.998103343
 40
0.9987960324
 40
0.9994180667
 40
1.0
 40
1.0
 40
1.0
 40
1.0
 10
9.0040913179
 20
6.4322286363
 30
0.0
 10
8.9999655008
 20
6.4322300956
 30
0.0
 10
8.9917237981
 20
6.4322222846
 30
0.0
 10
8.9753198178
 20
6.4321623398
 30
0.0
 10
8.9590150385
 20
6.4320394746
 30
0.0
 10
8.9428491102
 20
6.4318547761
 30
0.0
 10
8.930926693
 20
6.431689595
 30
0.0
 10
8.9191808679
 20
6.4314965983
 30
0.0
 10
8.9076399125
 20
6.4312784573
 30
0.0
 10
8.8963315656
 20
6.4310353732
 30
0.0
 10
8.8852829798
 20
6.4307670353
 30
0.0
 10
8.8745206009
 20
6.4304754184
 30
0.0
 10
8.8608170395
 20
6.4300621999
 30
0.0
 10
8.8475797918
 20
6.4296048178
 30
0.0
 10
8.8348414546
 20
6.4290939397
 30
0.0
 10
8.825883169
 20
6.4286997146
 30
0.0
 10
8.8173537882
 20
6.4282864662
 30
0.0
 10
8.8092736354
 20
6.4278565948
 30
0.0
 10
8.8016622636
 20
6.4274101834
 30
0.0
 10
8.7945380715
 20
6.426948469
 30
0.0
 10
8.7879179235
 20
6.4264733783
 30
0.0
 10
8.7818176433
 20
6.425983516
 30
0.0
 10
8.7762513532
 20
6.4254807568
 30
0.0
 10
8.7712324544
 20
6.4249658761
 30
0.0
 10
8.7673995305
 20
6.4245149734
 30
0.0
 10
8.7646167757
 20
6.4241457222
 30
0.0
 10
8.7627434829
 20
6.4238757092
 30
0.0
 10
8.7610151361
 20
6.4236033581
 30
0.0
 10
8.7594327437
 20
6.4233289047
 30
0.0
 10
8.7579972158
 20
6.4230526036
 30
0.0
 10
8.7567093307
 20
6.4227746012
 30
0.0
 10
8.7555696788
 20
6.4224950729
 30
0.0
 10
8.7545788239
 20
6.4222142942
 30
0.0
 10
8.7538492821
 20
6.4219704056
 30
0.0
 10
8.7533423398
 20
6.4217719875
 30
0.0
 10
8.7530160726
 20
6.4216292953
 30
0.0
 10
8.7527273418
 20
6.4214863797
 30
0.0
 10
8.7524761096
 20
6.4213431964
 30
0.0
 10
8.7522622875
 20
6.4211996709
 30
0.0
 10
8.7520857583
 20
6.4210556315
 30
0.0
 10
8.7519464296
 20
6.4209107639
 30
0.0
 10
8.7518443925
 20
6.4207644823
 30
0.0
 10
8.7517803225
 20
6.4206162713
 30
0.0
 10
8.751763685
 20
6.4205146099
 30
0.0
 10
8.7517622852
 20
6.4204654773
 30
0.0
  0
SPLINE
  5
47D
100
AcDbEntity
  8
0
100
AcDbSpline
 62
7
  6
CONTINUOUS
 70
0
 71
3
 72
52
 73
48
 74
0
 42
0.0000001
 43
0.0000001
 44
0.0000000001
 40
0.0
 40
0.0
 40
0.0
 40
0.0
 40
0.0496259074
 40
0.0991281453
 40
0.19727068
 40
0.2456674848
 40
0.293453892
 40
0.3867244018
 40
0.4319774549
 40
0.4761599337
 40
0.5191623898
 40
0.5608787498
 40
0.6400393759
 40
0.6772884258
 40
0.7128591972
 40
0.7466641803
 40
0.778619114
 40
0.808644268
 40
0.836664438
 40
0.8626091913
 40
0.8864156566
 40
0.9080263926
 40
0.9179921444
 40
0.9273901139
 40
0.936214482
 40
0.9444600434
 40
0.9521222505
 40
0.9591972917
 40
0.9656820562
 40
0.9715739629
 40
0.9768711703
 40
0.9815734002
 40
0.985682108
 40
0.987515091
 40
0.9892014255
 40
0.9907422511
 40
0.9921392161
 40
0.9933946691
 40
0.9945119496
 40
0.9954959221
 40
0.9963538867
 40
0.9970969674
 40
0.9977423187
 40
0.9983160055
 40
0.9988546751
 40
0.9994020657
 40
1.0
 40
1.0
 40
1.0
 40
1.0
 10
9.0040913558
 20
6.3639799767
 30
0.0
 10
8.999629725
 20
6.3639791021
 30
0.0
 10
8.9907175767
 20
6.3639878068
 30
0.0
 10
8.9729819793
 20
6.3640433199
 30
0.0
 10
8.9553570971
 20
6.3641547339
 30
0.0
 10
8.9378869572
 20
6.3643199336
 30
0.0
 10
8.9208552186
 20
6.3645187497
 30
0.0
 10
8.9041067601
 20
6.3647683682
 30
0.0
 10
8.8876833232
 20
6.3650723323
 30
0.0
 10
8.8757790252
 20
6.3653205554
 30
0.0
 10
8.8641932751
 20
6.3655916212
 30
0.0
 10
8.8494646194
 20
6.3659747146
 30
0.0
 10
8.8352546832
 20
6.3664059498
 30
0.0
 10
8.8215993971
 20
6.366890151
 30
0.0
 10
8.8120205856
 20
6.3672653462
 30
0.0
 10
8.8029188801
 20
6.3676584473
 30
0.0
 10
8.7943170563
 20
6.3680690177
 30
0.0
 10
8.7862368143
 20
6.3684964377
 30
0.0
 10
8.7786986581
 20
6.3689401393
 30
0.0
 10
8.7717216864
 20
6.3694002545
 30
0.0
 10
8.7653233776
 20
6.3698749651
 30
0.0
 10
8.7603615522
 20
6.3702921579
 30
0.0
 10
8.7566936994
 20
6.3706350256
 30
0.0
 10
8.7541720916
 20
6.3708881513
 30
0.0
 10
8.7518062917
 20
6.3711443479
 30
0.0
 10
8.7495978705
 20
6.3714035785
 30
0.0
 10
8.7475482484
 20
6.3716657272
 30
0.0
 10
8.7456586995
 20
6.3719306089
 30
0.0
 10
8.7439303674
 20
6.3721979189
 30
0.0
 10
8.7423643359
 20
6.3724675019
 30
0.0
 10
8.7409615763
 20
6.3727393104
 30
0.0
 10
8.7397229185
 20
6.3730130972
 30
0.0
 10
8.738795632
 20
6.3732506252
 30
0.0
 10
8.7381375448
 20
6.373443841
 30
0.0
 10
8.7377045471
 20
6.3735836104
 30
0.0
 10
8.7373130716
 20
6.3737237871
 30
0.0
 10
8.7369631502
 20
6.3738643697
 30
0.0
 10
8.7366547817
 20
6.3740053506
 30
0.0
 10
8.7363879264
 20
6.3741467448
 30
0.0
 10
8.7361624954
 20
6.3742886237
 30
0.0
 10
8.7359783258
 20
6.3744311482
 30
0.0
 10
8.7358352407
 20
6.3745747114
 30
0.0
 10
8.7357333256
 20
6.3747200998
 30
0.0
 10
8.7356736423
 20
6.3748683012
 30
0.0
 10
8.7356585311
 20
6.3750189727
 30
0.0
 10
8.7356889449
 20
6.3751693432
 30
0.0
 10
8.7357354666
 20
6.3752624287
 30
0.0
 10
8.735764001
 20
6.375307988
 30
0.0
  0
SPLINE
  5
47E
100
AcDbEntity
  8
0
100
AcDbSpline
 62
7
  6
CONTINUOUS
 70
0
 71
3
 72
53
 73
49
 74
0
 42
0.0000001
 43
0.0000001
 44
0.0000000001
 40
0.0
 40
0.0
 40
0.0
 40
0.0
 40
0.0020826044
 40
0.0030450204
 40
0.003985361
 40
0.0049303338
 40
0.0059062494
 40
0.0069370153
 40
0.0080429523
 40
0.0092405045
 40
0.0105425685
 40
0.0119591203
 40
0.0134978422
 40
0.0151646193
 40
0.0169639772
 40
0.0188994316
 40
0.0209737214
 40
0.0255463182
 40
0.0306942922
 40
0.0364244646
 40
0.0427403027
 40
0.0496429548
 40
0.057131989
 40
0.0652057054
 40
0.0738614258
 40
0.0830951031
 40
0.0929019518
 40
0.1032766744
 40
0.114213566
 40
0.1377482955
 40
0.163450219
 40
0.19125677
 40
0.2210984254
 40
0.2528993041
 40
0.2865792483
 40
0.3220526389
 40
0.3592299096
 40
0.4383163077
 40
0.4800267334
 40
0.5230422766
 40
0.5672550362
 40
0.6125539978
 40
0.7059552486
 40
0.7538234725
 40
0.8023108433
 40
0.9006547325
 40
0.9502644891
 40
1.0
 40
1.0
 40
1.0
 40
1.0
 10
8.7246122513
 20
5.9796920593
 30
0.0
 10
8.7245093529
 20
5.979859638
 30
0.0
 10
8.724384934
 20
5.9801243973
 30
0.0
 10
8.7243105278
 20
5.9804947642
 30
0.0
 10
8.724302416
 20
5.9807648933
 30
0.0
 10
8.7243408405
 20
5.9810336169
 30
0.0
 10
8.724425436
 20
5.9813004001
 30
0.0
 10
8.7245556779
 20
5.9815649605
 30
0.0
 10
8.7247310923
 20
5.9818273391
 30
0.0
 10
8.72495137
 20
5.9820877227
 30
0.0
 10
8.7252163464
 20
5.9823463222
 30
0.0
 10
8.7255259562
 20
5.9826032957
 30
0.0
 10
8.7258801728
 20
5.9828587414
 30
0.0
 10
8.7262789604
 20
5.9831127309
 30
0.0
 10
8.726722276
 20
5.9833653035
 30
0.0
 10
8.7272100637
 20
5.9836164907
 30
0.0
 10
8.7279438179
 20
5.983960826
 30
0.0
 10
8.7289747208
 20
5.9843840602
 30
0.0
 10
8.73035035
 20
5.984871233
 30
0.0
 10
8.7319012215
 20
5.9853526743
 30
0.0
 10
8.7336263166
 20
5.985828297
 30
0.0
 10
8.7355245841
 20
5.9862978839
 30
0.0
 10
8.7375947999
 20
5.986761214
 30
0.0
 10
8.7398356579
 20
5.9872179674
 30
0.0
 10
8.7422456879
 20
5.9876677804
 30
0.0
 10
8.7448231801
 20
5.9881107431
 30
0.0
 10
8.7475662991
 20
5.9885469205
 30
0.0
 10
8.7504731717
 20
5.988976179
 30
0.0
 10
8.7546683071
 20
5.9895532996
 30
0.0
 10
8.7603074592
 20
5.9902508327
 30
0.0
 10
8.7675395349
 20
5.9910395205
 30
0.0
 10
8.7753734392
 20
5.9917971533
 30
0.0
 10
8.7837884957
 20
5.992522986
 30
0.0
 10
8.7927625691
 20
5.9932170091
 30
0.0
 10
8.802272256
 20
5.9938778906
 30
0.0
 10
8.8122928956
 20
5.9945055018
 30
0.0
 10
8.8265978945
 20
5.9953126124
 30
0.0
 10
8.8414977006
 20
5.9960270032
 30
0.0
 10
8.8569526185
 20
5.9966608489
 30
0.0
 10
8.8691194169
 20
5.9971076726
 30
0.0
 10
8.8816265847
 20
5.9975161953
 30
0.0
 10
8.8988908684
 20
5.9980146778
 30
0.0
 10
8.9165028803
 20
5.9984247992
 30
0.0
 10
8.934417595
 20
5.9987517922
 30
0.0
 10
8.9527999692
 20
5.9990252318
 30
0.0
 10
8.971348025
 20
5.9992104432
 30
0.0
 10
8.9900144859
 20
5.9993051801
 30
0.0
 10
8.9993951106
 20
5.9993216077
 30
0.0
 10
9.0040913558
 20
5.9993216058
 30
0.0
  0
SPLINE
  5
47F
100
AcDbEntity
  8
0
100
AcDbSpline
 62
7
  6
CONTINUOUS
 70
0
 71
3
 72
53
 73
49
 74
0
 42
0.0000001
 43
0.0000001
 44
0.0000000001
 40
0.0
 40
0.0
 40
0.0
 40
0.0
 40
0.049728026
 40
0.0993304304
 40
0.1976605619
 40
0.2461417365
 40
0.2940043499
 40
0.3873964648
 40
0.4326920107
 40
0.4769022315
 40
0.5199161563
 40
0.5616258741
 40
0.6407138103
 40
0.6778932982
 40
0.7133699137
 40
0.7470540981
 40
0.7788601362
 40
0.808707815
 40
0.8365211531
 40
0.8622305126
 40
0.8857732235
 40
0.8967142408
 40
0.9070931502
 40
0.9169042171
 40
0.9261421141
 40
0.9348020198
 40
0.9428798363
 40
0.9503728373
 40
0.9572792699
 40
0.9635986338
 40
0.9693319914
 40
0.9744827077
 40
0.9790574677
 40
0.9811325676
 40
0.983068618
 40
0.9848683257
 40
0.9865351697
 40
0.9880736326
 40
0.9894895492
 40
0.9907905467
 40
0.9919865429
 40
0.993090381
 40
0.9941184685
 40
0.9950911274
 40
0.9960323206
 40
0.9969684737
 40
0.9979264491
 40
1.0
 40
1.0
 40
1.0
 40
1.0
 10
9.0040913558
 20
5.9993216058
 30
0.0
 10
9.0087884266
 20
5.9993216071
 30
0.0
 10
9.0181707108
 20
5.9993054518
 30
0.0
 10
9.0368405697
 20
5.9992123144
 30
0.0
 10
9.0553921252
 20
5.9990302016
 30
0.0
 10
9.0737781497
 20
5.9987612227
 30
0.0
 10
9.0916968279
 20
5.9984394474
 30
0.0
 10
9.1093130181
 20
5.9980357537
 30
0.0
 10
9.1265817285
 20
5.9975447645
 30
0.0
 10
9.1390924622
 20
5.9971423077
 30
0.0
 10
9.1512630141
 20
5.9967020244
 30
0.0
 10
9.1667232757
 20
5.9960771943
 30
0.0
 10
9.1816287091
 20
5.9953727353
 30
0.0
 10
9.1959396527
 20
5.9945763819
 30
0.0
 10
9.2059649985
 20
5.9939569472
 30
0.0
 10
9.2154795767
 20
5.9933044557
 30
0.0
 10
9.2244587105
 20
5.9926189623
 30
0.0
 10
9.232878978
 20
5.9919018021
 30
0.0
 10
9.2407182204
 20
5.9911529023
 30
0.0
 10
9.2479557366
 20
5.9903729434
 30
0.0
 10
9.2535995276
 20
5.9896828527
 30
0.0
 10
9.2577984207
 20
5.9891116559
 30
0.0
 10
9.2607080885
 20
5.9886866907
 30
0.0
 10
9.2634540037
 20
5.9882547632
 30
0.0
 10
9.2660342878
 20
5.9878159983
 30
0.0
 10
9.2684471005
 20
5.9873703269
 30
0.0
 10
9.2706907242
 20
5.9869176412
 30
0.0
 10
9.2727636807
 20
5.986458294
 30
0.0
 10
9.2746646585
 20
5.9859926027
 30
0.0
 10
9.2763924248
 20
5.9855207746
 30
0.0
 10
9.2779459191
 20
5.9850430161
 30
0.0
 10
9.279324114
 20
5.984559405
 30
0.0
 10
9.2803571852
 20
5.9841391074
 30
0.0
 10
9.2810926654
 20
5.9837970486
 30
0.0
 10
9.28158167
 20
5.9835474824
 30
0.0
 10
9.2820261824
 20
5.9832964919
 30
0.0
 10
9.2824261457
 20
5.9830440444
 30
0.0
 10
9.282781516
 20
5.9827900996
 30
0.0
 10
9.2830922575
 20
5.9825345847
 30
0.0
 10
9.2833583439
 20
5.9822774005
 30
0.0
 10
9.2835797116
 20
5.9820183867
 30
0.0
 10
9.2837561987
 20
5.9817573287
 30
0.0
 10
9.2838874966
 20
5.9814940315
 30
0.0
 10
9.2839731276
 20
5.9812284444
 30
0.0
 10
9.2840125562
 20
5.9809608427
 30
0.0
 10
9.2840054039
 20
5.9806917628
 30
0.0
 10
9.2839322357
 20
5.9803227152
 30
0.0
 10
9.2838086234
 20
5.9800588494
 30
0.0
 10
9.2837062701
 20
5.9798918643
 30
0.0
  0
LINE
  5
480
100
AcDbEntity
  8
0
100
AcDbLine
 62
7
  6
CONTINUOUS
 10
9.2723426699
 20
6.3754072104
 11
9.2724255746
 21
6.375219279
  0
SPLINE
  5
481
100
AcDbEntity
  8
0
100
AcDbSpline
 62
7
  6
CONTINUOUS
 70
0
 71
3
 72
51
 73
47
 74
0
 42
0.0000001
 43
0.0000001
 44
0.0000000001
 40
0.0
 40
0.0
 40
0.0
 40
0.0
 40
0.0005363437
 40
0.0010762602
 40
0.0016610027
 40
0.0023234826
 40
0.0030865629
 40
0.0039652449
 40
0.0049693227
 40
0.0061052737
 40
0.007377457
 40
0.0087888953
 40
0.0103417291
 40
0.0120374592
 40
0.0158612599
 40
0.0202658151
 40
0.0252533779
 40
0.0308244658
 40
0.0369778644
 40
0.043711375
 40
0.0510221934
 40
0.0589070343
 40
0.0673617467
 40
0.076381669
 40
0.0960950547
 40
0.1180010484
 40
0.1420482819
 40
0.168180112
 40
0.196333953
 40
0.2264402055
 40
0.2584253493
 40
0.2922109537
 40
0.3277147825
 40
0.3648512161
 40
0.4035299808
 40
0.443658432
 40
0.4851384792
 40
0.5278685279
 40
0.5717453134
 40
0.6166624046
 40
0.7091825759
 40
0.7565610716
 40
0.8045326502
 40
0.9017868088
 40
0.950833074
 40
1.0
 40
1.0
 40
1.0
 40
1.0
 10
9.2724255746
 20
6.375219279
 30
0.0
 10
9.272437473
 20
6.3751726005
 30
0.0
 10
9.2724488796
 20
6.3750750367
 30
0.0
 10
9.2724217736
 20
6.3749263398
 30
0.0
 10
9.2723516878
 20
6.3747802174
 30
0.0
 10
9.2722406259
 20
6.3746366152
 30
0.0
 10
9.2720892819
 20
6.3744945278
 30
0.0
 10
9.2718976373
 20
6.3743533225
 30
0.0
 10
9.2716655146
 20
6.3742126886
 30
0.0
 10
9.2713927768
 20
6.3740724998
 30
0.0
 10
9.2710793522
 20
6.3739327011
 30
0.0
 10
9.270725212
 20
6.3737932864
 30
0.0
 10
9.2703303654
 20
6.3736542519
 30
0.0
 10
9.2697250021
 20
6.3734616119
 30
0.0
 10
9.2688653209
 20
6.3732249858
 30
0.0
 10
9.2677098657
 20
6.3729524906
 30
0.0
 10
9.266393369
 20
6.3726817036
 30
0.0
 10
9.2649165423
 20
6.3724129813
 30
0.0
 10
9.2632802461
 20
6.372146443
 30
0.0
 10
9.2614855062
 20
6.3718821519
 30
0.0
 10
9.2595333909
 20
6.3716203622
 30
0.0
 10
9.2574250732
 20
6.3713613435
 30
0.0
 10
9.25516186
 20
6.371105183
 30
0.0
 10
9.2518399999
 20
6.370757243
 30
0.0
 10
9.2473115128
 20
6.3703336406
 30
0.0
 10
9.2414334232
 20
6.3698510278
 30
0.0
 10
9.2349761437
 20
6.3693815871
 30
0.0
 10
9.2279554135
 20
6.3689267971
 30
0.0
 10
9.2203885054
 20
6.3684880641
 30
0.0
 10
9.2122942354
 20
6.3680650794
 30
0.0
 10
9.2036927067
 20
6.3676587925
 30
0.0
 10
9.1946051547
 20
6.3672694126
 30
0.0
 10
9.1850538394
 20
6.3668977243
 30
0.0
 10
9.175062042
 20
6.3665451727
 30
0.0
 10
9.1646540115
 20
6.366211783
 30
0.0
 10
9.153855031
 20
6.3658998595
 30
0.0
 10
9.1426914706
 20
6.3656092255
 30
0.0
 10
9.1311906391
 20
6.3653394841
 30
0.0
 10
9.1193805436
 20
6.3650920031
 30
0.0
 10
9.1030988391
 20
6.3647884775
 30
0.0
 10
9.0865016365
 20
6.3645381253
 30
0.0
 10
9.0696294623
 20
6.3643373557
 30
0.0
 10
9.0523317302
 20
6.3641693741
 30
0.0
 10
9.0348837271
 20
6.3640538258
 30
0.0
 10
9.0173281394
 20
6.3639927904
 30
0.0
 10
9.008507229
 20
6.3639808573
 30
0.0
 10
9.0040913558
 20
6.3639799767
 30
0.0
  0
LINE
  5
482
100
AcDbEntity
  8
0
100
AcDbLine
 62
7
  6
CONTINUOUS
 10
9.0828911218
 20
5.5088940533
 11
9.0825847438
 21
5.5086135269
  0
SPLINE
  5
483
100
AcDbEntity
  8
0
100
AcDbSpline
 62
7
  6
CONTINUOUS
 70
0
 71
3
 72
19
 73
15
 74
0
 42
0.0000001
 43
0.0000001
 44
0.0000000001
 40
0.0
 40
0.0
 40
0.0
 40
0.0
 40
0.0193419569
 40
0.040427142
 40
0.065611649
 40
0.0963188973
 40
0.1333279454
 40
0.1770543719
 40
0.2277293972
 40
0.2854743584
 40
0.422276272
 40
0.5873847812
 40
0.7802768846
 40
1.0
 40
1.0
 40
1.0
 40
1.0
 10
8.8681143398
 20
5.5174665349
 30
0.0
 10
8.8681136732
 20
5.5174553357
 30
0.0
 10
8.8681073926
 20
5.5174319485
 30
0.0
 10
8.8680835567
 20
5.5174013525
 30
0.0
 10
8.8680470647
 20
5.5173749715
 30
0.0
 10
8.8679980955
 20
5.5173520009
 30
0.0
 10
8.8679364479
 20
5.5173321668
 30
0.0
 10
8.8678620154
 20
5.5173154089
 30
0.0
 10
8.8677747794
 20
5.5173017488
 30
0.0
 10
8.8676332733
 20
5.5172868926
 30
0.0
 10
8.8674246866
 20
5.5172778391
 30
0.0
 10
8.8671376228
 20
5.5172798541
 30
0.0
 10
8.8668027812
 20
5.5172945192
 30
0.0
 10
8.8665640337
 20
5.5173116107
 30
0.0
 10
8.8664370121
 20
5.5173220257
 30
0.0
  0
SPLINE
  5
484
100
AcDbEntity
  8
0
100
AcDbSpline
 62
7
  6
CONTINUOUS
 70
0
 71
3
 72
15
 73
11
 74
0
 42
0.0000001
 43
0.0000001
 44
0.0000000001
 40
0.0
 40
0.0
 40
0.0
 40
0.0
 40
0.1128524498
 40
0.2278733081
 40
0.3459422006
 40
0.4679189599
 40
0.5945022247
 40
0.7259513083
 40
0.8616854922
 40
1.0
 40
1.0
 40
1.0
 40
1.0
 10
9.2899237335
 20
5.7950594699
 30
0.0
 10
9.2904126215
 20
5.7949396997
 30
0.0
 10
9.2913841763
 20
5.7946278121
 30
0.0
 10
9.2927746266
 20
5.7939466373
 30
0.0
 10
9.2940811484
 20
5.7930404494
 30
0.0
 10
9.2952663694
 20
5.7919034696
 30
0.0
 10
9.2962833279
 20
5.7905373007
 30
0.0
 10
9.2970754229
 20
5.7889591425
 30
0.0
 10
9.2975831317
 20
5.7872129129
 30
0.0
 10
9.2976997421
 20
5.7859874099
 30
0.0
 10
9.2976997421
 20
5.7853704987
 30
0.0
  0
SPLINE
  5
485
100
AcDbEntity
  8
0
100
AcDbSpline
 62
7
  6
CONTINUOUS
 70
0
 71
3
 72
17
 73
13
 74
0
 42
0.0000001
 43
0.0000001
 44
0.0000000001
 40
0.0
 40
0.0
 40
0.0
 40
0.0
 40
0.1148607368
 40
0.2315026297
 40
0.35065987
 40
0.4730584206
 40
0.5992995336
 40
0.7296232564
 40
0.7962812697
 40
0.8637142928
 40
0.9317088827
 40
1.0
 40
1.0
 40
1.0
 40
1.0
 10
9.2887480259
 20
5.7950594699
 30
0.0
 10
9.2892548439
 20
5.7949398604
 30
0.0
 10
9.2902613437
 20
5.7946288298
 30
0.0
 10
9.2917040396
 20
5.7939485236
 30
0.0
 10
9.2930599483
 20
5.7930433785
 30
0.0
 10
9.2942904842
 20
5.791907305
 30
0.0
 10
9.2953468636
 20
5.7905418651
 30
0.0
 10
9.2960286652
 20
5.7892346206
 30
0.0
 10
9.2964302181
 20
5.788103518
 30
0.0
 10
9.2966531543
 20
5.7872133096
 30
0.0
 10
9.2967894732
 20
5.7862984211
 30
0.0
 10
9.2968200477
 20
5.7856801081
 30
0.0
 10
9.2968200477
 20
5.7853704987
 30
0.0
  0
SPLINE
  5
486
100
AcDbEntity
  8
0
100
AcDbSpline
 62
7
  6
CONTINUOUS
 70
0
 71
3
 72
19
 73
15
 74
0
 42
0.0000001
 43
0.0000001
 44
0.0000000001
 40
0.0
 40
0.0
 40
0.0
 40
0.0
 40
0.1166955604
 40
0.2349117479
 40
0.2948096152
 40
0.3553041575
 40
0.4164656969
 40
0.4783580323
 40
0.6044112936
 40
0.7337094654
 40
0.7995504877
 40
0.865997972
 40
0.9328840307
 40
1.0
 40
1.0
 40
1.0
 40
1.0
 10
9.2872228412
 20
5.7949528613
 30
0.0
 10
9.287725059
 20
5.7948187848
 30
0.0
 10
9.2887198419
 20
5.7944834123
 30
0.0
 10
9.2899007208
 20
5.79389895
 30
0.0
 10
9.2907986709
 20
5.7933288128
 30
0.0
 10
9.2914483818
 20
5.7928459805
 30
0.0
 10
9.2920663496
 20
5.7923093536
 30
0.0
 10
9.2928451264
 20
5.7915175815
 30
0.0
 10
9.293709274
 20
5.7903905512
 30
0.0
 10
9.2943723706
 20
5.7891132575
 30
0.0
 10
9.2947615591
 20
5.7880134139
 30
0.0
 10
9.2949769567
 20
5.7871512697
 30
0.0
 10
9.2951085114
 20
5.7862667768
 30
0.0
 10
9.2951380044
 20
5.785669459
 30
0.0
 10
9.2951380044
 20
5.7853704987
 30
0.0
  0
SPLINE
  5
487
100
AcDbEntity
  8
0
100
AcDbSpline
 62
7
  6
CONTINUOUS
 70
0
 71
3
 72
21
 73
17
 74
0
 42
0.0000001
 43
0.0000001
 44
0.0000000001
 40
0.0
 40
0.0
 40
0.0
 40
0.0
 40
0.1182483314
 40
0.2376466081
 40
0.2979688765
 40
0.3587650617
 40
0.4200981986
 40
0.4820256969
 40
0.5445976605
 40
0.6078505623
 40
0.6717992784
 40
0.7364285968
 40
0.8016838562
 40
0.8674662981
 40
0.9336317432
 40
1.0
 40
1.0
 40
1.0
 40
1.0
 10
9.2840612993
 20
5.7950594699
 30
0.0
 10
9.2845999545
 20
5.7949401085
 30
0.0
 10
9.2856683919
 20
5.7946304799
 30
0.0
 10
9.2869441505
 20
5.7940662682
 30
0.0
 10
9.287916978
 20
5.7935051307
 30
0.0
 10
9.2886215575
 20
5.7930258936
 30
0.0
 10
9.2892930411
 20
5.7924891412
 30
0.0
 10
9.2899254466
 20
5.7918945538
 30
0.0
 10
9.290512003
 20
5.7912424669
 30
0.0
 10
9.2910452313
 20
5.7905341208
 30
0.0
 10
9.2915170324
 20
5.7897720148
 30
0.0
 10
9.2919189475
 20
5.7889602803
 30
0.0
 10
9.2922425877
 20
5.7881050218
 30
0.0
 10
9.2924802393
 20
5.7872144505
 30
0.0
 10
9.2926256126
 20
5.7862990257
 30
0.0
 10
9.2926582224
 20
5.7856801588
 30
0.0
 10
9.2926582224
 20
5.7853704987
 30
0.0
  0
SPLINE
  5
488
100
AcDbEntity
  8
0
100
AcDbSpline
 62
7
  6
CONTINUOUS
 70
0
 71
3
 72
20
 73
16
 74
0
 42
0.0000001
 43
0.0000001
 44
0.0000000001
 40
0.0
 40
0.0
 40
0.0
 40
0.0
 40
0.1196823079
 40
0.179869349
 40
0.24033107
 40
0.3621913629
 40
0.4857206223
 40
0.5482778924
 40
0.6113741891
 40
0.6750225041
 40
0.7392119606
 40
0.803899985
 40
0.8690086336
 40
0.934423193
 40
1.0
 40
1.0
 40
1.0
 40
1.0
 10
9.2805631263
 20
5.7950594699
 30
0.0
 10
9.2811155928
 20
5.7949402035
 30
0.0
 10
9.2819360132
 20
5.7947086232
 30
0.0
 10
9.2829932799
 20
5.7942941848
 30
0.0
 10
9.2840294466
 20
5.7938045452
 30
0.0
 10
9.2852674278
 20
5.793050177
 30
0.0
 10
9.2863846508
 20
5.7921087019
 30
0.0
 10
9.2871838232
 20
5.7912432497
 30
0.0
 10
9.2877312621
 20
5.7905349383
 30
0.0
 10
9.2882156372
 20
5.7897728545
 30
0.0
 10
9.2886283113
 20
5.7889610773
 30
0.0
 10
9.2889606441
 20
5.7881057105
 30
0.0
 10
9.2892047012
 20
5.7872149587
 30
0.0
 10
9.2893540031
 20
5.7862993007
 30
0.0
 10
9.2893874987
 20
5.7856801817
 30
0.0
 10
9.2893874987
 20
5.7853704987
 30
0.0
  0
SPLINE
  5
489
100
AcDbEntity
  8
0
100
AcDbSpline
 62
7
  6
CONTINUOUS
 70
0
 71
3
 72
18
 73
14
 74
0
 42
0.0000001
 43
0.0000001
 44
0.0000000001
 40
0.0
 40
0.0
 40
0.0
 40
0.0
 40
0.1209409769
 40
0.2425630633
 40
0.365160849
 40
0.4890316173
 40
0.6144337632
 40
0.6778277277
 40
0.7416391036
 40
0.8058355388
 40
0.8703572712
 40
0.9351157465
 40
1.0
 40
1.0
 40
1.0
 40
1.0
 10
9.2763170588
 20
5.7950568066
 30
0.0
 10
9.276881267
 20
5.7949372143
 30
0.0
 10
9.2779995274
 20
5.7946277698
 30
0.0
 10
9.2796086558
 20
5.7939492851
 30
0.0
 10
9.281121577
 20
5.7930469186
 30
0.0
 10
9.2824956908
 20
5.7919145546
 30
0.0
 10
9.283477978
 20
5.7907814892
 30
0.0
 10
9.2841350655
 20
5.7897699936
 30
0.0
 10
9.2845566893
 20
5.7889587089
 30
0.0
 10
9.2848962017
 20
5.7881039187
 30
0.0
 10
9.2851455517
 20
5.7872137542
 30
0.0
 10
9.2852980945
 20
5.7862987011
 30
0.0
 10
9.2853323213
 20
5.7856799189
 30
0.0
 10
9.2853323213
 20
5.7853704987
 30
0.0
  0
SPLINE
  5
48A
100
AcDbEntity
  8
0
100
AcDbSpline
 62
7
  6
CONTINUOUS
 70
0
 71
3
 72
18
 73
14
 74
0
 42
0.0000001
 43
0.0000001
 44
0.0000000001
 40
0.0
 40
0.0
 40
0.0
 40
0.0
 40
0.1220005542
 40
0.2444974641
 40
0.3677089619
 40
0.4918545822
 40
0.6171262745
 40
0.6802923993
 40
0.7437691627
 40
0.8075328601
 40
0.871539329
 40
0.9357225863
 40
1.0
 40
1.0
 40
1.0
 40
1.0
 10
9.271305076
 20
5.7950594699
 30
0.0
 10
9.2718807443
 20
5.7949403484
 30
0.0
 10
9.2730214092
 20
5.7946319613
 30
0.0
 10
9.2746639229
 20
5.7939545785
 30
0.0
 10
9.2762084542
 20
5.7930530832
 30
0.0
 10
9.2776116232
 20
5.7919212705
 30
0.0
 10
9.2786159727
 20
5.790787195
 30
0.0
 10
9.279287802
 20
5.7897742877
 30
0.0
 10
9.2797185759
 20
5.7889624242
 30
0.0
 10
9.2800655046
 20
5.7881068928
 30
0.0
 10
9.2803203328
 20
5.7872158361
 30
0.0
 10
9.280476242
 20
5.7862997781
 30
0.0
 10
9.2805112288
 20
5.7856802216
 30
0.0
 10
9.2805112288
 20
5.7853704987
 30
0.0
  0
SPLINE
  5
48B
100
AcDbEntity
  8
0
100
AcDbSpline
 62
7
  6
CONTINUOUS
 70
0
 71
3
 72
18
 73
14
 74
0
 42
0.0000001
 43
0.0000001
 44
0.0000000001
 40
0.0
 40
0.0
 40
0.0
 40
0.0
 40
0.1228915291
 40
0.2461267236
 40
0.369859212
 40
0.4942418732
 40
0.6194084156
 40
0.6823836457
 40
0.7455782683
 40
0.8089756541
 40
0.8725447878
 40
0.9362389822
 40
1.0
 40
1.0
 40
1.0
 40
1.0
 10
9.2655705743
 20
5.7950594699
 30
0.0
 10
9.2661555644
 20
5.7949404019
 30
0.0
 10
9.2673143951
 20
5.7946323097
 30
0.0
 10
9.268983887
 20
5.7939552704
 30
0.0
 10
9.2705538422
 20
5.7930542454
 30
0.0
 10
9.2719802689
 20
5.7919229899
 30
0.0
 10
9.273002279
 20
5.7907884599
 30
0.0
 10
9.2736858741
 20
5.7897748519
 30
0.0
 10
9.2741239021
 20
5.7889629726
 30
0.0
 10
9.2744767001
 20
5.788107375
 30
0.0
 10
9.2747358576
 20
5.7872161972
 30
0.0
 10
9.2748944249
 20
5.7862999753
 30
0.0
 10
9.2749300118
 20
5.7856802381
 30
0.0
 10
9.2749300118
 20
5.7853704987
 30
0.0
  0
SPLINE
  5
48C
100
AcDbEntity
  8
0
100
AcDbSpline
 62
7
  6
CONTINUOUS
 70
0
 71
3
 72
18
 73
14
 74
0
 42
0.0000001
 43
0.0000001
 44
0.0000000001
 40
0.0
 40
0.0
 40
0.0
 40
0.0
 40
0.1236203719
 40
0.2474606472
 40
0.371621598
 40
0.4962010583
 40
0.6212839295
 40
0.6841034448
 40
0.7470669812
 40
0.8101635816
 40
0.873372989
 40
0.9366644561
 40
1.0
 40
1.0
 40
1.0
 40
1.0
 10
9.2591193762
 20
5.7950594699
 30
0.0
 10
9.2597121307
 20
5.7949404447
 30
0.0
 10
9.2608860926
 20
5.7946325885
 30
0.0
 10
9.2625780438
 20
5.7939558268
 30
0.0
 10
9.2641691583
 20
5.7930551871
 30
0.0
 10
9.2656149349
 20
5.7919243962
 30
0.0
 10
9.2666516524
 20
5.7907895057
 30
0.0
 10
9.2673450542
 20
5.7897753212
 30
0.0
 10
9.267789123
 20
5.7889634311
 30
0.0
 10
9.26814681
 20
5.78810778
 30
0.0
 10
9.2684095749
 20
5.7872165016
 30
0.0
 10
9.2685703576
 20
5.7863001419
 30
0.0
 10
9.2686064449
 20
5.785680252
 30
0.0
 10
9.2686064449
 20
5.7853704987
 30
0.0
  0
SPLINE
  5
48D
100
AcDbEntity
  8
0
100
AcDbSpline
 62
7
  6
CONTINUOUS
 70
0
 71
3
 72
18
 73
14
 74
0
 42
0.0000001
 43
0.0000001
 44
0.0000000001
 40
0.0
 40
0.0
 40
0.0
 40
0.0
 40
0.124192404
 40
0.2485082869
 40
0.3730069411
 40
0.4977426867
 40
0.6227613897
 40
0.6854589855
 40
0.7482409836
 40
0.8111008041
 40
0.874026632
 40
0.9370003287
 40
1.0
 40
1.0
 40
1.0
 40
1.0
 10
9.251969164
 20
5.7950594699
 30
0.0
 10
9.2525681027
 20
5.7949404776
 30
0.0
 10
9.2537541166
 20
5.7946328033
 30
0.0
 10
9.255463949
 20
5.7939562576
 30
0.0
 10
9.2570719056
 20
5.7930559204
 30
0.0
 10
9.2585330801
 20
5.7919254997
 30
0.0
 10
9.2595815099
 20
5.7907903336
 30
0.0
 10
9.2602827266
 20
5.7897756945
 30
0.0
 10
9.260731606
 20
5.7889637973
 30
0.0
 10
9.2610931871
 20
5.7881081047
 30
0.0
 10
9.2613588261
 20
5.7872167463
 30
0.0
 10
9.2615213744
 20
5.7863002761
 30
0.0
 10
9.2615578605
 20
5.7856802632
 30
0.0
 10
9.2615578605
 20
5.7853704987
 30
0.0
  0
SPLINE
  5
48E
100
AcDbEntity
  8
0
100
AcDbSpline
 62
7
  6
CONTINUOUS
 70
0
 71
3
 72
18
 73
14
 74
0
 42
0.0000001
 43
0.0000001
 44
0.0000000001
 40
0.0
 40
0.0
 40
0.0
 40
0.0
 40
0.1246118016
 40
0.249276786
 40
0.3740238327
 40
0.4988751836
 40
0.6238476844
 40
0.6864560615
 40
0.7491048738
 40
0.8117907002
 40
0.8745079154
 40
0.9372476786
 40
1.0
 40
1.0
 40
1.0
 40
1.0
 10
9.244139536
 20
5.7950594699
 30
0.0
 10
9.2447430605
 20
5.7949405013
 30
0.0
 10
9.2459380117
 20
5.7946329587
 30
0.0
 10
9.2476610999
 20
5.7939565702
 30
0.0
 10
9.2492815397
 20
5.7930564548
 30
0.0
 10
9.2507541246
 20
5.7919263084
 30
0.0
 10
9.2518112382
 20
5.7907909446
 30
0.0
 10
9.2525182523
 20
5.789775971
 30
0.0
 10
9.2529706985
 20
5.7889640694
 30
0.0
 10
9.2533351675
 20
5.7881083467
 30
0.0
 10
9.2536029382
 20
5.7872169291
 30
0.0
 10
9.2537667962
 20
5.7863003765
 30
0.0
 10
9.2538035784
 20
5.7856802716
 30
0.0
 10
9.2538035784
 20
5.7853704987
 30
0.0
  0
SPLINE
  5
48F
100
AcDbEntity
  8
0
100
AcDbSpline
 62
7
  6
CONTINUOUS
 70
0
 71
3
 72
18
 73
14
 74
0
 42
0.0000001
 43
0.0000001
 44
0.0000000001
 40
0.0
 40
0.0
 40
0.0
 40
0.0
 40
0.1248816208
 40
0.2497714107
 40
0.3746786756
 40
0.499604945
 40
0.6245482187
 40
0.6870992539
 40
0.7496623081
 40
0.8122359743
 40
0.8748186062
 40
0.9374073766
 40
1.0
 40
1.0
 40
1.0
 40
1.0
 10
9.2356603701
 20
5.7950568066
 30
0.0
 10
9.2362662122
 20
5.7949374495
 30
0.0
 10
9.237465606
 20
5.7946292971
 30
0.0
 10
9.2391951875
 20
5.7939523205
 30
0.0
 10
9.2408215931
 20
5.7930520317
 30
0.0
 10
9.2422994901
 20
5.7919221522
 30
0.0
 10
9.2433606152
 20
5.7907871102
 30
0.0
 10
9.2440702479
 20
5.7897725093
 30
0.0
 10
9.2445242495
 20
5.7889611612
 30
0.0
 10
9.2448899616
 20
5.7881060807
 30
0.0
 10
9.2451586401
 20
5.7872153766
 30
0.0
 10
9.2453230516
 20
5.7862995882
 30
0.0
 10
9.2453599586
 20
5.7856799931
 30
0.0
 10
9.2453599586
 20
5.7853704987
 30
0.0
  0
SPLINE
  5
490
100
AcDbEntity
  8
0
100
AcDbSpline
 62
7
  6
CONTINUOUS
 70
0
 71
3
 72
18
 73
14
 74
0
 42
0.0000001
 43
0.0000001
 44
0.0000000001
 40
0.0
 40
0.0
 40
0.0
 40
0.0
 40
0.1250038981
 40
0.2499955564
 40
0.3749754295
 40
0.499935644
 40
0.6248656062
 40
0.6873907066
 40
0.749914937
 40
0.812437796
 40
0.8749594418
 40
0.9374797684
 40
1.0
 40
1.0
 40
1.0
 40
1.0
 10
9.2265296778
 20
5.7950594699
 30
0.0
 10
9.2271375298
 20
5.7949405233
 30
0.0
 10
9.2283409154
 20
5.7946331024
 30
0.0
 10
9.2300765101
 20
5.79395686
 30
0.0
 10
9.2317087259
 20
5.793056952
 30
0.0
 10
9.2331920728
 20
5.7919270643
 30
0.0
 10
9.2342573804
 20
5.7907915187
 30
0.0
 10
9.2349698673
 20
5.7897762316
 30
0.0
 10
9.2354256791
 20
5.7889643266
 30
0.0
 10
9.2357928735
 20
5.7881085759
 30
0.0
 10
9.2360626564
 20
5.7872171027
 30
0.0
 10
9.2362277509
 20
5.7863004719
 30
0.0
 10
9.2362648124
 20
5.7856802796
 30
0.0
 10
9.2362648124
 20
5.7853704987
 30
0.0
  0
SPLINE
  5
491
100
AcDbEntity
  8
0
100
AcDbSpline
 62
7
  6
CONTINUOUS
 70
0
 71
3
 72
18
 73
14
 74
0
 42
0.0000001
 43
0.0000001
 44
0.0000000001
 40
0.0
 40
0.0
 40
0.0
 40
0.0
 40
0.1249794667
 40
0.2499507616
 40
0.3749161103
 40
0.4998695193
 40
0.6248021135
 40
0.687332399
 40
0.7498643938
 40
0.8123974156
 40
0.8749312624
 40
0.937465283
 40
1.0
 40
1.0
 40
1.0
 40
1.0
 10
9.2167977149
 20
5.7950594699
 30
0.0
 10
9.2174052962
 20
5.7949405219
 30
0.0
 10
9.2186081539
 20
5.7946330935
 30
0.0
 10
9.2203429661
 20
5.793956842
 30
0.0
 10
9.2219744451
 20
5.7930569211
 30
0.0
 10
9.2234571187
 20
5.7919270172
 30
0.0
 10
9.2245219136
 20
5.7907914829
 30
0.0
 10
9.2252340581
 20
5.7897762153
 30
0.0
 10
9.2256896592
 20
5.7889643105
 30
0.0
 10
9.226056683
 20
5.7881085616
 30
0.0
 10
9.2263263401
 20
5.7872170918
 30
0.0
 10
9.2264913571
 20
5.7863004659
 30
0.0
 10
9.2265284012
 20
5.7856802791
 30
0.0
 10
9.2265284012
 20
5.7853704987
 30
0.0
  0
SPLINE
  5
492
100
AcDbEntity
  8
0
100
AcDbSpline
 62
7
  6
CONTINUOUS
 70
0
 71
3
 72
18
 73
14
 74
0
 42
0.0000001
 43
0.0000001
 44
0.0000000001
 40
0.0
 40
0.0
 40
0.0
 40
0.0
 40
0.1248081684
 40
0.249636719
 40
0.374500295
 40
0.4994060714
 40
0.624357189
 40
0.6869238438
 40
0.7495102716
 40
0.812114518
 40
0.8747338545
 40
0.9373638099
 40
1.0
 40
1.0
 40
1.0
 40
1.0
 10
9.2064827387
 20
5.7950594699
 30
0.0
 10
9.2070884256
 20
5.7949405124
 30
0.0
 10
9.2082875912
 20
5.7946330309
 30
0.0
 10
9.2100169289
 20
5.7939567156
 30
0.0
 10
9.2116432534
 20
5.7930567041
 30
0.0
 10
9.2131212165
 20
5.791926687
 30
0.0
 10
9.2141824246
 20
5.7907912318
 30
0.0
 10
9.2148921732
 20
5.7897761013
 30
0.0
 10
9.2153463011
 20
5.7889641979
 30
0.0
 10
9.2157121319
 20
5.7881084611
 30
0.0
 10
9.215980908
 20
5.7872170157
 30
0.0
 10
9.2161453838
 20
5.7863004241
 30
0.0
 10
9.2161823055
 20
5.7856802756
 30
0.0
 10
9.2161823055
 20
5.7853704987
 30
0.0
  0
SPLINE
  5
493
100
AcDbEntity
  8
0
100
AcDbSpline
 62
7
  6
CONTINUOUS
 70
0
 71
3
 72
18
 73
14
 74
0
 42
0.0000001
 43
0.0000001
 44
0.0000000001
 40
0.0
 40
0.0
 40
0.0
 40
0.0
 40
0.1244887484
 40
0.2490512711
 40
0.3737253695
 40
0.4985427113
 40
0.6235286929
 40
0.6861632319
 40
0.7488511295
 40
0.8115880411
 40
0.8743665255
 40
0.9371750093
 40
1.0
 40
1.0
 40
1.0
 40
1.0
 10
9.1956130218
 20
5.7950594699
 30
0.0
 10
9.1962151962
 20
5.7949404944
 30
0.0
 10
9.1974075162
 20
5.7946329133
 30
0.0
 10
9.1991267021
 20
5.7939564788
 30
0.0
 10
9.2007434673
 20
5.7930562983
 30
0.0
 10
9.2022126936
 20
5.7919260712
 30
0.0
 10
9.2032672508
 20
5.790790765
 30
0.0
 10
9.2039725579
 20
5.7897758897
 30
0.0
 10
9.2044239541
 20
5.7889639893
 30
0.0
 10
9.2047875729
 20
5.7881082753
 30
0.0
 10
9.205054716
 20
5.7872168752
 30
0.0
 10
9.2052181883
 20
5.7863003468
 30
0.0
 10
9.2052548833
 20
5.7856802692
 30
0.0
 10
9.2052548833
 20
5.7853704987
 30
0.0
  0
SPLINE
  5
494
100
AcDbEntity
  8
0
100
AcDbSpline
 62
7
  6
CONTINUOUS
 70
0
 71
3
 72
18
 73
14
 74
0
 42
0.0000001
 43
0.0000001
 44
0.0000000001
 40
0.0
 40
0.0
 40
0.0
 40
0.0
 40
0.1240188675
 40
0.2481904021
 40
0.372586477
 40
0.4972746402
 40
0.6223126682
 40
0.6850472224
 40
0.7478843095
 40
0.8108160271
 40
0.8738280001
 40
0.9368982555
 40
1.0
 40
1.0
 40
1.0
 40
1.0
 10
9.1842183573
 20
5.7950594699
 30
0.0
 10
9.1848154114
 20
5.7949404677
 30
0.0
 10
9.1859977524
 20
5.7946327385
 30
0.0
 10
9.1877021363
 20
5.7939561275
 30
0.0
 10
9.1893049613
 20
5.7930556985
 30
0.0
 10
9.1907614447
 20
5.791925165
 30
0.0
 10
9.1918063054
 20
5.7907900818
 30
0.0
 10
9.1925051402
 20
5.7897755808
 30
0.0
 10
9.1929525537
 20
5.7889636856
 30
0.0
 10
9.1933129481
 20
5.7881080056
 30
0.0
 10
9.1935777111
 20
5.7872166715
 30
0.0
 10
9.1937397212
 20
5.786300235
 30
0.0
 10
9.1937760858
 20
5.7856802598
 30
0.0
 10
9.1937760858
 20
5.7853704987
 30
0.0
  0
LINE
  5
495
100
AcDbEntity
  8
0
100
AcDbLine
 62
7
  6
CONTINUOUS
 10
9.1840484299
 20
5.7853704987
 11
9.1842183573
 21
5.7950594699
  0
SPLINE
  5
496
100
AcDbEntity
  8
0
100
AcDbSpline
 62
7
  6
CONTINUOUS
 70
0
 71
3
 72
18
 73
14
 74
0
 42
0.0000001
 43
0.0000001
 44
0.0000000001
 40
0.0
 40
0.0
 40
0.0
 40
0.0
 40
0.1233950293
 40
0.2470485679
 40
0.3710775659
 40
0.4955967121
 40
0.6207058266
 40
0.6835734699
 40
0.74660832
 40
0.8097976601
 40
0.8731179119
 40
0.9365334291
 40
1.0
 40
1.0
 40
1.0
 40
1.0
 10
9.1723360928
 20
5.7950568066
 30
0.0
 10
9.1729257961
 20
5.794937364
 30
0.0
 10
9.1740937379
 20
5.7946287404
 30
0.0
 10
9.1757766623
 20
5.7939512047
 30
0.0
 10
9.1773591294
 20
5.7930501307
 30
0.0
 10
9.1787968634
 20
5.7919192868
 30
0.0
 10
9.179827436
 20
5.7907849551
 30
0.0
 10
9.1805166799
 20
5.7897715363
 30
0.0
 10
9.1809581344
 20
5.7889602054
 30
0.0
 10
9.1813136894
 20
5.7881052323
 30
0.0
 10
9.1815748712
 20
5.7872147366
 30
0.0
 10
9.1817346774
 20
5.786299237
 30
0.0
 10
9.181770544
 20
5.7856799637
 30
0.0
 10
9.181770544
 20
5.7853704987
 30
0.0
  0
SPLINE
  5
497
100
AcDbEntity
  8
0
100
AcDbSpline
 62
7
  6
CONTINUOUS
 70
0
 71
3
 72
18
 73
14
 74
0
 42
0.0000001
 43
0.0000001
 44
0.0000000001
 40
0.0
 40
0.0
 40
0.0
 40
0.0
 40
0.1891744315
 40
0.3683250305
 40
0.5299434933
 40
0.6698458315
 40
0.7864779138
 40
0.8360312161
 40
0.879836386
 40
0.9180012916
 40
0.9506523471
 40
0.9779334454
 40
1.0
 40
1.0
 40
1.0
 40
1.0
 10
9.1716578315
 20
5.7853704987
 30
0.0
 10
9.1716578315
 20
5.7859840985
 30
0.0
 10
9.1716675858
 20
5.7871788106
 30
0.0
 10
9.1717103842
 20
5.7888972646
 30
0.0
 10
9.171777278
 20
5.7904550192
 30
0.0
 10
9.1718633342
 20
5.791808691
 30
0.0
 10
9.1719508397
 20
5.7927978057
 30
0.0
 10
9.1720285916
 20
5.7934745078
 30
0.0
 10
9.1720858195
 20
5.7938972931
 30
0.0
 10
9.1721447539
 20
5.7942644168
 30
0.0
 10
9.1722050161
 20
5.7945769215
 30
0.0
 10
9.1722662557
 20
5.7948358187
 30
0.0
 10
9.1723121516
 20
5.7949893551
 30
0.0
 10
9.1723360928
 20
5.7950568066
 30
0.0
  0
SPLINE
  5
498
100
AcDbEntity
  8
0
100
AcDbSpline
 62
7
  6
CONTINUOUS
 70
0
 71
3
 72
18
 73
14
 74
0
 42
0.0000001
 43
0.0000001
 44
0.0000000001
 40
0.0
 40
0.0
 40
0.0
 40
0.0
 40
0.122612848
 40
0.2456169543
 40
0.3691861562
 40
0.4934942574
 40
0.6186933523
 40
0.6817282284
 40
0.7450111423
 40
0.808523268
 40
0.8722294772
 40
0.9360770245
 40
1.0
 40
1.0
 40
1.0
 40
1.0
 10
9.1599804668
 20
5.7950594699
 30
0.0
 10
9.1605625214
 20
5.7949403853
 30
0.0
 10
9.1617156315
 20
5.7946322017
 30
0.0
 10
9.1633766295
 20
5.7939550554
 30
0.0
 10
9.1649385811
 20
5.7930538832
 30
0.0
 10
9.166357687
 20
5.7919224521
 30
0.0
 10
9.167374136
 20
5.7907880626
 30
0.0
 10
9.1680540251
 20
5.7897746743
 30
0.0
 10
9.1684897689
 20
5.7889627996
 30
0.0
 10
9.1688407185
 20
5.7881072227
 30
0.0
 10
9.1690985125
 20
5.787216083
 30
0.0
 10
9.1692562426
 20
5.7862999129
 30
0.0
 10
9.1692916405
 20
5.7856802329
 30
0.0
 10
9.1692916405
 20
5.7853704987
 30
0.0
  0
SPLINE
  5
499
100
AcDbEntity
  8
0
100
AcDbSpline
 62
7
  6
CONTINUOUS
 70
0
 71
3
 72
19
 73
15
 74
0
 42
0.0000001
 43
0.0000001
 44
0.0000000001
 40
0.0
 40
0.0
 40
0.0
 40
0.0
 40
0.187590511
 40
0.365328973
 40
0.5258549156
 40
0.6651032719
 40
0.7262282135
 40
0.7816359273
 40
0.8313814376
 40
0.8755688429
 40
0.9143357537
 40
0.9478508828
 40
0.9763213374
 40
1.0
 40
1.0
 40
1.0
 40
1.0
 10
9.1587938716
 20
5.7853704987
 30
0.0
 10
9.1587938716
 20
5.7859846957
 30
0.0
 10
9.1588109582
 20
5.7871809074
 30
0.0
 10
9.1588858822
 20
5.7889012555
 30
0.0
 10
9.1590030871
 20
5.7904605668
 30
0.0
 10
9.1591335954
 20
5.7916353269
 30
0.0
 10
9.1592543892
 20
5.792464104
 30
0.0
 10
9.1593463703
 20
5.7930007615
 30
0.0
 10
9.1594428398
 20
5.7934801919
 30
0.0
 10
9.1595430514
 20
5.7939030603
 30
0.0
 10
9.1596463214
 20
5.7942702797
 30
0.0
 10
9.1597520537
 20
5.7945829718
 30
0.0
 10
9.1598596968
 20
5.7948422089
 30
0.0
 10
9.1599394777
 20
5.7949936645
 30
0.0
 10
9.1599804668
 20
5.7950594699
 30
0.0
  0
SPLINE
  5
49A
100
AcDbEntity
  8
0
100
AcDbSpline
 62
7
  6
CONTINUOUS
 70
0
 71
3
 72
18
 73
14
 74
0
 42
0.0000001
 43
0.0000001
 44
0.0000000001
 40
0.0
 40
0.0
 40
0.0
 40
0.0
 40
0.1216664479
 40
0.2438869078
 40
0.3669038321
 40
0.4909615658
 40
0.6162734911
 40
0.6795113461
 40
0.743093804
 40
0.8069944693
 40
0.8711642527
 40
0.9355299888
 40
1.0
 40
1.0
 40
1.0
 40
1.0
 10
9.1472036751
 20
5.7950594699
 30
0.0
 10
9.1477758946
 20
5.7949403279
 30
0.0
 10
9.148909839
 20
5.7946318284
 30
0.0
 10
9.1505423677
 20
5.7939543158
 30
0.0
 10
9.152077487
 20
5.7930526443
 30
0.0
 10
9.153472044
 20
5.7919206258
 30
0.0
 10
9.154469859
 20
5.7907867246
 30
0.0
 10
9.1551373376
 20
5.7897740787
 30
0.0
 10
9.1555654272
 20
5.7889622219
 30
0.0
 10
9.1559101847
 20
5.7881067155
 30
0.0
 10
9.1561634116
 20
5.7872157037
 30
0.0
 10
9.1563183379
 20
5.786299706
 30
0.0
 10
9.1563531028
 20
5.7856802156
 30
0.0
 10
9.1563531028
 20
5.7853704987
 30
0.0
  0
SPLINE
  5
49B
100
AcDbEntity
  8
0
100
AcDbSpline
 62
7
  6
CONTINUOUS
 70
0
 71
3
 72
19
 73
15
 74
0
 42
0.0000001
 43
0.0000001
 44
0.0000000001
 40
0.0
 40
0.0
 40
0.0
 40
0.0
 40
0.1851538628
 40
0.360741688
 40
0.5196400063
 40
0.6579622099
 40
0.718937584
 40
0.7744278788
 40
0.8245105635
 40
0.8693176497
 40
0.9090231166
 40
0.9438445566
 40
0.9740561019
 40
1.0
 40
1.0
 40
1.0
 40
1.0
 10
9.1455129292
 20
5.7853704987
 30
0.0
 10
9.1455129292
 20
5.7859847624
 30
0.0
 10
9.1455372992
 20
5.7871817058
 30
0.0
 10
9.1456441599
 20
5.7889028633
 30
0.0
 10
9.1458113412
 20
5.7904630568
 30
0.0
 10
9.1459974
 20
5.7916374577
 30
0.0
 10
9.1461693542
 20
5.7924652067
 30
0.0
 10
9.1463005149
 20
5.7930020836
 30
0.0
 10
9.1464381159
 20
5.793481788
 30
0.0
 10
9.1465811193
 20
5.7939050038
 30
0.0
 10
9.1467285911
 20
5.79427267
 30
0.0
 10
9.1468797668
 20
5.7945859319
 30
0.0
 10
9.1470339504
 20
5.7948458683
 30
0.0
 10
9.1471465415
 20
5.7949950961
 30
0.0
 10
9.1472036751
 20
5.7950594699
 30
0.0
  0
SPLINE
  5
49C
100
AcDbEntity
  8
0
100
AcDbSpline
 62
7
  6
CONTINUOUS
 70
0
 71
3
 72
18
 73
14
 74
0
 42
0.0000001
 43
0.0000001
 44
0.0000000001
 40
0.0
 40
0.0
 40
0.0
 40
0.0
 40
0.1205490104
 40
0.2418464765
 40
0.3642158055
 40
0.4879835568
 40
0.6134331708
 40
0.6769114804
 40
0.7408469989
 40
0.805204186
 40
0.869917491
 40
0.9348899411
 40
1.0
 40
1.0
 40
1.0
 40
1.0
 10
9.1340346225
 20
5.7950594699
 30
0.0
 10
9.134595487
 20
5.7949402579
 30
0.0
 10
9.1357073047
 20
5.7946313749
 30
0.0
 10
9.1373069419
 20
5.7939534236
 30
0.0
 10
9.1388110492
 20
5.7930511641
 30
0.0
 10
9.1401772224
 20
5.7919184701
 30
0.0
 10
9.1411535207
 20
5.7907851669
 30
0.0
 10
9.1418066836
 20
5.7897733903
 30
0.0
 10
9.1422259342
 20
5.7889615583
 30
0.0
 10
9.1425635432
 20
5.7881061363
 30
0.0
 10
9.1428114995
 20
5.7872152725
 30
0.0
 10
9.1429631912
 20
5.7862994714
 30
0.0
 10
9.1429972263
 20
5.785680196
 30
0.0
 10
9.1429972263
 20
5.7853704987
 30
0.0
  0
SPLINE
  5
49D
100
AcDbEntity
  8
0
100
AcDbSpline
 62
7
  6
CONTINUOUS
 70
0
 71
3
 72
20
 73
16
 74
0
 42
0.0000001
 43
0.0000001
 44
0.0000000001
 40
0.0
 40
0.0
 40
0.0
 40
0.0
 40
0.1821509827
 40
0.3550985503
 40
0.5120189472
 40
0.5832233958
 40
0.6492709137
 40
0.7100938411
 40
0.7657209741
 40
0.8162546883
 40
0.8618564649
 40
0.9027362823
 40
0.9391561034
 40
0.9714438583
 40
1.0
 40
1.0
 40
1.0
 40
1.0
 10
9.1318443601
 20
5.7853704987
 30
0.0
 10
9.1318443601
 20
5.7859848516
 30
0.0
 10
9.131875962
 20
5.7871827902
 30
0.0
 10
9.1320146102
 20
5.788904938
 30
0.0
 10
9.1322007261
 20
5.7902457761
 30
0.0
 10
9.1323865869
 20
5.7912205643
 30
0.0
 10
9.1325350329
 20
5.7918720847
 30
0.0
 10
9.1326951331
 20
5.792466599
 30
0.0
 10
9.1328651847
 20
5.7930037208
 30
0.0
 10
9.1330436533
 20
5.7934837125
 30
0.0
 10
9.1332292022
 20
5.793907265
 30
0.0
 10
9.1334206652
 20
5.7942753181
 30
0.0
 10
9.1336171004
 20
5.7945889896
 30
0.0
 10
9.1338176575
 20
5.7948492972
 30
0.0
 10
9.1339619511
 20
5.7949962631
 30
0.0
 10
9.1340346225
 20
5.7950594699
 30
0.0
  0
SPLINE
  5
49E
100
AcDbEntity
  8
0
100
AcDbSpline
 62
7
  6
CONTINUOUS
 70
0
 71
3
 72
18
 73
14
 74
0
 42
0.0000001
 43
0.0000001
 44
0.0000000001
 40
0.0
 40
0.0
 40
0.0
 40
0.0
 40
0.1192524717
 40
0.2394821462
 40
0.3611062312
 40
0.4845451436
 40
0.6101604434
 40
0.6739187376
 40
0.7382629939
 40
0.803146809
 40
0.8684855801
 40
0.9341551221
 40
1.0
 40
1.0
 40
1.0
 40
1.0
 10
9.1205094045
 20
5.7950594699
 30
0.0
 10
9.1210574276
 20
5.7949401737
 30
0.0
 10
9.122144223
 20
5.7946308307
 30
0.0
 10
9.1237066321
 20
5.7939523624
 30
0.0
 10
9.1251756224
 20
5.7930494234
 30
0.0
 10
9.1265096416
 20
5.7919159709
 30
0.0
 10
9.1274616042
 20
5.7907833895
 30
0.0
 10
9.1280985948
 20
5.7897726114
 30
0.0
 10
9.1285078464
 20
5.7889608128
 30
0.0
 10
9.1288373721
 20
5.7881054897
 30
0.0
 10
9.1290793709
 20
5.7872147935
 30
0.0
 10
9.1292274077
 20
5.7862992116
 30
0.0
 10
9.1292606184
 20
5.7856801743
 30
0.0
 10
9.1292606184
 20
5.7853704987
 30
0.0
  0
SPLINE
  5
49F
100
AcDbEntity
  8
0
100
AcDbSpline
 62
7
  6
CONTINUOUS
 70
0
 71
3
 72
21
 73
17
 74
0
 42
0.0000001
 43
0.0000001
 44
0.0000000001
 40
0.0
 40
0.0
 40
0.0
 40
0.0
 40
0.1787511426
 40
0.2653234295
 40
0.3487479586
 40
0.5034653912
 40
0.5739457542
 40
0.6395531111
 40
0.7002432066
 40
0.7560679131
 40
0.8071538539
 40
0.8536892624
 40
0.895914029
 40
0.9341227909
 40
0.9686765512
 40
1.0
 40
1.0
 40
1.0
 40
1.0
 10
9.1178256289
 20
5.7853704987
 30
0.0
 10
9.1178256289
 20
5.7859849623
 30
0.0
 10
9.1178551197
 20
5.7868974193
 30
0.0
 10
9.1179541271
 20
5.788092344
 30
0.0
 10
9.1180845084
 20
5.789201069
 30
0.0
 10
9.1182627892
 20
5.7902480966
 30
0.0
 10
9.1184903336
 20
5.7912217564
 30
0.0
 10
9.1186723448
 20
5.7918734789
 30
0.0
 10
9.1188686708
 20
5.7924682098
 30
0.0
 10
9.1190772373
 20
5.7930055697
 30
0.0
 10
9.1192961804
 20
5.7934858198
 30
0.0
 10
9.1195238809
 20
5.7939096428
 30
0.0
 10
9.1197589326
 20
5.7942779575
 30
0.0
 10
9.1200001863
 20
5.794591828
 30
0.0
 10
9.1202465885
 20
5.7948521908
 30
0.0
 10
9.1204216003
 20
5.7949971445
 30
0.0
 10
9.1205094045
 20
5.7950594699
 30
0.0
  0
SPLINE
  5
4A0
100
AcDbEntity
  8
0
100
AcDbSpline
 62
7
  6
CONTINUOUS
 70
0
 71
3
 72
21
 73
17
 74
0
 42
0.0000001
 43
0.0000001
 44
0.0000000001
 40
0.0
 40
0.0
 40
0.0
 40
0.0
 40
0.1177319346
 40
0.2367069039
 40
0.2968643121
 40
0.3575328491
 40
0.418780029
 40
0.480667337
 40
0.5432482175
 40
0.6065613328
 40
0.6706220848
 40
0.7354135547
 40
0.8008766173
 40
0.8669049691
 40
0.9333438459
 40
1.0
 40
1.0
 40
1.0
 40
1.0
 10
9.1066650926
 20
5.7950594699
 30
0.0
 10
9.1071988263
 20
5.7949400729
 30
0.0
 10
9.1082576746
 20
5.794630252
 30
0.0
 10
9.1095212182
 20
5.7940660159
 30
0.0
 10
9.110484631
 20
5.793504988
 30
0.0
 10
9.1111825781
 20
5.7930257162
 30
0.0
 10
9.1118477332
 20
5.7924889281
 30
0.0
 10
9.1124741697
 20
5.7918943068
 30
0.0
 10
9.1130551791
 20
5.7912421911
 30
0.0
 10
9.1135833524
 20
5.790533826
 30
0.0
 10
9.1140506677
 20
5.7897717161
 30
0.0
 10
9.1144487491
 20
5.7889599979
 30
0.0
 10
9.1147692917
 20
5.7881047791
 30
0.0
 10
9.1150046617
 20
5.787214272
 30
0.0
 10
9.1151486358
 20
5.7862989294
 30
0.0
 10
9.1151809303
 20
5.7856801508
 30
0.0
 10
9.1151809303
 20
5.7853704987
 30
0.0
  0
SPLINE
  5
4A1
100
AcDbEntity
  8
0
100
AcDbSpline
 62
7
  6
CONTINUOUS
 70
0
 71
3
 72
20
 73
16
 74
0
 42
0.0000001
 43
0.0000001
 44
0.0000000001
 40
0.0
 40
0.0
 40
0.0
 40
0.0
 40
0.1751264274
 40
0.2600402688
 40
0.3419771164
 40
0.4943936973
 40
0.5641390046
 40
0.6293220442
 40
0.6899219437
 40
0.7460122909
 40
0.7977408205
 40
0.845316892
 40
0.889001109
 40
0.9291066253
 40
1.0
 40
1.0
 40
1.0
 40
1.0
 10
9.10349516
 20
5.7853704987
 30
0.0
 10
9.10349516
 20
5.7859850932
 30
0.0
 10
9.1035300513
 20
5.7868982406
 30
0.0
 10
9.1036470057
 20
5.7880929312
 30
0.0
 10
9.1038012047
 20
5.7892029285
 30
0.0
 10
9.1040121801
 20
5.790250754
 30
0.0
 10
9.1042806797
 20
5.7912231066
 30
0.0
 10
9.1044958075
 20
5.7918750305
 30
0.0
 10
9.1047278831
 20
5.7924699663
 30
0.0
 10
9.1049744579
 20
5.79300753
 30
0.0
 10
9.1052333591
 20
5.7934879902
 30
0.0
 10
9.1055026209
 20
5.7939119587
 30
0.0
 10
9.1057807805
 20
5.7942804977
 30
0.0
 10
9.1061460831
 20
5.7946823567
 30
0.0
 10
9.1064518426
 20
5.794931315
 30
0.0
 10
9.1066650926
 20
5.7950594699
 30
0.0
  0
SPLINE
  5
4A2
100
AcDbEntity
  8
0
100
AcDbSpline
 62
7
  6
CONTINUOUS
 70
0
 71
3
 72
19
 73
15
 74
0
 42
0.0000001
 43
0.0000001
 44
0.0000000001
 40
0.0
 40
0.0
 40
0.0
 40
0.0
 40
0.1160790628
 40
0.2337113405
 40
0.2933520847
 40
0.3536263133
 40
0.4146156611
 40
0.476394275
 40
0.6024371623
 40
0.7320765706
 40
0.798228128
 40
0.8650659654
 40
0.9324014817
 40
1.0
 40
1.0
 40
1.0
 40
1.0
 10
9.0925428485
 20
5.7950568066
 30
0.0
 10
9.0930603336
 20
5.7949368823
 30
0.0
 10
9.0940874504
 20
5.7946257123
 30
0.0
 10
9.095310501
 20
5.7940608368
 30
0.0
 10
9.0962426705
 20
5.7934999043
 30
0.0
 10
9.0969185425
 20
5.7930204249
 30
0.0
 10
9.0975626354
 20
5.7924834805
 30
0.0
 10
9.0983764553
 20
5.791685679
 30
0.0
 10
9.0992825664
 20
5.7905404037
 30
0.0
 10
9.0999799165
 20
5.7892328745
 30
0.0
 10
9.1003904315
 20
5.7881016398
 30
0.0
 10
9.100618162
 20
5.7872120387
 30
0.0
 10
9.1007574171
 20
5.786297782
 30
0.0
 10
9.1007886524
 20
5.785679842
 30
0.0
 10
9.1007886524
 20
5.7853704987
 30
0.0
  0
SPLINE
  5
4A3
100
AcDbEntity
  8
0
100
AcDbSpline
 62
7
  6
CONTINUOUS
 70
0
 71
3
 72
18
 73
14
 74
0
 42
0.0000001
 43
0.0000001
 44
0.0000000001
 40
0.0
 40
0.0
 40
0.0
 40
0.0
 40
0.171300382
 40
0.3348106623
 40
0.4848595428
 40
0.6186060781
 40
0.6791631542
 40
0.7355840983
 40
0.7880320886
 40
0.8367294904
 40
0.8819464508
 40
0.9239999776
 40
1.0
 40
1.0
 40
1.0
 40
1.0
 10
9.088900446
 20
5.7853704987
 30
0.0
 10
9.088900446
 20
5.7859846877
 30
0.0
 10
9.0889533016
 20
5.7871858443
 30
0.0
 10
9.0891849865
 20
5.7889111643
 30
0.0
 10
9.0895476684
 20
5.7904759406
 30
0.0
 10
9.0899494519
 20
5.7916463663
 30
0.0
 10
9.0903174851
 20
5.7924671028
 30
0.0
 10
9.0906010656
 20
5.7930048279
 30
0.0
 10
9.0908988471
 20
5.7934855139
 30
0.0
 10
9.0912085951
 20
5.7939097664
 30
0.0
 10
9.0915285761
 20
5.7942785679
 30
0.0
 10
9.0919517303
 20
5.7946836099
 30
0.0
 10
9.092301546
 20
5.7949302117
 30
0.0
 10
9.0925428485
 20
5.7950568066
 30
0.0
  0
SPLINE
  5
4A4
100
AcDbEntity
  8
0
100
AcDbSpline
 62
7
  6
CONTINUOUS
 70
0
 71
3
 72
17
 73
13
 74
0
 42
0.0000001
 43
0.0000001
 44
0.0000000001
 40
0.0
 40
0.0
 40
0.0
 40
0.0
 40
0.114204908
 40
0.2303141007
 40
0.3491085261
 40
0.4713576301
 40
0.5976948321
 40
0.7283673713
 40
0.7952845176
 40
0.8630222536
 40
0.9313542905
 40
1.0
 40
1.0
 40
1.0
 40
1.0
 10
9.0781717434
 20
5.7950594699
 30
0.0
 10
9.0786727293
 20
5.7949398099
 30
0.0
 10
9.0796678631
 20
5.7946285096
 30
0.0
 10
9.0810935762
 20
5.7939479255
 30
0.0
 10
9.0824334338
 20
5.7930424471
 30
0.0
 10
9.0836492493
 20
5.7919060588
 30
0.0
 10
9.0846927955
 20
5.7905404322
 30
0.0
 10
9.0853658675
 20
5.7892338365
 30
0.0
 10
9.0857624135
 20
5.7881032419
 30
0.0
 10
9.0859826477
 20
5.787213109
 30
0.0
 10
9.0861173118
 20
5.7862983137
 30
0.0
 10
9.0861475137
 20
5.7856800992
 30
0.0
 10
9.0861475137
 20
5.7853704987
 30
0.0
  0
SPLINE
  5
4A5
100
AcDbEntity
  8
0
100
AcDbSpline
 62
7
  6
CONTINUOUS
 70
0
 71
3
 72
16
 73
12
 74
0
 42
0.0000001
 43
0.0000001
 44
0.0000000001
 40
0.0
 40
0.0
 40
0.0
 40
0.0
 40
0.1675782884
 40
0.3278765801
 40
0.475639341
 40
0.6083148186
 40
0.7255620046
 40
0.8284736392
 40
0.8751956829
 40
0.9191380425
 40
1.0
 40
1.0
 40
1.0
 40
1.0
 10
9.074056871
 20
5.7853704987
 30
0.0
 10
9.074056871
 20
5.7859854098
 30
0.0
 10
9.0741167552
 20
5.7871894345
 30
0.0
 10
9.074379154
 20
5.7889178971
 30
0.0
 10
9.0747899467
 20
5.790485451
 30
0.0
 10
9.0753195714
 20
5.7918490289
 30
0.0
 10
9.0759394579
 20
5.7929899599
 30
0.0
 10
9.0765298825
 20
5.7937769548
 30
0.0
 10
9.0770281815
 20
5.7942845774
 30
0.0
 10
9.0775091957
 20
5.7946912446
 30
0.0
 10
9.0779024841
 20
5.7949348147
 30
0.0
 10
9.0781717434
 20
5.7950594699
 30
0.0
  0
SPLINE
  5
4A6
100
AcDbEntity
  8
0
100
AcDbSpline
 62
7
  6
CONTINUOUS
 70
0
 71
3
 72
15
 73
11
 74
0
 42
0.0000001
 43
0.0000001
 44
0.0000000001
 40
0.0
 40
0.0
 40
0.0
 40
0.0
 40
0.1121198412
 40
0.2265489113
 40
0.3442185106
 40
0.4660350224
 40
0.5927297498
 40
0.724566619
 40
0.8609239239
 40
1.0
 40
1.0
 40
1.0
 40
1.0
 10
9.0636008043
 20
5.7950594699
 30
0.0
 10
9.0640834308
 20
5.7949396395
 30
0.0
 10
9.0650427801
 20
5.7946274331
 30
0.0
 10
9.0664149607
 20
5.7939459416
 30
0.0
 10
9.0677042019
 20
5.7930393905
 30
0.0
 10
9.0688735722
 20
5.7919020866
 30
0.0
 10
9.0698767237
 20
5.7905357579
 30
0.0
 10
9.0706578668
 20
5.7889577581
 30
0.0
 10
9.0711584305
 20
5.7872120629
 30
0.0
 10
9.0712733637
 20
5.7859873367
 30
0.0
 10
9.0712733637
 20
5.7853704987
 30
0.0
  0
SPLINE
  5
4A7
100
AcDbEntity
  8
0
100
AcDbSpline
 62
7
  6
CONTINUOUS
 70
0
 71
3
 72
15
 73
11
 74
0
 42
0.0000001
 43
0.0000001
 44
0.0000000001
 40
0.0
 40
0.0
 40
0.0
 40
0.0
 40
0.1638205185
 40
0.3209004645
 40
0.4664150414
 40
0.5980965257
 40
0.7157631995
 40
0.8205724302
 40
0.9144877139
 40
1.0
 40
1.0
 40
1.0
 40
1.0
 10
9.0590297393
 20
5.7853704987
 30
0.0
 10
9.0590297393
 20
5.7859855919
 30
0.0
 10
9.0590964459
 20
5.7871915989
 30
0.0
 10
9.0593886219
 20
5.7889219688
 30
0.0
 10
9.0598460719
 20
5.7904911751
 30
0.0
 10
9.0604358692
 20
5.7918559131
 30
0.0
 10
9.0611263636
 20
5.7929976212
 30
0.0
 10
9.0618915502
 20
5.7939131832
 30
0.0
 10
9.0627104245
 20
5.7946062833
 30
0.0
 10
9.0633044401
 20
5.7949359592
 30
0.0
 10
9.0636008043
 20
5.7950594699
 30
0.0
  0
SPLINE
  5
4A8
100
AcDbEntity
  8
0
100
AcDbSpline
 62
7
  6
CONTINUOUS
 70
0
 71
3
 72
15
 73
11
 74
0
 42
0.0000001
 43
0.0000001
 44
0.0000000001
 40
0.0
 40
0.0
 40
0.0
 40
0.0
 40
0.1097619096
 40
0.2222947158
 40
0.3386945416
 40
0.4600125607
 40
0.5870774429
 40
0.7201602021
 40
0.8585039131
 40
1.0
 40
1.0
 40
1.0
 40
1.0
 10
9.048866754
 20
5.7950594699
 30
0.0
 10
9.0493297708
 20
5.7949394357
 30
0.0
 10
9.050250887
 20
5.794626158
 30
0.0
 10
9.0515657602
 20
5.7939436333
 30
0.0
 10
9.0528007684
 20
5.7930359371
 30
0.0
 10
9.053920391
 20
5.7918976607
 30
0.0
 10
9.0548802463
 20
5.7905309133
 30
0.0
 10
9.0556271102
 20
5.7889534816
 30
0.0
 10
9.0561053632
 20
5.7872094669
 30
0.0
 10
9.0562150726
 20
5.7859871135
 30
0.0
 10
9.0562150726
 20
5.7853704987
 30
0.0
  0
SPLINE
  5
4A9
100
AcDbEntity
  8
0
100
AcDbSpline
 62
7
  6
CONTINUOUS
 70
0
 71
3
 72
15
 73
11
 74
0
 42
0.0000001
 43
0.0000001
 44
0.0000000001
 40
0.0
 40
0.0
 40
0.0
 40
0.0
 40
0.1601362423
 40
0.3140767129
 40
0.4574265393
 40
0.5881906409
 40
0.7063221223
 40
0.8130050312
 40
0.9101298633
 40
1.0
 40
1.0
 40
1.0
 40
1.0
 10
9.0438520252
 20
5.7853704987
 30
0.0
 10
9.0438520252
 20
5.7859857873
 30
0.0
 10
9.0439254219
 20
5.7871939149
 30
0.0
 10
9.0442467538
 20
5.7889262671
 30
0.0
 10
9.0447498319
 20
5.7904970487
 30
0.0
 10
9.0453984133
 20
5.7918627648
 30
0.0
 10
9.0461576113
 20
5.7930047211
 30
0.0
 10
9.0469984967
 20
5.7939195976
 30
0.0
 10
9.0478975081
 20
5.7946110133
 30
0.0
 10
9.0485439546
 20
5.7949368442
 30
0.0
 10
9.048866754
 20
5.7950594699
 30
0.0
  0
SPLINE
  5
4AA
100
AcDbEntity
  8
0
100
AcDbSpline
 62
7
  6
CONTINUOUS
 70
0
 71
3
 72
18
 73
14
 74
0
 42
0.0000001
 43
0.0000001
 44
0.0000000001
 40
0.0
 40
0.0
 40
0.0
 40
0.0
 40
0.1071143225
 40
0.2175247302
 40
0.3325060644
 40
0.3921421084
 40
0.4533586389
 40
0.5808069495
 40
0.7152155052
 40
0.784866538
 40
0.855799702
 40
0.9276569282
 40
1.0
 40
1.0
 40
1.0
 40
1.0
 10
9.0340099774
 20
5.7950594699
 30
0.0
 10
9.034452195
 20
5.7949391909
 30
0.0
 10
9.0353327592
 20
5.7946246205
 30
0.0
 10
9.0365865835
 20
5.7939410333
 30
0.0
 10
9.0375563027
 20
5.7931922741
 30
0.0
 10
9.0382766742
 20
5.7924844589
 30
0.0
 10
9.0389725478
 20
5.7916803691
 30
0.0
 10
9.0397445235
 20
5.7905257797
 30
0.0
 10
9.0403300588
 20
5.7892261898
 30
0.0
 10
9.0406764253
 20
5.7881005832
 30
0.0
 10
9.0408694477
 20
5.7872112036
 30
0.0
 10
9.0409874598
 20
5.7862973
 30
0.0
 10
9.041013914
 20
5.7856800148
 30
0.0
 10
9.041013914
 20
5.7853704987
 30
0.0
  0
SPLINE
  5
4AB
100
AcDbEntity
  8
0
100
AcDbSpline
 62
7
  6
CONTINUOUS
 70
0
 71
3
 72
15
 73
11
 74
0
 42
0.0000001
 43
0.0000001
 44
0.0000000001
 40
0.0
 40
0.0
 40
0.0
 40
0.0
 40
0.1565821996
 40
0.3075110645
 40
0.4488142393
 40
0.5787533662
 40
0.6973906595
 40
0.8059031622
 40
0.9060741282
 40
1.0
 40
1.0
 40
1.0
 40
1.0
 10
9.0285653299
 20
5.7853704987
 30
0.0
 10
9.0285653299
 20
5.7859859939
 30
0.0
 10
9.0286452669
 20
5.7871963569
 30
0.0
 10
9.0289950458
 20
5.7889307284
 30
0.0
 10
9.0295425773
 20
5.7905029851
 30
0.0
 10
9.0302483067
 20
5.791869431
 30
0.0
 10
9.0310741033
 20
5.7930112942
 30
0.0
 10
9.0319881338
 20
5.7939251913
 30
0.0
 10
9.0329643937
 20
5.7946148776
 30
0.0
 10
9.0336614878
 20
5.7949375383
 30
0.0
 10
9.0340099774
 20
5.7950594699
 30
0.0
  0
SPLINE
  5
4AC
100
AcDbEntity
  8
0
100
AcDbSpline
 62
7
  6
CONTINUOUS
 70
0
 71
3
 72
17
 73
13
 74
0
 42
0.0000001
 43
0.0000001
 44
0.0000000001
 40
0.0
 40
0.0
 40
0.0
 40
0.0
 40
0.1042551642
 40
0.2124064736
 40
0.3259214055
 40
0.3851713832
 40
0.4462525835
 40
0.5742139328
 40
0.7101480108
 40
0.7808894015
 40
0.8530856579
 40
1.0
 40
1.0
 40
1.0
 40
1.0
 10
9.0190711959
 20
5.7950594699
 30
0.0
 10
9.0194914898
 20
5.7949388948
 30
0.0
 10
9.0203292531
 20
5.7946228128
 30
0.0
 10
9.0215186171
 20
5.793937918
 30
0.0
 10
9.0224359954
 20
5.793189765
 30
0.0
 10
9.0231174828
 20
5.7924832491
 30
0.0
 10
9.0237785213
 20
5.7916772998
 30
0.0
 10
9.0245108579
 20
5.7905203359
 30
0.0
 10
9.0250640558
 20
5.7892235018
 30
0.0
 10
9.0253918143
 20
5.7880995855
 30
0.0
 10
9.0256369904
 20
5.7869079418
 30
0.0
 10
9.0257115532
 20
5.7859866593
 30
0.0
 10
9.0257115532
 20
5.7853704987
 30
0.0
  0
SPLINE
  5
4AD
100
AcDbEntity
  8
0
100
AcDbSpline
 62
7
  6
CONTINUOUS
 70
0
 71
3
 72
15
 73
11
 74
0
 42
0.0000001
 43
0.0000001
 44
0.0000000001
 40
0.0
 40
0.0
 40
0.0
 40
0.0
 40
0.1531870829
 40
0.3012550047
 40
0.4406416224
 40
0.569846496
 40
0.6890156833
 40
0.7992909107
 40
0.9023247293
 40
1.0
 40
1.0
 40
1.0
 40
1.0
 10
9.0132115532
 20
5.7853704987
 30
0.0
 10
9.0132115532
 20
5.7859862093
 30
0.0
 10
9.0132978618
 20
5.7871988973
 30
0.0
 10
9.0136752907
 20
5.7889352933
 30
0.0
 10
9.0142659467
 20
5.790508896
 30
0.0
 10
9.0150269722
 20
5.7918758224
 30
0.0
 10
9.0159170181
 20
5.7930173061
 30
0.0
 10
9.0169014282
 20
5.7939300397
 30
0.0
 10
9.0179519253
 20
5.7946180483
 30
0.0
 10
9.0186978412
 20
5.79493809
 30
0.0
 10
9.0190711959
 20
5.7950594699
 30
0.0
  0
SPLINE
  5
4AE
100
AcDbEntity
  8
0
100
AcDbSpline
 62
7
  6
CONTINUOUS
 70
0
 71
3
 72
18
 73
14
 74
0
 42
0.0000001
 43
0.0000001
 44
0.0000000001
 40
0.0
 40
0.0
 40
0.0
 40
0.0
 40
0.1010999893
 40
0.1533079409
 40
0.2068751714
 40
0.3188112945
 40
0.4385018679
 40
0.501668577
 40
0.5671246555
 40
0.6348641762
 40
0.7047874396
 40
0.8500993136
 40
1.0
 40
1.0
 40
1.0
 40
1.0
 10
9.0040913558
 20
5.7950568066
 30
0.0
 10
9.0044882565
 20
5.7949354554
 30
0.0
 10
9.0050757195
 20
5.7946990747
 30
0.0
 10
9.0058188044
 20
5.7942865034
 30
0.0
 10
9.006562482
 20
5.7937890425
 30
0.0
 10
9.0074508991
 20
5.7930180304
 30
0.0
 10
9.0082289299
 20
5.7920840195
 30
0.0
 10
9.0087865112
 20
5.7912296469
 30
0.0
 10
9.009173345
 20
5.7905214408
 30
0.0
 10
9.0095153498
 20
5.7897600246
 30
0.0
 10
9.0099084415
 20
5.7886658099
 30
0.0
 10
9.0102490781
 20
5.7871997486
 30
0.0
 10
9.0103413558
 20
5.7859858939
 30
0.0
 10
9.0103413558
 20
5.7853705186
 30
0.0
  0
SPLINE
  5
4AF
100
AcDbEntity
  8
0
100
AcDbSpline
 62
7
  6
CONTINUOUS
 70
0
 71
3
 72
19
 73
15
 74
0
 42
0.0000001
 43
0.0000001
 44
0.0000000001
 40
0.0
 40
0.0
 40
0.0
 40
0.0
 40
0.0675983801
 40
0.1349335866
 40
0.2017713183
 40
0.2679228209
 40
0.3975621925
 40
0.5236050348
 40
0.5853837212
 40
0.6463731153
 40
0.7066474197
 40
0.7662883141
 40
0.8839208724
 40
1.0
 40
1.0
 40
1.0
 40
1.0
 10
8.9073940591
 20
5.7853704987
 30
0.0
 10
8.9073940591
 20
5.7856798413
 30
0.0
 10
8.9074252942
 20
5.7862977793
 30
0.0
 10
8.9075645487
 20
5.7872120335
 30
0.0
 10
8.9077922779
 20
5.7881016327
 30
0.0
 10
8.9082027916
 20
5.7892328669
 30
0.0
 10
8.9089001402
 20
5.7905403963
 30
0.0
 10
8.9098062505
 20
5.7916856722
 30
0.0
 10
8.9106200697
 20
5.7924834747
 30
0.0
 10
8.9112641629
 20
5.7930204203
 30
0.0
 10
8.9119400357
 20
5.7934999008
 30
0.0
 10
8.9128722068
 20
5.794060835
 30
0.0
 10
8.9140952594
 20
5.7946257117
 30
0.0
 10
8.9151223777
 20
5.7949368823
 30
0.0
 10
8.9156398631
 20
5.7950568066
 30
0.0
  0
SPLINE
  5
4B0
100
AcDbEntity
  8
0
100
AcDbSpline
 62
7
  6
CONTINUOUS
 70
0
 71
3
 72
20
 73
16
 74
0
 42
0.0000001
 43
0.0000001
 44
0.0000000001
 40
0.0
 40
0.0
 40
0.0
 40
0.0
 40
0.0708933332
 40
0.110998784
 40
0.1546828419
 40
0.2022587657
 40
0.2539872022
 40
0.3100774691
 40
0.3706772508
 40
0.4358603024
 40
0.5056055748
 40
0.6580221389
 40
0.7399590328
 40
0.8248729945
 40
1.0
 40
1.0
 40
1.0
 40
1.0
 10
8.9015176189
 20
5.7950594699
 30
0.0
 10
8.9017308688
 20
5.7949313151
 30
0.0
 10
8.9020366281
 20
5.794682357
 30
0.0
 10
8.90240193
 20
5.7942804988
 30
0.0
 10
8.9026800891
 20
5.793911961
 30
0.0
 10
8.9029493504
 20
5.7934879939
 30
0.0
 10
8.9032082512
 20
5.7930075347
 30
0.0
 10
8.9034548259
 20
5.7924699721
 30
0.0
 10
8.9036869018
 20
5.7918750371
 30
0.0
 10
8.9039020296
 20
5.7912231137
 30
0.0
 10
8.9041705298
 20
5.7902507614
 30
0.0
 10
8.9043815055
 20
5.789202936
 30
0.0
 10
8.9045357051
 20
5.7880929383
 30
0.0
 10
8.9046526601
 20
5.786898245
 30
0.0
 10
8.9046875515
 20
5.7859850953
 30
0.0
 10
8.9046875515
 20
5.7853704987
 30
0.0
  0
SPLINE
  5
4B1
100
AcDbEntity
  8
0
100
AcDbSpline
 62
7
  6
CONTINUOUS
 70
0
 71
3
 72
21
 73
17
 74
0
 42
0.0000001
 43
0.0000001
 44
0.0000000001
 40
0.0
 40
0.0
 40
0.0
 40
0.0
 40
0.0666560172
 40
0.1330945871
 40
0.1991228331
 40
0.26458584
 40
0.3293771061
 40
0.3934380233
 40
0.4567511309
 40
0.5193319719
 40
0.5812193505
 40
0.6424665753
 40
0.7031351878
 40
0.763292747
 40
0.882268
 40
1.0
 40
1.0
 40
1.0
 40
1.0
 10
8.8930017813
 20
5.7853704987
 30
0.0
 10
8.8930017813
 20
5.7856801501
 30
0.0
 10
8.8930340755
 20
5.7862989267
 30
0.0
 10
8.893178049
 20
5.7872142668
 30
0.0
 10
8.8934134176
 20
5.788104772
 30
0.0
 10
8.8937339589
 20
5.7889599895
 30
0.0
 10
8.894132039
 20
5.7897717078
 30
0.0
 10
8.8945993537
 20
5.7905338179
 30
0.0
 10
8.8951275264
 20
5.7912421841
 30
0.0
 10
8.8957085356
 20
5.7918943001
 30
0.0
 10
8.8963349717
 20
5.7924889224
 30
0.0
 10
8.897000127
 20
5.7930257115
 30
0.0
 10
8.897698075
 20
5.7935049844
 30
0.0
 10
8.8986614895
 20
5.7940660141
 30
0.0
 10
8.8999250351
 20
5.7946302515
 30
0.0
 10
8.9009838849
 20
5.7949400728
 30
0.0
 10
8.9015176189
 20
5.7950594699
 30
0.0
  0
SPLINE
  5
4B2
100
AcDbEntity
  8
0
100
AcDbSpline
 62
7
  6
CONTINUOUS
 70
0
 71
3
 72
21
 73
17
 74
0
 42
0.0000001
 43
0.0000001
 44
0.0000000001
 40
0.0
 40
0.0
 40
0.0
 40
0.0
 40
0.0313234404
 40
0.0658771701
 40
0.1040858688
 40
0.1463104787
 40
0.192845739
 40
0.2439315845
 40
0.299756207
 40
0.3604461804
 40
0.4260535471
 40
0.4965338719
 40
0.6512512836
 40
0.7346758584
 40
0.8212482674
 40
1.0
 40
1.0
 40
1.0
 40
1.0
 10
8.8876733071
 20
5.7950594699
 30
0.0
 10
8.8877611112
 20
5.7949971446
 30
0.0
 10
8.887936123
 20
5.7948521909
 30
0.0
 10
8.8881825248
 20
5.7945918284
 30
0.0
 10
8.8884237781
 20
5.7942779585
 30
0.0
 10
8.8886588293
 20
5.7939096451
 30
0.0
 10
8.8888865293
 20
5.7934858234
 30
0.0
 10
8.8891054722
 20
5.7930055744
 30
0.0
 10
8.8893140386
 20
5.7924682156
 30
0.0
 10
8.8895103649
 20
5.7918734854
 30
0.0
 10
8.889692376
 20
5.7912217635
 30
0.0
 10
8.8899199209
 20
5.790248104
 30
0.0
 10
8.8900982021
 20
5.7892010765
 30
0.0
 10
8.8902285837
 20
5.788092351
 30
0.0
 10
8.8903275918
 20
5.7868974238
 30
0.0
 10
8.8903570826
 20
5.7859849643
 30
0.0
 10
8.8903570826
 20
5.7853704987
 30
0.0
  0
SPLINE
  5
4B3
100
AcDbEntity
  8
0
100
AcDbSpline
 62
7
  6
CONTINUOUS
 70
0
 71
3
 72
18
 73
14
 74
0
 42
0.0000001
 43
0.0000001
 44
0.0000000001
 40
0.0
 40
0.0
 40
0.0
 40
0.0
 40
0.0658447428
 40
0.1315139815
 40
0.1968526474
 40
0.2617364062
 40
0.3260804585
 40
0.3898389159
 40
0.5154541647
 40
0.6388931895
 40
0.7605175011
 40
0.8807474619
 40
1.0
 40
1.0
 40
1.0
 40
1.0
 10
8.8789220931
 20
5.7853704987
 30
0.0
 10
8.8789220931
 20
5.7856801737
 30
0.0
 10
8.8789553036
 20
5.7862992089
 30
0.0
 10
8.8791033398
 20
5.7872147883
 30
0.0
 10
8.8793453372
 20
5.7881054826
 30
0.0
 10
8.8796748615
 20
5.7889608043
 30
0.0
 10
8.8800841118
 20
5.7897726031
 30
0.0
 10
8.8807211013
 20
5.7907833814
 30
0.0
 10
8.8816730637
 20
5.7919159644
 30
0.0
 10
8.8830070828
 20
5.7930494191
 30
0.0
 10
8.8844760752
 20
5.7939523603
 30
0.0
 10
8.8860384866
 20
5.7946308302
 30
0.0
 10
8.8871252837
 20
5.7949401736
 30
0.0
 10
8.8876733071
 20
5.7950594699
 30
0.0
  0
SPLINE
  5
4B4
100
AcDbEntity
  8
0
100
AcDbSpline
 62
7
  6
CONTINUOUS
 70
0
 71
3
 72
20
 73
16
 74
0
 42
0.0000001
 43
0.0000001
 44
0.0000000001
 40
0.0
 40
0.0
 40
0.0
 40
0.0
 40
0.0285561339
 40
0.06084386
 40
0.0972636202
 40
0.1381432828
 40
0.1837449104
 40
0.2342785273
 40
0.289905573
 40
0.3507283741
 40
0.4167758999
 40
0.4879803073
 40
0.6449006799
 40
0.8178484165
 40
1.0
 40
1.0
 40
1.0
 40
1.0
 10
8.874148089
 20
5.7950594699
 30
0.0
 10
8.8742207605
 20
5.7949962631
 30
0.0
 10
8.874365054
 20
5.7948492973
 30
0.0
 10
8.8745656108
 20
5.79458899
 30
0.0
 10
8.8747620456
 20
5.7942753192
 30
0.0
 10
8.8749535083
 20
5.7939072673
 30
0.0
 10
8.8751390568
 20
5.7934837161
 30
0.0
 10
8.8753175252
 20
5.7930037256
 30
0.0
 10
8.8754875767
 20
5.7924666048
 30
0.0
 10
8.875647677
 20
5.7918720912
 30
0.0
 10
8.8757961231
 20
5.7912205714
 30
0.0
 10
8.8759819843
 20
5.7902457835
 30
0.0
 10
8.8761681006
 20
5.7889049451
 30
0.0
 10
8.8763067494
 20
5.7871827948
 30
0.0
 10
8.8763383514
 20
5.7859848537
 30
0.0
 10
8.8763383514
 20
5.7853704987
 30
0.0
  0
SPLINE
  5
4B5
100
AcDbEntity
  8
0
100
AcDbSpline
 62
7
  6
CONTINUOUS
 70
0
 71
3
 72
18
 73
14
 74
0
 42
0.0000001
 43
0.0000001
 44
0.0000000001
 40
0.0
 40
0.0
 40
0.0
 40
0.0
 40
0.0651099252
 40
0.1300820751
 40
0.1947952751
 40
0.2591524055
 40
0.3230877198
 40
0.3865661906
 40
0.5120157511
 40
0.6357836125
 40
0.7581531682
 40
0.8794509226
 40
1.0
 40
1.0
 40
1.0
 40
1.0
 10
8.8651854853
 20
5.7853704987
 30
0.0
 10
8.8651854853
 20
5.7856801953
 30
0.0
 10
8.8652195201
 20
5.7862994687
 30
0.0
 10
8.8653712111
 20
5.7872152673
 30
0.0
 10
8.865619166
 20
5.7881061292
 30
0.0
 10
8.8659567737
 20
5.7889615498
 30
0.0
 10
8.8663760229
 20
5.789773382
 30
0.0
 10
8.8670291848
 20
5.7907851588
 30
0.0
 10
8.8680054826
 20
5.7919184635
 30
0.0
 10
8.8693716558
 20
5.7930511598
 30
0.0
 10
8.8708757653
 20
5.7939534216
 30
0.0
 10
8.8724754049
 20
5.7946313744
 30
0.0
 10
8.8735872243
 20
5.7949402579
 30
0.0
 10
8.874148089
 20
5.7950594699
 30
0.0
  0
SPLINE
  5
4B6
100
AcDbEntity
  8
0
100
AcDbSpline
 62
7
  6
CONTINUOUS
 70
0
 71
3
 72
19
 73
15
 74
0
 42
0.0000001
 43
0.0000001
 44
0.0000000001
 40
0.0
 40
0.0
 40
0.0
 40
0.0
 40
0.0259438906
 40
0.056155409
 40
0.0909767904
 40
0.1306821038
 40
0.1754890374
 40
0.2255716215
 40
0.2810618325
 40
0.3420370726
 40
0.4803592444
 40
0.6392575253
 40
0.8148455226
 40
1.0
 40
1.0
 40
1.0
 40
1.0
 10
8.8609790365
 20
5.7950594699
 30
0.0
 10
8.86103617
 20
5.7949950961
 30
0.0
 10
8.8611487611
 20
5.7948458684
 30
0.0
 10
8.8613029445
 20
5.7945859323
 30
0.0
 10
8.8614541199
 20
5.7942726711
 30
0.0
 10
8.8616015914
 20
5.7939050061
 30
0.0
 10
8.8617445945
 20
5.7934817916
 30
0.0
 10
8.8618821954
 20
5.7930020884
 30
0.0
 10
8.862013356
 20
5.7924652125
 30
0.0
 10
8.8621853104
 20
5.7916374644
 30
0.0
 10
8.8623713694
 20
5.7904630642
 30
0.0
 10
8.8625385511
 20
5.7889028705
 30
0.0
 10
8.8626454122
 20
5.7871817104
 30
0.0
 10
8.8626697824
 20
5.7859847645
 30
0.0
 10
8.8626697824
 20
5.7853704987
 30
0.0
  0
SPLINE
  5
4B7
100
AcDbEntity
  8
0
100
AcDbSpline
 62
7
  6
CONTINUOUS
 70
0
 71
3
 72
18
 73
14
 74
0
 42
0.0000001
 43
0.0000001
 44
0.0000000001
 40
0.0
 40
0.0
 40
0.0
 40
0.0
 40
0.0644698785
 40
0.1288353169
 40
0.1930049959
 40
0.2569056044
 40
0.3204878587
 40
0.3837258732
 40
0.5090377423
 40
0.6330955837
 40
0.756112735
 40
0.8783334853
 40
1.0
 40
1.0
 40
1.0
 40
1.0
 10
8.8518296087
 20
5.7853704987
 30
0.0
 10
8.8518296087
 20
5.7856802149
 30
0.0
 10
8.8518643734
 20
5.7862997033
 30
0.0
 10
8.852019299
 20
5.7872156985
 30
0.0
 10
8.8522725244
 20
5.7881067084
 30
0.0
 10
8.8526172805
 20
5.7889622134
 30
0.0
 10
8.8530453688
 20
5.7897740704
 30
0.0
 10
8.8537128463
 20
5.7907867165
 30
0.0
 10
8.854710661
 20
5.7919206193
 30
0.0
 10
8.8561052179
 20
5.79305264
 30
0.0
 10
8.8576403395
 20
5.7939543137
 30
0.0
 10
8.8592728706
 20
5.7946318279
 30
0.0
 10
8.8604068166
 20
5.7949403278
 30
0.0
 10
8.8609790365
 20
5.7950594699
 30
0.0
  0
SPLINE
  5
4B8
100
AcDbEntity
  8
0
100
AcDbSpline
 62
7
  6
CONTINUOUS
 70
0
 71
3
 72
19
 73
15
 74
0
 42
0.0000001
 43
0.0000001
 44
0.0000000001
 40
0.0
 40
0.0
 40
0.0
 40
0.0
 40
0.0236786556
 40
0.0521490846
 40
0.0856641562
 40
0.1244309151
 40
0.1686181698
 40
0.2183635791
 40
0.2737712002
 40
0.334896009
 40
0.4741443244
 40
0.6346702373
 40
0.8124088705
 40
1.0
 40
1.0
 40
1.0
 40
1.0
 10
8.8482022448
 20
5.7950594699
 30
0.0
 10
8.8482432339
 20
5.7949936645
 30
0.0
 10
8.8483230147
 20
5.794842209
 30
0.0
 10
8.8484306576
 20
5.7945829722
 30
0.0
 10
8.8485363897
 20
5.7942702809
 30
0.0
 10
8.8486396596
 20
5.7939030626
 30
0.0
 10
8.8487398709
 20
5.7934801955
 30
0.0
 10
8.8488363404
 20
5.7930007663
 30
0.0
 10
8.8489283214
 20
5.7924641098
 30
0.0
 10
8.8490491154
 20
5.7916353336
 30
0.0
 10
8.8491796237
 20
5.7904605742
 30
0.0
 10
8.8492968289
 20
5.7889012625
 30
0.0
 10
8.8493717532
 20
5.7871809121
 30
0.0
 10
8.84938884
 20
5.7859846977
 30
0.0
 10
8.84938884
 20
5.7853704987
 30
0.0
  0
SPLINE
  5
4B9
100
AcDbEntity
  8
0
100
AcDbSpline
 62
7
  6
CONTINUOUS
 70
0
 71
3
 72
18
 73
14
 74
0
 42
0.0000001
 43
0.0000001
 44
0.0000000001
 40
0.0
 40
0.0
 40
0.0
 40
0.0
 40
0.0639228442
 40
0.1277700963
 40
0.191476201
 40
0.2549882691
 40
0.3182709785
 40
0.3813060125
 40
0.5065050499
 40
0.6308132574
 40
0.7543826861
 40
0.8773870838
 40
1.0
 40
1.0
 40
1.0
 40
1.0
 10
8.8388910711
 20
5.7853704987
 30
0.0
 10
8.8388910711
 20
5.7856802322
 30
0.0
 10
8.8389264687
 20
5.7862999102
 30
0.0
 10
8.8390841981
 20
5.7872160778
 30
0.0
 10
8.8393419906
 20
5.7881072156
 30
0.0
 10
8.8396929388
 20
5.7889627912
 30
0.0
 10
8.8401286812
 20
5.789774666
 30
0.0
 10
8.8408085692
 20
5.7907880545
 30
0.0
 10
8.8418250179
 20
5.7919224456
 30
0.0
 10
8.8432441237
 20
5.7930538789
 30
0.0
 10
8.8448060775
 20
5.7939550533
 30
0.0
 10
8.846467078
 20
5.7946322012
 30
0.0
 10
8.8476201898
 20
5.7949403853
 30
0.0
 10
8.8482022448
 20
5.7950594699
 30
0.0
  0
SPLINE
  5
4BA
100
AcDbEntity
  8
0
100
AcDbSpline
 62
7
  6
CONTINUOUS
 70
0
 71
3
 72
18
 73
14
 74
0
 42
0.0000001
 43
0.0000001
 44
0.0000000001
 40
0.0
 40
0.0
 40
0.0
 40
0.0
 40
0.0220665477
 40
0.0493476214
 40
0.0819986205
 40
0.1201633753
 40
0.1639683944
 40
0.2135215951
 40
0.3301534488
 40
0.4700557443
 40
0.6316741766
 40
0.8108249468
 40
1.0
 40
1.0
 40
1.0
 40
1.0
 10
8.8358466187
 20
5.7950568066
 30
0.0
 10
8.8358705599
 20
5.7949893551
 30
0.0
 10
8.8359164558
 20
5.7948358189
 30
0.0
 10
8.8359776954
 20
5.7945769219
 30
0.0
 10
8.8360379574
 20
5.794264418
 30
0.0
 10
8.8360968917
 20
5.7938972954
 30
0.0
 10
8.8361541195
 20
5.7934745114
 30
0.0
 10
8.8362318713
 20
5.7927978109
 30
0.0
 10
8.8363193769
 20
5.7918086974
 30
0.0
 10
8.8364054332
 20
5.7904550266
 30
0.0
 10
8.8364723271
 20
5.7888972716
 30
0.0
 10
8.8365151257
 20
5.7871788152
 30
0.0
 10
8.83652488
 20
5.7859841005
 30
0.0
 10
8.83652488
 20
5.7853704987
 30
0.0
  0
SPLINE
  5
4BB
100
AcDbEntity
  8
0
100
AcDbSpline
 62
7
  6
CONTINUOUS
 70
0
 71
3
 72
18
 73
14
 74
0
 42
0.0000001
 43
0.0000001
 44
0.0000000001
 40
0.0
 40
0.0
 40
0.0
 40
0.0
 40
0.063466441
 40
0.1268816656
 40
0.1902018135
 40
0.2533910959
 40
0.3164257417
 40
0.3792935411
 40
0.5044025966
 40
0.6289218476
 40
0.7529510715
 40
0.876604902
 40
1.0
 40
1.0
 40
1.0
 40
1.0
 10
8.8264121676
 20
5.7853704987
 30
0.0
 10
8.8264121676
 20
5.7856799631
 30
0.0
 10
8.8264480338
 20
5.7862992343
 30
0.0
 10
8.8266078394
 20
5.7872147314
 30
0.0
 10
8.8268690197
 20
5.7881052252
 30
0.0
 10
8.8272245732
 20
5.788960197
 30
0.0
 10
8.8276660264
 20
5.789771528
 30
0.0
 10
8.8283552691
 20
5.790784947
 30
0.0
 10
8.8293858413
 20
5.7919192803
 30
0.0
 10
8.8308235753
 20
5.7930501265
 30
0.0
 10
8.8324060447
 20
5.7939512026
 30
0.0
 10
8.8340889716
 20
5.7946287398
 30
0.0
 10
8.8352569151
 20
5.794937364
 30
0.0
 10
8.8358466187
 20
5.7950568066
 30
0.0
  0
LINE
  5
4BC
100
AcDbEntity
  8
0
100
AcDbLine
 62
7
  6
CONTINUOUS
 10
8.8239643543
 20
5.7950594699
 11
8.8241342817
 21
5.7853704987
  0
SPLINE
  5
4BD
100
AcDbEntity
  8
0
100
AcDbSpline
 62
7
  6
CONTINUOUS
 70
0
 71
3
 72
18
 73
14
 74
0
 42
0.0000001
 43
0.0000001
 44
0.0000000001
 40
0.0
 40
0.0
 40
0.0
 40
0.0
 40
0.0631016148
 40
0.1261715782
 40
0.1891834471
 40
0.2521151065
 40
0.3149519889
 40
0.3776866988
 40
0.5027246666
 40
0.6274129336
 40
0.7518092352
 40
0.8759810636
 40
1.0
 40
1.0
 40
1.0
 40
1.0
 10
8.8144066257
 20
5.7853704987
 30
0.0
 10
8.8144066257
 20
5.7856802592
 30
0.0
 10
8.81444299
 20
5.7863002323
 30
0.0
 10
8.8146049995
 20
5.7872166663
 30
0.0
 10
8.814869761
 20
5.7881079985
 30
0.0
 10
8.8152301539
 20
5.7889636772
 30
0.0
 10
8.815677566
 20
5.7897755725
 30
0.0
 10
8.8163763996
 20
5.7907900737
 30
0.0
 10
8.8174212599
 20
5.7919251584
 30
0.0
 10
8.8188777433
 20
5.7930556942
 30
0.0
 10
8.8204805706
 20
5.7939561254
 30
0.0
 10
8.822184957
 20
5.794632738
 30
0.0
 10
8.8233672998
 20
5.7949404676
 30
0.0
 10
8.8239643543
 20
5.7950594699
 30
0.0
  0
SPLINE
  5
4BE
100
AcDbEntity
  8
0
100
AcDbSpline
 62
7
  6
CONTINUOUS
 70
0
 71
3
 72
18
 73
14
 74
0
 42
0.0000001
 43
0.0000001
 44
0.0000000001
 40
0.0
 40
0.0
 40
0.0
 40
0.0
 40
0.0628248617
 40
0.1256330546
 40
0.1884114351
 40
0.2511482882
 40
0.313835981
 40
0.376470675
 40
0.5014565954
 40
0.6262740401
 40
0.7509483652
 40
0.8755111824
 40
1.0
 40
1.0
 40
1.0
 40
1.0
 10
8.8029278282
 20
5.7853704987
 30
0.0
 10
8.8029278282
 20
5.7856802685
 30
0.0
 10
8.8029645229
 20
5.7863003441
 30
0.0
 10
8.8031279946
 20
5.78721687
 30
0.0
 10
8.8033951362
 20
5.7881082682
 30
0.0
 10
8.8037587535
 20
5.7889639808
 30
0.0
 10
8.8042101482
 20
5.7897758814
 30
0.0
 10
8.8049154542
 20
5.7907907569
 30
0.0
 10
8.805970011
 20
5.7919260647
 30
0.0
 10
8.8074392373
 20
5.7930562941
 30
0.0
 10
8.8090560048
 20
5.7939564767
 30
0.0
 10
8.8107751933
 20
5.7946329128
 30
0.0
 10
8.811967515
 20
5.7949404943
 30
0.0
 10
8.8125696898
 20
5.7950594699
 30
0.0
  0
SPLINE
  5
4BF
100
AcDbEntity
  8
0
100
AcDbSpline
 62
7
  6
CONTINUOUS
 70
0
 71
3
 72
81
 73
77
 74
0
 42
0.0000001
 43
0.0000001
 44
0.0000000001
 40
0.0
 40
0.0
 40
0.0
 40
0.0
 40
0.0003726151
 40
0.0007598198
 40
0.0011746262
 40
0.0016276726
 40
0.0021271563
 40
0.0026791822
 40
0.0032882406
 40
0.0039576494
 40
0.0046898834
 40
0.005486798
 40
0.0072796472
 40
0.0093442579
 40
0.0116850802
 40
0.0143045938
 40
0.0172040325
 40
0.0203836912
 40
0.0238432693
 40
0.0275818872
 40
0.0315983263
 40
0.0404577329
 40
0.0504054136
 40
0.0614211375
 40
0.073481263
 40
0.0865590778
 40
0.1006250216
 40
0.1156468618
 40
0.1315898322
 40
0.1484167587
 40
0.1660881756
 40
0.1845624361
 40
0.2237425689
 40
0.2655848009
 40
0.3096891692
 40
0.3556322657
 40
0.4029715321
 40
0.4512498035
 40
0.5000000598
 40
0.5487503157
 40
0.5970285856
 40
0.6443678492
 40
0.6903109418
 40
0.7344153049
 40
0.7762575308
 40
0.8154376563
 40
0.8339119128
 40
0.8515833254
 40
0.8684102474
 40
0.8843532131
 40
0.8993750483
 40
0.9134409871
 40
0.9265187966
 40
0.9385789167
 40
0.949594635
 40
0.9595423099
 40
0.9684017108
 40
0.972418147
 40
0.9761567619
 40
0.979616337
 40
0.9827959927
 40
0.9856954285
 40
0.9883149391
 40
0.9906557584
 40
0.9927203661
 40
0.9945132124
 40
0.9953101257
 40
0.9960423585
 40
0.9967117661
 40
0.9973208232
 40
0.9978728477
 40
0.9983723299
 40
0.9988253748
 40
0.9992401802
 40
0.9996273846
 40
1.0
 40
1.0
 40
1.0
 40
1.0
 10
9.1965913558
 20
6.5536136739
 30
0.0
 10
9.196591352
 20
6.553565528
 30
0.0
 10
9.196581258
 20
6.5534670889
 30
0.0
 10
9.1965364183
 20
6.5533212211
 30
0.0
 10
9.1964623212
 20
6.5531761762
 30
0.0
 10
9.1963593956
 20
6.5530319366
 30
0.0
 10
9.1962278444
 20
6.5528882733
 30
0.0
 10
9.1960677331
 20
6.5527450092
 30
0.0
 10
9.195879063
 20
6.55260202
 30
0.0
 10
9.1956618137
 20
6.5524592466
 30
0.0
 10
9.195415973
 20
6.5523166535
 30
0.0
 10
9.1950348362
 20
6.5521189419
 30
0.0
 10
9.1944845141
 20
6.5518750643
 30
0.0
 10
9.1937344647
 20
6.5515934277
 30
0.0
 10
9.1928710191
 20
6.5513126586
 30
0.0
 10
9.1918945584
 20
6.5510329489
 30
0.0
 10
9.1908055006
 20
6.5507545373
 30
0.0
 10
9.1896044124
 20
6.5504776277
 30
0.0
 10
9.1882919461
 20
6.5502024386
 30
0.0
 10
9.1868688391
 20
6.5499291377
 30
0.0
 10
9.1847548262
 20
6.549555193
 30
0.0
 10
9.1818410831
 20
6.5490984035
 30
0.0
 10
9.1780229917
 20
6.5485764059
 30
0.0
 10
9.1737865084
 20
6.5480657368
 30
0.0
 10
9.1691415704
 20
6.5475677562
 30
0.0
 10
9.1640990865
 20
6.5470837871
 30
0.0
 10
9.1586709594
 20
6.5466151007
 30
0.0
 10
9.1528700386
 20
6.5461628862
 30
0.0
 10
9.1467100907
 20
6.5457282877
 30
0.0
 10
9.1402057661
 20
6.5453124106
 30
0.0
 10
9.1333725678
 20
6.5449162647
 30
0.0
 10
9.1236530176
 20
6.5444057101
 30
0.0
 10
9.1108097223
 20
6.5438287577
 30
0.0
 10
9.094652495
 20
6.5432415359
 30
0.0
 10
9.0776177761
 20
6.5427527215
 30
0.0
 10
9.0598699747
 20
6.5423672636
 30
0.0
 10
9.0415807997
 20
6.5420891027
 30
0.0
 10
9.022927558
 20
6.5419210653
 30
0.0
 10
9.0040913312
 20
6.5418648624
 30
0.0
 10
8.9852551047
 20
6.5419210655
 30
0.0
 10
8.9666018636
 20
6.5420891032
 30
0.0
 10
8.9483126896
 20
6.5423672645
 30
0.0
 10
8.9305648897
 20
6.5427527229
 30
0.0
 10
8.9135301728
 20
6.5432415375
 30
0.0
 10
8.8973729479
 20
6.5438287593
 30
0.0
 10
8.8845296549
 20
6.5444057119
 30
0.0
 10
8.8748101068
 20
6.5449162667
 30
0.0
 10
8.8679769101
 20
6.5453124129
 30
0.0
 10
8.8614725873
 20
6.5457282897
 30
0.0
 10
8.8553126412
 20
6.5461628889
 30
0.0
 10
8.8495117223
 20
6.5466151028
 30
0.0
 10
8.8440835972
 20
6.5470837899
 30
0.0
 10
8.8390411153
 20
6.5475677587
 30
0.0
 10
8.8343961794
 20
6.5480657395
 30
0.0
 10
8.8301596984
 20
6.5485764087
 30
0.0
 10
8.8263416092
 20
6.5490984062
 30
0.0
 10
8.823427868
 20
6.5495551959
 30
0.0
 10
8.8213138566
 20
6.5499291407
 30
0.0
 10
8.8198907508
 20
6.5502024415
 30
0.0
 10
8.8185782857
 20
6.5504776305
 30
0.0
 10
8.8173771986
 20
6.5507545403
 30
0.0
 10
8.816288142
 20
6.551032952
 30
0.0
 10
8.8153116826
 20
6.5513126617
 30
0.0
 10
8.8144482382
 20
6.5515934307
 30
0.0
 10
8.81369819
 20
6.5518750673
 30
0.0
 10
8.813147869
 20
6.552118945
 30
0.0
 10
8.812766733
 20
6.5523166566
 30
0.0
 10
8.8125208928
 20
6.5524592498
 30
0.0
 10
8.812303644
 20
6.5526020231
 30
0.0
 10
8.8121149745
 20
6.5527450122
 30
0.0
 10
8.8119548639
 20
6.5528882763
 30
0.0
 10
8.8118233135
 20
6.5530319395
 30
0.0
 10
8.8117203888
 20
6.5531761792
 30
0.0
 10
8.8116462927
 20
6.5533212242
 30
0.0
 10
8.8116014536
 20
6.553467092
 30
0.0
 10
8.8115913596
 20
6.553565531
 30
0.0
 10
8.8115913558
 20
6.553613677
 30
0.0
  0
SPLINE
  5
4C0
100
AcDbEntity
  8
0
100
AcDbSpline
 62
7
  6
CONTINUOUS
 70
0
 71
3
 72
18
 73
14
 74
0
 42
0.0000001
 43
0.0000001
 44
0.0000000001
 40
0.0
 40
0.0
 40
0.0
 40
0.0
 40
0.0626360615
 40
0.1252657268
 40
0.1878849594
 40
0.2504891472
 40
0.3130753701
 40
0.3756421793
 40
0.5005932351
 40
0.6254991139
 40
0.7503629167
 40
0.8751917623
 40
1.0
 40
1.0
 40
1.0
 40
1.0
 10
8.792000406
 20
5.7853704987
 30
0.0
 10
8.792000406
 20
5.785680275
 30
0.0
 10
8.7920373275
 20
5.7863004214
 30
0.0
 10
8.7922018025
 20
5.7872170105
 30
0.0
 10
8.7924705771
 20
5.788108454
 30
0.0
 10
8.7928364064
 20
5.7889641894
 30
0.0
 10
8.7932905329
 20
5.789776093
 30
0.0
 10
8.7940002803
 20
5.7907912236
 30
0.0
 10
8.795061488
 20
5.7919266805
 30
0.0
 10
8.7965394511
 20
5.7930566999
 30
0.0
 10
8.798165778
 20
5.7939567136
 30
0.0
 10
8.7998951183
 20
5.7946330304
 30
0.0
 10
8.8010942856
 20
5.7949405123
 30
0.0
 10
8.8016999729
 20
5.7950594699
 30
0.0
  0
SPLINE
  5
4C1
100
AcDbEntity
  8
0
100
AcDbSpline
 62
7
  6
CONTINUOUS
 70
0
 71
3
 72
81
 73
77
 74
0
 42
0.0000001
 43
0.0000001
 44
0.0000000001
 40
0.0
 40
0.0
 40
0.0
 40
0.0
 40
0.0003726154
 40
0.0007598198
 40
0.001174625
 40
0.0016276695
 40
0.0021271514
 40
0.0026791755
 40
0.0032882323
 40
0.0039576396
 40
0.004689872
 40
0.005486785
 40
0.0072796307
 40
0.0093442376
 40
0.0116850562
 40
0.0143045661
 40
0.0172040012
 40
0.0203836561
 40
0.0238432305
 40
0.0275818447
 40
0.03159828
 40
0.0404576795
 40
0.050405353
 40
0.0614210699
 40
0.0734811885
 40
0.0865589967
 40
0.1006249341
 40
0.115646768
 40
0.1315897325
 40
0.1484166533
 40
0.1660880648
 40
0.1845623202
 40
0.2237424437
 40
0.2655846677
 40
0.3096890293
 40
0.3556321207
 40
0.4029713833
 40
0.4512496527
 40
0.4999999082
 40
0.5487501645
 40
0.5970284363
 40
0.6443677033
 40
0.6903108009
 40
0.7344151705
 40
0.7762574042
 40
0.8154375389
 40
0.8339118005
 40
0.8515832185
 40
0.8684101462
 40
0.8843531179
 40
0.8993749593
 40
0.9134409045
 40
0.9265187207
 40
0.9385788477
 40
0.9495945731
 40
0.9595422553
 40
0.9684016636
 40
0.9724181034
 40
0.9761567222
 40
0.9796163011
 40
0.9827959606
 40
0.9856954001
 40
0.9883149145
 40
0.9906557377
 40
0.9927203491
 40
0.9945131991
 40
0.9953101141
 40
0.9960423484
 40
0.9967117576
 40
0.9973208163
 40
0.9978728425
 40
0.9983723267
 40
0.9988253735
 40
0.9992401802
 40
0.999627385
 40
1.0
 40
1.0
 40
1.0
 40
1.0
 10
8.8115913558
 20
6.5287702556
 30
0.0
 10
8.8115913596
 20
6.5287221096
 30
0.0
 10
8.8116014536
 20
6.5286236706
 30
0.0
 10
8.8116462925
 20
6.5284778028
 30
0.0
 10
8.8117203885
 20
6.5283327577
 30
0.0
 10
8.8118233129
 20
6.5281885181
 30
0.0
 10
8.8119548631
 20
6.5280448548
 30
0.0
 10
8.8121149736
 20
6.5279015908
 30
0.0
 10
8.8123036429
 20
6.5277586017
 30
0.0
 10
8.8125208916
 20
6.5276158284
 30
0.0
 10
8.8127667316
 20
6.5274732353
 30
0.0
 10
8.8131478674
 20
6.5272755236
 30
0.0
 10
8.8136981882
 20
6.5270316459
 30
0.0
 10
8.8144482361
 20
6.5267500093
 30
0.0
 10
8.8153116802
 20
6.5264692402
 30
0.0
 10
8.8162881394
 20
6.5261895305
 30
0.0
 10
8.8173771957
 20
6.5259111189
 30
0.0
 10
8.8185782824
 20
6.5256342091
 30
0.0
 10
8.8198907472
 20
6.5253590201
 30
0.0
 10
8.8213138527
 20
6.5250857193
 30
0.0
 10
8.8234278637
 20
6.5247117745
 30
0.0
 10
8.8263416045
 20
6.5242549848
 30
0.0
 10
8.8301596931
 20
6.5237329872
 30
0.0
 10
8.8343961736
 20
6.523222318
 30
0.0
 10
8.8390411089
 20
6.5227243372
 30
0.0
 10
8.8440835902
 20
6.5222403684
 30
0.0
 10
8.8495117148
 20
6.5217716813
 30
0.0
 10
8.8553126333
 20
6.5213194672
 30
0.0
 10
8.8614725788
 20
6.5208848682
 30
0.0
 10
8.8679769012
 20
6.5204689913
 30
0.0
 10
8.8748100974
 20
6.5200728451
 30
0.0
 10
8.884529645
 20
6.5195622902
 30
0.0
 10
8.8973729373
 20
6.5189853376
 30
0.0
 10
8.9135301616
 20
6.5183981156
 30
0.0
 10
8.9305648778
 20
6.5179093009
 30
0.0
 10
8.9483126772
 20
6.5175238426
 30
0.0
 10
8.9666018508
 20
6.5172456812
 30
0.0
 10
8.9852550917
 20
6.5170776435
 30
0.0
 10
9.0040913181
 20
6.5170214403
 30
0.0
 10
9.0229275449
 20
6.5170776431
 30
0.0
 10
9.0415807867
 20
6.5172456804
 30
0.0
 10
9.059869962
 20
6.5175238412
 30
0.0
 10
9.0776177638
 20
6.5179092991
 30
0.0
 10
9.0946524832
 20
6.5183981135
 30
0.0
 10
9.1108097112
 20
6.5189853351
 30
0.0
 10
9.123653007
 20
6.5195622874
 30
0.0
 10
9.1333725577
 20
6.520072842
 30
0.0
 10
9.1402057565
 20
6.5204689879
 30
0.0
 10
9.1467100815
 20
6.5208848649
 30
0.0
 10
9.1528700299
 20
6.5213194635
 30
0.0
 10
9.1586709512
 20
6.5217716778
 30
0.0
 10
9.1640990789
 20
6.5222403643
 30
0.0
 10
9.1691415634
 20
6.5227243333
 30
0.0
 10
9.1737865019
 20
6.5232223139
 30
0.0
 10
9.1780229858
 20
6.523732983
 30
0.0
 10
9.1818410778
 20
6.5242549806
 30
0.0
 10
9.1847548214
 20
6.5247117701
 30
0.0
 10
9.1868688348
 20
6.5250857148
 30
0.0
 10
9.1882919421
 20
6.5253590156
 30
0.0
 10
9.1896044087
 20
6.5256342047
 30
0.0
 10
9.1908054973
 20
6.5259111144
 30
0.0
 10
9.1918945554
 20
6.5261895259
 30
0.0
 10
9.1928710164
 20
6.5264692356
 30
0.0
 10
9.1937344623
 20
6.5267500047
 30
0.0
 10
9.1944845121
 20
6.5270316413
 30
0.0
 10
9.1950348344
 20
6.5272755189
 30
0.0
 10
9.1954159714
 20
6.5274732304
 30
0.0
 10
9.1956618123
 20
6.5276158236
 30
0.0
 10
9.1958790618
 20
6.527758597
 30
0.0
 10
9.196067732
 20
6.5279015862
 30
0.0
 10
9.1962278435
 20
6.5280448504
 30
0.0
 10
9.1963593949
 20
6.5281885136
 30
0.0
 10
9.1964623208
 20
6.5283327532
 30
0.0
 10
9.1965364181
 20
6.5284777981
 30
0.0
 10
9.196581258
 20
6.5286236659
 30
0.0
 10
9.1965913521
 20
6.528722105
 30
0.0
 10
9.1965913558
 20
6.5287702509
 30
0.0
  0
SPLINE
  5
4C2
100
AcDbEntity
  8
0
100
AcDbSpline
 62
7
  6
CONTINUOUS
 70
0
 71
3
 72
18
 73
14
 74
0
 42
0.0000001
 43
0.0000001
 44
0.0000000001
 40
0.0
 40
0.0
 40
0.0
 40
0.0
 40
0.0625345885
 40
0.1250683193
 40
0.1876020623
 40
0.2501350255
 40
0.3126668153
 40
0.375197255
 40
0.5001297871
 40
0.6250832982
 40
0.7500488737
 40
0.8750204639
 40
1.0
 40
1.0
 40
1.0
 40
1.0
 10
8.7816543103
 20
5.7853704987
 30
0.0
 10
8.7816543103
 20
5.7856802785
 30
0.0
 10
8.7816913541
 20
5.7863004632
 30
0.0
 10
8.7818563705
 20
5.7872170865
 30
0.0
 10
8.7821260259
 20
5.7881085545
 30
0.0
 10
8.7824930483
 20
5.788964302
 30
0.0
 10
8.782948648
 20
5.789776207
 30
0.0
 10
8.7836607913
 20
5.7907914748
 30
0.0
 10
8.7847255858
 20
5.7919270107
 30
0.0
 10
8.7862082594
 20
5.7930569168
 30
0.0
 10
8.7878397407
 20
5.7939568399
 30
0.0
 10
8.7895745555
 20
5.794633093
 30
0.0
 10
8.790777415
 20
5.7949405219
 30
0.0
 10
8.7913849966
 20
5.7950594699
 30
0.0
  0
SPLINE
  5
4C3
100
AcDbEntity
  8
0
100
AcDbSpline
 62
7
  6
CONTINUOUS
 70
0
 71
3
 72
18
 73
14
 74
0
 42
0.0000001
 43
0.0000001
 44
0.0000000001
 40
0.0
 40
0.0
 40
0.0
 40
0.0
 40
0.0625201032
 40
0.1250401403
 40
0.1875616822
 40
0.2500844825
 40
0.3126085079
 40
0.3751337625
 40
0.5000636625
 40
0.6250239789
 40
0.7500040789
 40
0.8749960325
 40
1.0
 40
1.0
 40
1.0
 40
1.0
 10
8.7719178991
 20
5.7853704987
 30
0.0
 10
8.7719178991
 20
5.785680279
 30
0.0
 10
8.7719549604
 20
5.7863004692
 30
0.0
 10
8.7721200542
 20
5.7872170974
 30
0.0
 10
8.7723898355
 20
5.7881085688
 30
0.0
 10
8.7727570284
 20
5.7889643181
 30
0.0
 10
8.7732128388
 20
5.7897762233
 30
0.0
 10
8.7739253245
 20
5.7907915106
 30
0.0
 10
8.7749906318
 20
5.7919270578
 30
0.0
 10
8.7764739786
 20
5.7930569478
 30
0.0
 10
8.7781061967
 20
5.7939568579
 30
0.0
 10
8.7798417941
 20
5.7946331019
 30
0.0
 10
8.7810451814
 20
5.7949405232
 30
0.0
 10
8.7816530338
 20
5.7950594699
 30
0.0
  0
SPLINE
  5
4C4
100
AcDbEntity
  8
0
100
AcDbSpline
 62
7
  6
CONTINUOUS
 70
0
 71
3
 72
18
 73
14
 74
0
 42
0.0000001
 43
0.0000001
 44
0.0000000001
 40
0.0
 40
0.0
 40
0.0
 40
0.0
 40
0.0625924953
 40
0.1251809766
 40
0.187763505
 40
0.2503371128
 40
0.3128999625
 40
0.3754511514
 40
0.5003943631
 40
0.6253207347
 40
0.7502282255
 40
0.8751183098
 40
1.0
 40
1.0
 40
1.0
 40
1.0
 10
8.762822753
 20
5.7853704987
 30
0.0
 10
8.762822753
 20
5.7856799924
 30
0.0
 10
8.7628596597
 20
5.7862995855
 30
0.0
 10
8.7630240705
 20
5.7872153714
 30
0.0
 10
8.7632927474
 20
5.7881060736
 30
0.0
 10
8.763658458
 20
5.7889611527
 30
0.0
 10
8.7641124582
 20
5.7897725011
 30
0.0
 10
8.7648220897
 20
5.7907871021
 30
0.0
 10
8.7658832144
 20
5.7919221457
 30
0.0
 10
8.7673611114
 20
5.7930520274
 30
0.0
 10
8.7689875193
 20
5.7939523184
 30
0.0
 10
8.7707171034
 20
5.7946292966
 30
0.0
 10
8.7719164991
 20
5.7949374494
 30
0.0
 10
8.7725223415
 20
5.7950568066
 30
0.0
  0
SPLINE
  5
4C5
100
AcDbEntity
  8
0
100
AcDbSpline
 62
7
  6
CONTINUOUS
 70
0
 71
3
 72
18
 73
14
 74
0
 42
0.0000001
 43
0.0000001
 44
0.0000000001
 40
0.0
 40
0.0
 40
0.0
 40
0.0
 40
0.0627521924
 40
0.1254916651
 40
0.1882087763
 40
0.2508945442
 40
0.3135431517
 40
0.3761516836
 40
0.501124123
 40
0.6259755766
 40
0.75072285
 40
0.8753881291
 40
1.0
 40
1.0
 40
1.0
 40
1.0
 10
8.7543791332
 20
5.7853704987
 30
0.0
 10
8.7543791332
 20
5.785680271
 30
0.0
 10
8.754415915
 20
5.7863003738
 30
0.0
 10
8.7545797723
 20
5.7872169239
 30
0.0
 10
8.7548475415
 20
5.7881083396
 30
0.0
 10
8.7552120091
 20
5.788964061
 30
0.0
 10
8.7556644538
 20
5.7897759627
 30
0.0
 10
8.7563714668
 20
5.7907909365
 30
0.0
 10
8.75742858
 20
5.7919263019
 30
0.0
 10
8.7589011649
 20
5.7930564506
 30
0.0
 10
8.760521607
 20
5.7939565682
 30
0.0
 10
8.7622446978
 20
5.7946329582
 30
0.0
 10
8.7634396507
 20
5.7949405013
 30
0.0
 10
8.7640431755
 20
5.7950594699
 30
0.0
  0
SPLINE
  5
4C6
100
AcDbEntity
  8
0
100
AcDbSpline
 62
7
  6
CONTINUOUS
 70
0
 71
3
 72
18
 73
14
 74
0
 42
0.0000001
 43
0.0000001
 44
0.0000000001
 40
0.0
 40
0.0
 40
0.0
 40
0.0
 40
0.0629995416
 40
0.1259729463
 40
0.1888986701
 40
0.2517584314
 40
0.3145402263
 40
0.3772379783
 40
0.5022566192
 40
0.6269924672
 40
0.7514913493
 40
0.8758075264
 40
1.0
 40
1.0
 40
1.0
 40
1.0
 10
8.746624851
 20
5.7853704987
 30
0.0
 10
8.746624851
 20
5.7856802626
 30
0.0
 10
8.7466613369
 20
5.7863002734
 30
0.0
 10
8.7468238844
 20
5.7872167411
 30
0.0
 10
8.7470895219
 20
5.7881080976
 30
0.0
 10
8.7474511016
 20
5.7889637888
 30
0.0
 10
8.7478999795
 20
5.7897756862
 30
0.0
 10
8.7486011951
 20
5.7907903255
 30
0.0
 10
8.7496496245
 20
5.7919254931
 30
0.0
 10
8.751110799
 20
5.7930559161
 30
0.0
 10
8.7527187579
 20
5.7939562556
 30
0.0
 10
8.7544285929
 20
5.7946328028
 30
0.0
 10
8.7556146085
 20
5.7949404775
 30
0.0
 10
8.7562135475
 20
5.7950594699
 30
0.0
  0
SPLINE
  5
4C7
100
AcDbEntity
  8
0
100
AcDbSpline
 62
7
  6
CONTINUOUS
 70
0
 71
3
 72
18
 73
14
 74
0
 42
0.0000001
 43
0.0000001
 44
0.0000000001
 40
0.0
 40
0.0
 40
0.0
 40
0.0
 40
0.0633354138
 40
0.126626588
 40
0.1898358912
 40
0.2529324335
 40
0.3158957653
 40
0.3787154369
 40
0.5037982487
 40
0.6283778135
 40
0.7525389909
 40
0.8763795594
 40
1.0
 40
1.0
 40
1.0
 40
1.0
 10
8.7395762666
 20
5.7853704987
 30
0.0
 10
8.7395762666
 20
5.7856802514
 30
0.0
 10
8.7396123537
 20
5.7863001392
 30
0.0
 10
8.7397731357
 20
5.7872164963
 30
0.0
 10
8.7400358991
 20
5.7881077729
 30
0.0
 10
8.7403935846
 20
5.7889634227
 30
0.0
 10
8.740837652
 20
5.7897753129
 30
0.0
 10
8.7415310526
 20
5.7907894976
 30
0.0
 10
8.7425677698
 20
5.7919243897
 30
0.0
 10
8.7440135464
 20
5.7930551828
 30
0.0
 10
8.7456046632
 20
5.7939558248
 30
0.0
 10
8.7472966169
 20
5.794632588
 30
0.0
 10
8.7484705805
 20
5.7949404446
 30
0.0
 10
8.7490633354
 20
5.7950594699
 30
0.0
  0
SPLINE
  5
4C8
100
AcDbEntity
  8
0
100
AcDbSpline
 62
7
  6
CONTINUOUS
 70
0
 71
3
 72
18
 73
14
 74
0
 42
0.0000001
 43
0.0000001
 44
0.0000000001
 40
0.0
 40
0.0
 40
0.0
 40
0.0
 40
0.0637608868
 40
0.1274547865
 40
0.1910238158
 40
0.2544211439
 40
0.3176155619
 40
0.3805909496
 40
0.505757434
 40
0.6301402009
 40
0.7538729161
 40
0.8771084026
 40
1.0
 40
1.0
 40
1.0
 40
1.0
 10
8.7332526997
 20
5.7853704987
 30
0.0
 10
8.7332526997
 20
5.7856802374
 30
0.0
 10
8.7332882864
 20
5.7862999726
 30
0.0
 10
8.733446853
 20
5.787216192
 30
0.0
 10
8.733706009
 20
5.7881073679
 30
0.0
 10
8.7340588056
 20
5.7889629642
 30
0.0
 10
8.7344968321
 20
5.7897748436
 30
0.0
 10
8.7351804261
 20
5.7907884517
 30
0.0
 10
8.7362024359
 20
5.7919229834
 30
0.0
 10
8.7376288625
 20
5.7930542411
 30
0.0
 10
8.7391988201
 20
5.7939552683
 30
0.0
 10
8.7408683144
 20
5.7946323092
 30
0.0
 10
8.7420271468
 20
5.7949404019
 30
0.0
 10
8.7426121373
 20
5.7950594699
 30
0.0
  0
SPLINE
  5
4C9
100
AcDbEntity
  8
0
100
AcDbSpline
 62
7
  6
CONTINUOUS
 70
0
 71
3
 72
23
 73
19
 74
0
 42
0.0000001
 43
0.0000001
 44
0.0000000001
 40
0.0
 40
0.0
 40
0.0
 40
0.0
 40
0.0111671761
 40
0.0226279539
 40
0.0476514041
 40
0.0617961737
 40
0.0772555128
 40
0.1125678877
 40
0.1542536927
 40
0.2025745176
 40
0.2575639987
 40
0.3190978269
 40
0.3869300224
 40
0.4607164573
 40
0.540029733
 40
0.6243706761
 40
0.8058165169
 40
1.0
 40
1.0
 40
1.0
 40
1.0
 10
8.9538385349
 20
5.5188116952
 30
0.0
 10
8.9538365964
 20
5.5187794411
 30
0.0
 10
8.9538265138
 20
5.5187142915
 30
0.0
 10
8.9537806552
 20
5.5185835654
 30
0.0
 10
8.9536965916
 20
5.5184604209
 30
0.0
 10
8.9535851199
 20
5.5183482061
 30
0.0
 10
8.9534391079
 20
5.5182294686
 30
0.0
 10
8.9532093549
 20
5.5180902215
 30
0.0
 10
8.9528779179
 20
5.5179417021
 30
0.0
 10
8.9524805122
 20
5.5178057576
 30
0.0
 10
8.9520191978
 20
5.517683366
 30
0.0
 10
8.9514965502
 20
5.5175755088
 30
0.0
 10
8.9509158635
 20
5.5174831041
 30
0.0
 10
8.9502810102
 20
5.5174069642
 30
0.0
 10
8.9495964171
 20
5.5173477596
 30
0.0
 10
8.9485993754
 20
5.5172907864
 30
0.0
 10
8.947268092
 20
5.5172677652
 30
0.0
 10
8.9461812417
 20
5.5172963673
 30
0.0
 10
8.9456199558
 20
5.5173220257
 30
0.0
  0
SPLINE
  5
4CA
100
AcDbEntity
  8
0
100
AcDbSpline
 62
7
  6
CONTINUOUS
 70
0
 71
3
 72
18
 73
14
 74
0
 42
0.0000001
 43
0.0000001
 44
0.0000000001
 40
0.0
 40
0.0
 40
0.0
 40
0.0
 40
0.0642772818
 40
0.1284602422
 40
0.1924666066
 40
0.2562302466
 40
0.3197068057
 40
0.3828730894
 40
0.5081447254
 40
0.632290453
 40
0.7555021775
 40
0.8779993779
 40
1.0
 40
1.0
 40
1.0
 40
1.0
 10
8.7276714827
 20
5.7853704987
 30
0.0
 10
8.7276714827
 20
5.785680221
 30
0.0
 10
8.7277064693
 20
5.7862997754
 30
0.0
 10
8.7278623779
 20
5.7872158309
 30
0.0
 10
8.7281172045
 20
5.7881068857
 30
0.0
 10
8.7284641319
 20
5.7889624157
 30
0.0
 10
8.7288949044
 20
5.7897742794
 30
0.0
 10
8.7295667326
 20
5.7907871869
 30
0.0
 10
8.7305710818
 20
5.791921264
 30
0.0
 10
8.7319742507
 20
5.7930530789
 30
0.0
 10
8.7335187842
 20
5.7939545765
 30
0.0
 10
8.7351613003
 20
5.7946319608
 30
0.0
 10
8.736301967
 20
5.7949403483
 30
0.0
 10
8.7368776356
 20
5.7950594699
 30
0.0
  0
SPLINE
  5
4CB
100
AcDbEntity
  8
0
100
AcDbSpline
 62
7
  6
CONTINUOUS
 70
0
 71
3
 72
18
 73
14
 74
0
 42
0.0000001
 43
0.0000001
 44
0.0000000001
 40
0.0
 40
0.0
 40
0.0
 40
0.0
 40
0.0648841208
 40
0.1296422976
 40
0.1941639255
 40
0.2583603041
 40
0.3221714762
 40
0.3855656005
 40
0.5109676922
 40
0.6348385697
 40
0.7574365812
 40
0.8790589557
 40
1.0
 40
1.0
 40
1.0
 40
1.0
 10
8.7228503902
 20
5.7853704987
 30
0.0
 10
8.7228503902
 20
5.7856799183
 30
0.0
 10
8.7228846168
 20
5.7862986984
 30
0.0
 10
8.7230371589
 20
5.787213749
 30
0.0
 10
8.7232865075
 20
5.7881039117
 30
0.0
 10
8.7236260186
 20
5.7889587005
 30
0.0
 10
8.724047641
 20
5.7897699853
 30
0.0
 10
8.7247047274
 20
5.7907814811
 30
0.0
 10
8.7256870143
 20
5.7919145481
 30
0.0
 10
8.727061128
 20
5.7930469144
 30
0.0
 10
8.7285740514
 20
5.7939492831
 30
0.0
 10
8.7301831821
 20
5.7946277693
 30
0.0
 10
8.7313014442
 20
5.7949372142
 30
0.0
 10
8.7318656528
 20
5.7950568066
 30
0.0
  0
SPLINE
  5
4CC
100
AcDbEntity
  8
0
100
AcDbSpline
 62
7
  6
CONTINUOUS
 70
0
 71
3
 72
20
 73
16
 74
0
 42
0.0000001
 43
0.0000001
 44
0.0000000001
 40
0.0
 40
0.0
 40
0.0
 40
0.0
 40
0.0655766723
 40
0.1309909293
 40
0.1960994726
 40
0.2607874405
 40
0.3249766929
 40
0.3886251703
 40
0.451721457
 40
0.5142786861
 40
0.6378080568
 40
0.7596685761
 40
0.8201304919
 40
0.8803176257
 40
1.0
 40
1.0
 40
1.0
 40
1.0
 10
8.7187952128
 20
5.7853704987
 30
0.0
 10
8.7187952128
 20
5.7856801811
 30
0.0
 10
8.7188287082
 20
5.786299298
 30
0.0
 10
8.7189780095
 20
5.7872149535
 30
0.0
 10
8.7192220652
 20
5.7881057034
 30
0.0
 10
8.7195543966
 20
5.7889610688
 30
0.0
 10
8.7199670693
 20
5.7897728463
 30
0.0
 10
8.7204514438
 20
5.7905349302
 30
0.0
 10
8.7209988821
 20
5.7912432427
 30
0.0
 10
8.7217980543
 20
5.7921086954
 30
0.0
 10
8.7229152773
 20
5.7930501727
 30
0.0
 10
8.7241532604
 20
5.7938045428
 30
0.0
 10
8.725189429
 20
5.7942941838
 30
0.0
 10
8.7262466974
 20
5.7947086229
 30
0.0
 10
8.7270671184
 20
5.7949402034
 30
0.0
 10
8.7276195852
 20
5.7950594699
 30
0.0
  0
SPLINE
  5
4CD
100
AcDbEntity
  8
0
100
AcDbSpline
 62
7
  6
CONTINUOUS
 70
0
 71
3
 72
21
 73
17
 74
0
 42
0.0000001
 43
0.0000001
 44
0.0000000001
 40
0.0
 40
0.0
 40
0.0
 40
0.0
 40
0.0663681205
 40
0.13253326
 40
0.1983155963
 40
0.2635707997
 40
0.3281999142
 40
0.3921487948
 40
0.4554016883
 40
0.5179736119
 40
0.5799011803
 40
0.6412343616
 40
0.7020306223
 40
0.7623530417
 40
0.881751603
 40
1.0
 40
1.0
 40
1.0
 40
1.0
 10
8.7155244891
 20
5.7853704987
 30
0.0
 10
8.7155244891
 20
5.7856801582
 30
0.0
 10
8.7155570987
 20
5.786299023
 30
0.0
 10
8.7157024714
 20
5.7872144453
 30
0.0
 10
8.7159401216
 20
5.7881050147
 30
0.0
 10
8.7162637605
 20
5.7889602719
 30
0.0
 10
8.7166656743
 20
5.7897720065
 30
0.0
 10
8.7171374747
 20
5.7905341126
 30
0.0
 10
8.7176707024
 20
5.7912424599
 30
0.0
 10
8.7182572587
 20
5.7918945471
 30
0.0
 10
8.7188896637
 20
5.7924891354
 30
0.0
 10
8.7195611475
 20
5.793025889
 30
0.0
 10
8.7202657279
 20
5.7935051271
 30
0.0
 10
8.7212385571
 20
5.7940662664
 30
0.0
 10
8.7225143178
 20
5.7946304794
 30
0.0
 10
8.7235827567
 20
5.7949401084
 30
0.0
 10
8.7241214122
 20
5.7950594699
 30
0.0
  0
SPLINE
  5
4CE
100
AcDbEntity
  8
0
100
AcDbSpline
 62
7
  6
CONTINUOUS
 70
0
 71
3
 72
19
 73
15
 74
0
 42
0.0000001
 43
0.0000001
 44
0.0000000001
 40
0.0
 40
0.0
 40
0.0
 40
0.0
 40
0.0671157638
 40
0.1340014395
 40
0.2004487582
 40
0.2662897056
 40
0.3955877394
 40
0.5216410111
 40
0.583533471
 40
0.6446951166
 40
0.7051897186
 40
0.765087737
 40
0.8833043184
 40
1.0
 40
1.0
 40
1.0
 40
1.0
 10
8.7130447072
 20
5.7853704987
 30
0.0
 10
8.7130447072
 20
5.7856694537
 30
0.0
 10
8.713074199
 20
5.78626676
 30
0.0
 10
8.7132057489
 20
5.7871512369
 30
0.0
 10
8.7134211385
 20
5.7880133666
 30
0.0
 10
8.7138103141
 20
5.7891131948
 30
0.0
 10
8.7144733903
 20
5.7903904738
 30
0.0
 10
8.7153375133
 20
5.7915174963
 30
0.0
 10
8.7161162698
 20
5.7923092668
 30
0.0
 10
8.7167342229
 20
5.7928458943
 30
0.0
 10
8.717383919
 20
5.7933287288
 30
0.0
 10
8.7182818502
 20
5.7938988715
 30
0.0
 10
8.7194627057
 20
5.7944833438
 30
0.0
 10
8.7204574709
 20
5.7948187276
 30
0.0
 10
8.7209596796
 20
5.7949528104
 30
0.0
  0
SPLINE
  5
4CF
100
AcDbEntity
  8
0
100
AcDbSpline
 62
7
  6
CONTINUOUS
 70
0
 71
3
 72
17
 73
13
 74
0
 42
0.0000001
 43
0.0000001
 44
0.0000000001
 40
0.0
 40
0.0
 40
0.0
 40
0.0
 40
0.0682909772
 40
0.1362852536
 40
0.2037181702
 40
0.270376129
 40
0.4006998176
 40
0.5269408881
 40
0.6493395592
 40
0.7684970265
 40
0.885139199
 40
1.0
 40
1.0
 40
1.0
 40
1.0
 10
8.7113626638
 20
5.7853704987
 30
0.0
 10
8.7113626638
 20
5.7856801075
 30
0.0
 10
8.7113932381
 20
5.7862984184
 30
0.0
 10
8.7115295565
 20
5.7872133044
 30
0.0
 10
8.7117524914
 20
5.7881035109
 30
0.0
 10
8.712154043
 20
5.789234613
 30
0.0
 10
8.7128358431
 20
5.7905418576
 30
0.0
 10
8.7138922216
 20
5.7919072985
 30
0.0
 10
8.7151227574
 20
5.7930433742
 30
0.0
 10
8.716478668
 20
5.7939485215
 30
0.0
 10
8.717921366
 20
5.7946288292
 30
0.0
 10
8.7189278674
 20
5.7949398603
 30
0.0
 10
8.7194346857
 20
5.7950594699
 30
0.0
  0
SPLINE
  5
4D0
100
AcDbEntity
  8
0
100
AcDbSpline
 62
7
  6
CONTINUOUS
 70
0
 71
3
 72
15
 73
11
 74
0
 42
0.0000001
 43
0.0000001
 44
0.0000000001
 40
0.0
 40
0.0
 40
0.0
 40
0.0
 40
0.1383140484
 40
0.2740480716
 40
0.4054971239
 40
0.5320803496
 40
0.654057233
 40
0.7721263525
 40
0.8871474873
 40
1.0
 40
1.0
 40
1.0
 40
1.0
 10
8.7104829695
 20
5.7853704987
 30
0.0
 10
8.7104829695
 20
5.7859874079
 30
0.0
 10
8.7105995793
 20
5.787212908
 30
0.0
 10
8.7111072859
 20
5.7889591352
 30
0.0
 10
8.711899379
 20
5.7905372933
 30
0.0
 10
8.7129163366
 20
5.7919034631
 30
0.0
 10
8.7141015574
 20
5.793040445
 30
0.0
 10
8.7154080811
 20
5.7939466352
 30
0.0
 10
8.7167985335
 20
5.7946278115
 30
0.0
 10
8.7177700897
 20
5.7949396996
 30
0.0
 10
8.7182589781
 20
5.7950594699
 30
0.0
  0
SPLINE
  5
4D1
100
AcDbEntity
  8
0
100
AcDbSpline
 62
7
  6
CONTINUOUS
 70
0
 71
3
 72
75
 73
71
 74
0
 42
0.0000001
 43
0.0000001
 44
0.0000000001
 40
0.0
 40
0.0
 40
0.0
 40
0.0
 40
0.000426734
 40
0.0008662259
 40
0.0013301026
 40
0.0018282641
 40
0.0029563133
 40
0.0042973829
 40
0.0058780779
 40
0.0077141169
 40
0.0098148427
 40
0.0121859852
 40
0.0148309949
 40
0.0177518789
 40
0.0209494825
 40
0.0244239415
 40
0.0281747368
 40
0.0322009098
 40
0.0410734587
 40
0.051027104
 40
0.0620424599
 40
0.0740970149
 40
0.0871646178
 40
0.1012162684
 40
0.1162203743
 40
0.1321425261
 40
0.148945944
 40
0.1665916771
 40
0.1850382035
 40
0.224158261
 40
0.2659357461
 40
0.3099723104
 40
0.3558457469
 40
0.4031142756
 40
0.4513212498
 40
0.4999999994
 40
0.5486787495
 40
0.5968857235
 40
0.6441542509
 40
0.6900276882
 40
0.7340642546
 40
0.7758417373
 40
0.8149617928
 40
0.8334083233
 40
0.8510540557
 40
0.8678574713
 40
0.883779627
 40
0.8987837309
 40
0.9128353798
 40
0.9259029866
 40
0.9379575371
 40
0.9489728953
 40
0.9589265426
 40
0.9677990876
 40
0.9718252619
 40
0.9755760607
 40
0.97905052
 40
0.9822481191
 40
0.9851689994
 40
0.9878140108
 40
0.9901851572
 40
0.9922858847
 40
0.9941219236
 40
0.995702619
 40
0.9970436892
 40
0.9981717374
 40
0.998669898
 40
0.9991337741
 40
0.9995732659
 40
1.0
 40
1.0
 40
1.0
 40
1.0
 10
9.1765913558
 20
6.5735648444
 30
0.0
 10
9.1765913418
 20
6.5735153437
 30
0.0
 10
9.1765823703
 20
6.5734146559
 30
0.0
 10
9.176542442
 20
6.5732649352
 30
0.0
 10
9.1764763137
 20
6.5731157603
 30
0.0
 10
9.1763482383
 20
6.5729091533
 30
0.0
 10
9.1761153604
 20
6.5726521635
 30
0.0
 10
9.1757467326
 20
6.5723589927
 30
0.0
 10
9.1752772655
 20
6.5720670493
 30
0.0
 10
9.1747066099
 20
6.5717760674
 30
0.0
 10
9.1740344802
 20
6.5714858817
 30
0.0
 10
9.1732609634
 20
6.5711966721
 30
0.0
 10
9.1723862942
 20
6.5709086131
 30
0.0
 10
9.1714108487
 20
6.5706219296
 30
0.0
 10
9.170335109
 20
6.5703368112
 30
0.0
 10
9.1691596478
 20
6.5700534735
 30
0.0
 10
9.1678851154
 20
6.5697720888
 30
0.0
 10
9.1659924511
 20
6.5693872132
 30
0.0
 10
9.1633833052
 20
6.5689169619
 30
0.0
 10
9.1599634858
 20
6.5683794732
 30
0.0
 10
9.156168868
 20
6.5678536336
 30
0.0
 10
9.1520083019
 20
6.5673408593
 30
0.0
 10
9.1474914838
 20
6.5668425022
 30
0.0
 10
9.1426290275
 20
6.5663598511
 30
0.0
 10
9.1374323906
 20
6.565894153
 30
0.0
 10
9.1319138583
 20
6.565446574
 30
0.0
 10
9.1260865088
 20
6.5650182419
 30
0.0
 10
9.1199641996
 20
6.564610232
 30
0.0
 10
9.1112554638
 20
6.5640843385
 30
0.0
 10
9.0997467435
 20
6.5634900157
 30
0.0
 10
9.0852669496
 20
6.562885039
 30
0.0
 10
9.069999457
 20
6.5623814029
 30
0.0
 10
9.0540916857
 20
6.5619842297
 30
0.0
 10
9.037697711
 20
6.5616976003
 30
0.0
 10
9.0209767223
 20
6.5615244393
 30
0.0
 10
9.0040913558
 20
6.561466521
 30
0.0
 10
8.9872059893
 20
6.5615244392
 30
0.0
 10
8.9704850007
 20
6.5616976003
 30
0.0
 10
8.9540910261
 20
6.5619842299
 30
0.0
 10
8.9381832546
 20
6.562381403
 30
0.0
 10
8.9229157619
 20
6.5628850389
 30
0.0
 10
8.9084359683
 20
6.5634900157
 30
0.0
 10
8.8969272481
 20
6.5640843388
 30
0.0
 10
8.8882185121
 20
6.5646102318
 30
0.0
 10
8.8820962028
 20
6.5650182418
 30
0.0
 10
8.8762688532
 20
6.5654465742
 30
0.0
 10
8.8707503208
 20
6.5658941528
 30
0.0
 10
8.865553684
 20
6.5663598511
 30
0.0
 10
8.8606912276
 20
6.5668425024
 30
0.0
 10
8.8561744098
 20
6.567340859
 30
0.0
 10
8.8520138436
 20
6.5678536339
 30
0.0
 10
8.8482192258
 20
6.5683794732
 30
0.0
 10
8.8447994063
 20
6.5689169616
 30
0.0
 10
8.8421902605
 20
6.5693872134
 30
0.0
 10
8.8402975961
 20
6.5697720889
 30
0.0
 10
8.839023063
 20
6.5700534734
 30
0.0
 10
8.8378476019
 20
6.570336811
 30
0.0
 10
8.8367718631
 20
6.5706219296
 30
0.0
 10
8.8357964185
 20
6.5709086135
 30
0.0
 10
8.8349217491
 20
6.5711966723
 30
0.0
 10
8.8341482313
 20
6.5714858816
 30
0.0
 10
8.8334761009
 20
6.5717760672
 30
0.0
 10
8.8329054451
 20
6.5720670493
 30
0.0
 10
8.8324359779
 20
6.5723589927
 30
0.0
 10
8.8320673499
 20
6.5726521633
 30
0.0
 10
8.8318344722
 20
6.5729091531
 30
0.0
 10
8.8317063976
 20
6.5731157604
 30
0.0
 10
8.8316402699
 20
6.5732649352
 30
0.0
 10
8.8316003419
 20
6.573414656
 30
0.0
 10
8.8315913701
 20
6.5735153437
 30
0.0
 10
8.8315913558
 20
6.5735648444
 30
0.0
  0
SPLINE
  5
4D2
100
AcDbEntity
  8
0
100
AcDbSpline
 62
7
  6
CONTINUOUS
 70
0
 71
3
 72
33
 73
29
 74
0
 42
0.0000001
 43
0.0000001
 44
0.0000000001
 40
0.0
 40
0.0
 40
0.0
 40
0.0
 40
0.0147516568
 40
0.0297501378
 40
0.0452251104
 40
0.0613887903
 40
0.0784237295
 40
0.0964807271
 40
0.1156807139
 40
0.1361207747
 40
0.1578743919
 40
0.1809939663
 40
0.2055146205
 40
0.2314604677
 40
0.2588441069
 40
0.2876633256
 40
0.3179046438
 40
0.349547792
 40
0.382566804
 40
0.4169231528
 40
0.4525693192
 40
0.4894521893
 40
0.5666833004
 40
0.6480455639
 40
0.7328668587
 40
0.8203744629
 40
0.9097211606
 40
1.0
 40
1.0
 40
1.0
 40
1.0
 10
8.8315913558
 20
6.8418687086
 30
0.0
 10
8.8315914634
 20
6.842199332
 30
0.0
 10
8.8316380841
 20
6.8428669654
 30
0.0
 10
8.8318454034
 20
6.8438620349
 30
0.0
 10
8.8321895037
 20
6.8448519544
 30
0.0
 10
8.8326697558
 20
6.8458341154
 30
0.0
 10
8.833285043
 20
6.8468066482
 30
0.0
 10
8.8340340522
 20
6.8477678116
 30
0.0
 10
8.8349154004
 20
6.8487160568
 30
0.0
 10
8.8359279979
 20
6.8496495082
 30
0.0
 10
8.8370704293
 20
6.8505663753
 30
0.0
 10
8.8383410173
 20
6.8514648219
 30
0.0
 10
8.8397378496
 20
6.8523430548
 30
0.0
 10
8.841259023
 20
6.8531989908
 30
0.0
 10
8.8429023438
 20
6.8540304869
 30
0.0
 10
8.8446650993
 20
6.8548355887
 30
0.0
 10
8.8465441998
 20
6.855612359
 30
0.0
 10
8.8485363698
 20
6.8563587568
 30
0.0
 10
8.8506380717
 20
6.8570725214
 30
0.0
 10
8.8528452054
 20
6.8577517364
 30
0.0
 10
8.8551532307
 20
6.8583945183
 30
0.0
 10
8.8584087395
 20
6.8592129937
 30
0.0
 10
8.8626954517
 20
6.8601258145
 30
0.0
 10
8.8680768767
 20
6.8610312227
 30
0.0
 10
8.8737186874
 20
6.8617493087
 30
0.0
 10
8.8795616749
 20
6.8622704251
 30
0.0
 10
8.8855417375
 20
6.8625856664
 30
0.0
 10
8.8895679696
 20
6.8626563418
 30
0.0
 10
8.8915913558
 20
6.8626564522
 30
0.0
  0
SPLINE
  5
4D3
100
AcDbEntity
  8
0
100
AcDbSpline
 62
7
  6
CONTINUOUS
 70
0
 71
3
 72
33
 73
29
 74
0
 42
0.0000001
 43
0.0000001
 44
0.0000000001
 40
0.0
 40
0.0
 40
0.0
 40
0.0
 40
0.0902788719
 40
0.1796255231
 40
0.2671331679
 40
0.3519543706
 40
0.433316794
 40
0.5105477707
 40
0.5474306516
 40
0.5830769251
 40
0.6174332743
 40
0.6504521739
 40
0.6820953261
 40
0.712336743
 40
0.7411559834
 40
0.768539495
 40
0.7944853158
 40
0.8190060642
 40
0.8421257248
 40
0.8638792964
 40
0.8843193052
 40
0.9035193066
 40
0.9215763155
 40
0.9386111908
 40
0.954774817
 40
0.9702498427
 40
0.9852483464
 40
1.0
 40
1.0
 40
1.0
 40
1.0
 10
9.1165913558
 20
6.8626564522
 30
0.0
 10
9.1186147426
 20
6.862656339
 30
0.0
 10
9.1226409746
 20
6.8625856768
 30
0.0
 10
9.1286210368
 20
6.862270419
 30
0.0
 10
9.1344640232
 20
6.8617493161
 30
0.0
 10
9.1401058335
 20
6.8610312107
 30
0.0
 10
9.1454872607
 20
6.8601258253
 30
0.0
 10
9.1497739708
 20
6.8592129899
 30
0.0
 10
9.153029479
 20
6.8583945148
 30
0.0
 10
9.1553375087
 20
6.8577517393
 30
0.0
 10
9.1575446426
 20
6.857072525
 30
0.0
 10
9.1596463394
 20
6.8563587529
 30
0.0
 10
9.1616385092
 20
6.8556123559
 30
0.0
 10
9.1635176146
 20
6.8548355905
 30
0.0
 10
9.1652803715
 20
6.8540304916
 30
0.0
 10
9.1669236848
 20
6.8531989874
 30
0.0
 10
9.168444856
 20
6.8523430507
 30
0.0
 10
9.1698416947
 20
6.8514648216
 30
0.0
 10
9.17111229
 20
6.85056638
 30
0.0
 10
9.1722547182
 20
6.8496495091
 30
0.0
 10
9.1732673102
 20
6.8487160548
 30
0.0
 10
9.1741486597
 20
6.8477678119
 30
0.0
 10
9.174897671
 20
6.8468066511
 30
0.0
 10
9.1755129504
 20
6.8458341154
 30
0.0
 10
9.1759931872
 20
6.8448519493
 30
0.0
 10
9.1763373043
 20
6.8438620361
 30
0.0
 10
9.1765446355
 20
6.8428669664
 30
0.0
 10
9.1765912502
 20
6.8421993319
 30
0.0
 10
9.1765913558
 20
6.8418687086
 30
0.0
  0
SPLINE
  5
4D4
100
AcDbEntity
  8
0
100
AcDbSpline
 62
7
  6
CONTINUOUS
 70
0
 71
3
 72
18
 73
14
 74
0
 42
0.0000001
 43
0.0000001
 44
0.0000000001
 40
0.0
 40
0.0
 40
0.0
 40
0.0
 40
0.0759999784
 40
0.1180534373
 40
0.1632702362
 40
0.2119674912
 40
0.264415391
 40
0.3208362584
 40
0.3813932215
 40
0.5151397404
 40
0.665188609
 40
0.8286990541
 40
1.0
 40
1.0
 40
1.0
 40
1.0
 10
8.9156398631
 20
5.7950568066
 30
0.0
 10
8.9158811654
 20
5.7949302118
 30
0.0
 10
8.9162309808
 20
5.7946836102
 30
0.0
 10
8.9166541343
 20
5.794278569
 30
0.0
 10
8.9169741146
 20
5.7939097686
 30
0.0
 10
8.917283862
 20
5.7934855175
 30
0.0
 10
8.9175816432
 20
5.7930048326
 30
0.0
 10
8.9178652236
 20
5.7924671086
 30
0.0
 10
8.9182332571
 20
5.7916463731
 30
0.0
 10
8.918635041
 20
5.790475948
 30
0.0
 10
8.9189977238
 20
5.7889111714
 30
0.0
 10
8.9192294097
 20
5.7871858489
 30
0.0
 10
8.9192822656
 20
5.7859846897
 30
0.0
 10
8.9192822656
 20
5.7853704987
 30
0.0
  0
SPLINE
  5
4D5
100
AcDbEntity
  8
0
100
AcDbSpline
 62
7
  6
CONTINUOUS
 70
0
 71
3
 72
17
 73
13
 74
0
 42
0.0000001
 43
0.0000001
 44
0.0000000001
 40
0.0
 40
0.0
 40
0.0
 40
0.0
 40
0.0686456124
 40
0.1369773355
 40
0.2047149334
 40
0.2716319737
 40
0.4023043542
 40
0.5286414305
 40
0.6508906392
 40
0.7696853377
 40
0.8857949046
 40
1.0
 40
1.0
 40
1.0
 40
1.0
 10
8.9220351979
 20
5.785370677
 30
0.0
 10
8.9220351979
 20
5.785680273
 30
0.0
 10
8.9220654191
 20
5.7862984769
 30
0.0
 10
8.9222000924
 20
5.7872132555
 30
0.0
 10
8.9224203373
 20
5.788103371
 30
0.0
 10
8.922816892
 20
5.7892339437
 30
0.0
 10
8.9234899689
 20
5.790540513
 30
0.0
 10
8.9245335122
 20
5.7919061119
 30
0.0
 10
8.925749319
 20
5.7930424788
 30
0.0
 10
8.9270891655
 20
5.7939479417
 30
0.0
 10
8.9285148647
 20
5.7946285152
 30
0.0
 10
8.929509988
 20
5.7949398113
 30
0.0
 10
8.9300109681
 20
5.7950594699
 30
0.0
  0
SPLINE
  5
4D6
100
AcDbEntity
  8
0
100
AcDbSpline
 62
7
  6
CONTINUOUS
 70
0
 71
3
 72
16
 73
12
 74
0
 42
0.0000001
 43
0.0000001
 44
0.0000000001
 40
0.0
 40
0.0
 40
0.0
 40
0.0
 40
0.0808626329
 40
0.1248051857
 40
0.1715272467
 40
0.2744387182
 40
0.3916853674
 40
0.5243601209
 40
0.6721220987
 40
0.8324202478
 40
1.0
 40
1.0
 40
1.0
 40
1.0
 10
8.9300109681
 20
5.7950594699
 30
0.0
 10
8.9302802188
 20
5.7949348187
 30
0.0
 10
8.9306734948
 20
5.7946912584
 30
0.0
 10
8.931154495
 20
5.7942846091
 30
0.0
 10
8.9316527792
 20
5.7937770119
 30
0.0
 10
8.9322431883
 20
5.7929900585
 30
0.0
 10
8.9328630651
 20
5.7918491879
 30
0.0
 10
8.9333926883
 20
5.790485681
 30
0.0
 10
8.9338034942
 20
5.7889182041
 30
0.0
 10
8.9340659101
 20
5.7871898149
 30
0.0
 10
8.9341258405
 20
5.7859858353
 30
0.0
 10
8.9341258405
 20
5.7853709437
 30
0.0
  0
SPLINE
  5
4D7
100
AcDbEntity
  8
0
100
AcDbSpline
 62
7
  6
CONTINUOUS
 70
0
 71
3
 72
15
 73
11
 74
0
 42
0.0000001
 43
0.0000001
 44
0.0000000001
 40
0.0
 40
0.0
 40
0.0
 40
0.0
 40
0.139075715
 40
0.2754327075
 40
0.4072693153
 40
0.5339638463
 40
0.6557804472
 40
0.773450354
 40
0.8878798709
 40
1.0
 40
1.0
 40
1.0
 40
1.0
 10
8.9369093478
 20
5.7853707795
 30
0.0
 10
8.9369093478
 20
5.785987603
 30
0.0
 10
8.9370243358
 20
5.787212297
 30
0.0
 10
8.9375249158
 20
5.7889579401
 30
0.0
 10
8.938306071
 20
5.7905358896
 30
0.0
 10
8.9393092183
 20
5.7919021742
 30
0.0
 10
8.9404785756
 20
5.7930394432
 30
0.0
 10
8.9417677988
 20
5.7939459684
 30
0.0
 10
8.9431399572
 20
5.7946274422
 30
0.0
 10
8.9440992897
 20
5.7949396417
 30
0.0
 10
8.9445819072
 20
5.7950594699
 30
0.0
  0
SPLINE
  5
4D8
100
AcDbEntity
  8
0
100
AcDbSpline
 62
7
  6
CONTINUOUS
 70
0
 71
3
 72
15
 73
11
 74
0
 42
0.0000001
 43
0.0000001
 44
0.0000000001
 40
0.0
 40
0.0
 40
0.0
 40
0.0
 40
0.0855122657
 40
0.1794273302
 40
0.2842363326
 40
0.4019028119
 40
0.5335842499
 40
0.6790988013
 40
0.8361789032
 40
1.0
 40
1.0
 40
1.0
 40
1.0
 10
8.9445819072
 20
5.7950594699
 30
0.0
 10
8.9448782708
 20
5.7949359595
 30
0.0
 10
8.9454722846
 20
5.7946062847
 30
0.0
 10
8.9462911567
 20
5.7939131877
 30
0.0
 10
8.9470563414
 20
5.79299763
 30
0.0
 10
8.9477468355
 20
5.7918559265
 30
0.0
 10
8.9483366332
 20
5.7904911927
 30
0.0
 10
8.948794085
 20
5.7889219895
 30
0.0
 10
8.9490862631
 20
5.7871916205
 30
0.0
 10
8.9491529723
 20
5.785985613
 30
0.0
 10
8.9491529723
 20
5.7853705187
 30
0.0
  0
SPLINE
  5
4D9
100
AcDbEntity
  8
0
100
AcDbSpline
 62
7
  6
CONTINUOUS
 70
0
 71
3
 72
15
 73
11
 74
0
 42
0.0000001
 43
0.0000001
 44
0.0000000001
 40
0.0
 40
0.0
 40
0.0
 40
0.0
 40
0.1414958488
 40
0.2798390838
 40
0.4129213422
 40
0.5399858589
 40
0.6613039252
 40
0.7777041381
 40
0.8902375646
 40
1.0
 40
1.0
 40
1.0
 40
1.0
 10
8.951967639
 20
5.7853710029
 30
0.0
 10
8.951967639
 20
5.7859875929
 30
0.0
 10
8.9520774427
 20
5.7872098907
 30
0.0
 10
8.9525557254
 20
5.7889538142
 30
0.0
 10
8.9533026117
 20
5.7905311559
 30
0.0
 10
8.9542624605
 20
5.7918978235
 30
0.0
 10
8.9553820611
 20
5.7930360355
 30
0.0
 10
8.9566170369
 20
5.7939436834
 30
0.0
 10
8.9579318702
 20
5.7946261749
 30
0.0
 10
8.9588529563
 20
5.7949394398
 30
0.0
 10
8.9593159575
 20
5.7950594699
 30
0.0
  0
SPLINE
  5
4DA
100
AcDbEntity
  8
0
100
AcDbSpline
 62
7
  6
CONTINUOUS
 70
0
 71
3
 72
15
 73
11
 74
0
 42
0.0000001
 43
0.0000001
 44
0.0000000001
 40
0.0
 40
0.0
 40
0.0
 40
0.0
 40
0.0898705718
 40
0.1869954867
 40
0.2936782572
 40
0.4118093839
 40
0.5425730475
 40
0.6859223716
 40
0.8398627553
 40
1.0
 40
1.0
 40
1.0
 40
1.0
 10
8.9593159575
 20
5.7950594699
 30
0.0
 10
8.9596387497
 20
5.794936847
 30
0.0
 10
8.9602851807
 20
5.7946110257
 30
0.0
 10
8.9611841729
 20
5.7939196341
 30
0.0
 10
8.9620250427
 20
5.793004792
 30
0.0
 10
8.962784232
 20
5.7918628795
 30
0.0
 10
8.9634328121
 20
5.7904972147
 30
0.0
 10
8.963935902
 20
5.7889264881
 30
0.0
 10
8.9642572493
 20
5.7871941878
 30
0.0
 10
8.9643306863
 20
5.7859860914
 30
0.0
 10
8.9643306863
 20
5.7853708158
 30
0.0
  0
SPLINE
  5
4DB
100
AcDbEntity
  8
0
100
AcDbSpline
 62
7
  6
CONTINUOUS
 70
0
 71
3
 72
18
 73
14
 74
0
 42
0.0000001
 43
0.0000001
 44
0.0000000001
 40
0.0
 40
0.0
 40
0.0
 40
0.0
 40
0.0723430359
 40
0.1441999495
 40
0.215132948
 40
0.2847838256
 40
0.4191921066
 40
0.5466402081
 40
0.6078567764
 40
0.6674928658
 40
0.7824745091
 40
0.8928853698
 40
1.0
 40
1.0
 40
1.0
 40
1.0
 10
8.9671687976
 20
5.7853707363
 30
0.0
 10
8.9671687976
 20
5.7856802466
 30
0.0
 10
8.9671952744
 20
5.7862975182
 30
0.0
 10
8.9673132974
 20
5.7872114005
 30
0.0
 10
8.9675063327
 20
5.7881007575
 30
0.0
 10
8.9678527097
 20
5.7892263353
 30
0.0
 10
8.9684382513
 20
5.7905258903
 30
0.0
 10
8.9692102244
 20
5.7916804479
 30
0.0
 10
8.9699060917
 20
5.7924845164
 30
0.0
 10
8.9706264565
 20
5.7931923142
 30
0.0
 10
8.9715961647
 20
5.793941056
 30
0.0
 10
8.9728499721
 20
5.7946246282
 30
0.0
 10
8.9737305234
 20
5.7949391927
 30
0.0
 10
8.9741727341
 20
5.7950594699
 30
0.0
  0
SPLINE
  5
4DC
100
AcDbEntity
  8
0
100
AcDbSpline
 62
7
  6
CONTINUOUS
 70
0
 71
3
 72
15
 73
11
 74
0
 42
0.0000001
 43
0.0000001
 44
0.0000000001
 40
0.0
 40
0.0
 40
0.0
 40
0.0
 40
0.0939264681
 40
0.1940976337
 40
0.3026100542
 40
0.4212469684
 40
0.5511855454
 40
0.6924880573
 40
0.8434167241
 40
1.0
 40
1.0
 40
1.0
 40
1.0
 10
8.9741727341
 20
5.7950594699
 30
0.0
 10
8.9745212128
 20
5.7949375421
 30
0.0
 10
8.9752182842
 20
5.7946148945
 30
0.0
 10
8.9761945153
 20
5.793925241
 30
0.0
 10
8.9771085224
 20
5.7930113913
 30
0.0
 10
8.9779343055
 20
5.791869589
 30
0.0
 10
8.9786400326
 20
5.7905032148
 30
0.0
 10
8.9791875815
 20
5.7889310358
 30
0.0
 10
8.9795373831
 20
5.7871967384
 30
0.0
 10
8.9796173816
 20
5.78598642
 30
0.0
 10
8.9796173816
 20
5.7853709438
 30
0.0
  0
SPLINE
  5
4DD
100
AcDbEntity
  8
0
100
AcDbSpline
 62
7
  6
CONTINUOUS
 70
0
 71
3
 72
18
 73
14
 74
0
 42
0.0000001
 43
0.0000001
 44
0.0000000001
 40
0.0
 40
0.0
 40
0.0
 40
0.0
 40
0.1499001796
 40
0.2952119025
 40
0.3651349578
 40
0.4328746661
 40
0.4983307658
 40
0.5614974515
 40
0.6811881778
 40
0.7931245235
 40
0.8466919293
 40
0.8988999598
 40
1.0
 40
1.0
 40
1.0
 40
1.0
 10
8.9978413558
 20
5.7853705119
 30
0.0
 10
8.9978413558
 20
5.7859858854
 30
0.0
 10
8.997933632
 20
5.7871997382
 30
0.0
 10
8.9982742666
 20
5.788665797
 30
0.0
 10
8.9986673566
 20
5.7897600123
 30
0.0
 10
8.9990093608
 20
5.7905214292
 30
0.0
 10
8.9993961942
 20
5.791229637
 30
0.0
 10
8.9999537755
 20
5.7920840109
 30
0.0
 10
9.0007318063
 20
5.7930180246
 30
0.0
 10
9.0016202252
 20
5.7937890392
 30
0.0
 10
9.0023639045
 20
5.794286502
 30
0.0
 10
9.0031069909
 20
5.7946990742
 30
0.0
 10
9.0036944546
 20
5.7949354553
 30
0.0
 10
9.0040913558
 20
5.7950568066
 30
0.0
  0
SPLINE
  5
4DE
100
AcDbEntity
  8
0
100
AcDbSpline
 62
7
  6
CONTINUOUS
 70
0
 71
3
 72
15
 73
11
 74
0
 42
0.0000001
 43
0.0000001
 44
0.0000000001
 40
0.0
 40
0.0
 40
0.0
 40
0.0
 40
0.0976752209
 40
0.2007087907
 40
0.3109837918
 40
0.4301528173
 40
0.5593576853
 40
0.6987443156
 40
0.8468124012
 40
1.0
 40
1.0
 40
1.0
 40
1.0
 10
8.9891115156
 20
5.7950594699
 30
0.0
 10
8.98948487
 20
5.7949380902
 30
0.0
 10
8.9902307843
 20
5.7946180491
 30
0.0
 10
8.9912812794
 20
5.7939300426
 30
0.0
 10
8.9922656878
 20
5.793017312
 30
0.0
 10
8.9931557336
 20
5.7918758313
 30
0.0
 10
8.9939167597
 20
5.7905089069
 30
0.0
 10
8.9945074174
 20
5.7889353051
 30
0.0
 10
8.9948848484
 20
5.7871989077
 30
0.0
 10
8.9949711584
 20
5.7859862176
 30
0.0
 10
8.9949711584
 20
5.7853705053
 30
0.0
  0
SPLINE
  5
4DF
100
AcDbEntity
  8
0
100
AcDbSpline
 62
7
  6
CONTINUOUS
 70
0
 71
3
 72
17
 73
13
 74
0
 42
0.0000001
 43
0.0000001
 44
0.0000000001
 40
0.0
 40
0.0
 40
0.0
 40
0.0
 40
0.1469141516
 40
0.2191101902
 40
0.2898513245
 40
0.4257848877
 40
0.5537458488
 40
0.6148270422
 40
0.6740770533
 40
0.7875923629
 40
0.895744292
 40
1.0
 40
1.0
 40
1.0
 40
1.0
 10
8.9824711584
 20
5.7853709177
 30
0.0
 10
8.9824711584
 20
5.785987057
 30
0.0
 10
8.9825457772
 20
5.7869083044
 30
0.0
 10
8.9827909749
 20
5.7880998982
 30
0.0
 10
8.9831187538
 20
5.7892237641
 30
0.0
 10
8.9836719621
 20
5.7905205369
 30
0.0
 10
8.9844042953
 20
5.7916774442
 30
0.0
 10
8.9850653236
 20
5.792483355
 30
0.0
 10
8.9857467995
 20
5.793189839
 30
0.0
 10
8.9866641586
 20
5.7939379597
 30
0.0
 10
8.9878534929
 20
5.7946228269
 30
0.0
 10
8.9886912335
 20
5.7949388981
 30
0.0
 10
8.9891115156
 20
5.7950594699
 30
0.0
  0
ENDSEC
  0
SECTION
  2
OBJECTS
  0
DICTIONARY
  5
C
100
AcDbDictionary
280
0
281
1
  3
ACAD_GROUP
350
D
  3
ACAD_MLINESTYLE
350
17
  3
ACAD_LAYOUT
350
1A
  3
ACAD_PLOTSETTINGS
350
19
  3
ACAD_PLOTSTYLENAME
350
E
  0
DICTIONARY
  5
D
102
{ACAD_REACTORS
330
C
102
}
100
AcDbDictionary
280
0
281
1
  0
ACDBDICTIONARYWDFLT
  5
E
102
{ACAD_REACTORS
330
C
102
}
100
AcDbDictionary
281
1
  3
Normal
350
F
100
AcDbDictionaryWithDefault
340
F
  0
DICTIONARY
  5
17
102
{ACAD_REACTORS
330
C
102
}
100
AcDbDictionary
280
0
281
1
  3
Standard
350
18
  0
DICTIONARY
  5
19
102
{ACAD_REACTORS
330
C
102
}
100
AcDbDictionary
281
1
  0
DICTIONARY
  5
1A
102
{ACAD_REACTORS
330
C
102
}
100
AcDbDictionary
281
1
  3
Model
350
4E0
  3
Layout1
350
4E1
  0
ACDBPLACEHOLDER
  5
F
102
{ACAD_REACTORS
330
E
102
}
  0
MLINESTYLE
  5
18
102
{ACAD_REACTORS
330
17
102
}
100
AcDbMlineStyle
  2
STANDARD
 70
0
  3

 62
256
 51
90.0
 52
90.0
 71
2
 49
0.5
 62
256
  6
BYLAYER
 49
-0.5
 62
256
  6
BYLAYER
  0
LAYOUT
  5
4E0
102
{ACAD_REACTORS
330
1A
102
}
100
AcDbPlotSettings
  1

  2
none_device
  4
ANSI_A_(11.00_x_8.50_Inches)
  6

 40
0.0
 41
0.0
 42
0.0
 43
0.0
 44
279.4
 45
215.9
 46
0.0
 47
0.0
 48
0.0
 49
0.0
140
0.0
141
0.0
142
1.0
143
1.0
 70
1024
 72
0
 73
0
 74
0
  7

 75
0
147
1.0
148
0.0
149
0.0
100
AcDbLayout
  1
Model
 70
0
 71
0
 10
0.0
 20
0.0
 11
11.0
 21
8.5
 12
0.0
 22
0.0
 32
0.0
 14
0.0
 24
0.0
 34
0.0
 15
0.0
 25
0.0
 35
0.0
146
0.0
 13
0.0
 23
0.0
 33
0.0
 16
1.0
 26
0.0
 36
0.0
 17
0.0
 27
1.0
 37
0.0
 76
0
330
202
345
0
346
0
  0
LAYOUT
  5
4E1
102
{ACAD_REACTORS
330
1A
102
}
100
AcDbPlotSettings
  1

  2
none_device
  4
ANSI_A_(11.00_x_8.50_Inches)
  6

 40
0.0
 41
0.0
 42
0.0
 43
0.0
 44
279.4
 45
215.9
 46
0.0
 47
0.0
 48
0.0
 49
0.0
140
0.0
141
0.0
142
1.0
143
1.0
 70
0
 72
0
 73
0
 74
0
  7

 75
0
147
1.0
148
0.0
149
0.0
100
AcDbLayout
  1
Layout1
 70
0
 71
1
 10
0.0
 20
0.0
 11
11.0
 21
8.5
 12
0.0
 22
0.0
 32
0.0
 14
0.0
 24
0.0
 34
0.0
 15
0.0
 25
0.0
 35
0.0
146
0.0
 13
0.0
 23
0.0
 33
0.0
 16
1.0
 26
0.0
 36
0.0
 17
0.0
 27
1.0
 37
0.0
 76
0
330
203
345
0
346
0
  0
ENDSEC
  0
EOF
