999
DXF file: 2470-5462_side.dxf
999
Pro/ENGINEER 2018400 by Parametric Technology Corporation
  0
SECTION
  2
HEADER
  9
$ACADVER
  1
AC1027
  9
$DWGCODEPAGE
  3
ANSI_1252
  9
$EXTMAX
 10
11.0
 20
8.5
 30
0.0
  9
$EXTMIN
 10
0.0
 20
0.0
 30
0.0
  9
$LIMMIN
 10
0.0
 20
0.0
  9
$LIMMAX
 10
11.0
 20
8.5
  9
$VIEWCTR
 10
5.5
 20
4.25
  9
$VIEWSIZE
 40
8.5
  9
$CLAYER
  8
0
  9
$LTSCALE
 40
0.605
  9
$CELTYPE
  6
BYLAYER
  9
$DIMSCALE
 40
1.0
  9
$DIMASZ
 40
0.1
  9
$DIMEXO
 40
0.0625
  9
$DIMDLI
 40
0.418
  9
$DIMEXE
 40
0.125
  9
$DIMCEN
 40
0.099
  9
$DIMLFAC
 40
1.0
  9
$DIMBLK
  1
_FILLED
  9
$DIMALT
 70
1
  9
$DIMALTD
 70
2
  9
$DIMALTTD
 70
2
  9
$DIMALTF
 40
25.4
  9
$DIMTXT
 40
0.08
  9
$DIMTOL
 70
1
  9
$DIMLIM
 70
0
  9
$DIMTFAC
 40
1.0
  9
$DIMTP
 40
0.001
  9
$DIMTM
 40
0.001
  9
$DIMGAP
 40
0.09
  9
$DIMDSEP
 70
46
  9
$AUNITS
 70
0
  9
$PDMODE
 70
3
  9
$PDSIZE
 40
0.06
  9
$HANDSEED
  5
32F
  9
$TILEMODE
 70
1
  9
$MEASUREMENT
 70
0
  9
$INSUNITS
 70
1
  0
ENDSEC
  0
SECTION
  2
CLASSES
  0
CLASS
  1
ACDBDICTIONARYWDFLT
  2
AcDbDictionaryWithDefault
  3
AutoCAD 2000
 90
0
 91
1
280
0
281
0
  0
CLASS
  1
ACDBPLACEHOLDER
  2
AcDbPlaceHolder
  3
AutoCAD 2000
 90
0
 91
1
280
0
281
0
  0
CLASS
  1
LAYOUT
  2
AcDbLayout
  3
AutoCAD 2000
 90
0
 91
0
280
0
281
0
  0
ENDSEC
  0
SECTION
  2
TABLES
  0
TABLE
  2
VPORT
  5
8
100
AcDbSymbolTable
 70
2
  0
VPORT
  5
1F4
100
AcDbSymbolTableRecord
100
AcDbViewportTableRecord
  2
*ACTIVE
 70
0
 10
0.0
 20
0.0
 11
1.0
 21
1.0
 12
5.5
 22
4.25
 13
0.0
 23
0.0
 14
1.0
 24
1.0
 15
0.0
 25
0.0
 16
0.0
 26
0.0
 36
1.0
 17
0.0
 27
0.0
 37
0.0
 40
8.5
 41
1.2941176471
 42
50.0
 43
0.0
 44
0.0
 50
0.0
 51
0.0
 71
0
 72
100
 73
1
 74
1
 75
0
 76
0
 77
0
 78
0
  0
ENDTAB
  0
TABLE
  2
LTYPE
  5
5
100
AcDbSymbolTable
 70
6
  0
LTYPE
  5
14
100
AcDbSymbolTableRecord
100
AcDbLinetypeTableRecord
  2
BYBLOCK
 70
0
  3

 72
65
 73
0
 40
0.0
  0
LTYPE
  5
15
100
AcDbSymbolTableRecord
100
AcDbLinetypeTableRecord
  2
BYLAYER
 70
0
  3

 72
65
 73
0
 40
0.0
  0
LTYPE
  5
16
100
AcDbSymbolTableRecord
100
AcDbLinetypeTableRecord
  2
CONTINUOUS
 70
64
  3
Solid line
 72
65
 73
0
 40
0.0
  0
LTYPE
  5
1F5
100
AcDbSymbolTableRecord
100
AcDbLinetypeTableRecord
  2
CENTER
 70
64
  3
____ _ ____ _ ____ _ ____ _ ____ _ ____ _ ____
 72
65
 73
4
 40
0.6
 49
0.375
 74
0
 49
-0.075
 74
0
 49
0.075
 74
0
 49
-0.075
 74
0
  0
LTYPE
  5
1F6
100
AcDbSymbolTableRecord
100
AcDbLinetypeTableRecord
  2
HIDDEN
 70
64
  3
- - - - - - - - - - - - - - - - - - - -
 72
65
 73
2
 40
0.2
 49
0.1
 74
0
 49
-0.1
 74
0
  0
LTYPE
  5
1F7
100
AcDbSymbolTableRecord
100
AcDbLinetypeTableRecord
  2
PHANTOM
 70
64
  3
_____ _ _ _____ _ _ _____ _ _ _____
 72
65
 73
6
 40
0.8
 49
0.45
 74
0
 49
-0.05
 74
0
 49
0.1
 74
0
 49
-0.05
 74
0
 49
0.1
 74
0
 49
-0.05
 74
0
  0
LTYPE
  5
1F8
100
AcDbSymbolTableRecord
100
AcDbLinetypeTableRecord
  2
DOT
 70
64
  3
. . . . . . . . . . . . . . . . . . . .
 72
65
 73
2
 40
0.2
 49
0.1
 74
0
 49
-0.1
 74
0
  0
LTYPE
  5
1F9
100
AcDbSymbolTableRecord
100
AcDbLinetypeTableRecord
  2
DASHED
 70
64
  3
- - - - - - - - - - - - - - - - - - - -
 72
65
 73
2
 40
0.2
 49
0.1
 74
0
 49
-0.1
 74
0
  0
ENDTAB
  0
TABLE
  2
LAYER
  5
2
100
AcDbSymbolTable
 70
36
  0
LAYER
  5
10
100
AcDbSymbolTableRecord
100
AcDbLayerTableRecord
  2
0
 70
0
 62
7
  6
CONTINUOUS
370
-3
390
F
  0
LAYER
  5
1FA
100
AcDbSymbolTableRecord
100
AcDbLayerTableRecord
  2
DEFAULT_1
 70
0
 62
7
  6
CENTER
370
-3
390
F
  0
LAYER
  5
1FB
100
AcDbSymbolTableRecord
100
AcDbLayerTableRecord
  2
DEFAULT_2
 70
0
 62
8
  6
HIDDEN
370
-3
390
F
  0
LAYER
  5
1FC
100
AcDbSymbolTableRecord
100
AcDbLayerTableRecord
  2
DEFAULT_3
 70
0
 62
7
  6
PHANTOM
370
-3
390
F
  0
LAYER
  5
1FD
100
AcDbSymbolTableRecord
100
AcDbLayerTableRecord
  2
DEFAULT_COORDINATE_SYSTEM
 70
0
 62
7
  6
CONTINUOUS
370
-3
390
F
  0
LAYER
  5
1FE
100
AcDbSymbolTableRecord
100
AcDbLayerTableRecord
  2
DEFAULT_DATUM_AXES
 70
0
 62
7
  6
CONTINUOUS
370
-3
390
F
  0
LAYER
  5
1FF
100
AcDbSymbolTableRecord
100
AcDbLayerTableRecord
  2
DEFAULT_DATUM_PLANES
 70
0
 62
7
  6
CONTINUOUS
370
-3
390
F
  0
ENDTAB
  0
TABLE
  2
STYLE
  5
3
100
AcDbSymbolTable
 70
1
  0
STYLE
  5
11
100
AcDbSymbolTableRecord
100
AcDbTextStyleTableRecord
  2
STANDARD
 70
0
 40
0.0
 41
0.8
 50
0.0
 71
0
 42
0.2
  3
txt
  4

  0
STYLE
  5
200
100
AcDbSymbolTableRecord
100
AcDbTextStyleTableRecord
  2
TEXTSTYLE_1
 70
0
 40
0.0
 41
0.8
 50
0.0
 71
0
 42
0.2
  3
gdt
  4

  0
ENDTAB
  0
TABLE
  2
VIEW
  5
6
100
AcDbSymbolTable
 70
0
  0
ENDTAB
  0
TABLE
  2
UCS
  5
7
100
AcDbSymbolTable
 70
0
  0
ENDTAB
  0
TABLE
  2
APPID
  5
9
100
AcDbSymbolTable
 70
1
  0
APPID
  5
201
100
AcDbSymbolTableRecord
100
AcDbRegAppTableRecord
  2
ACAD
 70
0
  0
ENDTAB
  0
TABLE
  2
BLOCK_RECORD
  5
1
100
AcDbSymbolTable
 70
0
  0
BLOCK_RECORD
  5
202
100
AcDbSymbolTableRecord
100
AcDbBlockTableRecord
  2
*Model_Space
  0
BLOCK_RECORD
  5
203
100
AcDbSymbolTableRecord
100
AcDbBlockTableRecord
  2
*Paper_Space
  0
BLOCK_RECORD
  5
204
100
AcDbSymbolTableRecord
100
AcDbBlockTableRecord
  2
_FILLED
  0
ENDTAB
  0
TABLE
  2
DIMSTYLE
  5
A
100
AcDbSymbolTable
 70
1
100
AcDbDimStyleTable
 71
0
  0
DIMSTYLE
105
205
100
AcDbSymbolTableRecord
100
AcDbDimStyleTableRecord
  2
STANDARD
 70
0
  3

  4

 40
1.0
 41
0.1
 42
0.0625
 43
0.38
 44
0.125
 45
0.0
 46
0.0
 47
0.001
 48
0.001
140
0.08
141
0.09
142
0.0
143
25.4
144
1.0
145
0.0
146
1.0
147
0.09
 71
1.0
 72
0.0
 73
1
 74
1
 75
0
 76
0
 77
0
 78
4
 79
1
170
1
171
2
172
0
173
0
174
0
175
0
176
0
177
0
178
0
270
2
179
3
271
3
272
3
273
2
274
2
275
0
280
0
281
0
282
0
283
1
284
4
285
0
286
0
287
3
288
0
340
11
278
46
341
204
342
204
343
204
344
204
  0
ENDTAB
  0
ENDSEC
  0
SECTION
  2
BLOCKS
  0
BLOCK
  5
20
100
AcDbEntity
  8
0
100
AcDbBlockBegin
  2
*Model_Space
 70
0
 10
0.0
 20
0.0
 30
0.0
  3
*Model_Space
  1

  0
ENDBLK
  5
21
100
AcDbEntity
  8
0
100
AcDbBlockEnd
  0
BLOCK
  5
1C
100
AcDbEntity
  8
0
100
AcDbBlockBegin
  2
*Paper_Space
 70
0
 10
0.0
 20
0.0
 30
0.0
  3
*Paper_Space
  1

  0
ENDBLK
  5
1D
100
AcDbEntity
  8
0
100
AcDbBlockEnd
  0
BLOCK
  5
206
100
AcDbEntity
  8
0
100
AcDbBlockBegin
  2
_FILLED
 70
64
 10
0.0
 20
0.0
  3
_FILLED
  1

  0
SOLID
  5
207
100
AcDbEntity
  8
0
  6
BYBLOCK
 62
0
100
AcDbTrace
 10
0.0
 20
0.0
 11
-1.0
 21
0.2
 12
-1.0
 22
-0.2
 13
-1.0
 23
-0.2
  0
ENDBLK
  5
208
100
AcDbEntity
  8
0
  6
BYBLOCK
 62
0
100
AcDbBlockEnd
  0
ENDSEC
  0
SECTION
  2
ENTITIES
  0
MTEXT
  5
209
100
AcDbEntity
  8
0
100
AcDbMText
 62
2
  6
CONTINUOUS
  7
STANDARD
 71
3
 72
1
 10
5.1737510918
 20
0.2445857638
 30
0.0
 11
1.0
 21
0.0
 31
0.0
 73
2
 44
0.9
  1
SCALE  .500
 40
0.08
 41
0.704
  0
LINE
  5
20A
100
AcDbEntity
  8
0
100
AcDbLine
 62
7
  6
CONTINUOUS
 10
0.0
 20
0.0
 11
0.0
 21
8.5
  0
LINE
  5
20B
100
AcDbEntity
  8
0
100
AcDbLine
 62
7
  6
CONTINUOUS
 10
0.0
 20
0.0
 11
11.0
 21
0.0
  0
LINE
  5
20C
100
AcDbEntity
  8
0
100
AcDbLine
 62
7
  6
CONTINUOUS
 10
0.0
 20
8.5
 11
11.0
 21
8.5
  0
LINE
  5
20D
100
AcDbEntity
  8
0
100
AcDbLine
 62
7
  6
CONTINUOUS
 10
11.0
 20
0.0
 11
11.0
 21
8.5
  0
LINE
  5
20E
100
AcDbEntity
  8
0
100
AcDbLine
 62
7
  6
CONTINUOUS
 10
7.7754341854
 20
0.3395857638
 11
6.5979882521
 21
0.3395857638
  0
LINE
  5
20F
100
AcDbEntity
  8
0
100
AcDbLine
 62
9
  6
CONTINUOUS
 10
7.7877223917
 20
0.3631882988
 11
6.5857000458
 21
0.3631882988
  0
LINE
  5
210
100
AcDbEntity
  8
0
100
AcDbLine
 62
7
  6
CONTINUOUS
 10
7.6817112196
 20
0.4645857632
 11
6.6917112179
 21
0.4645857632
  0
LINE
  5
211
100
AcDbEntity
  8
0
100
AcDbLine
 62
9
  6
CONTINUOUS
 10
7.7016057484
 20
0.4934846526
 11
6.6718166891
 21
0.4934846526
  0
LINE
  5
212
100
AcDbEntity
  8
0
100
AcDbLine
 62
9
  6
CONTINUOUS
 10
7.6838595065
 20
0.5939350785
 11
6.689562931
 21
0.5939350785
  0
LINE
  5
213
100
AcDbEntity
  8
0
100
AcDbLine
 62
7
  6
CONTINUOUS
 10
7.6592407441
 20
0.6145857638
 11
6.7141816934
 21
0.6145857638
  0
LINE
  5
214
100
AcDbEntity
  8
0
100
AcDbLine
 62
9
  6
CONTINUOUS
 10
7.6498951063
 20
0.6314145094
 11
6.7235273312
 21
0.6314145094
  0
LINE
  5
215
100
AcDbEntity
  8
0
100
AcDbLine
 62
9
  6
CONTINUOUS
 10
6.7957019228
 20
0.8478204164
 11
7.5777205147
 21
0.8478204164
  0
LINE
  5
216
100
AcDbEntity
  8
0
100
AcDbLine
 62
9
  6
CONTINUOUS
 10
6.7951161838
 20
0.8886685796
 11
7.5783062537
 21
0.8886685796
  0
LINE
  5
217
100
AcDbEntity
  8
0
100
AcDbLine
 62
9
  6
CONTINUOUS
 10
7.5604612187
 20
0.9461362426
 11
6.8129612187
 21
0.9461362426
  0
LINE
  5
218
100
AcDbEntity
  8
0
100
AcDbLine
 62
9
  6
CONTINUOUS
 10
7.5367112187
 20
0.9826867214
 11
6.8367112187
 21
0.9826867214
  0
LINE
  5
219
100
AcDbEntity
  8
0
100
AcDbLine
 62
9
  6
CONTINUOUS
 10
6.8367112187
 20
1.3874374311
 11
7.5367112187
 21
1.3874374311
  0
LINE
  5
21A
100
AcDbEntity
  8
0
100
AcDbLine
 62
7
  6
CONTINUOUS
 10
2.6567570848
 20
4.430416287
 11
2.6577167124
 21
4.4452557898
  0
LINE
  5
21B
100
AcDbEntity
  8
0
100
AcDbLine
 62
7
  6
CONTINUOUS
 10
2.6703904435
 20
4.4433164365
 11
2.6694308159
 21
4.4284769337
  0
LINE
  5
21C
100
AcDbEntity
  8
0
100
AcDbLine
 62
7
  6
CONTINUOUS
 10
2.7068829976
 20
4.437732291
 11
2.70592337
 21
4.4228927882
  0
LINE
  5
21D
100
AcDbEntity
  8
0
100
AcDbLine
 62
7
  6
CONTINUOUS
 10
2.849990461
 20
5.9995562621
 11
2.8216290572
 21
5.8142136583
  0
LINE
  5
21E
100
AcDbEntity
  8
0
100
AcDbLine
 62
7
  6
CONTINUOUS
 10
2.8233141205
 20
5.7987812067
 11
2.8252048807
 21
5.8111373803
  0
LINE
  5
21F
100
AcDbEntity
  8
0
100
AcDbLine
 62
7
  6
CONTINUOUS
 10
2.8599331953
 20
5.8083523015
 11
2.8595550433
 21
5.8058810668
  0
LINE
  5
220
100
AcDbEntity
  8
0
100
AcDbLine
 62
9
  6
CONTINUOUS
 10
6.8129612187
 20
1.4239879099
 11
7.5604612187
 21
1.4239879099
  0
LINE
  5
221
100
AcDbEntity
  8
0
100
AcDbLine
 62
7
  6
CONTINUOUS
 10
6.801711195
 20
1.4895857638
 11
7.5717112425
 21
1.4895857638
  0
LINE
  5
222
100
AcDbEntity
  8
0
100
AcDbLine
 62
7
  6
CONTINUOUS
 10
2.7627928343
 20
4.4291768837
 11
2.7618332067
 21
4.4143373809
  0
LINE
  5
223
100
AcDbEntity
  8
0
100
AcDbLine
 62
7
  6
CONTINUOUS
 10
2.8313764019
 20
4.4186821231
 11
2.8304167743
 21
4.4038426203
  0
LINE
  5
224
100
AcDbEntity
  8
0
100
AcDbLine
 62
7
  6
CONTINUOUS
 10
2.9043615102
 20
4.4075138322
 11
2.9034018826
 21
4.3926743294
  0
LINE
  5
225
100
AcDbEntity
  8
0
100
AcDbLine
 62
7
  6
CONTINUOUS
 10
2.9729450779
 20
4.3970190716
 11
2.9719854503
 21
4.3821795688
  0
LINE
  5
226
100
AcDbEntity
  8
0
100
AcDbLine
 62
7
  6
CONTINUOUS
 10
3.0288549145
 20
4.3884636643
 11
3.0278952869
 21
4.3736241615
  0
LINE
  5
227
100
AcDbEntity
  8
0
100
AcDbLine
 62
7
  6
CONTINUOUS
 10
2.7609698948
 20
4.4294558327
 11
2.7574479934
 21
4.4150084129
  0
LINE
  5
228
100
AcDbEntity
  8
0
100
AcDbLine
 62
7
  6
CONTINUOUS
 10
2.8168797314
 20
4.4209004255
 11
2.8133578301
 21
4.4064530056
  0
LINE
  5
229
100
AcDbEntity
  8
0
100
AcDbLine
 62
7
  6
CONTINUOUS
 10
2.8854632991
 20
4.4104056648
 11
2.8819413977
 21
4.395958245
  0
LINE
  5
22A
100
AcDbEntity
  8
0
100
AcDbLine
 62
7
  6
CONTINUOUS
 10
2.9584484074
 20
4.3992373739
 11
2.954926506
 21
4.3847899541
  0
LINE
  5
22B
100
AcDbEntity
  8
0
100
AcDbLine
 62
7
  6
CONTINUOUS
 10
3.027031975
 20
4.3887426133
 11
3.0235100737
 21
4.3742951934
  0
LINE
  5
22C
100
AcDbEntity
  8
0
100
AcDbLine
 62
7
  6
CONTINUOUS
 10
3.4217358052
 20
5.9640348691
 11
3.4221499046
 21
5.9651146664
  0
LINE
  5
22D
100
AcDbEntity
  8
0
100
AcDbLine
 62
7
  6
CONTINUOUS
 10
3.3467664346
 20
5.7338563475
 11
3.3463882825
 21
5.7313851128
  0
LINE
  5
22E
100
AcDbEntity
  8
0
100
AcDbLine
 62
7
  6
CONTINUOUS
 10
3.3807384451
 20
5.7261287993
 11
3.3788476848
 21
5.7137726257
  0
LINE
  5
22F
100
AcDbEntity
  8
0
100
AcDbLine
 62
7
  6
CONTINUOUS
 10
3.3850705727
 20
5.7279949908
 11
3.4208123977
 21
5.9615688633
  0
LINE
  5
230
100
AcDbEntity
  8
0
100
AcDbLine
 62
7
  6
CONTINUOUS
 10
3.0829418117
 20
4.380187206
 11
3.0794199103
 21
4.3657397862
  0
LINE
  5
231
100
AcDbEntity
  8
0
100
AcDbLine
 62
7
  6
CONTINUOUS
 10
3.1194343658
 20
4.3746030606
 11
3.1159124645
 21
4.3601556407
  0
LINE
  5
232
100
AcDbEntity
  8
0
100
AcDbLine
 62
7
  6
CONTINUOUS
 10
3.1285861955
 20
4.3582162874
 11
3.1321080969
 21
4.3726637072
  0
LINE
  5
233
100
AcDbEntity
  8
0
100
AcDbLine
 62
7
  6
CONTINUOUS
 10
6.8617426003
 20
2.0839469283
 11
6.8567114845
 21
2.0839469283
  0
LINE
  5
234
100
AcDbEntity
  8
0
100
AcDbLine
 62
7
  6
CONTINUOUS
 10
7.5116798372
 20
2.0839469283
 11
7.516710953
 21
2.0839469283
  0
LINE
  5
235
100
AcDbEntity
  8
0
100
AcDbLine
 62
7
  6
CONTINUOUS
 10
7.4742112187
 20
2.1171701824
 11
6.8992112187
 21
2.1171701824
  0
LINE
  5
236
100
AcDbEntity
  8
0
100
AcDbLine
 62
9
  6
CONTINUOUS
 10
7.53920591
 20
2.1570224308
 11
7.4975420544
 21
2.1570224308
  0
LINE
  5
237
100
AcDbEntity
  8
0
100
AcDbLine
 62
9
  6
CONTINUOUS
 10
6.8758803831
 20
2.1570224308
 11
6.8342165275
 21
2.1570224308
  0
LINE
  5
238
100
AcDbEntity
  8
0
100
AcDbLine
 62
9
  6
CONTINUOUS
 10
7.487979152
 20
2.1705745556
 11
6.8854432855
 21
2.1705745556
  0
LINE
  5
239
100
AcDbEntity
  8
0
100
AcDbLine
 62
9
  6
CONTINUOUS
 10
7.5218980267
 20
2.1861286694
 11
7.4761925279
 21
2.1861286694
  0
LINE
  5
23A
100
AcDbEntity
  8
0
100
AcDbLine
 62
9
  6
CONTINUOUS
 10
6.8972299096
 20
2.1861286694
 11
6.8515244108
 21
2.1861286694
  0
LINE
  5
23B
100
AcDbEntity
  8
0
100
AcDbLine
 62
9
  6
CONTINUOUS
 10
7.4730535451
 20
2.1997714004
 11
6.9003688924
 21
2.1997714004
  0
LINE
  5
23C
100
AcDbEntity
  8
0
100
AcDbLine
 62
9
  6
CONTINUOUS
 10
3.484463367
 20
4.8993829363
 11
3.4821533124
 21
5.3839179102
  0
LINE
  5
23D
100
AcDbEntity
  8
0
100
AcDbLine
 62
7
  6
CONTINUOUS
 10
3.5137192635
 20
4.9023869606
 11
3.5114365032
 21
5.3811969529
  0
LINE
  5
23E
100
AcDbEntity
  8
0
100
AcDbLine
 62
9
  6
CONTINUOUS
 10
3.5154977262
 20
4.992347847
 11
3.5157582255
 21
4.9377080148
  0
LINE
  5
23F
100
AcDbEntity
  8
0
100
AcDbLine
 62
7
  6
CONTINUOUS
 10
3.5174682808
 20
4.941827467
 11
3.5172469824
 21
4.9882448873
  0
LINE
  5
240
100
AcDbEntity
  8
0
100
AcDbLine
 62
7
  6
CONTINUOUS
 10
3.5157582255
 20
4.9377080148
 11
3.5135614416
 21
4.9354901839
  0
LINE
  5
241
100
AcDbEntity
  8
0
100
AcDbLine
 62
9
  6
CONTINUOUS
 10
7.4502990916
 20
2.6522531099
 11
6.9231233459
 21
2.6522531099
  0
LINE
  5
242
100
AcDbEntity
  8
0
100
AcDbLine
 62
9
  6
CONTINUOUS
 10
7.4610843862
 20
2.6816381454
 11
6.9123380513
 21
2.6816381454
  0
LINE
  5
243
100
AcDbEntity
  8
0
100
AcDbLine
 62
7
  6
CONTINUOUS
 10
7.4392112187
 20
2.7321701824
 11
6.9342112187
 21
2.7321701824
  0
LINE
  5
244
100
AcDbEntity
  8
0
100
AcDbLine
 62
7
  6
CONTINUOUS
 10
7.3742112187
 20
2.7821701824
 11
6.9992112187
 21
2.7821701824
  0
LINE
  5
245
100
AcDbEntity
  8
0
100
AcDbLine
 62
7
  6
CONTINUOUS
 10
7.3404609032
 20
2.7926701824
 11
7.0329615343
 21
2.7926701824
  0
LINE
  5
246
100
AcDbEntity
  8
0
100
AcDbLine
 62
7
  6
CONTINUOUS
 10
7.0242112187
 20
2.8926701824
 11
7.3492112187
 21
2.8926701824
  0
LINE
  5
247
100
AcDbEntity
  8
0
100
AcDbLine
 62
7
  6
CONTINUOUS
 10
6.5817083014
 20
2.9219994685
 11
6.5742238132
 21
2.9219994685
  0
LINE
  5
248
100
AcDbEntity
  8
0
100
AcDbLine
 62
7
  6
CONTINUOUS
 10
7.7917141361
 20
2.9219994685
 11
7.7991986243
 21
2.9219994685
  0
LINE
  5
249
100
AcDbEntity
  8
0
100
AcDbLine
 62
7
  6
CONTINUOUS
 10
6.9329172528
 20
3.0119994685
 11
6.8879172528
 21
3.0119994685
  0
LINE
  5
24A
100
AcDbEntity
  8
0
100
AcDbLine
 62
7
  6
CONTINUOUS
 10
7.4405051847
 20
3.0119994685
 11
7.4855051847
 21
3.0119994685
  0
LINE
  5
24B
100
AcDbEntity
  8
0
100
AcDbLine
 62
7
  6
CONTINUOUS
 10
6.9329172528
 20
3.1919994685
 11
6.8879172528
 21
3.1919994685
  0
LINE
  5
24C
100
AcDbEntity
  8
0
100
AcDbLine
 62
7
  6
CONTINUOUS
 10
7.4405051847
 20
3.1919994685
 11
7.4855051847
 21
3.1919994685
  0
LINE
  5
24D
100
AcDbEntity
  8
0
100
AcDbLine
 62
7
  6
CONTINUOUS
 10
6.5817083014
 20
3.2819994685
 11
6.5742238132
 21
3.2819994685
  0
LINE
  5
24E
100
AcDbEntity
  8
0
100
AcDbLine
 62
7
  6
CONTINUOUS
 10
7.7917141361
 20
3.2819994685
 11
7.7991986243
 21
3.2819994685
  0
LINE
  5
24F
100
AcDbEntity
  8
0
100
AcDbLine
 62
7
  6
CONTINUOUS
 10
7.0142112081
 20
3.3031679302
 11
7.3592112294
 21
3.3031679302
  0
LINE
  5
250
100
AcDbEntity
  8
0
100
AcDbLine
 62
9
  6
CONTINUOUS
 10
7.0242112187
 20
3.3179398262
 11
7.3492112187
 21
3.3179398262
  0
LINE
  5
251
100
AcDbEntity
  8
0
100
AcDbLine
 62
9
  6
CONTINUOUS
 10
7.0484047671
 20
3.3546842963
 11
7.3250176704
 21
3.3546842963
  0
LINE
  5
252
100
AcDbEntity
  8
0
100
AcDbLine
 62
9
  6
CONTINUOUS
 10
6.8893348767
 20
3.3610924147
 11
7.0644179089
 21
3.3610924147
  0
LINE
  5
253
100
AcDbEntity
  8
0
100
AcDbLine
 62
9
  6
CONTINUOUS
 10
7.3090045285
 20
3.3610924147
 11
7.4840875608
 21
3.3610924147
  0
LINE
  5
254
100
AcDbEntity
  8
0
100
AcDbLine
 62
9
  6
CONTINUOUS
 10
6.8692853365
 20
3.3943741182
 11
7.504137101
 21
3.3943741182
  0
LINE
  5
255
100
AcDbEntity
  8
0
100
AcDbLine
 62
9
  6
CONTINUOUS
 10
7.5200653442
 20
3.4467914522
 11
6.8533570933
 21
3.4467914522
  0
LINE
  5
256
100
AcDbEntity
  8
0
100
AcDbLine
 62
9
  6
CONTINUOUS
 10
7.5203331322
 20
3.4827901484
 11
6.8530893052
 21
3.4827901484
  0
LINE
  5
257
100
AcDbEntity
  8
0
100
AcDbLine
 62
9
  6
CONTINUOUS
 10
7.5093526191
 20
3.8451468888
 11
6.8640698184
 21
3.8451468888
  0
LINE
  5
258
100
AcDbEntity
  8
0
100
AcDbLine
 62
7
  6
CONTINUOUS
 10
3.5132798953
 20
4.9945446309
 11
3.5154977262
 21
4.992347847
  0
LINE
  5
259
100
AcDbEntity
  8
0
100
AcDbLine
 62
9
  6
CONTINUOUS
 10
7.5139894603
 20
3.892240069
 11
6.8594329772
 21
3.892240069
  0
LINE
  5
25A
100
AcDbEntity
  8
0
100
AcDbLine
 62
7
  6
CONTINUOUS
 10
6.8892112187
 20
3.9589469283
 11
7.4842112187
 21
3.9589469283
  0
LINE
  5
25B
100
AcDbEntity
  8
0
100
AcDbLine
 62
7
  6
CONTINUOUS
 10
7.4717112187
 20
3.9689469283
 11
6.9017112187
 21
3.9689469283
  0
LINE
  5
25C
100
AcDbEntity
  8
0
100
AcDbLine
 62
7
  6
CONTINUOUS
 10
2.875308686
 20
4.3915196307
 11
2.8354186486
 21
4.3976236642
  0
LINE
  5
25D
100
AcDbEntity
  8
0
100
AcDbLine
 62
7
  6
CONTINUOUS
 10
2.8067095658
 20
4.4020167712
 11
2.7668506334
 21
4.4081160449
  0
LINE
  5
25E
100
AcDbEntity
  8
0
100
AcDbLine
 62
7
  6
CONTINUOUS
 10
2.6617570147
 20
4.4241976284
 11
2.7508171007
 21
4.4105695202
  0
LINE
  5
25F
100
AcDbEntity
  8
0
100
AcDbLine
 62
7
  6
CONTINUOUS
 10
2.9084018125
 20
4.3864556707
 11
2.9482956297
 21
4.3803510589
  0
LINE
  5
260
100
AcDbEntity
  8
0
100
AcDbLine
 62
7
  6
CONTINUOUS
 10
2.9769853802
 20
4.3759609101
 11
3.0168793064
 21
4.3698562816
  0
LINE
  5
261
100
AcDbEntity
  8
0
100
AcDbLine
 62
7
  6
CONTINUOUS
 10
3.0328952169
 20
4.3674055029
 11
3.1219554282
 21
4.3537773755
  0
LINE
  5
262
100
AcDbEntity
  8
0
100
AcDbLine
 62
9
  6
CONTINUOUS
 10
2.6567570848
 20
4.430416287
 11
2.7574479934
 21
4.4150084129
  0
LINE
  5
263
100
AcDbEntity
  8
0
100
AcDbLine
 62
9
  6
CONTINUOUS
 10
2.7618332067
 20
4.4143373809
 11
2.8133578301
 21
4.4064530056
  0
LINE
  5
264
100
AcDbEntity
  8
0
100
AcDbLine
 62
9
  6
CONTINUOUS
 10
2.8304167743
 20
4.4038426203
 11
2.8819413977
 21
4.395958245
  0
LINE
  5
265
100
AcDbEntity
  8
0
100
AcDbLine
 62
9
  6
CONTINUOUS
 10
2.9034018826
 20
4.3926743294
 11
2.954926506
 21
4.3847899541
  0
LINE
  5
266
100
AcDbEntity
  8
0
100
AcDbLine
 62
9
  6
CONTINUOUS
 10
2.9719854503
 20
4.3821795688
 11
3.0235100737
 21
4.3742951934
  0
LINE
  5
267
100
AcDbEntity
  8
0
100
AcDbLine
 62
9
  6
CONTINUOUS
 10
3.0278952869
 20
4.3736241615
 11
3.1285861955
 21
4.3582162874
  0
LINE
  5
268
100
AcDbEntity
  8
0
100
AcDbLine
 62
7
  6
CONTINUOUS
 10
2.5454798157
 20
4.4624304485
 11
3.2443449936
 21
4.3554890486
  0
LINE
  5
269
100
AcDbEntity
  8
0
100
AcDbLine
 62
9
  6
CONTINUOUS
 10
2.509386276
 20
4.5815865924
 11
3.3144194525
 21
4.4583992057
  0
LINE
  5
26A
100
AcDbEntity
  8
0
100
AcDbLine
 62
9
  6
CONTINUOUS
 10
2.5288242165
 20
4.6293661497
 11
3.3101590224
 21
4.5098051233
  0
LINE
  5
26B
100
AcDbEntity
  8
0
100
AcDbLine
 62
7
  6
CONTINUOUS
 10
3.3985060032
 20
4.8144514006
 11
3.3936986571
 21
4.8151870279
  0
LINE
  5
26C
100
AcDbEntity
  8
0
100
AcDbLine
 62
7
  6
CONTINUOUS
 10
3.392916573
 20
4.8519679797
 11
3.4651712935
 21
4.8529430572
  0
LINE
  5
26D
100
AcDbEntity
  8
0
100
AcDbLine
 62
7
  6
CONTINUOUS
 10
3.4705384229
 20
5.4294693322
 11
3.4173525765
 21
5.4385862005
  0
LINE
  5
26E
100
AcDbEntity
  8
0
100
AcDbLine
 62
9
  6
CONTINUOUS
 10
3.5117323295
 20
5.319147241
 11
3.5156692927
 21
5.3191660108
  0
LINE
  5
26F
100
AcDbEntity
  8
0
100
AcDbLine
 62
7
  6
CONTINUOUS
 10
3.4267123966
 20
5.4434218839
 11
3.4210165341
 21
5.4442934734
  0
LINE
  5
270
100
AcDbEntity
  8
0
100
AcDbLine
 62
9
  6
CONTINUOUS
 10
2.7551859551
 20
5.6758526459
 11
3.4070976735
 21
5.576096135
  0
LINE
  5
271
100
AcDbEntity
  8
0
100
AcDbLine
 62
9
  6
CONTINUOUS
 10
2.7623906405
 20
5.7179062193
 11
3.412798406
 21
5.6183798455
  0
LINE
  5
272
100
AcDbEntity
  8
0
100
AcDbLine
 62
7
  6
CONTINUOUS
 10
3.3788476848
 20
5.7137726257
 11
2.8233141205
 21
5.7987812067
  0
LINE
  5
273
100
AcDbEntity
  8
0
100
AcDbLine
 62
7
  6
CONTINUOUS
 10
3.3807384451
 20
5.7261287993
 11
2.8252048807
 21
5.8111373803
  0
LINE
  5
274
100
AcDbEntity
  8
0
100
AcDbLine
 62
7
  6
CONTINUOUS
 10
3.3850705727
 20
5.7279949908
 11
2.8216290572
 21
5.8142136583
  0
LINE
  5
275
100
AcDbEntity
  8
0
100
AcDbLine
 62
9
  6
CONTINUOUS
 10
6.5375475805
 20
3.2121231553
 11
6.5375475805
 21
2.9918757817
  0
LINE
  5
276
100
AcDbEntity
  8
0
100
AcDbLine
 62
9
  6
CONTINUOUS
 10
6.5492628105
 20
2.9456036375
 11
6.5492628105
 21
3.2583952995
  0
LINE
  5
277
100
AcDbEntity
  8
0
100
AcDbLine
 62
9
  6
CONTINUOUS
 10
6.5742238132
 20
2.9219994685
 11
6.5742238132
 21
3.2819994685
  0
LINE
  5
278
100
AcDbEntity
  8
0
100
AcDbLine
 62
9
  6
CONTINUOUS
 10
6.5817083014
 20
2.9219994685
 11
6.5817083014
 21
3.2819994685
  0
LINE
  5
279
100
AcDbEntity
  8
0
100
AcDbLine
 62
9
  6
CONTINUOUS
 10
6.6046021633
 20
2.9369560085
 11
6.6046021633
 21
3.2670429285
  0
LINE
  5
27A
100
AcDbEntity
  8
0
100
AcDbLine
 62
9
  6
CONTINUOUS
 10
6.6208079702
 20
3.2551892344
 11
6.6208079702
 21
2.9488097026
  0
LINE
  5
27B
100
AcDbEntity
  8
0
100
AcDbLine
 62
9
  6
CONTINUOUS
 10
6.9017112187
 20
5.6479910511
 11
7.4717112187
 21
5.6479910511
  0
LINE
  5
27C
100
AcDbEntity
  8
0
100
AcDbLine
 62
9
  6
CONTINUOUS
 10
3.4085225538
 20
5.9140888418
 11
2.849990461
 21
5.9995562621
  0
LINE
  5
27D
100
AcDbEntity
  8
0
100
AcDbLine
 62
7
  6
CONTINUOUS
 10
6.8367112187
 20
1.3874374311
 11
6.8367112187
 21
0.9826867214
  0
LINE
  5
27E
100
AcDbEntity
  8
0
100
AcDbLine
 62
9
  6
CONTINUOUS
 10
6.8727366813
 20
2.9931696673
 11
6.8727366813
 21
3.2108292697
  0
LINE
  5
27F
100
AcDbEntity
  8
0
100
AcDbLine
 62
7
  6
CONTINUOUS
 10
6.8879172528
 20
3.0119994685
 11
6.8879172528
 21
3.1919994685
  0
LINE
  5
280
100
AcDbEntity
  8
0
100
AcDbLine
 62
7
  6
CONTINUOUS
 10
6.9017112187
 20
3.9589469283
 11
6.9017112187
 21
5.6479910511
  0
LINE
  5
281
100
AcDbEntity
  8
0
100
AcDbLine
 62
9
  6
CONTINUOUS
 10
6.9329172528
 20
3.0119994685
 11
6.9329172528
 21
3.1919994685
  0
LINE
  5
282
100
AcDbEntity
  8
0
100
AcDbLine
 62
7
  6
CONTINUOUS
 10
6.9368015189
 20
3.1901478771
 11
6.9368015189
 21
3.0138510599
  0
LINE
  5
283
100
AcDbEntity
  8
0
100
AcDbLine
 62
7
  6
CONTINUOUS
 10
6.9992112187
 20
2.7321701824
 11
6.9992112187
 21
2.7821701824
  0
LINE
  5
284
100
AcDbEntity
  8
0
100
AcDbLine
 62
7
  6
CONTINUOUS
 10
7.0242112187
 20
3.3179398262
 11
7.0242112187
 21
3.3031679302
  0
LINE
  5
285
100
AcDbEntity
  8
0
100
AcDbLine
 62
7
  6
CONTINUOUS
 10
7.0329612187
 20
2.8926701824
 11
7.0329612187
 21
2.7926701824
  0
LINE
  5
286
100
AcDbEntity
  8
0
100
AcDbLine
 62
7
  6
CONTINUOUS
 10
7.0592112187
 20
2.7821701824
 11
7.0592112187
 21
2.7926701824
  0
LINE
  5
287
100
AcDbEntity
  8
0
100
AcDbLine
 62
7
  6
CONTINUOUS
 10
6.9003688924
 20
2.1997714004
 11
6.9231233459
 21
2.6522531099
  0
LINE
  5
288
100
AcDbEntity
  8
0
100
AcDbLine
 62
7
  6
CONTINUOUS
 10
7.6838595065
 20
0.5939350785
 11
7.7016057484
 21
0.4934846526
  0
LINE
  5
289
100
AcDbEntity
  8
0
100
AcDbLine
 62
7
  6
CONTINUOUS
 10
7.4730535451
 20
2.1997714004
 11
7.4502990916
 21
2.6522531099
  0
LINE
  5
28A
100
AcDbEntity
  8
0
100
AcDbLine
 62
7
  6
CONTINUOUS
 10
7.3142112187
 20
2.7821701824
 11
7.3142112187
 21
2.7926701824
  0
LINE
  5
28B
100
AcDbEntity
  8
0
100
AcDbLine
 62
7
  6
CONTINUOUS
 10
7.3404612187
 20
2.8926701824
 11
7.3404612187
 21
2.7926701824
  0
LINE
  5
28C
100
AcDbEntity
  8
0
100
AcDbLine
 62
7
  6
CONTINUOUS
 10
7.3492112187
 20
3.3179398262
 11
7.3492112187
 21
3.3031679302
  0
LINE
  5
28D
100
AcDbEntity
  8
0
100
AcDbLine
 62
7
  6
CONTINUOUS
 10
7.3742112187
 20
2.7321701824
 11
7.3742112187
 21
2.7821701824
  0
LINE
  5
28E
100
AcDbEntity
  8
0
100
AcDbLine
 62
7
  6
CONTINUOUS
 10
6.689562931
 20
0.5939350785
 11
6.6718166891
 21
0.4934846526
  0
LINE
  5
28F
100
AcDbEntity
  8
0
100
AcDbLine
 62
7
  6
CONTINUOUS
 10
7.4366209186
 20
3.0138510599
 11
7.4366209186
 21
3.1901478771
  0
LINE
  5
290
100
AcDbEntity
  8
0
100
AcDbLine
 62
9
  6
CONTINUOUS
 10
7.4405051847
 20
3.1919994685
 11
7.4405051847
 21
3.0119994685
  0
LINE
  5
291
100
AcDbEntity
  8
0
100
AcDbLine
 62
7
  6
CONTINUOUS
 10
7.4717112187
 20
3.9589469283
 11
7.4717112187
 21
5.6479910511
  0
LINE
  5
292
100
AcDbEntity
  8
0
100
AcDbLine
 62
7
  6
CONTINUOUS
 10
7.4855051847
 20
3.1919994685
 11
7.4855051847
 21
3.0119994685
  0
LINE
  5
293
100
AcDbEntity
  8
0
100
AcDbLine
 62
9
  6
CONTINUOUS
 10
7.5006857562
 20
3.2108292697
 11
7.5006857562
 21
2.9931696673
  0
LINE
  5
294
100
AcDbEntity
  8
0
100
AcDbLine
 62
7
  6
CONTINUOUS
 10
7.5367112187
 20
1.3874374311
 11
7.5367112187
 21
0.9826867214
  0
LINE
  5
295
100
AcDbEntity
  8
0
100
AcDbLine
 62
9
  6
CONTINUOUS
 10
7.7526144673
 20
2.9488097026
 11
7.7526144673
 21
3.2551892344
  0
LINE
  5
296
100
AcDbEntity
  8
0
100
AcDbLine
 62
9
  6
CONTINUOUS
 10
7.7688202742
 20
3.2670429285
 11
7.7688202742
 21
2.9369560085
  0
LINE
  5
297
100
AcDbEntity
  8
0
100
AcDbLine
 62
9
  6
CONTINUOUS
 10
7.7917141361
 20
3.2819994685
 11
7.7917141361
 21
2.9219994685
  0
LINE
  5
298
100
AcDbEntity
  8
0
100
AcDbLine
 62
9
  6
CONTINUOUS
 10
7.7991986243
 20
3.2819994685
 11
7.7991986243
 21
2.9219994685
  0
LINE
  5
299
100
AcDbEntity
  8
0
100
AcDbLine
 62
9
  6
CONTINUOUS
 10
7.824159627
 20
3.2583952995
 11
7.824159627
 21
2.9456036375
  0
LINE
  5
29A
100
AcDbEntity
  8
0
100
AcDbLine
 62
9
  6
CONTINUOUS
 10
7.835874857
 20
2.9918757817
 11
7.835874857
 21
3.2121231553
  0
ARC
  5
29B
100
AcDbEntity
  8
0
100
AcDbCircle
 62
7
  6
CONTINUOUS
 10
6.4241173703
 20
1.4005901381
 40
1.865
100
AcDbArc
 50
76.0811997274
 51
83.9460923514
  0
ARC
  5
29C
100
AcDbEntity
  8
0
100
AcDbCircle
 62
7
  6
CONTINUOUS
 10
7.0791843903
 20
0.5613125934
 40
0.575
100
AcDbArc
 50
7.0027149998
 51
29.8859056856
  0
ARC
  5
29D
100
AcDbEntity
  8
0
100
AcDbCircle
 62
7
  6
CONTINUOUS
 10
6.8929015181
 20
0.1481249235
 40
0.375
100
AcDbArc
 50
122.4462019907
 51
145.0051829242
  0
ARC
  5
29E
100
AcDbEntity
  8
0
100
AcDbCircle
 62
7
  6
CONTINUOUS
 10
6.424457797
 20
2.9386244825
 40
0.125
100
AcDbArc
 50
3.2006734286
 51
25.2146348188
  0
ARC
  5
29F
100
AcDbEntity
  8
0
100
AcDbCircle
 62
7
  6
CONTINUOUS
 10
6.8604193746
 20
2.2017803865
 40
0.04
100
AcDbArc
 50
308.7260759297
 51
357.1211282473
  0
ARC
  5
2A0
100
AcDbEntity
  8
0
100
AcDbCircle
 62
7
  6
CONTINUOUS
 10
6.8831738281
 20
2.6542620959
 40
0.04
100
AcDbArc
 50
357.1211282473
 51
43.1885359015
  0
ARC
  5
2A1
100
AcDbEntity
  8
0
100
AcDbCircle
 62
7
  6
CONTINUOUS
 10
6.8117218362
 20
2.1900979333
 40
0.04
100
AcDbArc
 50
304.2196696607
 51
354.3050758404
  0
ARC
  5
2A2
100
AcDbEntity
  8
0
100
AcDbCircle
 62
7
  6
CONTINUOUS
 10
6.8567112187
 20
2.1239469283
 40
0.04
100
AcDbArc
 50
124.2196696607
 51
270.0
  0
ARC
  5
2A3
100
AcDbEntity
  8
0
100
AcDbCircle
 62
7
  6
CONTINUOUS
 10
6.7967112187
 20
1.3874374311
 40
0.04
100
AcDbArc
 50
0.0
 51
66.0305176822
  0
ARC
  5
2A4
100
AcDbEntity
  8
0
100
AcDbCircle
 62
7
  6
CONTINUOUS
 10
6.7967112187
 20
0.9826867214
 40
0.04
100
AcDbArc
 50
293.9694823178
 51
360.0
  0
ARC
  5
2A5
100
AcDbEntity
  8
0
100
AcDbCircle
 62
7
  6
CONTINUOUS
 10
6.7610211489
 20
0.8677513954
 40
0.04
100
AcDbArc
 50
330.1140943144
 51
31.5289695603
  0
ARC
  5
2A6
100
AcDbEntity
  8
0
100
AcDbCircle
 62
7
  6
CONTINUOUS
 10
6.8292112187
 20
0.9095857638
 40
0.04
100
AcDbArc
 50
113.9694823178
 51
211.5289695603
  0
ARC
  5
2A7
100
AcDbEntity
  8
0
100
AcDbCircle
 62
7
  6
CONTINUOUS
 10
6.8292112187
 20
1.4605383887
 40
0.04
100
AcDbArc
 50
133.4325365578
 51
246.0305176822
  0
ARC
  5
2A8
100
AcDbEntity
  8
0
100
AcDbCircle
 62
7
  6
CONTINUOUS
 10
6.9342112187
 20
2.7021701824
 40
0.03
100
AcDbArc
 50
90.0
 51
223.1885359015
  0
ARC
  5
2A9
100
AcDbEntity
  8
0
100
AcDbCircle
 62
7
  6
CONTINUOUS
 10
6.9042112187
 20
2.1471701824
 40
0.03
100
AcDbArc
 50
128.7260759297
 51
270.0
  0
ARC
  5
2AA
100
AcDbEntity
  8
0
100
AcDbCircle
 62
7
  6
CONTINUOUS
 10
6.7141816934
 20
0.5895857638
 40
0.025
100
AcDbArc
 50
90.0
 51
169.9811253937
  0
ARC
  5
2AB
100
AcDbEntity
  8
0
100
AcDbCircle
 62
7
  6
CONTINUOUS
 10
6.6964354515
 20
0.4891353379
 40
0.025
100
AcDbArc
 50
169.9811253937
 51
259.1073575104
  0
ARC
  5
2AC
100
AcDbEntity
  8
0
100
AcDbCircle
 62
7
  6
CONTINUOUS
 10
6.5817083014
 20
2.9469994685
 40
0.025
100
AcDbArc
 50
270.0
 51
336.3131006371
  0
ARC
  5
2AD
100
AcDbEntity
  8
0
100
AcDbCircle
 62
7
  6
CONTINUOUS
 10
6.5742238132
 20
2.9469994685
 40
0.025
100
AcDbArc
 50
183.2006734286
 51
270.0
  0
ARC
  5
2AE
100
AcDbEntity
  8
0
100
AcDbCircle
 62
7
  6
CONTINUOUS
 10
6.6229172528
 20
2.9289212405
 40
0.02
100
AcDbArc
 50
96.0539076486
 51
156.3131006371
  0
ARC
  5
2AF
100
AcDbEntity
  8
0
100
AcDbCircle
 62
7
  6
CONTINUOUS
 10
6.5979881046
 20
0.3545857638
 40
0.015
100
AcDbArc
 50
145.0051829242
 51
270.0
  0
ARC
  5
2B0
100
AcDbEntity
  8
0
100
AcDbCircle
 62
7
  6
CONTINUOUS
 10
6.7384154368
 20
0.6295857638
 40
0.015
100
AcDbArc
 50
172.9972850002
 51
270.0
  0
ARC
  5
2B1
100
AcDbEntity
  8
0
100
AcDbCircle
 62
7
  6
CONTINUOUS
 10
-1.8552887813
 20
3.0544051454
 40
8.75
100
AcDbArc
 50
354.3050758404
 51
359.7223207366
  0
ARC
  5
2B2
100
AcDbEntity
  8
0
100
AcDbCircle
 62
7
  6
CONTINUOUS
 10
-1.8552887813
 20
3.0544051454
 40
8.75
100
AcDbArc
 50
0.9010232814
 51
2.0086269715
  0
ARC
  5
2B3
100
AcDbEntity
  8
0
100
AcDbCircle
 62
7
  6
CONTINUOUS
 10
1.4395225923
 20
5.2174203764
 40
2.0
100
AcDbArc
 50
339.2796157448
 51
348.3762187194
  0
ARC
  5
2B4
100
AcDbEntity
  8
0
100
AcDbCircle
 62
7
  6
CONTINUOUS
 10
1.4395225923
 20
5.2174203764
 40
2.0
100
AcDbArc
 50
6.4883249817
 51
10.3311955299
  0
ARC
  5
2B5
100
AcDbEntity
  8
0
100
AcDbCircle
 62
7
  6
CONTINUOUS
 10
1.5155608736
 20
5.2429159097
 40
1.9076024777
100
AcDbArc
 50
356.657344645
 51
4.9393818782
  0
ARC
  5
2B6
100
AcDbEntity
  8
0
100
AcDbCircle
 62
7
  6
CONTINUOUS
 10
2.5559168123
 20
4.5306365267
 40
0.069
100
AcDbArc
 50
132.4041286657
 51
261.3
  0
ARC
  5
2B7
100
AcDbEntity
  8
0
100
AcDbCircle
 62
7
  6
CONTINUOUS
 10
2.4689249401
 20
4.6258909973
 40
0.06
100
AcDbArc
 50
312.4041286657
 51
3.3203842552
  0
ARC
  5
2B8
100
AcDbEntity
  8
0
100
AcDbCircle
 62
7
  6
CONTINUOUS
 10
6.7714172528
 20
3.1019994685
 40
0.2585
100
AcDbArc
 50
154.7853651812
 51
205.2146348188
  0
ARC
  5
2B9
100
AcDbEntity
  8
0
100
AcDbCircle
 62
7
  6
CONTINUOUS
 10
6.424457797
 20
3.2653744545
 40
0.125
100
AcDbArc
 50
334.7853651812
 51
356.7993265714
  0
ARC
  5
2BA
100
AcDbEntity
  8
0
100
AcDbCircle
 62
7
  6
CONTINUOUS
 10
3.2547819902
 20
4.4236951267
 40
0.069
100
AcDbArc
 50
261.3
 51
30.1958713343
  0
ARC
  5
2BB
100
AcDbEntity
  8
0
100
AcDbCircle
 62
7
  6
CONTINUOUS
 10
7.0642112187
 20
3.3179398262
 40
0.04
100
AcDbArc
 50
113.276033704
 51
180.0
  0
ARC
  5
2BC
100
AcDbEntity
  8
0
100
AcDbCircle
 62
7
  6
CONTINUOUS
 10
6.8493594542
 20
3.3596904158
 40
0.04
100
AcDbArc
 50
2.0086269715
 51
60.1225142351
  0
ARC
  5
2BD
100
AcDbEntity
  8
0
100
AcDbCircle
 62
7
  6
CONTINUOUS
 10
6.8175029678
 20
3.4645250837
 40
0.04
100
AcDbArc
 50
333.6827683644
 51
27.1696425557
  0
ARC
  5
2BE
100
AcDbEntity
  8
0
100
AcDbCircle
 62
7
  6
CONTINUOUS
 10
6.8296547357
 20
3.8655332098
 40
0.04
100
AcDbArc
 50
329.3589464112
 51
41.8876020267
  0
ARC
  5
2BF
100
AcDbEntity
  8
0
100
AcDbCircle
 62
7
  6
CONTINUOUS
 10
6.8892112187
 20
3.4290578207
 40
0.04
100
AcDbArc
 50
153.6827683644
 51
240.1225142351
  0
ARC
  5
2C0
100
AcDbEntity
  8
0
100
AcDbCircle
 62
7
  6
CONTINUOUS
 10
6.8892112187
 20
3.9189469283
 40
0.04
100
AcDbArc
 50
90.0
 51
221.8876020267
  0
ARC
  5
2C1
100
AcDbEntity
  8
0
100
AcDbCircle
 62
7
  6
CONTINUOUS
 10
6.5817083014
 20
3.2569994685
 40
0.025
100
AcDbArc
 50
23.6868993629
 51
90.0
  0
ARC
  5
2C2
100
AcDbEntity
  8
0
100
AcDbCircle
 62
7
  6
CONTINUOUS
 10
6.5742238132
 20
3.2569994685
 40
0.025
100
AcDbArc
 50
90.0
 51
176.7993265714
  0
ARC
  5
2C3
100
AcDbEntity
  8
0
100
AcDbCircle
 62
7
  6
CONTINUOUS
 10
6.6229172528
 20
3.2750776965
 40
0.02
100
AcDbArc
 50
203.6868993629
 51
263.9460923514
  0
ARC
  5
2C4
100
AcDbEntity
  8
0
100
AcDbCircle
 62
7
  6
CONTINUOUS
 10
6.8679257504
 20
3.0125824193
 40
0.02
100
AcDbArc
 50
283.9188002437
 51
358.3297322848
  0
ARC
  5
2C5
100
AcDbEntity
  8
0
100
AcDbCircle
 62
7
  6
CONTINUOUS
 10
6.8679257504
 20
3.1914165176
 40
0.02
100
AcDbArc
 50
1.6702677154
 51
76.081199757
  0
ARC
  5
2C6
100
AcDbEntity
  8
0
100
AcDbCircle
 62
7
  6
CONTINUOUS
 10
2.9491890112
 20
4.3861886045
 40
0.0059055118
100
AcDbArc
 50
261.3
 51
346.3
  0
ARC
  5
2C7
100
AcDbEntity
  8
0
100
AcDbCircle
 62
7
  6
CONTINUOUS
 10
2.9092950851
 20
4.3922932331
 40
0.0059055118
100
AcDbArc
 50
176.3
 51
261.3
  0
ARC
  5
2C8
100
AcDbEntity
  8
0
100
AcDbCircle
 62
7
  6
CONTINUOUS
 10
3.0177725789
 20
4.3756938439
 40
0.0059055118
100
AcDbArc
 50
261.3
 51
346.3
  0
ARC
  5
2C9
100
AcDbEntity
  8
0
100
AcDbCircle
 62
7
  6
CONTINUOUS
 10
2.9778786528
 20
4.3817984725
 40
0.0059055118
100
AcDbArc
 50
176.3
 51
261.3
  0
ARC
  5
2CA
100
AcDbEntity
  8
0
100
AcDbCircle
 62
7
  6
CONTINUOUS
 10
3.0736824155
 20
4.3671384367
 40
0.0059055118
100
AcDbArc
 50
261.3
 51
346.3
  0
ARC
  5
2CB
100
AcDbEntity
  8
0
100
AcDbCircle
 62
7
  6
CONTINUOUS
 10
3.0337884894
 20
4.3732430652
 40
0.0059055118
100
AcDbArc
 50
176.3
 51
261.3
  0
ARC
  5
2CC
100
AcDbEntity
  8
0
100
AcDbCircle
 62
7
  6
CONTINUOUS
 10
3.1101749697
 20
4.3615542912
 40
0.0059055118
100
AcDbArc
 50
261.3
 51
346.3
  0
ARC
  5
2CD
100
AcDbEntity
  8
0
100
AcDbCircle
 62
7
  6
CONTINUOUS
 10
2.6626502873
 20
4.4300351907
 40
0.0059055118
100
AcDbArc
 50
176.3000000044
 51
261.3
  0
ARC
  5
2CE
100
AcDbEntity
  8
0
100
AcDbCircle
 62
7
  6
CONTINUOUS
 10
3.1228487007
 20
4.3596149378
 40
0.0059055118
100
AcDbArc
 50
261.3
 51
346.2999999956
  0
ARC
  5
2CF
100
AcDbEntity
  8
0
100
AcDbCircle
 62
7
  6
CONTINUOUS
 10
2.6753240184
 20
4.4280958373
 40
0.0059055118
100
AcDbArc
 50
176.3
 51
261.3
  0
ARC
  5
2D0
100
AcDbEntity
  8
0
100
AcDbCircle
 62
7
  6
CONTINUOUS
 10
2.7118165725
 20
4.4225116919
 40
0.0059055118
100
AcDbArc
 50
176.3
 51
261.3
  0
ARC
  5
2D1
100
AcDbEntity
  8
0
100
AcDbCircle
 62
7
  6
CONTINUOUS
 10
2.7517104986
 20
4.4164070633
 40
0.0059055118
100
AcDbArc
 50
261.3
 51
346.3
  0
ARC
  5
2D2
100
AcDbEntity
  8
0
100
AcDbCircle
 62
7
  6
CONTINUOUS
 10
2.7677264091
 20
4.4139562846
 40
0.0059055118
100
AcDbArc
 50
176.3
 51
261.3
  0
ARC
  5
2D3
100
AcDbEntity
  8
0
100
AcDbCircle
 62
7
  6
CONTINUOUS
 10
2.8076203353
 20
4.4078516561
 40
0.0059055118
100
AcDbArc
 50
261.3
 51
346.3
  0
ARC
  5
2D4
100
AcDbEntity
  8
0
100
AcDbCircle
 62
7
  6
CONTINUOUS
 10
2.8363099768
 20
4.403461524
 40
0.0059055118
100
AcDbArc
 50
176.3
 51
261.3
  0
ARC
  5
2D5
100
AcDbEntity
  8
0
100
AcDbCircle
 62
7
  6
CONTINUOUS
 10
2.8762039029
 20
4.3973568955
 40
0.0059055118
100
AcDbArc
 50
261.3
 51
346.3
  0
ARC
  5
2D6
100
AcDbEntity
  8
0
100
AcDbCircle
 62
7
  6
CONTINUOUS
 10
6.9329172528
 20
3.0169994685
 40
0.005
100
AcDbArc
 50
270.0
 51
320.9733560625
  0
ARC
  5
2D7
100
AcDbEntity
  8
0
100
AcDbCircle
 62
7
  6
CONTINUOUS
 10
6.9329172528
 20
3.1869994685
 40
0.005
100
AcDbArc
 50
39.0266439375
 51
90.0
  0
ARC
  5
2D8
100
AcDbEntity
  8
0
100
AcDbCircle
 62
7
  6
CONTINUOUS
 10
5.1474794013
 20
5.6479910328
 40
2.3242318174
100
AcDbArc
 50
0.0000004531
 51
171.2999995469
  0
ARC
  5
2D9
100
AcDbEntity
  8
0
100
AcDbCircle
 62
7
  6
CONTINUOUS
 10
4.525466764
 20
4.7452045611
 40
2.0
100
AcDbArc
 50
152.2688044701
 51
183.3203842552
  0
ARC
  5
2DA
100
AcDbEntity
  8
0
100
AcDbCircle
 62
7
  6
CONTINUOUS
 10
6.4241173703
 20
4.8034087989
 40
1.865
100
AcDbArc
 50
276.0539076486
 51
283.9188002726
  0
ARC
  5
2DB
100
AcDbEntity
  8
0
100
AcDbCircle
 62
7
  6
CONTINUOUS
 10
5.147479401
 20
5.6479910321
 40
1.7542318178
100
AcDbArc
 50
0.0000006227
 51
169.5850164383
  0
ARC
  5
2DC
100
AcDbEntity
  8
0
100
AcDbCircle
 62
7
  6
CONTINUOUS
 10
3.6509953175
 20
5.8766432258
 40
0.2453505411
100
AcDbArc
 50
159.1336079557
 51
171.2210358794
  0
ARC
  5
2DD
100
AcDbEntity
  8
0
100
AcDbCircle
 62
7
  6
CONTINUOUS
 10
3.6483702394
 20
5.1183284541
 40
0.2288426602
100
AcDbArc
 50
176.6530287093
 51
178.5807003063
  0
ARC
  5
2DE
100
AcDbEntity
  8
0
100
AcDbCircle
 62
7
  6
CONTINUOUS
 10
3.3506177983
 20
5.6482892423
 40
0.069
100
AcDbArc
 50
334.3120530548
 51
81.3
  0
ARC
  5
2DF
100
AcDbEntity
  8
0
100
AcDbCircle
 62
7
  6
CONTINUOUS
 10
2.8306700138
 20
5.7278524338
 40
0.069
100
AcDbArc
 50
81.3
 51
188.2879469452
  0
ARC
  5
2E0
100
AcDbEntity
  8
0
100
AcDbCircle
 62
7
  6
CONTINUOUS
 10
2.6941112672
 20
5.7079600048
 40
0.069
100
AcDbArc
 50
332.2688044701
 51
8.2879469452
  0
ARC
  5
2E1
100
AcDbEntity
  8
0
100
AcDbCircle
 62
7
  6
CONTINUOUS
 10
3.4749790138
 20
5.5884704486
 40
0.069
100
AcDbArc
 50
154.3120530548
 51
190.3311955299
  0
ARC
  5
2E2
100
AcDbEntity
  8
0
100
AcDbCircle
 62
7
  6
CONTINUOUS
 10
3.3662781153
 20
4.4885766657
 40
0.06
100
AcDbArc
 50
159.2796157448
 51
210.1958713343
  0
ARC
  5
2E3
100
AcDbEntity
  8
0
100
AcDbCircle
 62
7
  6
CONTINUOUS
 10
3.4622244556
 20
5.3809640975
 40
0.0492125984
100
AcDbArc
 50
0.2731595949
 51
80.2738166472
  0
ARC
  5
2E4
100
AcDbEntity
  8
0
100
AcDbCircle
 62
7
  6
CONTINUOUS
 10
3.4645072299
 20
4.902151175
 40
0.0492125984
100
AcDbArc
 50
270.7731595888
 51
0.2731595949
  0
ARC
  5
2E5
100
AcDbEntity
  8
0
100
AcDbCircle
 62
7
  6
CONTINUOUS
 10
3.4922134166
 20
5.2842552257
 40
0.0236220472
100
AcDbArc
 50
326.715849833
 51
33.8304693569
  0
ARC
  5
2E6
100
AcDbEntity
  8
0
100
AcDbCircle
 62
7
  6
CONTINUOUS
 10
3.4920475139
 20
5.3190533923
 40
0.0236220472
100
AcDbArc
 50
326.715849833
 51
33.8304693569
  0
ARC
  5
2E7
100
AcDbEntity
  8
0
100
AcDbCircle
 62
7
  6
CONTINUOUS
 10
3.4918816112
 20
5.3538515589
 40
0.0236220472
100
AcDbArc
 50
326.715849833
 51
33.8304693569
  0
ARC
  5
2E8
100
AcDbEntity
  8
0
100
AcDbCircle
 62
7
  6
CONTINUOUS
 10
3.491812892
 20
5.3682654314
 40
0.0236220472
100
AcDbArc
 50
342.5084021076
 51
33.8326021211
  0
ARC
  5
2E9
100
AcDbEntity
  8
0
100
AcDbCircle
 62
7
  6
CONTINUOUS
 10
3.4922821357
 20
5.2698413532
 40
0.0236220472
100
AcDbArc
 50
326.715849833
 51
18.0379170823
  0
ARC
  5
2EA
100
AcDbEntity
  8
0
100
AcDbCircle
 62
7
  6
CONTINUOUS
 10
3.5113418456
 20
4.9881521676
 40
0.0059055118
100
AcDbArc
 50
0.2730396967
 51
45.2730368898
  0
ARC
  5
2EB
100
AcDbEntity
  8
0
100
AcDbCircle
 62
7
  6
CONTINUOUS
 10
3.5115625282
 20
4.9418638775
 40
0.0059055118
100
AcDbArc
 50
315.2732823001
 51
0.2732794932
  0
ARC
  5
2EC
100
AcDbEntity
  8
0
100
AcDbCircle
 62
7
  6
CONTINUOUS
 10
7.9493050672
 20
1.4005901381
 40
1.865
100
AcDbArc
 50
96.0539076486
 51
103.9188002726
  0
ARC
  5
2ED
100
AcDbEntity
  8
0
100
AcDbCircle
 62
7
  6
CONTINUOUS
 10
7.2942380472
 20
0.5613125934
 40
0.575
100
AcDbArc
 50
150.1140943144
 51
172.9972850002
  0
ARC
  5
2EE
100
AcDbEntity
  8
0
100
AcDbCircle
 62
7
  6
CONTINUOUS
 10
7.1867112187
 20
1.7548857638
 40
0.4625
100
AcDbArc
 50
128.4346508177
 51
215.0031605553
  0
ARC
  5
2EF
100
AcDbEntity
  8
0
100
AcDbCircle
 62
7
  6
CONTINUOUS
 10
7.1867112187
 20
1.7548857638
 40
0.4625
100
AcDbArc
 50
324.9968394447
 51
51.5653491823
  0
ARC
  5
2F0
100
AcDbEntity
  8
0
100
AcDbCircle
 62
7
  6
CONTINUOUS
 10
7.4805209194
 20
0.1481249235
 40
0.375
100
AcDbArc
 50
34.9948170758
 51
57.5537980072
  0
ARC
  5
2F1
100
AcDbEntity
  8
0
100
AcDbCircle
 62
7
  6
CONTINUOUS
 10
7.9489646405
 20
2.9386244825
 40
0.125
100
AcDbArc
 50
154.7853651812
 51
176.7993265714
  0
ARC
  5
2F2
100
AcDbEntity
  8
0
100
AcDbCircle
 62
7
  6
CONTINUOUS
 10
7.5130030629
 20
2.2017803865
 40
0.04
100
AcDbArc
 50
182.8788717527
 51
231.2739240703
  0
ARC
  5
2F3
100
AcDbEntity
  8
0
100
AcDbCircle
 62
7
  6
CONTINUOUS
 10
7.4902486094
 20
2.6542620959
 40
0.04
100
AcDbArc
 50
136.8114640985
 51
182.8788717527
  0
ARC
  5
2F4
100
AcDbEntity
  8
0
100
AcDbCircle
 62
7
  6
CONTINUOUS
 10
7.5617006013
 20
2.1900979333
 40
0.04
100
AcDbArc
 50
185.6949241596
 51
235.7803303393
  0
ARC
  5
2F5
100
AcDbEntity
  8
0
100
AcDbCircle
 62
7
  6
CONTINUOUS
 10
7.5167112187
 20
2.1239469283
 40
0.04
100
AcDbArc
 50
270.0
 51
55.7803303394
  0
ARC
  5
2F6
100
AcDbEntity
  8
0
100
AcDbCircle
 62
7
  6
CONTINUOUS
 10
7.5767112187
 20
0.9826867214
 40
0.04
100
AcDbArc
 50
180.0
 51
246.0305176822
  0
ARC
  5
2F7
100
AcDbEntity
  8
0
100
AcDbCircle
 62
7
  6
CONTINUOUS
 10
7.6124012886
 20
0.8677513954
 40
0.04
100
AcDbArc
 50
148.4710304397
 51
209.8859056856
  0
ARC
  5
2F8
100
AcDbEntity
  8
0
100
AcDbCircle
 62
7
  6
CONTINUOUS
 10
7.5442112187
 20
0.9095857638
 40
0.04
100
AcDbArc
 50
328.4710304397
 51
66.0305176822
  0
ARC
  5
2F9
100
AcDbEntity
  8
0
100
AcDbCircle
 62
7
  6
CONTINUOUS
 10
7.5767112187
 20
1.3874374311
 40
0.04
100
AcDbArc
 50
113.9694823178
 51
180.0
  0
ARC
  5
2FA
100
AcDbEntity
  8
0
100
AcDbCircle
 62
7
  6
CONTINUOUS
 10
7.5442112187
 20
1.4605383887
 40
0.04
100
AcDbArc
 50
293.9694823178
 51
46.5674634422
  0
ARC
  5
2FB
100
AcDbEntity
  8
0
100
AcDbCircle
 62
7
  6
CONTINUOUS
 10
7.4392112187
 20
2.7021701824
 40
0.03
100
AcDbArc
 50
316.8114640985
 51
90.0
  0
ARC
  5
2FC
100
AcDbEntity
  8
0
100
AcDbCircle
 62
7
  6
CONTINUOUS
 10
7.4692112187
 20
2.1471701824
 40
0.03
100
AcDbArc
 50
270.0
 51
51.2739240703
  0
ARC
  5
2FD
100
AcDbEntity
  8
0
100
AcDbCircle
 62
7
  6
CONTINUOUS
 10
7.6592407441
 20
0.5895857638
 40
0.025
100
AcDbArc
 50
10.0188746063
 51
90.0
  0
ARC
  5
2FE
100
AcDbEntity
  8
0
100
AcDbCircle
 62
7
  6
CONTINUOUS
 10
7.676986986
 20
0.4891353379
 40
0.025
100
AcDbArc
 50
280.892642513
 51
10.0188746063
  0
ARC
  5
2FF
100
AcDbEntity
  8
0
100
AcDbCircle
 62
7
  6
CONTINUOUS
 10
7.7917141361
 20
2.9469994685
 40
0.025
100
AcDbArc
 50
203.6868993629
 51
270.0
  0
ARC
  5
300
100
AcDbEntity
  8
0
100
AcDbCircle
 62
7
  6
CONTINUOUS
 10
7.7991986243
 20
2.9469994685
 40
0.025
100
AcDbArc
 50
270.0
 51
356.7993265714
  0
ARC
  5
301
100
AcDbEntity
  8
0
100
AcDbCircle
 62
7
  6
CONTINUOUS
 10
7.7505051847
 20
2.9289212405
 40
0.02
100
AcDbArc
 50
23.6868993629
 51
83.9460923514
  0
ARC
  5
302
100
AcDbEntity
  8
0
100
AcDbCircle
 62
7
  6
CONTINUOUS
 10
7.7754343328
 20
0.3545857638
 40
0.015
100
AcDbArc
 50
270.0
 51
34.9948170758
  0
ARC
  5
303
100
AcDbEntity
  8
0
100
AcDbCircle
 62
7
  6
CONTINUOUS
 10
7.6350070007
 20
0.6295857638
 40
0.015
100
AcDbArc
 50
270.0
 51
7.0027149998
  0
ARC
  5
304
100
AcDbEntity
  8
0
100
AcDbCircle
 62
7
  6
CONTINUOUS
 10
16.2287112187
 20
3.0544051454
 40
8.75
100
AcDbArc
 50
180.2776792634
 51
185.6949241596
  0
ARC
  5
305
100
AcDbEntity
  8
0
100
AcDbCircle
 62
7
  6
CONTINUOUS
 10
16.2287112187
 20
3.0544051454
 40
8.75
100
AcDbArc
 50
177.9913730285
 51
179.0989767186
  0
ARC
  5
306
100
AcDbEntity
  8
0
100
AcDbCircle
 62
7
  6
CONTINUOUS
 10
7.9493050672
 20
4.8034087989
 40
1.865
100
AcDbArc
 50
256.0811997274
 51
263.9460923514
  0
ARC
  5
307
100
AcDbEntity
  8
0
100
AcDbCircle
 62
7
  6
CONTINUOUS
 10
7.1867112187
 20
3.6540251298
 40
0.375
100
AcDbArc
 50
332.8303574443
 51
30.6410535888
  0
ARC
  5
308
100
AcDbEntity
  8
0
100
AcDbCircle
 62
7
  6
CONTINUOUS
 10
7.1867112187
 20
3.6540251298
 40
0.375
100
AcDbArc
 50
149.3589464112
 51
207.1696425557
  0
ARC
  5
309
100
AcDbEntity
  8
0
100
AcDbCircle
 62
7
  6
CONTINUOUS
 10
7.1867112187
 20
3.0331701824
 40
0.35
100
AcDbArc
 50
66.723966296
 51
113.276033704
  0
ARC
  5
30A
100
AcDbEntity
  8
0
100
AcDbCircle
 62
7
  6
CONTINUOUS
 10
7.1867112187
 20
3.1019994685
 40
0.265
100
AcDbArc
 50
199.4288181496
 51
232.1782073763
  0
ARC
  5
30B
100
AcDbEntity
  8
0
100
AcDbCircle
 62
7
  6
CONTINUOUS
 10
7.1867112187
 20
3.1019994685
 40
0.265
100
AcDbArc
 50
130.6127677237
 51
160.5711818504
  0
ARC
  5
30C
100
AcDbEntity
  8
0
100
AcDbCircle
 62
7
  6
CONTINUOUS
 10
7.1867112187
 20
3.1019994685
 40
0.265
100
AcDbArc
 50
307.8217926237
 51
340.5711818504
  0
ARC
  5
30D
100
AcDbEntity
  8
0
100
AcDbCircle
 62
7
  6
CONTINUOUS
 10
7.1867112187
 20
3.1019994685
 40
0.265
100
AcDbArc
 50
19.4288181496
 51
49.3872322763
  0
ARC
  5
30E
100
AcDbEntity
  8
0
100
AcDbCircle
 62
7
  6
CONTINUOUS
 10
7.6020051847
 20
3.1019994685
 40
0.2585
100
AcDbArc
 50
334.7853651812
 51
25.2146348188
  0
CIRCLE
  5
30F
100
AcDbEntity
  8
0
100
AcDbCircle
 62
7
  6
CONTINUOUS
 10
7.1867112187
 20
3.1019994685
 40
0.18
  0
CIRCLE
  5
310
100
AcDbEntity
  8
0
100
AcDbCircle
 62
9
  6
CONTINUOUS
 10
7.1867112187
 20
3.1019994685
 40
0.156395831
  0
ARC
  5
311
100
AcDbEntity
  8
0
100
AcDbCircle
 62
7
  6
CONTINUOUS
 10
7.9489646405
 20
3.2653744545
 40
0.125
100
AcDbArc
 50
183.2006734286
 51
205.2146348188
  0
CIRCLE
  5
312
100
AcDbEntity
  8
0
100
AcDbCircle
 62
9
  6
CONTINUOUS
 10
7.1867112187
 20
3.1019994685
 40
0.1101236868
  0
ARC
  5
313
100
AcDbEntity
  8
0
100
AcDbCircle
 62
7
  6
CONTINUOUS
 10
7.3092112187
 20
3.3179398262
 40
0.04
100
AcDbArc
 50
0.0
 51
66.723966296
  0
ARC
  5
314
100
AcDbEntity
  8
0
100
AcDbCircle
 62
7
  6
CONTINUOUS
 10
7.5240629833
 20
3.3596904158
 40
0.04
100
AcDbArc
 50
119.8774857649
 51
177.9913730285
  0
ARC
  5
315
100
AcDbEntity
  8
0
100
AcDbCircle
 62
7
  6
CONTINUOUS
 10
7.5559194697
 20
3.4645250837
 40
0.04
100
AcDbArc
 50
152.8303574443
 51
206.3172316356
  0
ARC
  5
316
100
AcDbEntity
  8
0
100
AcDbCircle
 62
7
  6
CONTINUOUS
 10
7.5437677018
 20
3.8655332098
 40
0.04
100
AcDbArc
 50
138.1123979733
 51
210.6410535888
  0
ARC
  5
317
100
AcDbEntity
  8
0
100
AcDbCircle
 62
7
  6
CONTINUOUS
 10
7.4842112187
 20
3.4290578207
 40
0.04
100
AcDbArc
 50
299.8774857649
 51
26.3172316356
  0
ARC
  5
318
100
AcDbEntity
  8
0
100
AcDbCircle
 62
7
  6
CONTINUOUS
 10
7.4842112187
 20
3.9189469283
 40
0.04
100
AcDbArc
 50
318.1123979733
 51
90.0
  0
ARC
  5
319
100
AcDbEntity
  8
0
100
AcDbCircle
 62
7
  6
CONTINUOUS
 10
7.7917141361
 20
3.2569994685
 40
0.025
100
AcDbArc
 50
90.0
 51
156.3131006371
  0
ARC
  5
31A
100
AcDbEntity
  8
0
100
AcDbCircle
 62
7
  6
CONTINUOUS
 10
7.7991986243
 20
3.2569994685
 40
0.025
100
AcDbArc
 50
3.2006734286
 51
90.0
  0
ARC
  5
31B
100
AcDbEntity
  8
0
100
AcDbCircle
 62
7
  6
CONTINUOUS
 10
7.7505051847
 20
3.2750776965
 40
0.02
100
AcDbArc
 50
276.0539076486
 51
336.3131006371
  0
ARC
  5
31C
100
AcDbEntity
  8
0
100
AcDbCircle
 62
7
  6
CONTINUOUS
 10
7.5054966871
 20
3.0125824193
 40
0.02
100
AcDbArc
 50
181.6702677152
 51
256.0811997563
  0
ARC
  5
31D
100
AcDbEntity
  8
0
100
AcDbCircle
 62
7
  6
CONTINUOUS
 10
7.5054966871
 20
3.1914165176
 40
0.02
100
AcDbArc
 50
103.918800243
 51
178.3297322846
  0
ARC
  5
31E
100
AcDbEntity
  8
0
100
AcDbCircle
 62
7
  6
CONTINUOUS
 10
7.4405051847
 20
3.0169994685
 40
0.005
100
AcDbArc
 50
219.0266439375
 51
270.0
  0
ARC
  5
31F
100
AcDbEntity
  8
0
100
AcDbCircle
 62
7
  6
CONTINUOUS
 10
7.4405051847
 20
3.1869994685
 40
0.005
100
AcDbArc
 50
90.0
 51
140.9733560625
  0
SPLINE
  5
320
100
AcDbEntity
  8
0
100
AcDbSpline
 62
7
  6
CONTINUOUS
 70
0
 71
3
 72
26
 73
22
 74
0
 42
0.0000001
 43
0.0000001
 44
0.0000000001
 40
0.0
 40
0.0
 40
0.0
 40
0.0
 40
0.0073982046
 40
0.0155309244
 40
0.0248785731
 40
0.0357527393
 40
0.0483419195
 40
0.0627554463
 40
0.0790516814
 40
0.0972591905
 40
0.117382986
 40
0.1394148776
 40
0.1891050275
 40
0.2460710885
 40
0.3099403572
 40
0.3802544319
 40
0.4564794172
 40
0.5380119547
 40
0.6241843673
 40
0.8074788801
 40
1.0
 40
1.0
 40
1.0
 40
1.0
 10
3.3936986571
 20
4.8151870279
 30
0.0
 10
3.3936039476
 20
4.8152015205
 30
0.0
 10
3.3934092042
 20
4.8152648715
 30
0.0
 10
3.3931403643
 20
4.815448076
 30
0.0
 10
3.3928867062
 20
4.8157164897
 30
0.0
 10
3.3926466144
 20
4.8160686219
 30
0.0
 10
3.3924192063
 20
4.8165041968
 30
0.0
 10
3.3922046077
 20
4.8170228661
 30
0.0
 10
3.3920032757
 20
4.8176239535
 30
0.0
 10
3.3918159075
 20
4.8183064556
 30
0.0
 10
3.3916431536
 20
4.8190691024
 30
0.0
 10
3.3914245422
 20
4.8202385419
 30
0.0
 10
3.3911999483
 20
4.8218909596
 30
0.0
 10
3.3910087537
 20
4.8240917117
 30
0.0
 10
3.3908923723
 20
4.8265650605
 30
0.0
 10
3.3908560132
 20
4.8292901957
 30
0.0
 10
3.3909043957
 20
4.8322438787
 30
0.0
 10
3.3910412924
 20
4.8354003372
 30
0.0
 10
3.3913521397
 20
4.8399357918
 30
0.0
 10
3.3919764075
 20
4.8458884202
 30
0.0
 10
3.3926954313
 20
4.8507038264
 30
0.0
 10
3.3931156522
 20
4.8531614429
 30
0.0
  0
SPLINE
  5
321
100
AcDbEntity
  8
0
100
AcDbSpline
 62
7
  6
CONTINUOUS
 70
0
 71
3
 72
28
 73
24
 74
0
 42
0.0000001
 43
0.0000001
 44
0.0000000001
 40
0.0
 40
0.0
 40
0.0
 40
0.0
 40
0.193226074
 40
0.2869485572
 40
0.377609655
 40
0.4643606556
 40
0.5463884699
 40
0.6229318457
 40
0.6933036376
 40
0.7569108744
 40
0.8132735014
 40
0.8386277668
 40
0.8620541506
 40
0.8835369475
 40
0.9030734955
 40
0.920681632
 40
0.9364004954
 40
0.9503056414
 40
0.9625186971
 40
0.9732348122
 40
0.982751255
 40
0.9914927275
 40
1.0
 40
1.0
 40
1.0
 40
1.0
 10
3.4160791836
 20
5.4071637914
 30
0.0
 10
3.4158641868
 20
5.4096531509
 30
0.0
 10
3.415629112
 20
5.4133581731
 30
0.0
 10
3.4155038052
 20
5.4182398661
 30
0.0
 10
3.4155059925
 20
5.4217463899
 30
0.0
 10
3.4156017055
 20
5.4251003283
 30
0.0
 10
3.4157873816
 20
5.4282676999
 30
0.0
 10
3.4160576351
 20
5.4312164086
 30
0.0
 10
3.4164054298
 20
5.4339171101
 30
0.0
 10
3.4168225274
 20
5.4363436284
 30
0.0
 10
3.4172331661
 20
5.4381785808
 30
0.0
 10
3.417594337
 20
5.4394896022
 30
0.0
 10
3.4178672396
 20
5.4403564729
 30
0.0
 10
3.4181505206
 20
5.4411405015
 30
0.0
 10
3.4184430557
 20
5.4418402982
 30
0.0
 10
3.4187436552
 20
5.4424547756
 30
0.0
 10
3.4190513505
 20
5.4429831279
 30
0.0
 10
3.4193652509
 20
5.4434248803
 30
0.0
 10
3.4196849426
 20
5.4437797786
 30
0.0
 10
3.420010546
 20
5.4440475021
 30
0.0
 10
3.4203428929
 20
5.4442268408
 30
0.0
 10
3.420681552
 20
5.4443146414
 30
0.0
 10
3.4209077914
 20
5.4443101134
 30
0.0
 10
3.4210165341
 20
5.4442934734
 30
0.0
  0
SPLINE
  5
322
100
AcDbEntity
  8
0
100
AcDbSpline
 62
7
  6
CONTINUOUS
 70
0
 71
3
 72
9
 73
5
 74
0
 42
0.0000001
 43
0.0000001
 44
0.0000000001
 40
0.0
 40
0.0
 40
0.0
 40
0.0
 40
0.4999976178
 40
1.0
 40
1.0
 40
1.0
 40
1.0
 10
3.3931156522
 20
4.8531614429
 30
0.0
 10
3.4007646955
 20
4.8978960441
 30
0.0
 10
3.4128789642
 20
4.987939847
 30
0.0
 10
3.4184705474
 20
5.0786263741
 30
0.0
 10
3.4195977874
 20
5.1239966395
 30
0.0
  0
LINE
  5
323
100
AcDbEntity
  8
0
100
AcDbLine
 62
7
  6
CONTINUOUS
 10
3.41572921
 20
5.4121305388
 11
3.4657931999
 21
5.403457574
  0
SPLINE
  5
324
100
AcDbEntity
  8
0
100
AcDbSpline
 62
9
  6
CONTINUOUS
 70
0
 71
3
 72
15
 73
11
 74
0
 42
0.0000001
 43
0.0000001
 44
0.0000000001
 40
0.0
 40
0.0
 40
0.0
 40
0.0
 40
0.1252916317
 40
0.2505200341
 40
0.3756623881
 40
0.5007005203
 40
0.6256349391
 40
0.7504796653
 40
0.8752557569
 40
1.0
 40
1.0
 40
1.0
 40
1.0
 10
3.4657932025
 20
5.4034576091
 30
0.0
 10
3.4669306196
 20
5.4032618547
 30
0.0
 10
3.4691739997
 20
5.4026613133
 30
0.0
 10
3.4723225005
 20
5.4011850041
 30
0.0
 10
3.4751629245
 20
5.3991808318
 30
0.0
 10
3.4776066753
 20
5.3967130977
 30
0.0
 10
3.4795855658
 20
5.3938626796
 30
0.0
 10
3.4810420021
 20
5.390715735
 30
0.0
 10
3.4819393915
 20
5.3873694513
 30
0.0
 10
3.4821486802
 20
5.3850669978
 30
0.0
 10
3.4821533124
 20
5.3839179102
 30
0.0
  0
SPLINE
  5
325
100
AcDbEntity
  8
0
100
AcDbSpline
 62
9
  6
CONTINUOUS
 70
0
 71
3
 72
17
 73
13
 74
0
 42
0.0000001
 43
0.0000001
 44
0.0000000001
 40
0.0
 40
0.0
 40
0.0
 40
0.0
 40
0.1246750026
 40
0.2493920958
 40
0.3118528186
 40
0.3743368552
 40
0.4992437342
 40
0.6242678867
 40
0.6868970448
 40
0.7495519434
 40
0.8747600639
 40
1.0
 40
1.0
 40
1.0
 40
1.0
 10
3.484463367
 20
4.8993829363
 30
0.0
 10
3.4844709025
 20
4.8980990466
 30
0.0
 10
3.4842351155
 20
4.8955231096
 30
0.0
 10
3.4833327196
 20
4.8924198983
 30
0.0
 10
3.4822675129
 20
4.8900759889
 30
0.0
 10
3.4809801011
 20
4.887844205
 30
0.0
 10
3.4789726273
 20
4.8853025286
 30
0.0
 10
3.476508288
 20
4.8831978805
 30
0.0
 10
3.4743203629
 20
4.8818280555
 30
0.0
 10
3.4720060132
 20
4.8806802325
 30
0.0
 10
3.4689174158
 20
4.8796818596
 30
0.0
 10
3.4663349374
 20
4.8793860043
 30
0.0
 10
3.4650452973
 20
4.8793708196
 30
0.0
  0
LINE
  5
326
100
AcDbEntity
  8
0
100
AcDbLine
 62
7
  6
CONTINUOUS
 10
3.465045428
 20
4.8793605035
 11
3.397248996
 21
4.8784472257
  0
LINE
  5
327
100
AcDbEntity
  8
0
100
AcDbLine
 62
9
  6
CONTINUOUS
 10
3.465171293
 20
4.8529431773
 11
3.4650454276
 21
4.8793605049
  0
SPLINE
  5
328
100
AcDbEntity
  8
0
100
AcDbSpline
 62
9
  6
CONTINUOUS
 70
0
 71
3
 72
28
 73
24
 74
0
 42
0.0000001
 43
0.0000001
 44
0.0000000001
 40
0.0
 40
0.0
 40
0.0
 40
0.0
 40
0.1799793663
 40
0.3634840651
 40
0.4533893797
 40
0.5400931952
 40
0.6220468878
 40
0.6978764885
 40
0.7663354764
 40
0.8265006597
 40
0.8776289089
 40
0.899683507
 40
0.9193546313
 40
0.9366324133
 40
0.951581771
 40
0.9642939479
 40
0.9748760846
 40
0.9834648033
 40
0.990255528
 40
0.9930753914
 40
0.9955833708
 40
0.9978584735
 40
1.0
 40
1.0
 40
1.0
 40
1.0
 10
3.4821533124
 20
5.3839179099
 30
0.0
 10
3.4839359249
 20
5.3839249022
 30
0.0
 10
3.4875362515
 20
5.3839068935
 30
0.0
 10
3.4920260315
 20
5.3838033131
 30
0.0
 10
3.4955900718
 20
5.3836614339
 30
0.0
 10
3.4981476473
 20
5.3835282811
 30
0.0
 10
3.5005640042
 20
5.3833683913
 30
0.0
 10
3.502797391
 20
5.3831843406
 30
0.0
 10
3.5048120781
 20
5.3829782245
 30
0.0
 10
3.506578506
 20
5.3827542805
 30
0.0
 10
3.5078832615
 20
5.382546948
 30
0.0
 10
3.5087861532
 20
5.3823715597
 30
0.0
 10
3.5093567169
 20
5.3822447063
 30
0.0
 10
3.5098545795
 20
5.3821163231
 30
0.0
 10
3.5102806812
 20
5.3819870503
 30
0.0
 10
3.5106368459
 20
5.3818574553
 30
0.0
 10
3.5109253394
 20
5.3817279517
 30
0.0
 10
3.5111483188
 20
5.3815989622
 30
0.0
 10
3.5112900462
 20
5.3814853262
 30
0.0
 10
3.5113677832
 20
5.3813933694
 30
0.0
 10
3.511407
 20
5.3813286299
 30
0.0
 10
3.5114308104
 20
5.3812637994
 30
0.0
 10
3.5114363455
 20
5.3812199304
 30
0.0
 10
3.5114364466
 20
5.3811987197
 30
0.0
  0
SPLINE
  5
329
100
AcDbEntity
  8
0
100
AcDbSpline
 62
9
  6
CONTINUOUS
 70
0
 71
3
 72
28
 73
24
 74
0
 42
0.0000001
 43
0.0000001
 44
0.0000000001
 40
0.0
 40
0.0
 40
0.0
 40
0.0
 40
0.0021448023
 40
0.0044230283
 40
0.0069338758
 40
0.0097563168
 40
0.0165513642
 40
0.0251434902
 40
0.0357283076
 40
0.0484425588
 40
0.0633934523
 40
0.0806722655
 40
0.1003440628
 40
0.1223991071
 40
0.1735274851
 40
0.2336919078
 40
0.3021493844
 40
0.3779767986
 40
0.4599278035
 40
0.5466285184
 40
0.6365304989
 40
0.8200279807
 40
1.0
 40
1.0
 40
1.0
 40
1.0
 10
3.5137192067
 20
4.9023857961
 30
0.0
 10
3.5137193091
 20
4.902364552
 30
0.0
 10
3.513714196
 20
4.9023205669
 30
0.0
 10
3.5136910097
 20
4.9022554107
 30
0.0
 10
3.513652415
 20
4.9021901963
 30
0.0
 10
3.5135755681
 20
4.9020973623
 30
0.0
 10
3.5134349379
 20
4.9019821961
 30
0.0
 10
3.5132131916
 20
4.9018508722
 30
0.0
 10
3.5129259403
 20
4.9017184105
 30
0.0
 10
3.5125710235
 20
4.901585213
 30
0.0
 10
3.5121461727
 20
4.9014516717
 30
0.0
 10
3.5116495583
 20
4.9013183367
 30
0.0
 10
3.5110802321
 20
4.9011858407
 30
0.0
 10
3.5101790616
 20
4.9010015648
 30
0.0
 10
3.5088763467
 20
4.9007814586
 30
0.0
 10
3.5071121337
 20
4.9005403091
 30
0.0
 10
3.5050995038
 20
4.9003146465
 30
0.0
 10
3.5028679745
 20
4.9001089967
 30
0.0
 10
3.5004532537
 20
4.8999257997
 30
0.0
 10
3.4978970652
 20
4.8997680337
 30
0.0
 10
3.4943345432
 20
4.8995919234
 30
0.0
 10
3.4898459565
 20
4.8994453373
 30
0.0
 10
3.4862459643
 20
4.8993929445
 30
0.0
 10
3.484463367
 20
4.899382937
 30
0.0
  0
SPLINE
  5
32A
100
AcDbEntity
  8
0
100
AcDbSpline
 62
9
  6
CONTINUOUS
 70
0
 71
3
 72
34
 73
30
 74
0
 42
0.0000001
 43
0.0000001
 44
0.0000000001
 40
0.0
 40
0.0
 40
0.0
 40
0.0
 40
0.000130378
 40
0.0003548823
 40
0.0011697415
 40
0.002504935
 40
0.0043745718
 40
0.006787928
 40
0.009752915
 40
0.0132769127
 40
0.017367052
 40
0.0272736336
 40
0.0395279454
 40
0.0541846567
 40
0.0712981867
 40
0.0909015962
 40
0.1129423341
 40
0.1373462488
 40
0.1640391495
 40
0.1929468211
 40
0.2239950323
 40
0.2922160853
 40
0.3679791073
 40
0.4500427362
 40
0.5370356968
 40
0.6275866643
 40
0.7203563955
 40
0.814134213
 40
1.0
 40
1.0
 40
1.0
 40
1.0
 10
3.4705390394
 20
5.4294691325
 30
0.0
 10
3.4705379126
 20
5.429469359
 30
0.0
 10
3.4705347426
 20
5.4294677198
 30
0.0
 10
3.4705288832
 20
5.4294593479
 30
0.0
 10
3.4705202495
 20
5.4294400103
 30
0.0
 10
3.4705086997
 20
5.4294066091
 30
0.0
 10
3.4704944616
 20
5.4293591126
 30
0.0
 10
3.4704777197
 20
5.4292974648
 30
0.0
 10
3.4704584231
 20
5.4292213849
 30
0.0
 10
3.4704365829
 20
5.4291307177
 30
0.0
 10
3.4704017593
 20
5.4289802362
 30
0.0
 10
3.4703520098
 20
5.4287542231
 30
0.0
 10
3.4702849689
 20
5.4284366505
 30
0.0
 10
3.4702071849
 20
5.4280564201
 30
0.0
 10
3.4701184978
 20
5.4276122975
 30
0.0
 10
3.4700189302
 20
5.4271039718
 30
0.0
 10
3.4699086384
 20
5.4265322589
 30
0.0
 10
3.4697879716
 20
5.4258988989
 30
0.0
 10
3.4696573096
 20
5.4252058196
 30
0.0
 10
3.4695170311
 20
5.4244549491
 30
0.0
 10
3.4693111184
 20
5.4233439119
 30
0.0
 10
3.4690329035
 20
5.4218261841
 30
0.0
 10
3.4686776515
 20
5.4198653576
 30
0.0
 10
3.4682963637
 20
5.4177410715
 30
0.0
 10
3.4678951308
 20
5.4154879198
 30
0.0
 10
3.4674801832
 20
5.4131413466
 30
0.0
 10
3.4670575013
 20
5.4107354021
 30
0.0
 10
3.4664926168
 20
5.4075013158
 30
0.0
 10
3.466071668
 20
5.4050722923
 30
0.0
 10
3.4657932026
 20
5.4034576091
 30
0.0
  0
SPLINE
  5
32B
100
AcDbEntity
  8
0
100
AcDbSpline
 62
9
  6
CONTINUOUS
 70
0
 71
3
 72
13
 73
9
 74
0
 42
0.0000001
 43
0.0000001
 44
0.0000000001
 40
0.0
 40
0.0
 40
0.0
 40
0.0
 40
0.2648932281
 40
0.5175000568
 40
0.6402593613
 40
0.7612086208
 40
0.8809364442
 40
1.0
 40
1.0
 40
1.0
 40
1.0
 10
3.5119422512
 20
5.2751160775
 30
0.0
 10
3.51255975
 20
5.2757806549
 30
0.0
 10
3.5136684818
 20
5.2771751516
 30
0.0
 10
3.5147179396
 20
5.2791154638
 30
0.0
 10
3.515302971
 20
5.2807138867
 30
0.0
 10
3.5156137627
 20
5.2819213604
 30
0.0
 10
3.5157985094
 20
5.2831414898
 30
0.0
 10
3.5158371394
 20
5.2839600937
 30
0.0
 10
3.5158351954
 20
5.2843678442
 30
0.0
  0
SPLINE
  5
32C
100
AcDbEntity
  8
0
100
AcDbSpline
 62
9
  6
CONTINUOUS
 70
0
 71
3
 72
13
 73
9
 74
0
 42
0.0000001
 43
0.0000001
 44
0.0000000001
 40
0.0
 40
0.0
 40
0.0
 40
0.0
 40
0.2648932281
 40
0.5175000568
 40
0.6402593613
 40
0.7612086208
 40
0.8809364442
 40
1.0
 40
1.0
 40
1.0
 40
1.0
 10
3.5115224079
 20
5.3631784046
 30
0.0
 10
3.5121462153
 20
5.3625197452
 30
0.0
 10
3.5132681931
 20
5.3611358836
 30
0.0
 10
3.5143361039
 20
5.3592056661
 30
0.0
 10
3.5149363496
 20
5.3576128941
 30
0.0
 10
3.5152586404
 20
5.3564084387
 30
0.0
 10
3.5154550124
 20
5.3551901263
 30
0.0
 10
3.515501446
 20
5.3543719279
 30
0.0
 10
3.51550339
 20
5.3539641774
 30
0.0
  0
ENDSEC
  0
SECTION
  2
OBJECTS
  0
DICTIONARY
  5
C
100
AcDbDictionary
280
0
281
1
  3
ACAD_GROUP
350
D
  3
ACAD_MLINESTYLE
350
17
  3
ACAD_LAYOUT
350
1A
  3
ACAD_PLOTSETTINGS
350
19
  3
ACAD_PLOTSTYLENAME
350
E
  0
DICTIONARY
  5
D
102
{ACAD_REACTORS
330
C
102
}
100
AcDbDictionary
280
0
281
1
  0
ACDBDICTIONARYWDFLT
  5
E
102
{ACAD_REACTORS
330
C
102
}
100
AcDbDictionary
281
1
  3
Normal
350
F
100
AcDbDictionaryWithDefault
340
F
  0
DICTIONARY
  5
17
102
{ACAD_REACTORS
330
C
102
}
100
AcDbDictionary
280
0
281
1
  3
Standard
350
18
  0
DICTIONARY
  5
19
102
{ACAD_REACTORS
330
C
102
}
100
AcDbDictionary
281
1
  0
DICTIONARY
  5
1A
102
{ACAD_REACTORS
330
C
102
}
100
AcDbDictionary
281
1
  3
Model
350
32D
  3
Layout1
350
32E
  0
ACDBPLACEHOLDER
  5
F
102
{ACAD_REACTORS
330
E
102
}
  0
MLINESTYLE
  5
18
102
{ACAD_REACTORS
330
17
102
}
100
AcDbMlineStyle
  2
STANDARD
 70
0
  3

 62
256
 51
90.0
 52
90.0
 71
2
 49
0.5
 62
256
  6
BYLAYER
 49
-0.5
 62
256
  6
BYLAYER
  0
LAYOUT
  5
32D
102
{ACAD_REACTORS
330
1A
102
}
100
AcDbPlotSettings
  1

  2
none_device
  4
ANSI_A_(11.00_x_8.50_Inches)
  6

 40
0.0
 41
0.0
 42
0.0
 43
0.0
 44
279.4
 45
215.9
 46
0.0
 47
0.0
 48
0.0
 49
0.0
140
0.0
141
0.0
142
1.0
143
1.0
 70
1024
 72
0
 73
0
 74
0
  7

 75
0
147
1.0
148
0.0
149
0.0
100
AcDbLayout
  1
Model
 70
0
 71
0
 10
0.0
 20
0.0
 11
11.0
 21
8.5
 12
0.0
 22
0.0
 32
0.0
 14
0.0
 24
0.0
 34
0.0
 15
0.0
 25
0.0
 35
0.0
146
0.0
 13
0.0
 23
0.0
 33
0.0
 16
1.0
 26
0.0
 36
0.0
 17
0.0
 27
1.0
 37
0.0
 76
0
330
202
345
0
346
0
  0
LAYOUT
  5
32E
102
{ACAD_REACTORS
330
1A
102
}
100
AcDbPlotSettings
  1

  2
none_device
  4
ANSI_A_(11.00_x_8.50_Inches)
  6

 40
0.0
 41
0.0
 42
0.0
 43
0.0
 44
279.4
 45
215.9
 46
0.0
 47
0.0
 48
0.0
 49
0.0
140
0.0
141
0.0
142
1.0
143
1.0
 70
0
 72
0
 73
0
 74
0
  7

 75
0
147
1.0
148
0.0
149
0.0
100
AcDbLayout
  1
Layout1
 70
0
 71
1
 10
0.0
 20
0.0
 11
11.0
 21
8.5
 12
0.0
 22
0.0
 32
0.0
 14
0.0
 24
0.0
 34
0.0
 15
0.0
 25
0.0
 35
0.0
146
0.0
 13
0.0
 23
0.0
 33
0.0
 16
1.0
 26
0.0
 36
0.0
 17
0.0
 27
1.0
 37
0.0
 76
0
330
203
345
0
346
0
  0
ENDSEC
  0
EOF
