999
DXF file: E:\BT Custom\CADOUTPUT\_FRONT.dxf
999
Pro/ENGINEER 2018400 by Parametric Technology Corporation
  0
SECTION
  2
HEADER
  9
$ACADVER
  1
AC1018
  9
$DWGCODEPAGE
  3
ANSI_1252
  9
$EXTMAX
 10
22.0
 20
17.0
 30
0.0
  9
$EXTMIN
 10
0.0
 20
0.0
 30
0.0
  9
$LIMMIN
 10
0.0
 20
0.0
  9
$LIMMAX
 10
22.0
 20
17.0
  9
$VIEWCTR
 10
11.0
 20
8.5
  9
$VIEWSIZE
 40
17.0
  9
$CLAYER
  8
0
  9
$LTSCALE
 40
1.21
  9
$CELTYPE
  6
BYLAYER
  9
$DIMSCALE
 40
1.0
  9
$DIMASZ
 40
0.1
  9
$DIMEXO
 40
0.0625
  9
$DIMDLI
 40
0.836
  9
$DIMEXE
 40
0.125
  9
$DIMCEN
 40
0.198
  9
$DIMLFAC
 40
1.0
  9
$DIMBLK
  1
_FILLED
  9
$DIMALT
 70
1
  9
$DIMALTD
 70
2
  9
$DIMALTTD
 70
2
  9
$DIMALTF
 40
25.4
  9
$DIMTXT
 40
0.08
  9
$DIMTOL
 70
1
  9
$DIMLIM
 70
0
  9
$DIMTFAC
 40
1.0
  9
$DIMTP
 40
0.001
  9
$DIMTM
 40
0.001
  9
$DIMGAP
 40
0.09
  9
$DIMDSEP
 70
46
  9
$AUNITS
 70
0
  9
$PDMODE
 70
3
  9
$PDSIZE
 40
0.06
  9
$HANDSEED
  5
330
  9
$TILEMODE
 70
1
  9
$MEASUREMENT
 70
0
  9
$INSUNITS
 70
1
  0
ENDSEC
  0
SECTION
  2
CLASSES
  0
CLASS
  1
ACDBDICTIONARYWDFLT
  2
AcDbDictionaryWithDefault
  3
AutoCAD 2000
 90
0
 91
1
280
0
281
0
  0
CLASS
  1
ACDBPLACEHOLDER
  2
AcDbPlaceHolder
  3
AutoCAD 2000
 90
0
 91
1
280
0
281
0
  0
CLASS
  1
LAYOUT
  2
AcDbLayout
  3
AutoCAD 2000
 90
0
 91
0
280
0
281
0
  0
ENDSEC
  0
SECTION
  2
TABLES
  0
TABLE
  2
VPORT
  5
8
100
AcDbSymbolTable
 70
2
  0
VPORT
  5
1F4
100
AcDbSymbolTableRecord
100
AcDbViewportTableRecord
  2
*ACTIVE
 70
0
 10
0.0
 20
0.0
 11
1.0
 21
1.0
 12
11.0
 22
8.5
 13
0.0
 23
0.0
 14
1.0
 24
1.0
 15
0.0
 25
0.0
 16
0.0
 26
0.0
 36
1.0
 17
0.0
 27
0.0
 37
0.0
 40
17.0
 41
1.2941176471
 42
50.0
 43
0.0
 44
0.0
 50
0.0
 51
0.0
 71
0
 72
100
 73
1
 74
1
 75
0
 76
0
 77
0
 78
0
  0
ENDTAB
  0
TABLE
  2
LTYPE
  5
5
100
AcDbSymbolTable
 70
6
  0
LTYPE
  5
14
100
AcDbSymbolTableRecord
100
AcDbLinetypeTableRecord
  2
BYBLOCK
 70
0
  3

 72
65
 73
0
 40
0.0
  0
LTYPE
  5
15
100
AcDbSymbolTableRecord
100
AcDbLinetypeTableRecord
  2
BYLAYER
 70
0
  3

 72
65
 73
0
 40
0.0
  0
LTYPE
  5
16
100
AcDbSymbolTableRecord
100
AcDbLinetypeTableRecord
  2
CONTINUOUS
 70
64
  3
Solid line
 72
65
 73
0
 40
0.0
  0
LTYPE
  5
1F5
100
AcDbSymbolTableRecord
100
AcDbLinetypeTableRecord
  2
CENTER
 70
64
  3
____ _ ____ _ ____ _ ____ _ ____ _ ____ _ ____
 72
65
 73
4
 40
0.6
 49
0.375
 74
0
 49
-0.075
 74
0
 49
0.075
 74
0
 49
-0.075
 74
0
  0
LTYPE
  5
1F6
100
AcDbSymbolTableRecord
100
AcDbLinetypeTableRecord
  2
HIDDEN
 70
64
  3
- - - - - - - - - - - - - - - - - - - -
 72
65
 73
2
 40
0.2
 49
0.1
 74
0
 49
-0.1
 74
0
  0
LTYPE
  5
1F7
100
AcDbSymbolTableRecord
100
AcDbLinetypeTableRecord
  2
PHANTOM
 70
64
  3
_____ _ _ _____ _ _ _____ _ _ _____
 72
65
 73
6
 40
0.8
 49
0.45
 74
0
 49
-0.05
 74
0
 49
0.1
 74
0
 49
-0.05
 74
0
 49
0.1
 74
0
 49
-0.05
 74
0
  0
LTYPE
  5
1F8
100
AcDbSymbolTableRecord
100
AcDbLinetypeTableRecord
  2
DOT
 70
64
  3
. . . . . . . . . . . . . . . . . . . .
 72
65
 73
2
 40
0.2
 49
0.1
 74
0
 49
-0.1
 74
0
  0
LTYPE
  5
1F9
100
AcDbSymbolTableRecord
100
AcDbLinetypeTableRecord
  2
DASHED
 70
64
  3
- - - - - - - - - - - - - - - - - - - -
 72
65
 73
2
 40
0.2
 49
0.1
 74
0
 49
-0.1
 74
0
  0
ENDTAB
  0
TABLE
  2
LAYER
  5
2
100
AcDbSymbolTable
 70
36
  0
LAYER
  5
10
100
AcDbSymbolTableRecord
100
AcDbLayerTableRecord
  2
0
 70
0
 62
7
  6
CONTINUOUS
370
-3
390
F
  0
LAYER
  5
1FA
100
AcDbSymbolTableRecord
100
AcDbLayerTableRecord
  2
DEFAULT_1
 70
0
 62
7
  6
CENTER
370
-3
390
F
  0
LAYER
  5
1FB
100
AcDbSymbolTableRecord
100
AcDbLayerTableRecord
  2
DEFAULT_2
 70
0
 62
8
  6
HIDDEN
370
-3
390
F
  0
LAYER
  5
1FC
100
AcDbSymbolTableRecord
100
AcDbLayerTableRecord
  2
DEFAULT_3
 70
0
 62
7
  6
PHANTOM
370
-3
390
F
  0
LAYER
  5
1FD
100
AcDbSymbolTableRecord
100
AcDbLayerTableRecord
  2
ALL_FEATURES
 70
0
 62
7
  6
CONTINUOUS
370
-3
390
F
  0
LAYER
  5
1FE
100
AcDbSymbolTableRecord
100
AcDbLayerTableRecord
  2
AXES_FEATURES
 70
0
 62
7
  6
CONTINUOUS
370
-3
390
F
  0
LAYER
  5
1FF
100
AcDbSymbolTableRecord
100
AcDbLayerTableRecord
  2
DIMENSIONS
 70
0
 62
7
  6
CONTINUOUS
370
-3
390
F
  0
ENDTAB
  0
TABLE
  2
STYLE
  5
3
100
AcDbSymbolTable
 70
1
  0
STYLE
  5
11
100
AcDbSymbolTableRecord
100
AcDbTextStyleTableRecord
  2
STANDARD
 70
0
 40
0.0
 41
0.8
 50
0.0
 71
0
 42
0.2
  3
txt
  4

  0
STYLE
  5
200
100
AcDbSymbolTableRecord
100
AcDbTextStyleTableRecord
  2
TEXTSTYLE_1
 70
0
 40
0.0
 41
0.8
 50
0.0
 71
0
 42
0.2
  3
gdt
  4

  0
ENDTAB
  0
TABLE
  2
VIEW
  5
6
100
AcDbSymbolTable
 70
0
  0
ENDTAB
  0
TABLE
  2
UCS
  5
7
100
AcDbSymbolTable
 70
0
  0
ENDTAB
  0
TABLE
  2
APPID
  5
9
100
AcDbSymbolTable
 70
1
  0
APPID
  5
201
100
AcDbSymbolTableRecord
100
AcDbRegAppTableRecord
  2
ACAD
 70
0
  0
ENDTAB
  0
TABLE
  2
BLOCK_RECORD
  5
1
100
AcDbSymbolTable
 70
0
  0
BLOCK_RECORD
  5
202
100
AcDbSymbolTableRecord
100
AcDbBlockTableRecord
  2
*Model_Space
  0
BLOCK_RECORD
  5
203
100
AcDbSymbolTableRecord
100
AcDbBlockTableRecord
  2
*Paper_Space
  0
BLOCK_RECORD
  5
204
100
AcDbSymbolTableRecord
100
AcDbBlockTableRecord
  2
_FILLED
  0
ENDTAB
  0
TABLE
  2
DIMSTYLE
  5
A
100
AcDbSymbolTable
 70
1
100
AcDbDimStyleTable
 71
0
  0
DIMSTYLE
105
205
100
AcDbSymbolTableRecord
100
AcDbDimStyleTableRecord
  2
STANDARD
 70
0
  3

  4

 40
1.0
 41
0.1
 42
0.0625
 43
0.38
 44
0.125
 45
0.0
 46
0.0
 47
0.001
 48
0.001
140
0.08
141
0.09
142
0.0
143
25.4
144
1.0
145
0.0
146
1.0
147
0.09
 71
1.0
 72
0.0
 73
1
 74
1
 75
0
 76
0
 77
0
 78
4
 79
1
170
1
171
2
172
0
173
0
174
0
175
0
176
0
177
0
178
0
270
2
179
3
271
3
272
3
273
2
274
2
275
0
280
0
281
0
282
0
283
1
284
4
285
0
286
0
287
3
288
0
340
11
278
46
341
204
342
204
343
204
344
204
  0
ENDTAB
  0
ENDSEC
  0
SECTION
  2
BLOCKS
  0
BLOCK
  5
20
100
AcDbEntity
  8
0
100
AcDbBlockBegin
  2
*Model_Space
 70
0
 10
0.0
 20
0.0
 30
0.0
  3
*Model_Space
  1

  0
ENDBLK
  5
21
100
AcDbEntity
  8
0
100
AcDbBlockEnd
  0
BLOCK
  5
1C
100
AcDbEntity
  8
0
100
AcDbBlockBegin
  2
*Paper_Space
 70
0
 10
0.0
 20
0.0
 30
0.0
  3
*Paper_Space
  1

  0
ENDBLK
  5
1D
100
AcDbEntity
  8
0
100
AcDbBlockEnd
  0
BLOCK
  5
206
100
AcDbEntity
  8
0
100
AcDbBlockBegin
  2
_FILLED
 70
64
 10
0.0
 20
0.0
  3
_FILLED
  1

  0
SOLID
  5
207
100
AcDbEntity
  8
0
  6
BYBLOCK
 62
0
100
AcDbTrace
 10
0.0
 20
0.0
 11
-1.0
 21
0.2
 12
-1.0
 22
-0.2
 13
-1.0
 23
-0.2
  0
ENDBLK
  5
208
100
AcDbEntity
  8
0
  6
BYBLOCK
 62
0
100
AcDbBlockEnd
  0
ENDSEC
  0
SECTION
  2
ENTITIES
  0
LINE
  5
209
100
AcDbEntity
  8
0
100
AcDbLine
 62
7
  6
CONTINUOUS
 10
10.9133988895
 20
4.6423673078
 11
10.9619857959
 21
4.6423673078
  0
LINE
  5
20A
100
AcDbEntity
  8
0
100
AcDbLine
 62
9
  6
CONTINUOUS
 10
10.6569259688
 20
4.698903993
 11
11.2184587167
 21
4.698903993
  0
LINE
  5
20B
100
AcDbEntity
  8
0
100
AcDbLine
 62
9
  6
CONTINUOUS
 10
11.3169317135
 20
4.7480926885
 11
10.558452972
 21
4.7480926885
  0
LINE
  5
20C
100
AcDbEntity
  8
0
100
AcDbLine
 62
9
  6
CONTINUOUS
 10
10.574724637
 20
4.7363887826
 11
11.3006600484
 21
4.7363887826
  0
LINE
  5
20D
100
AcDbEntity
  8
0
100
AcDbLine
 62
9
  6
CONTINUOUS
 10
11.3271613418
 20
4.8142793045
 11
10.5482233437
 21
4.8142793045
  0
LINE
  5
20E
100
AcDbEntity
  8
0
100
AcDbLine
 62
7
  6
CONTINUOUS
 10
11.302694233
 20
4.8323673088
 11
10.5726904944
 21
4.8323673088
  0
LINE
  5
20F
100
AcDbEntity
  8
0
100
AcDbLine
 62
9
  6
CONTINUOUS
 10
11.2207338998
 20
5.9535812291
 11
10.6546507857
 21
5.9535812291
  0
LINE
  5
210
100
AcDbEntity
  8
0
100
AcDbLine
 62
9
  6
CONTINUOUS
 10
10.713210034
 20
6.536756101
 11
11.1621746515
 21
6.536756101
  0
LINE
  5
211
100
AcDbEntity
  8
0
100
AcDbLine
 62
9
  6
CONTINUOUS
 10
11.1817155107
 20
6.5820435125
 11
10.6936691748
 21
6.5820435125
  0
LINE
  5
212
100
AcDbEntity
  8
0
100
AcDbLine
 62
9
  6
CONTINUOUS
 10
10.6769747126
 20
6.63935898
 11
11.1984099728
 21
6.63935898
  0
LINE
  5
213
100
AcDbEntity
  8
0
100
AcDbLine
 62
9
  6
CONTINUOUS
 10
10.6958901776
 20
6.8569127624
 11
11.1794945078
 21
6.8569127624
  0
LINE
  5
214
100
AcDbEntity
  8
0
100
AcDbLine
 62
7
  6
CONTINUOUS
 10
10.7253901426
 20
6.8923673079
 11
11.1499945428
 21
6.8923673079
  0
LINE
  5
215
100
AcDbEntity
  8
0
100
AcDbLine
 62
9
  6
CONTINUOUS
 10
10.7726923427
 20
6.9223673079
 11
11.1026923427
 21
6.9223673079
  0
LINE
  5
216
100
AcDbEntity
  8
0
100
AcDbLine
 62
7
  6
CONTINUOUS
 10
11.1026923427
 20
6.9723673079
 11
10.7726923427
 21
6.9723673079
  0
LINE
  5
217
100
AcDbEntity
  8
0
100
AcDbLine
 62
7
  6
CONTINUOUS
 10
11.4376923427
 20
12.2164763302
 11
11.4670067068
 21
12.2410217361
  0
LINE
  5
218
100
AcDbEntity
  8
0
100
AcDbLine
 62
7
  6
CONTINUOUS
 10
10.4343553406
 20
6.9967122
 11
10.6977768891
 21
6.8446256981
  0
LINE
  5
219
100
AcDbEntity
  8
0
100
AcDbLine
 62
7
  6
CONTINUOUS
 10
10.4376923427
 20
11.0514763302
 11
10.4083779943
 21
11.0269309372
  0
LINE
  5
21A
100
AcDbEntity
  8
0
100
AcDbLine
 62
7
  6
CONTINUOUS
 10
10.3976923427
 20
8.1320025661
 11
11.4776923427
 21
8.1320025661
  0
LINE
  5
21B
100
AcDbEntity
  8
0
100
AcDbLine
 62
7
  6
CONTINUOUS
 10
11.028356512
 20
8.0255497034
 11
11.4410293449
 21
7.7872929323
  0
LINE
  5
21C
100
AcDbEntity
  8
0
100
AcDbLine
 62
7
  6
CONTINUOUS
 10
10.3526923427
 20
8.3938283409
 11
10.3998227236
 21
8.3938283409
  0
LINE
  5
21D
100
AcDbEntity
  8
0
100
AcDbLine
 62
7
  6
CONTINUOUS
 10
10.8905619619
 20
8.3938283409
 11
10.9848227236
 21
8.3938283409
  0
LINE
  5
21E
100
AcDbEntity
  8
0
100
AcDbLine
 62
7
  6
CONTINUOUS
 10
11.4755619619
 20
8.3938283409
 11
11.5226923427
 21
8.3938283409
  0
LINE
  5
21F
100
AcDbEntity
  8
0
100
AcDbLine
 62
7
  6
CONTINUOUS
 10
10.3436923427
 20
7.1537466071
 11
10.3436923427
 21
7.6302589122
  0
LINE
  5
220
100
AcDbEntity
  8
0
100
AcDbLine
 62
7
  6
CONTINUOUS
 10
10.3526923427
 20
8.3108148629
 11
10.3526923427
 21
8.9471638984
  0
LINE
  5
221
100
AcDbEntity
  8
0
100
AcDbLine
 62
7
  6
CONTINUOUS
 10
10.3526923427
 20
11.2502886269
 11
10.3526923427
 21
11.8866376625
  0
LINE
  5
222
100
AcDbEntity
  8
0
100
AcDbLine
 62
7
  6
CONTINUOUS
 10
10.3998227236
 20
11.7907978861
 11
10.3998227236
 21
11.3333021049
  0
LINE
  5
223
100
AcDbEntity
  8
0
100
AcDbLine
 62
7
  6
CONTINUOUS
 10
10.3998227236
 20
8.8513241221
 11
10.3998227236
 21
8.3938283409
  0
LINE
  5
224
100
AcDbEntity
  8
0
100
AcDbLine
 62
7
  6
CONTINUOUS
 10
10.4326923427
 20
8.1320025661
 11
10.4326923427
 21
8.0583173549
  0
LINE
  5
225
100
AcDbEntity
  8
0
100
AcDbLine
 62
7
  6
CONTINUOUS
 10
10.4376923427
 20
11.0714763302
 11
10.4376923427
 21
11.0514763302
  0
LINE
  5
226
100
AcDbEntity
  8
0
100
AcDbLine
 62
7
  6
CONTINUOUS
 10
10.4676923427
 20
12.2164763302
 11
10.4676923427
 21
12.1964763302
  0
LINE
  5
227
100
AcDbEntity
  8
0
100
AcDbLine
 62
7
  6
CONTINUOUS
 10
10.4676923427
 20
9.2770025661
 11
10.4676923427
 21
9.2570025661
  0
LINE
  5
228
100
AcDbEntity
  8
0
100
AcDbLine
 62
7
  6
CONTINUOUS
 10
10.4969572085
 20
11.067864485
 11
10.4969572085
 21
11.0714763302
  0
LINE
  5
229
100
AcDbEntity
  8
0
100
AcDbLine
 62
7
  6
CONTINUOUS
 10
10.5351923427
 20
12.2637132122
 11
10.5351923427
 21
12.0128543995
  0
LINE
  5
22A
100
AcDbEntity
  8
0
100
AcDbLine
 62
7
  6
CONTINUOUS
 10
10.5606923427
 20
12.3137132122
 11
10.5606923427
 21
12.2637132122
  0
LWPOLYLINE
  5
22B
100
AcDbEntity
  8
0
100
AcDbPolyline
 62
7
  6
CONTINUOUS
 90
5
 70
0
 10
10.4326939625
 20
8.0583173549
 10
10.4308743939
 20
8.0393279314
 10
10.4228111443
 20
8.0149715503
 10
10.4088216131
 20
7.9934754096
 10
10.3999129645
 20
7.9842805138
  0
LINE
  5
22C
100
AcDbEntity
  8
0
100
AcDbLine
 62
7
  6
CONTINUOUS
 10
11.5226923427
 20
8.8513241221
 11
11.4755619619
 21
8.8513241221
  0
LINE
  5
22D
100
AcDbEntity
  8
0
100
AcDbLine
 62
7
  6
CONTINUOUS
 10
10.9848227236
 20
8.8513241221
 11
10.8905619619
 21
8.8513241221
  0
LINE
  5
22E
100
AcDbEntity
  8
0
100
AcDbLine
 62
7
  6
CONTINUOUS
 10
10.3998227236
 20
8.8513241221
 11
10.3526923427
 21
8.8513241221
  0
LINE
  5
22F
100
AcDbEntity
  8
0
100
AcDbLine
 62
7
  6
CONTINUOUS
 10
10.4376923427
 20
9.2770025661
 11
10.4083779787
 21
9.3015479721
  0
LWPOLYLINE
  5
230
100
AcDbEntity
  8
0
100
AcDbPolyline
 62
7
  6
CONTINUOUS
 90
5
 70
0
 10
11.4754725489
 20
7.9842797615
 10
11.4665535628
 20
7.9934865715
 10
11.4525670619
 20
8.0149850097
 10
11.4445083752
 20
8.0393378026
 10
11.442690715
 20
8.0583173559
  0
LINE
  5
231
100
AcDbEntity
  8
0
100
AcDbLine
 62
7
  6
CONTINUOUS
 10
10.7726923427
 20
12.6840779539
 11
10.7726923427
 21
12.6340779539
  0
LINE
  5
232
100
AcDbEntity
  8
0
100
AcDbLine
 62
7
  6
CONTINUOUS
 10
10.7726923427
 20
6.9723673079
 11
10.7726923427
 21
6.9223673079
  0
LINE
  5
233
100
AcDbEntity
  8
0
100
AcDbLine
 62
7
  6
CONTINUOUS
 10
10.8905619619
 20
8.3938283409
 11
10.8905619619
 21
8.8513241221
  0
LINE
  5
234
100
AcDbEntity
  8
0
100
AcDbLine
 62
9
  6
CONTINUOUS
 10
10.9375251391
 20
8.1320025661
 11
10.9375140162
 21
8.0708004315
  0
LINE
  5
235
100
AcDbEntity
  8
0
100
AcDbLine
 62
7
  6
CONTINUOUS
 10
11.4426923427
 20
9.2570025661
 11
10.4326923427
 21
9.2570025661
  0
LINE
  5
236
100
AcDbEntity
  8
0
100
AcDbLine
 62
7
  6
CONTINUOUS
 10
10.4377007157
 20
9.2770025661
 11
11.4376839698
 21
9.2770025661
  0
LINE
  5
237
100
AcDbEntity
  8
0
100
AcDbLine
 62
9
  6
CONTINUOUS
 10
11.4670067069
 20
9.3015479722
 11
10.4083779786
 21
9.3015479722
  0
LINE
  5
238
100
AcDbEntity
  8
0
100
AcDbLine
 62
7
  6
CONTINUOUS
 10
10.9848227236
 20
8.8513241221
 11
10.9848227236
 21
8.3938283409
  0
LINE
  5
239
100
AcDbEntity
  8
0
100
AcDbLine
 62
7
  6
CONTINUOUS
 10
11.1026923427
 20
12.6840779539
 11
11.1026923427
 21
12.6340779539
  0
LINE
  5
23A
100
AcDbEntity
  8
0
100
AcDbLine
 62
7
  6
CONTINUOUS
 10
11.1026923427
 20
6.9723673079
 11
11.1026923427
 21
6.9223673079
  0
LINE
  5
23B
100
AcDbEntity
  8
0
100
AcDbLine
 62
7
  6
CONTINUOUS
 10
11.4376923427
 20
9.2770025661
 11
11.4670067068
 21
9.3015479721
  0
LINE
  5
23C
100
AcDbEntity
  8
0
100
AcDbLine
 62
7
  6
CONTINUOUS
 10
10.9221062051
 20
9.3749819286
 11
10.9530416919
 21
9.3749819286
  0
LINE
  5
23D
100
AcDbEntity
  8
0
100
AcDbLine
 62
9
  6
CONTINUOUS
 10
11.4699083687
 20
9.375590075
 11
10.969840903
 21
9.375590075
  0
LINE
  5
23E
100
AcDbEntity
  8
0
100
AcDbLine
 62
9
  6
CONTINUOUS
 10
10.9055437825
 20
9.375590075
 11
10.4054763168
 21
9.375590075
  0
LINE
  5
23F
100
AcDbEntity
  8
0
100
AcDbLine
 62
9
  6
CONTINUOUS
 10
10.5685155204
 20
9.402182267
 11
11.306869165
 21
9.402182267
  0
LINE
  5
240
100
AcDbEntity
  8
0
100
AcDbLine
 62
7
  6
CONTINUOUS
 10
10.5054496663
 20
9.4614763302
 11
11.3699350192
 21
9.4614763302
  0
LINE
  5
241
100
AcDbEntity
  8
0
100
AcDbLine
 62
9
  6
CONTINUOUS
 10
11.4472286349
 20
9.4845542354
 11
11.43322558
 21
9.4845542354
  0
LINE
  5
242
100
AcDbEntity
  8
0
100
AcDbLine
 62
9
  6
CONTINUOUS
 10
10.4421591472
 20
9.4845542354
 11
10.4281560506
 21
9.4845542354
  0
LINE
  5
243
100
AcDbEntity
  8
0
100
AcDbLine
 62
9
  6
CONTINUOUS
 10
11.463516385
 20
9.5262268198
 11
10.4118682232
 21
9.526227025
  0
LINE
  5
244
100
AcDbEntity
  8
0
100
AcDbLine
 62
7
  6
CONTINUOUS
 10
11.3146923427
 20
12.3137132122
 11
11.3146923427
 21
12.2637132122
  0
LINE
  5
245
100
AcDbEntity
  8
0
100
AcDbLine
 62
7
  6
CONTINUOUS
 10
11.3401923427
 20
12.2637132122
 11
11.3401923427
 21
12.0128543995
  0
LINE
  5
246
100
AcDbEntity
  8
0
100
AcDbLine
 62
7
  6
CONTINUOUS
 10
11.4076923427
 20
12.2164763302
 11
11.4076923427
 21
12.1964763302
  0
LINE
  5
247
100
AcDbEntity
  8
0
100
AcDbLine
 62
7
  6
CONTINUOUS
 10
11.4076923427
 20
9.2770025661
 11
11.4076923427
 21
9.2570025661
  0
LINE
  5
248
100
AcDbEntity
  8
0
100
AcDbLine
 62
7
  6
CONTINUOUS
 10
11.4376923427
 20
11.0714763302
 11
11.4376923427
 21
11.0514763302
  0
LINE
  5
249
100
AcDbEntity
  8
0
100
AcDbLine
 62
7
  6
CONTINUOUS
 10
11.4426923427
 20
8.1320025661
 11
11.4426923427
 21
8.0583173559
  0
LINE
  5
24A
100
AcDbEntity
  8
0
100
AcDbLine
 62
7
  6
CONTINUOUS
 10
11.4755619619
 20
8.3938283409
 11
11.4755619619
 21
8.8513241221
  0
LINE
  5
24B
100
AcDbEntity
  8
0
100
AcDbLine
 62
7
  6
CONTINUOUS
 10
11.4755619619
 20
11.3333021049
 11
11.4755619619
 21
11.7907978861
  0
LINE
  5
24C
100
AcDbEntity
  8
0
100
AcDbLine
 62
7
  6
CONTINUOUS
 10
11.5226923427
 20
8.3108148629
 11
11.5226923427
 21
8.9471638984
  0
LINE
  5
24D
100
AcDbEntity
  8
0
100
AcDbLine
 62
7
  6
CONTINUOUS
 10
11.5226923427
 20
11.2502886269
 11
11.5226923427
 21
11.8866376625
  0
LINE
  5
24E
100
AcDbEntity
  8
0
100
AcDbLine
 62
7
  6
CONTINUOUS
 10
11.5316923427
 20
7.15374622
 11
11.5316923427
 21
7.6302585252
  0
LINE
  5
24F
100
AcDbEntity
  8
0
100
AcDbLine
 62
7
  6
CONTINUOUS
 10
10.434356512
 20
7.7872936086
 11
10.847029345
 21
8.0255503798
  0
LINE
  5
250
100
AcDbEntity
  8
0
100
AcDbLine
 62
7
  6
CONTINUOUS
 10
10.9133988895
 20
10.3540779539
 11
10.9619857959
 21
10.3540779539
  0
LINE
  5
251
100
AcDbEntity
  8
0
100
AcDbLine
 62
9
  6
CONTINUOUS
 10
10.6569259688
 20
10.410614639
 11
11.2184587167
 21
10.410614639
  0
LINE
  5
252
100
AcDbEntity
  8
0
100
AcDbLine
 62
9
  6
CONTINUOUS
 10
11.3169317135
 20
10.4598033346
 11
10.558452972
 21
10.4598033346
  0
LINE
  5
253
100
AcDbEntity
  8
0
100
AcDbLine
 62
9
  6
CONTINUOUS
 10
11.3271613418
 20
10.5259899505
 11
10.5482233437
 21
10.5259899505
  0
LINE
  5
254
100
AcDbEntity
  8
0
100
AcDbLine
 62
7
  6
CONTINUOUS
 10
11.302694233
 20
10.5440779548
 11
10.5726904944
 21
10.5440779548
  0
LINE
  5
255
100
AcDbEntity
  8
0
100
AcDbLine
 62
9
  6
CONTINUOUS
 10
10.574724637
 20
10.4480994287
 11
11.3006600484
 21
10.4480994287
  0
LINE
  5
256
100
AcDbEntity
  8
0
100
AcDbLine
 62
9
  6
CONTINUOUS
 10
10.4281560506
 20
10.843924661
 11
10.5908480736
 21
10.843924661
  0
LINE
  5
257
100
AcDbEntity
  8
0
100
AcDbLine
 62
9
  6
CONTINUOUS
 10
11.2845366119
 20
10.843924661
 11
11.4472286349
 21
10.843924661
  0
LINE
  5
258
100
AcDbEntity
  8
0
100
AcDbLine
 62
9
  6
CONTINUOUS
 10
10.4054763261
 20
10.9528888122
 11
10.5978818322
 21
10.9528888122
  0
LINE
  5
259
100
AcDbEntity
  8
0
100
AcDbLine
 62
9
  6
CONTINUOUS
 10
11.2775028533
 20
10.9528888122
 11
11.4699083593
 21
10.9528888122
  0
LINE
  5
25A
100
AcDbEntity
  8
0
100
AcDbLine
 62
9
  6
CONTINUOUS
 10
10.4083779943
 20
11.0269309372
 11
10.6032941484
 21
11.0269309372
  0
LINE
  5
25B
100
AcDbEntity
  8
0
100
AcDbLine
 62
9
  6
CONTINUOUS
 10
11.2720905371
 20
11.0269309372
 11
11.4670066912
 21
11.0269309372
  0
LINE
  5
25C
100
AcDbEntity
  8
0
100
AcDbLine
 62
7
  6
CONTINUOUS
 10
10.4376923427
 20
11.0514763302
 11
10.6050883625
 21
11.0514763302
  0
LINE
  5
25D
100
AcDbEntity
  8
0
100
AcDbLine
 62
7
  6
CONTINUOUS
 10
11.270296323
 20
11.0514763302
 11
11.4376923427
 21
11.0514763302
  0
LINE
  5
25E
100
AcDbEntity
  8
0
100
AcDbLine
 62
7
  6
CONTINUOUS
 10
11.3244440673
 20
11.067864485
 11
11.269098385
 21
11.067864485
  0
LINE
  5
25F
100
AcDbEntity
  8
0
100
AcDbLine
 62
7
  6
CONTINUOUS
 10
10.6062863005
 20
11.067864485
 11
10.4969572085
 21
11.067864485
  0
LINE
  5
260
100
AcDbEntity
  8
0
100
AcDbLine
 62
7
  6
CONTINUOUS
 10
10.3976923427
 20
11.0714763302
 11
10.6065503184
 21
11.0714763302
  0
LINE
  5
261
100
AcDbEntity
  8
0
100
AcDbLine
 62
7
  6
CONTINUOUS
 10
11.268834367
 20
11.0714763302
 11
11.4776923427
 21
11.0714763302
  0
LINE
  5
262
100
AcDbEntity
  8
0
100
AcDbLine
 62
9
  6
CONTINUOUS
 10
11.3244440673
 20
11.067864485
 11
11.3196051075
 21
11.0714763302
  0
LINE
  5
263
100
AcDbEntity
  8
0
100
AcDbLine
 62
7
  6
CONTINUOUS
 10
11.4376923427
 20
11.0514763302
 11
11.4670066912
 21
11.0269309372
  0
LINE
  5
264
100
AcDbEntity
  8
0
100
AcDbLine
 62
7
  6
CONTINUOUS
 10
10.4376923427
 20
12.2164763302
 11
10.4083779787
 21
12.2410217361
  0
LINE
  5
265
100
AcDbEntity
  8
0
100
AcDbLine
 62
7
  6
CONTINUOUS
 10
11.1776077963
 20
6.8446256981
 11
11.4410281734
 21
6.9967115237
  0
LINE
  5
266
100
AcDbEntity
  8
0
100
AcDbLine
 62
7
  6
CONTINUOUS
 10
10.3526923427
 20
11.3333021049
 11
10.3998227236
 21
11.3333021049
  0
LINE
  5
267
100
AcDbEntity
  8
0
100
AcDbLine
 62
7
  6
CONTINUOUS
 10
11.4755619619
 20
11.3333021049
 11
11.5226923427
 21
11.3333021049
  0
LINE
  5
268
100
AcDbEntity
  8
0
100
AcDbLine
 62
9
  6
CONTINUOUS
 10
11.2207338998
 20
11.6652918751
 11
10.6546507857
 21
11.6652918751
  0
LINE
  5
269
100
AcDbEntity
  8
0
100
AcDbLine
 62
7
  6
CONTINUOUS
 10
11.5226923427
 20
11.7907978861
 11
11.4755619619
 21
11.7907978861
  0
LINE
  5
26A
100
AcDbEntity
  8
0
100
AcDbLine
 62
7
  6
CONTINUOUS
 10
10.3998227236
 20
11.7907978861
 11
10.3526923427
 21
11.7907978861
  0
LINE
  5
26B
100
AcDbEntity
  8
0
100
AcDbLine
 62
7
  6
CONTINUOUS
 10
10.541471416
 20
11.9637132122
 11
10.6835205837
 21
11.9637132122
  0
LINE
  5
26C
100
AcDbEntity
  8
0
100
AcDbLine
 62
7
  6
CONTINUOUS
 10
11.1918641017
 20
11.9637132122
 11
11.3339132695
 21
11.9637132122
  0
LINE
  5
26D
100
AcDbEntity
  8
0
100
AcDbLine
 62
9
  6
CONTINUOUS
 10
10.5351923427
 20
12.0128543995
 11
10.6884550751
 21
12.0128543995
  0
LINE
  5
26E
100
AcDbEntity
  8
0
100
AcDbLine
 62
9
  6
CONTINUOUS
 10
11.1869296103
 20
12.0128543995
 11
11.3401923427
 21
12.0128543995
  0
LINE
  5
26F
100
AcDbEntity
  8
0
100
AcDbLine
 62
7
  6
CONTINUOUS
 10
11.4426923427
 20
12.1964763302
 11
11.3401923427
 21
12.1964763302
  0
LINE
  5
270
100
AcDbEntity
  8
0
100
AcDbLine
 62
7
  6
CONTINUOUS
 10
10.5351923427
 20
12.1964763302
 11
10.4326923427
 21
12.1964763302
  0
LINE
  5
271
100
AcDbEntity
  8
0
100
AcDbLine
 62
7
  6
CONTINUOUS
 10
10.4377007157
 20
12.2164763302
 11
10.5351923427
 21
12.2164763302
  0
LINE
  5
272
100
AcDbEntity
  8
0
100
AcDbLine
 62
7
  6
CONTINUOUS
 10
11.3401923427
 20
12.2164763302
 11
11.4376839698
 21
12.2164763302
  0
LINE
  5
273
100
AcDbEntity
  8
0
100
AcDbLine
 62
9
  6
CONTINUOUS
 10
11.4670067069
 20
12.2410217363
 11
11.3401923427
 21
12.2410217363
  0
LINE
  5
274
100
AcDbEntity
  8
0
100
AcDbLine
 62
9
  6
CONTINUOUS
 10
10.5351923427
 20
12.2410217363
 11
10.4083779786
 21
12.2410217363
  0
LINE
  5
275
100
AcDbEntity
  8
0
100
AcDbLine
 62
9
  6
CONTINUOUS
 10
10.713210034
 20
12.2484667471
 11
11.1621746515
 21
12.2484667471
  0
LINE
  5
276
100
AcDbEntity
  8
0
100
AcDbLine
 62
7
  6
CONTINUOUS
 10
11.3401923427
 20
12.2637132122
 11
11.1630207998
 21
12.2637132122
  0
LINE
  5
277
100
AcDbEntity
  8
0
100
AcDbLine
 62
7
  6
CONTINUOUS
 10
10.7123638857
 20
12.2637132122
 11
10.5351923427
 21
12.2637132122
  0
LINE
  5
278
100
AcDbEntity
  8
0
100
AcDbLine
 62
9
  6
CONTINUOUS
 10
11.1817155107
 20
12.2937541586
 11
10.6936691748
 21
12.2937541586
  0
LINE
  5
279
100
AcDbEntity
  8
0
100
AcDbLine
 62
7
  6
CONTINUOUS
 10
10.4879790451
 20
12.3137132122
 11
10.6782187304
 21
12.3137132122
  0
LINE
  5
27A
100
AcDbEntity
  8
0
100
AcDbLine
 62
7
  6
CONTINUOUS
 10
11.1971659551
 20
12.3137132122
 11
11.3874056403
 21
12.3137132122
  0
LINE
  5
27B
100
AcDbEntity
  8
0
100
AcDbLine
 62
9
  6
CONTINUOUS
 10
11.4699083687
 20
12.315063839
 11
11.3941957001
 21
12.315063839
  0
LINE
  5
27C
100
AcDbEntity
  8
0
100
AcDbLine
 62
9
  6
CONTINUOUS
 10
10.4811889854
 20
12.315063839
 11
10.4054763168
 21
12.315063839
  0
LINE
  5
27D
100
AcDbEntity
  8
0
100
AcDbLine
 62
9
  6
CONTINUOUS
 10
10.4693112541
 20
12.3408905081
 11
10.6744274392
 21
12.3408905081
  0
LINE
  5
27E
100
AcDbEntity
  8
0
100
AcDbLine
 62
9
  6
CONTINUOUS
 10
11.2009572463
 20
12.3408905081
 11
11.4060734314
 21
12.3408905081
  0
LINE
  5
27F
100
AcDbEntity
  8
0
100
AcDbLine
 62
9
  6
CONTINUOUS
 10
10.6769747126
 20
12.3510696261
 11
11.1984099728
 21
12.3510696261
  0
LINE
  5
280
100
AcDbEntity
  8
0
100
AcDbLine
 62
9
  6
CONTINUOUS
 10
11.4472286349
 20
12.4240279994
 11
11.3845707897
 21
12.4240279994
  0
LINE
  5
281
100
AcDbEntity
  8
0
100
AcDbLine
 62
9
  6
CONTINUOUS
 10
10.4908138958
 20
12.4240279994
 11
10.4281560506
 21
12.4240279994
  0
LINE
  5
282
100
AcDbEntity
  8
0
100
AcDbLine
 62
9
  6
CONTINUOUS
 10
10.6958901776
 20
12.5686234084
 11
11.1794945078
 21
12.5686234084
  0
LINE
  5
283
100
AcDbEntity
  8
0
100
AcDbLine
 62
7
  6
CONTINUOUS
 10
10.7253901426
 20
12.6040779539
 11
11.1499945428
 21
12.6040779539
  0
LINE
  5
284
100
AcDbEntity
  8
0
100
AcDbLine
 62
9
  6
CONTINUOUS
 10
10.7726923427
 20
12.6340779539
 11
11.1026923427
 21
12.6340779539
  0
LINE
  5
285
100
AcDbEntity
  8
0
100
AcDbLine
 62
7
  6
CONTINUOUS
 10
11.1026923427
 20
12.6840779539
 11
10.7726923427
 21
12.6840779539
  0
LINE
  5
286
100
AcDbEntity
  8
0
100
AcDbLine
 62
9
  6
CONTINUOUS
 10
11.4572326917
 20
12.7214792193
 11
11.3261939122
 21
12.7214829485
  0
LINE
  5
287
100
AcDbEntity
  8
0
100
AcDbLine
 62
9
  6
CONTINUOUS
 10
10.5491907733
 20
12.7214829485
 11
10.4181519933
 21
12.7214792199
  0
LINE
  5
288
100
AcDbEntity
  8
0
100
AcDbLine
 62
9
  6
CONTINUOUS
 10
10.4118682232
 20
13.7417256353
 11
10.8557562634
 21
13.7417256353
  0
LINE
  5
289
100
AcDbEntity
  8
0
100
AcDbLine
 62
9
  6
CONTINUOUS
 10
11.0196284221
 20
13.7417256353
 11
11.4635164623
 21
13.7417256353
  0
LINE
  5
28A
100
AcDbEntity
  8
0
100
AcDbLine
 62
7
  6
CONTINUOUS
 10
11.3699350192
 20
13.8064763302
 11
10.5054496663
 21
13.8064763302
  0
LINE
  5
28B
100
AcDbEntity
  8
0
100
AcDbLine
 62
9
  6
CONTINUOUS
 10
11.3068730818
 20
13.8657697871
 11
10.5685116037
 21
13.8657697871
  0
LINE
  5
28C
100
AcDbEntity
  8
0
100
AcDbLine
 62
7
  6
CONTINUOUS
 10
10.9534146295
 20
13.8929716965
 11
10.9222089128
 21
13.8929716965
  0
ARC
  5
28D
100
AcDbEntity
  8
0
100
AcDbCircle
 62
7
  6
CONTINUOUS
 10
-23.6321942953
 20
2.7483673078
 40
35.0000000007
100
AcDbArc
 50
5.2543683477
 51
6.213850751
  0
ARC
  5
28E
100
AcDbEntity
  8
0
100
AcDbCircle
 62
7
  6
CONTINUOUS
 10
-18.6532045524
 20
3.2062550109
 40
30.0
100
AcDbArc
 50
3.1071684918
 51
5.2543683477
  0
ARC
  5
28F
100
AcDbEntity
  8
0
100
AcDbCircle
 62
7
  6
CONTINUOUS
 10
7.5414106501
 20
-2.0243143124
 40
7.4100000055
100
AcDbArc
 50
65.1371623574
 51
65.8357322903
  0
ARC
  5
290
100
AcDbEntity
  8
0
100
AcDbCircle
 62
7
  6
CONTINUOUS
 10
7.5414106501
 20
3.6873963337
 40
7.4100000055
100
AcDbArc
 50
65.1371623574
 51
65.8357322903
  0
ARC
  5
291
100
AcDbEntity
  8
0
100
AcDbCircle
 62
7
  6
CONTINUOUS
 10
10.9133988895
 20
5.2523673078
 40
0.61
100
AcDbArc
 50
245.1371623565
 51
270.0000000002
  0
ARC
  5
292
100
AcDbEntity
  8
0
100
AcDbCircle
 62
7
  6
CONTINUOUS
 10
10.6025402169
 20
4.7887905366
 40
0.06
100
AcDbArc
 50
154.8611852889
 51
222.7107439917
  0
ARC
  5
293
100
AcDbEntity
  8
0
100
AcDbCircle
 62
7
  6
CONTINUOUS
 10
10.5951923427
 20
4.7820075619
 40
0.05
100
AcDbArc
 50
222.7107440466
 51
245.8357322902
  0
ARC
  5
294
100
AcDbEntity
  8
0
100
AcDbCircle
 62
7
  6
CONTINUOUS
 10
10.5771923427
 20
4.8006852949
 40
0.032
100
AcDbArc
 50
98.0840138139
 51
154.8611852572
  0
ARC
  5
295
100
AcDbEntity
  8
0
100
AcDbCircle
 62
7
  6
CONTINUOUS
 10
-23.6321942953
 20
8.4600779538
 40
35.0000000007
100
AcDbArc
 50
5.2543683477
 51
6.213850751
  0
ARC
  5
296
100
AcDbEntity
  8
0
100
AcDbCircle
 62
7
  6
CONTINUOUS
 10
-18.6532045524
 20
8.9179656569
 40
30.0
100
AcDbArc
 50
3.1071684918
 51
5.2543683477
  0
ARC
  5
297
100
AcDbEntity
  8
0
100
AcDbCircle
 62
7
  6
CONTINUOUS
 10
9.7696923427
 20
10.1642394482
 40
1.81
100
AcDbArc
 50
337.9437488383
 51
339.3595724997
  0
ARC
  5
298
100
AcDbEntity
  8
0
100
AcDbCircle
 62
7
  6
CONTINUOUS
 10
9.7696923427
 20
10.1642394482
 40
1.81
100
AcDbArc
 50
339.3601226957
 51
22.0562511617
  0
ARC
  5
299
100
AcDbEntity
  8
0
100
AcDbCircle
 62
7
  6
CONTINUOUS
 10
9.7926923427
 20
9.2570025661
 40
0.64
100
AcDbArc
 50
331.0449756281
 51
360.0
  0
ARC
  5
29A
100
AcDbEntity
  8
0
100
AcDbCircle
 62
7
  6
CONTINUOUS
 10
10.937636114
 20
7.3921524406
 40
0.4501599636
100
AcDbArc
 50
291.1682322582
 51
291.4628688475
  0
ARC
  5
29B
100
AcDbEntity
  8
0
100
AcDbCircle
 62
7
  6
CONTINUOUS
 10
10.9376921743
 20
7.3920025202
 40
0.4499999327
100
AcDbArc
 50
291.4632104319
 51
89.9999785512
  0
ARC
  5
29C
100
AcDbEntity
  8
0
100
AcDbCircle
 62
7
  6
CONTINUOUS
 10
10.2927239896
 20
6.7823673079
 40
0.41
100
AcDbArc
 50
339.5860158063
 51
10.4756816964
  0
ARC
  5
29D
100
AcDbEntity
  8
0
100
AcDbCircle
 62
7
  6
CONTINUOUS
 10
10.0477624491
 20
8.1390075291
 40
0.35
100
AcDbArc
 50
358.85319539
 51
29.3983126613
  0
ARC
  5
29E
100
AcDbEntity
  8
0
100
AcDbCircle
 62
7
  6
CONTINUOUS
 10
10.3354744875
 20
9.4470025661
 40
0.1
100
AcDbArc
 50
314.428471752
 51
22.0562511617
  0
ARC
  5
29F
100
AcDbEntity
  8
0
100
AcDbCircle
 62
7
  6
CONTINUOUS
 10
10.5054496663
 20
9.5614763302
 40
0.1
100
AcDbArc
 50
200.6398773043
 51
270.0
  0
ARC
  5
2A0
100
AcDbEntity
  8
0
100
AcDbCircle
 62
7
  6
CONTINUOUS
 10
10.5776923427
 20
9.4614763302
 40
0.06
100
AcDbArc
 50
180.0
 51
261.2022494378
  0
ARC
  5
2A1
100
AcDbEntity
  8
0
100
AcDbCircle
 62
7
  6
CONTINUOUS
 10
10.6635037926
 20
6.542168085
 40
0.05
100
AcDbArc
 50
353.786149249
 51
52.8928407793
  0
ARC
  5
2A2
100
AcDbEntity
  8
0
100
AcDbCircle
 62
7
  6
CONTINUOUS
 10
10.7238345569
 20
6.6219189401
 40
0.05
100
AcDbArc
 50
159.5860158063
 51
232.8928407794
  0
ARC
  5
2A3
100
AcDbEntity
  8
0
100
AcDbCircle
 62
7
  6
CONTINUOUS
 10
10.4404772316
 20
9.3398838295
 40
0.05
100
AcDbArc
 50
134.4284718477
 51
230.0599998062
  0
ARC
  5
2A4
100
AcDbEntity
  8
0
100
AcDbCircle
 62
7
  6
CONTINUOUS
 10
10.7426923427
 20
6.9223673079
 40
0.03
100
AcDbArc
 50
270.0
 51
360.0
  0
ARC
  5
2A5
100
AcDbEntity
  8
0
100
AcDbCircle
 62
7
  6
CONTINUOUS
 10
10.7253901426
 20
6.8623673079
 40
0.03
100
AcDbArc
 50
90.0
 51
190.4756816963
  0
ARC
  5
2A6
100
AcDbEntity
  8
0
100
AcDbCircle
 62
7
  6
CONTINUOUS
 10
10.9221062051
 20
11.6868324149
 40
2.3118504862
100
AcDbArc
 50
261.2022494378
 51
270.0
  0
ARC
  5
2A7
100
AcDbEntity
  8
0
100
AcDbCircle
 62
7
  6
CONTINUOUS
 10
10.921970056
 20
11.5829716965
 40
2.31
100
AcDbArc
 50
90.0000000001
 51
98.8015353094
  0
ARC
  5
2A8
100
AcDbEntity
  8
0
100
AcDbCircle
 62
7
  6
CONTINUOUS
 10
9.7696923427
 20
13.1037132122
 40
1.81
100
AcDbArc
 50
1.8039101047
 51
20.6398773044
  0
ARC
  5
2A9
100
AcDbEntity
  8
0
100
AcDbCircle
 62
7
  6
CONTINUOUS
 10
9.7696923427
 20
13.1037132122
 40
1.81
100
AcDbArc
 50
337.9437488383
 51
357.561917616
  0
ARC
  5
2AA
100
AcDbEntity
  8
0
100
AcDbCircle
 62
7
  6
CONTINUOUS
 10
9.7926923427
 20
12.1964763302
 40
0.64
100
AcDbArc
 50
331.0449756281
 51
360.0
  0
ARC
  5
2AB
100
AcDbEntity
  8
0
100
AcDbCircle
 62
7
  6
CONTINUOUS
 10
10.9133988895
 20
10.9640779539
 40
0.61
100
AcDbArc
 50
245.1371623565
 51
270.0000000002
  0
ARC
  5
2AC
100
AcDbEntity
  8
0
100
AcDbCircle
 62
7
  6
CONTINUOUS
 10
10.937636114
 20
13.1038630864
 40
0.4501599634
100
AcDbArc
 50
291.168232258
 51
291.4628688475
  0
ARC
  5
2AD
100
AcDbEntity
  8
0
100
AcDbCircle
 62
7
  6
CONTINUOUS
 10
10.9376921743
 20
13.1037131662
 40
0.4499999327
100
AcDbArc
 50
291.4632104321
 51
89.999978551
  0
ARC
  5
2AE
100
AcDbEntity
  8
0
100
AcDbCircle
 62
7
  6
CONTINUOUS
 10
10.2927239896
 20
12.4940779539
 40
0.41
100
AcDbArc
 50
339.5860158063
 51
10.4756816964
  0
ARC
  5
2AF
100
AcDbEntity
  8
0
100
AcDbCircle
 62
7
  6
CONTINUOUS
 10
10.0959553844
 20
12.4844363008
 40
0.4
100
AcDbArc
 50
338.9695236741
 51
36.3424046392
  0
ARC
  5
2B0
100
AcDbEntity
  8
0
100
AcDbCircle
 62
7
  6
CONTINUOUS
 10
10.0477624491
 20
11.0784812931
 40
0.35
100
AcDbArc
 50
358.85319539
 51
29.3983126613
  0
ARC
  5
2B1
100
AcDbEntity
  8
0
100
AcDbCircle
 62
7
  6
CONTINUOUS
 10
10.7306258857
 20
12.0128543995
 40
0.1954335429
100
AcDbArc
 50
180.0
 51
194.5631575117
  0
ARC
  5
2B2
100
AcDbEntity
  8
0
100
AcDbCircle
 62
7
  6
CONTINUOUS
 10
10.3354744875
 20
10.8814763302
 40
0.1
100
AcDbArc
 50
337.9437488383
 51
45.5715208257
  0
ARC
  5
2B3
100
AcDbEntity
  8
0
100
AcDbCircle
 62
7
  6
CONTINUOUS
 10
10.5054496663
 20
13.7064763302
 40
0.1
100
AcDbArc
 50
90.0
 51
159.3601226956
  0
ARC
  5
2B4
100
AcDbEntity
  8
0
100
AcDbCircle
 62
7
  6
CONTINUOUS
 10
10.3354744875
 20
12.3864763302
 40
0.1
100
AcDbArc
 50
314.428471752
 51
22.0562511617
  0
ARC
  5
2B5
100
AcDbEntity
  8
0
100
AcDbCircle
 62
7
  6
CONTINUOUS
 10
10.6025402169
 20
10.5005011826
 40
0.06
100
AcDbArc
 50
154.8611852889
 51
222.7107439917
  0
ARC
  5
2B6
100
AcDbEntity
  8
0
100
AcDbCircle
 62
7
  6
CONTINUOUS
 10
10.5776923427
 20
13.8064763302
 40
0.06
100
AcDbArc
 50
98.8015353094
 51
180.0
  0
ARC
  5
2B7
100
AcDbEntity
  8
0
100
AcDbCircle
 62
7
  6
CONTINUOUS
 10
10.5951923427
 20
10.493718208
 40
0.05
100
AcDbArc
 50
222.7107440466
 51
245.8357322902
  0
ARC
  5
2B8
100
AcDbEntity
  8
0
100
AcDbCircle
 62
7
  6
CONTINUOUS
 10
10.6635037926
 20
12.253878731
 40
0.05
100
AcDbArc
 50
353.786149249
 51
52.8928407793
  0
ARC
  5
2B9
100
AcDbEntity
  8
0
100
AcDbCircle
 62
7
  6
CONTINUOUS
 10
10.7238345569
 20
12.3336295861
 40
0.05
100
AcDbArc
 50
159.5860158063
 51
232.8928407794
  0
ARC
  5
2BA
100
AcDbEntity
  8
0
100
AcDbCircle
 62
7
  6
CONTINUOUS
 10
10.4404772316
 20
10.9885950668
 40
0.05
100
AcDbArc
 50
129.94
 51
225.571528248
  0
ARC
  5
2BB
100
AcDbEntity
  8
0
100
AcDbCircle
 62
7
  6
CONTINUOUS
 10
10.4404772316
 20
12.2793575936
 40
0.05
100
AcDbArc
 50
134.4284718478
 51
230.0599998062
  0
ARC
  5
2BC
100
AcDbEntity
  8
0
100
AcDbCircle
 62
7
  6
CONTINUOUS
 10
10.5771923427
 20
10.512395941
 40
0.032
100
AcDbArc
 50
98.0840138139
 51
154.8611852572
  0
ARC
  5
2BD
100
AcDbEntity
  8
0
100
AcDbCircle
 62
7
  6
CONTINUOUS
 10
10.7426923427
 20
12.6340779539
 40
0.03
100
AcDbArc
 50
270.0
 51
360.0
  0
ARC
  5
2BE
100
AcDbEntity
  8
0
100
AcDbCircle
 62
7
  6
CONTINUOUS
 10
10.7253901426
 20
12.5740779539
 40
0.03
100
AcDbArc
 50
90.0
 51
190.4756816963
  0
ARC
  5
2BF
100
AcDbEntity
  8
0
100
AcDbCircle
 62
7
  6
CONTINUOUS
 10
10.4879790451
 20
12.3337132122
 40
0.02
100
AcDbArc
 50
158.969504339
 51
270.0
  0
ARC
  5
2C0
100
AcDbEntity
  8
0
100
AcDbCircle
 62
7
  6
CONTINUOUS
 10
45.5075789807
 20
2.7483673078
 40
35.0000000007
100
AcDbArc
 50
173.786149249
 51
174.7456316523
  0
ARC
  5
2C1
100
AcDbEntity
  8
0
100
AcDbCircle
 62
7
  6
CONTINUOUS
 10
40.5285892379
 20
3.2062550109
 40
30.0
100
AcDbArc
 50
174.7456316523
 51
176.8928315082
  0
ARC
  5
2C2
100
AcDbEntity
  8
0
100
AcDbCircle
 62
7
  6
CONTINUOUS
 10
14.3339740352
 20
-2.024314312
 40
7.4100000051
100
AcDbArc
 50
114.1642677097
 51
114.8628376426
  0
ARC
  5
2C3
100
AcDbEntity
  8
0
100
AcDbCircle
 62
7
  6
CONTINUOUS
 10
14.3339740352
 20
3.6873963341
 40
7.4100000051
100
AcDbArc
 50
114.1642677097
 51
114.8628376426
  0
ARC
  5
2C4
100
AcDbEntity
  8
0
100
AcDbCircle
 62
7
  6
CONTINUOUS
 10
10.9619857959
 20
5.2523673078
 40
0.61
100
AcDbArc
 50
269.9999999998
 51
294.8628376435
  0
ARC
  5
2C5
100
AcDbEntity
  8
0
100
AcDbCircle
 62
7
  6
CONTINUOUS
 10
11.2728444686
 20
4.7887905366
 40
0.06
100
AcDbArc
 50
317.2892559533
 51
25.1388147427
  0
ARC
  5
2C6
100
AcDbEntity
  8
0
100
AcDbCircle
 62
7
  6
CONTINUOUS
 10
11.2801923427
 20
4.7820075619
 40
0.05
100
AcDbArc
 50
294.1642677098
 51
317.2892560084
  0
ARC
  5
2C7
100
AcDbEntity
  8
0
100
AcDbCircle
 62
7
  6
CONTINUOUS
 10
11.2981923427
 20
4.8006852949
 40
0.032
100
AcDbArc
 50
25.1388147112
 51
81.9159864546
  0
ARC
  5
2C8
100
AcDbEntity
  8
0
100
AcDbCircle
 62
7
  6
CONTINUOUS
 10
10.9376923427
 20
7.3920025661
 40
1.46
100
AcDbArc
 50
113.6791000499
 51
258.8536604954
  0
ARC
  5
2C9
100
AcDbEntity
  8
0
100
AcDbCircle
 62
7
  6
CONTINUOUS
 10
10.9376923427
 20
7.3920025661
 40
1.46
100
AcDbArc
 50
281.1463395046
 51
66.3208999501
  0
ARC
  5
2CA
100
AcDbEntity
  8
0
100
AcDbCircle
 62
9
  6
CONTINUOUS
 10
10.9376923427
 20
7.3920025661
 40
1.43
100
AcDbArc
 50
114.2070509253
 51
258.7203736436
  0
ARC
  5
2CB
100
AcDbEntity
  8
0
100
AcDbCircle
 62
9
  6
CONTINUOUS
 10
10.9376923427
 20
7.3920025661
 40
1.43
100
AcDbArc
 50
281.279391874
 51
65.7934758236
  0
ARC
  5
2CC
100
AcDbEntity
  8
0
100
AcDbCircle
 62
7
  6
CONTINUOUS
 10
10.9376923427
 20
7.3920025661
 40
1.415
100
AcDbArc
 50
114.4779743158
 51
258.6585637256
  0
ARC
  5
2CD
100
AcDbEntity
  8
0
100
AcDbCircle
 62
7
  6
CONTINUOUS
 10
10.9376923427
 20
7.3920025661
 40
1.415
100
AcDbArc
 50
281.3416336463
 51
65.5214826514
  0
ARC
  5
2CE
100
AcDbEntity
  8
0
100
AcDbCircle
 62
7
  6
CONTINUOUS
 10
10.9376923427
 20
7.3920025661
 40
1.145
100
AcDbArc
 50
282.7253584199
 51
59.2126629613
  0
ARC
  5
2CF
100
AcDbEntity
  8
0
100
AcDbCircle
 62
7
  6
CONTINUOUS
 10
10.9376923427
 20
7.3920025661
 40
1.145
100
AcDbArc
 50
120.7878099084
 51
257.2747255568
  0
ARC
  5
2D0
100
AcDbEntity
  8
0
100
AcDbCircle
 62
7
  6
CONTINUOUS
 10
10.9376923427
 20
7.3920025661
 40
1.095
100
AcDbArc
 50
283.0453921499
 51
57.6893680353
  0
ARC
  5
2D1
100
AcDbEntity
  8
0
100
AcDbCircle
 62
7
  6
CONTINUOUS
 10
10.9376923427
 20
7.3920025661
 40
1.095
100
AcDbArc
 50
122.3091592933
 51
256.9543843046
  0
ARC
  5
2D2
100
AcDbEntity
  8
0
100
AcDbCircle
 62
7
  6
CONTINUOUS
 10
10.9376923427
 20
7.3920025661
 40
0.8
100
AcDbArc
 50
132.2400215027
 51
250.8742205857
  0
ARC
  5
2D3
100
AcDbEntity
  8
0
100
AcDbCircle
 62
7
  6
CONTINUOUS
 10
10.9376923427
 20
7.3920025661
 40
0.8
100
AcDbArc
 50
289.1257788571
 51
47.7600369078
  0
ARC
  5
2D4
100
AcDbEntity
  8
0
100
AcDbCircle
 62
7
  6
CONTINUOUS
 10
10.9376923427
 20
7.3920025661
 40
0.64
100
AcDbArc
 50
201.8556020443
 51
218.1443979556
  0
ARC
  5
2D5
100
AcDbEntity
  8
0
100
AcDbCircle
 62
7
  6
CONTINUOUS
 10
10.9376923427
 20
7.3920025661
 40
0.64
100
AcDbArc
 50
321.8556020443
 51
338.1443979557
  0
ARC
  5
2D6
100
AcDbEntity
  8
0
100
AcDbCircle
 62
7
  6
CONTINUOUS
 10
10.9376923427
 20
7.3920025661
 40
0.64
100
AcDbArc
 50
21.8556020443
 51
38.1443979556
  0
ARC
  5
2D7
100
AcDbEntity
  8
0
100
AcDbCircle
 62
7
  6
CONTINUOUS
 10
10.9376923427
 20
7.3920025661
 40
0.64
100
AcDbArc
 50
81.8556020443
 51
98.1443979557
  0
ARC
  5
2D8
100
AcDbEntity
  8
0
100
AcDbCircle
 62
7
  6
CONTINUOUS
 10
10.9376923427
 20
7.3920025661
 40
0.64
100
AcDbArc
 50
141.8556020443
 51
158.1443979557
  0
ARC
  5
2D9
100
AcDbEntity
  8
0
100
AcDbCircle
 62
9
  6
CONTINUOUS
 10
10.9376923427
 20
7.3920025661
 40
0.6236816927
100
AcDbArc
 50
17.747536227
 51
42.252463773
  0
ARC
  5
2DA
100
AcDbEntity
  8
0
100
AcDbCircle
 62
9
  6
CONTINUOUS
 10
10.9376923427
 20
7.3920025661
 40
0.6236816927
100
AcDbArc
 50
317.747536227
 51
342.252463773
  0
ARC
  5
2DB
100
AcDbEntity
  8
0
100
AcDbCircle
 62
9
  6
CONTINUOUS
 10
10.9376923427
 20
7.3920025661
 40
0.6236816927
100
AcDbArc
 50
77.747536227
 51
102.252463773
  0
ARC
  5
2DC
100
AcDbEntity
  8
0
100
AcDbCircle
 62
9
  6
CONTINUOUS
 10
10.9376923427
 20
7.3920025661
 40
0.6236816927
100
AcDbArc
 50
197.747536227
 51
222.252463773
  0
ARC
  5
2DD
100
AcDbEntity
  8
0
100
AcDbCircle
 62
9
  6
CONTINUOUS
 10
10.9376923427
 20
7.3920025661
 40
0.6236816927
100
AcDbArc
 50
137.747536227
 51
162.252463773
  0
ARC
  5
2DE
100
AcDbEntity
  8
0
100
AcDbCircle
 62
9
  6
CONTINUOUS
 10
10.9376923427
 20
7.3920025661
 40
0.6055083642
100
AcDbArc
 50
109.047039416
 51
131.1495506193
  0
ARC
  5
2DF
100
AcDbEntity
  8
0
100
AcDbCircle
 62
9
  6
CONTINUOUS
 10
10.9376923427
 20
7.3920025661
 40
0.6055083642
100
AcDbArc
 50
169.1014226486
 51
190.9478504078
  0
ARC
  5
2E0
100
AcDbEntity
  8
0
100
AcDbCircle
 62
9
  6
CONTINUOUS
 10
10.9376923427
 20
7.3920025661
 40
0.6055083642
100
AcDbArc
 50
228.9445013248
 51
246.7687137739
  0
ARC
  5
2E1
100
AcDbEntity
  8
0
100
AcDbCircle
 62
9
  6
CONTINUOUS
 10
10.9376923427
 20
7.3920025661
 40
0.6055083642
100
AcDbArc
 50
293.2323983645
 51
311.1495506193
  0
ARC
  5
2E2
100
AcDbEntity
  8
0
100
AcDbCircle
 62
9
  6
CONTINUOUS
 10
10.9376923427
 20
7.3920025661
 40
0.6055083642
100
AcDbArc
 50
349.1014226486
 51
10.9478504078
  0
ARC
  5
2E3
100
AcDbEntity
  8
0
100
AcDbCircle
 62
9
  6
CONTINUOUS
 10
10.9376923427
 20
7.3920025661
 40
0.6055083642
100
AcDbArc
 50
48.9445013248
 51
70.9033094645
  0
ARC
  5
2E4
100
AcDbEntity
  8
0
100
AcDbCircle
 62
7
  6
CONTINUOUS
 10
10.9376923427
 20
7.3920025661
 40
0.546381824
100
AcDbArc
 50
293.5013572985
 51
246.4986427015
  0
ARC
  5
2E5
100
AcDbEntity
  8
0
100
AcDbCircle
 62
9
  6
CONTINUOUS
 10
10.9376923427
 20
7.3920025661
 40
0.5356612218
100
AcDbArc
 50
290.9459778268
 51
249.0540221732
  0
ARC
  5
2E6
100
AcDbEntity
  8
0
100
AcDbCircle
 62
9
  6
CONTINUOUS
 10
10.9376923427
 20
7.3920025661
 40
0.5122556357
100
AcDbArc
 50
289.2426993225
 51
250.7572696699
  0
ARC
  5
2E7
100
AcDbEntity
  8
0
100
AcDbCircle
 62
9
  6
CONTINUOUS
 10
10.9376923427
 20
7.3920025661
 40
0.4577834057
100
AcDbArc
 50
291.1361823583
 51
248.8638176418
  0
ARC
  5
2E8
100
AcDbEntity
  8
0
100
AcDbCircle
 62
7
  6
CONTINUOUS
 10
10.9376923427
 20
7.3920025661
 40
0.45
100
AcDbArc
 50
90.0
 51
248.8315511542
  0
CIRCLE
  5
2E9
100
AcDbEntity
  8
0
100
AcDbCircle
 62
9
  6
CONTINUOUS
 10
10.9376923427
 20
7.3920025661
 40
0.413393097
  0
CIRCLE
  5
2EA
100
AcDbEntity
  8
0
100
AcDbCircle
 62
7
  6
CONTINUOUS
 10
10.9376923427
 20
7.3920025661
 40
0.24
  0
CIRCLE
  5
2EB
100
AcDbEntity
  8
0
100
AcDbCircle
 62
9
  6
CONTINUOUS
 10
10.9376923427
 20
7.3920025661
 40
0.18
  0
CIRCLE
  5
2EC
100
AcDbEntity
  8
0
100
AcDbCircle
 62
7
  6
CONTINUOUS
 10
10.9376923427
 20
7.3920025661
 40
0.17
  0
CIRCLE
  5
2ED
100
AcDbEntity
  8
0
100
AcDbCircle
 62
7
  6
CONTINUOUS
 10
10.9376923427
 20
7.3920025661
 40
0.005
  0
ARC
  5
2EE
100
AcDbEntity
  8
0
100
AcDbCircle
 62
7
  6
CONTINUOUS
 10
11.1515501286
 20
6.6219189401
 40
0.05
100
AcDbArc
 50
307.1071592206
 51
20.4139841937
  0
ARC
  5
2EF
100
AcDbEntity
  8
0
100
AcDbCircle
 62
7
  6
CONTINUOUS
 10
11.2118808928
 20
6.542168085
 40
0.05
100
AcDbArc
 50
127.1071592207
 51
186.213850751
  0
ARC
  5
2F0
100
AcDbEntity
  8
0
100
AcDbCircle
 62
7
  6
CONTINUOUS
 10
11.1499945428
 20
6.8623673079
 40
0.03
100
AcDbArc
 50
349.5243183037
 51
90.0
  0
ARC
  5
2F1
100
AcDbEntity
  8
0
100
AcDbCircle
 62
7
  6
CONTINUOUS
 10
11.1326923427
 20
6.9223673079
 40
0.03
100
AcDbArc
 50
180.0
 51
270.0
  0
ARC
  5
2F2
100
AcDbEntity
  8
0
100
AcDbCircle
 62
7
  6
CONTINUOUS
 10
11.3699350192
 20
9.5614763302
 40
0.1
100
AcDbArc
 50
270.0
 51
339.3599970517
  0
ARC
  5
2F3
100
AcDbEntity
  8
0
100
AcDbCircle
 62
7
  6
CONTINUOUS
 10
11.2976923427
 20
9.4614763302
 40
0.06
100
AcDbArc
 50
278.7977505622
 51
360.0
  0
ARC
  5
2F4
100
AcDbEntity
  8
0
100
AcDbCircle
 62
7
  6
CONTINUOUS
 10
11.4349074539
 20
9.3398838295
 40
0.05
100
AcDbArc
 50
309.9400001938
 51
45.5715281523
  0
ARC
  5
2F5
100
AcDbEntity
  8
0
100
AcDbCircle
 62
7
  6
CONTINUOUS
 10
11.5826606959
 20
6.7823673079
 40
0.41
100
AcDbArc
 50
169.5243183036
 51
200.4139841937
  0
ARC
  5
2F6
100
AcDbEntity
  8
0
100
AcDbCircle
 62
7
  6
CONTINUOUS
 10
11.8276222364
 20
8.1390075291
 40
0.35
100
AcDbArc
 50
150.6016873387
 51
181.14680461
  0
ARC
  5
2F7
100
AcDbEntity
  8
0
100
AcDbCircle
 62
7
  6
CONTINUOUS
 10
12.1056923427
 20
10.1642394482
 40
1.81
100
AcDbArc
 50
200.6404275003
 51
202.0562511617
  0
ARC
  5
2F8
100
AcDbEntity
  8
0
100
AcDbCircle
 62
7
  6
CONTINUOUS
 10
12.1056923427
 20
10.1642394482
 40
1.81
100
AcDbArc
 50
157.9437488383
 51
200.6398773043
  0
ARC
  5
2F9
100
AcDbEntity
  8
0
100
AcDbCircle
 62
7
  6
CONTINUOUS
 10
12.0826923427
 20
9.2570025661
 40
0.64
100
AcDbArc
 50
180.0
 51
208.9550243719
  0
ARC
  5
2FA
100
AcDbEntity
  8
0
100
AcDbCircle
 62
7
  6
CONTINUOUS
 10
11.539910198
 20
9.4470025661
 40
0.1
100
AcDbArc
 50
157.9437488383
 51
225.571528248
  0
ARC
  5
2FB
100
AcDbEntity
  8
0
100
AcDbCircle
 62
7
  6
CONTINUOUS
 10
10.9532784803
 20
11.6868324149
 40
2.3118504862
100
AcDbArc
 50
270.0
 51
278.7977505622
  0
ARC
  5
2FC
100
AcDbEntity
  8
0
100
AcDbCircle
 62
7
  6
CONTINUOUS
 10
10.9534146295
 20
11.5829716965
 40
2.31
100
AcDbArc
 50
81.1984646906
 51
89.9999999999
  0
ARC
  5
2FD
100
AcDbEntity
  8
0
100
AcDbCircle
 62
7
  6
CONTINUOUS
 10
10.9619857959
 20
10.9640779539
 40
0.61
100
AcDbArc
 50
269.9999999998
 51
294.8628376435
  0
ARC
  5
2FE
100
AcDbEntity
  8
0
100
AcDbCircle
 62
7
  6
CONTINUOUS
 10
11.1447587998
 20
12.0128543995
 40
0.1954335429
100
AcDbArc
 50
345.4368424883
 51
360.0
  0
ARC
  5
2FF
100
AcDbEntity
  8
0
100
AcDbCircle
 62
7
  6
CONTINUOUS
 10
11.2728444686
 20
10.5005011826
 40
0.06
100
AcDbArc
 50
317.2892559533
 51
25.1388147427
  0
ARC
  5
300
100
AcDbEntity
  8
0
100
AcDbCircle
 62
7
  6
CONTINUOUS
 10
11.2801923427
 20
10.493718208
 40
0.05
100
AcDbArc
 50
294.1642677098
 51
317.2892560084
  0
ARC
  5
301
100
AcDbEntity
  8
0
100
AcDbCircle
 62
7
  6
CONTINUOUS
 10
11.4349074539
 20
10.9885950668
 40
0.05
100
AcDbArc
 50
314.428471752
 51
50.06
  0
ARC
  5
302
100
AcDbEntity
  8
0
100
AcDbCircle
 62
7
  6
CONTINUOUS
 10
11.2981923427
 20
10.512395941
 40
0.032
100
AcDbArc
 50
25.1388147112
 51
81.9159864546
  0
ARC
  5
303
100
AcDbEntity
  8
0
100
AcDbCircle
 62
7
  6
CONTINUOUS
 10
10.9376923427
 20
13.1037132122
 40
0.645
100
AcDbArc
 50
323.6575953608
 51
216.3424046392
  0
ARC
  5
304
100
AcDbEntity
  8
0
100
AcDbCircle
 62
7
  6
CONTINUOUS
 10
10.9376923427
 20
13.1037132122
 40
0.546381824
100
AcDbArc
 50
293.5013572985
 51
246.4986427015
  0
ARC
  5
305
100
AcDbEntity
  8
0
100
AcDbCircle
 62
9
  6
CONTINUOUS
 10
10.9376923427
 20
13.1037132122
 40
0.5356612218
100
AcDbArc
 50
290.9459778268
 51
249.0540221732
  0
ARC
  5
306
100
AcDbEntity
  8
0
100
AcDbCircle
 62
9
  6
CONTINUOUS
 10
10.9376923427
 20
13.1037132122
 40
0.5122556357
100
AcDbArc
 50
289.2426993225
 51
250.7572696699
  0
ARC
  5
307
100
AcDbEntity
  8
0
100
AcDbCircle
 62
9
  6
CONTINUOUS
 10
10.9376923427
 20
13.1037132122
 40
0.4577834057
100
AcDbArc
 50
291.1361823583
 51
248.8638176418
  0
ARC
  5
308
100
AcDbEntity
  8
0
100
AcDbCircle
 62
7
  6
CONTINUOUS
 10
10.9376923427
 20
13.1037132122
 40
0.45
100
AcDbArc
 50
90.0
 51
248.8315511542
  0
CIRCLE
  5
309
100
AcDbEntity
  8
0
100
AcDbCircle
 62
9
  6
CONTINUOUS
 10
10.9376923427
 20
13.1037132122
 40
0.413393097
  0
CIRCLE
  5
30A
100
AcDbEntity
  8
0
100
AcDbCircle
 62
7
  6
CONTINUOUS
 10
10.9376923427
 20
13.1037132122
 40
0.24
  0
CIRCLE
  5
30B
100
AcDbEntity
  8
0
100
AcDbCircle
 62
9
  6
CONTINUOUS
 10
10.9376923427
 20
13.1037132122
 40
0.18
  0
CIRCLE
  5
30C
100
AcDbEntity
  8
0
100
AcDbCircle
 62
7
  6
CONTINUOUS
 10
10.9376923427
 20
13.1037132122
 40
0.17
  0
ARC
  5
30D
100
AcDbEntity
  8
0
100
AcDbCircle
 62
7
  6
CONTINUOUS
 10
11.3699350192
 20
13.7064763302
 40
0.1
100
AcDbArc
 50
20.6398773044
 51
90.0
  0
ARC
  5
30E
100
AcDbEntity
  8
0
100
AcDbCircle
 62
7
  6
CONTINUOUS
 10
11.2976923427
 20
13.8064763302
 40
0.06
100
AcDbArc
 50
0.0
 51
81.1984646906
  0
ARC
  5
30F
100
AcDbEntity
  8
0
100
AcDbCircle
 62
7
  6
CONTINUOUS
 10
11.1515501286
 20
12.3336295861
 40
0.05
100
AcDbArc
 50
307.1071592206
 51
20.4139841937
  0
ARC
  5
310
100
AcDbEntity
  8
0
100
AcDbCircle
 62
7
  6
CONTINUOUS
 10
11.2118808928
 20
12.253878731
 40
0.05
100
AcDbArc
 50
127.1071592207
 51
186.213850751
  0
ARC
  5
311
100
AcDbEntity
  8
0
100
AcDbCircle
 62
7
  6
CONTINUOUS
 10
11.4349074539
 20
12.2793575936
 40
0.05
100
AcDbArc
 50
309.9400001938
 51
45.5715281522
  0
ARC
  5
312
100
AcDbEntity
  8
0
100
AcDbCircle
 62
7
  6
CONTINUOUS
 10
11.1499945428
 20
12.5740779539
 40
0.03
100
AcDbArc
 50
349.5243183037
 51
90.0
  0
ARC
  5
313
100
AcDbEntity
  8
0
100
AcDbCircle
 62
7
  6
CONTINUOUS
 10
11.1326923427
 20
12.6340779539
 40
0.03
100
AcDbArc
 50
180.0
 51
270.0
  0
ARC
  5
314
100
AcDbEntity
  8
0
100
AcDbCircle
 62
7
  6
CONTINUOUS
 10
11.3874056403
 20
12.3337132122
 40
0.02
100
AcDbArc
 50
270.0
 51
21.0304956613
  0
CIRCLE
  5
315
100
AcDbEntity
  8
0
100
AcDbCircle
 62
7
  6
CONTINUOUS
 10
10.9376923427
 20
13.1037132122
 40
0.005
  0
ARC
  5
316
100
AcDbEntity
  8
0
100
AcDbCircle
 62
7
  6
CONTINUOUS
 10
11.8276222364
 20
11.0784812931
 40
0.35
100
AcDbArc
 50
150.6016873387
 51
181.14680461
  0
ARC
  5
317
100
AcDbEntity
  8
0
100
AcDbCircle
 62
7
  6
CONTINUOUS
 10
11.539910198
 20
10.8814763302
 40
0.1
100
AcDbArc
 50
134.4284791743
 51
202.0562511617
  0
ARC
  5
318
100
AcDbEntity
  8
0
100
AcDbCircle
 62
7
  6
CONTINUOUS
 10
12.1056923427
 20
13.1037132122
 40
1.81
100
AcDbArc
 50
159.3601226956
 51
178.1960898953
  0
ARC
  5
319
100
AcDbEntity
  8
0
100
AcDbCircle
 62
7
  6
CONTINUOUS
 10
12.1056923427
 20
13.1037132122
 40
1.81
100
AcDbArc
 50
182.438082384
 51
202.0562511617
  0
ARC
  5
31A
100
AcDbEntity
  8
0
100
AcDbCircle
 62
7
  6
CONTINUOUS
 10
12.0826923427
 20
12.1964763302
 40
0.64
100
AcDbArc
 50
180.0
 51
208.9550243719
  0
ARC
  5
31B
100
AcDbEntity
  8
0
100
AcDbCircle
 62
7
  6
CONTINUOUS
 10
11.5826606959
 20
12.4940779539
 40
0.41
100
AcDbArc
 50
169.5243183036
 51
200.4139841937
  0
ARC
  5
31C
100
AcDbEntity
  8
0
100
AcDbCircle
 62
7
  6
CONTINUOUS
 10
11.7794293011
 20
12.4844363008
 40
0.4
100
AcDbArc
 50
143.6579063375
 51
201.0304763259
  0
ARC
  5
31D
100
AcDbEntity
  8
0
100
AcDbCircle
 62
7
  6
CONTINUOUS
 10
11.539910198
 20
12.3864763302
 40
0.1
100
AcDbArc
 50
157.9437488383
 51
225.571528248
  0
ARC
  5
31E
100
AcDbEntity
  8
0
100
AcDbCircle
 62
7
  6
CONTINUOUS
 10
45.5075789807
 20
8.4600779538
 40
35.0000000007
100
AcDbArc
 50
173.786149249
 51
174.7456316523
  0
ARC
  5
31F
100
AcDbEntity
  8
0
100
AcDbCircle
 62
7
  6
CONTINUOUS
 10
40.5285892379
 20
8.9179656569
 40
30.0
100
AcDbArc
 50
174.7456316523
 51
176.8928315082
  0
SPLINE
  5
320
100
AcDbEntity
  8
0
100
AcDbSpline
 62
7
  6
CONTINUOUS
 70
0
 71
3
 72
35
 73
31
 74
0
 42
0.0000001
 43
0.0000001
 44
0.0000000001
 40
0.0
 40
0.0
 40
0.0
 40
0.0
 40
0.0630542679
 40
0.0945808789
 40
0.1260959143
 40
0.157589043
 40
0.1890510625
 40
0.2204698016
 40
0.2518345079
 40
0.2831332245
 40
0.3143559118
 40
0.3765294186
 40
0.407491671
 40
0.4383770083
 40
0.4692043346
 40
0.4999999965
 40
0.530795659
 40
0.5616229874
 40
0.5925083227
 40
0.6234705702
 40
0.685644082
 40
0.7168667651
 40
0.7481654885
 40
0.7795301918
 40
0.8109489355
 40
0.8424109558
 40
0.8739040848
 40
0.9054191215
 40
0.9369457322
 40
1.0
 40
1.0
 40
1.0
 40
1.0
 10
11.4755619619
 20
8.3938283409
 30
0.0
 10
11.4656379111
 20
8.3891252365
 30
0.0
 10
11.4507796834
 20
8.382012197
 30
0.0
 10
11.4309569821
 20
8.3725576857
 30
0.0
 10
11.4160708844
 20
8.3655218888
 30
0.0
 10
11.4011465821
 20
8.3585938948
 30
0.0
 10
11.3861682625
 20
8.3518236309
 30
0.0
 10
11.371115373
 20
8.3452757637
 30
0.0
 10
11.355969307
 20
8.3390197463
 30
0.0
 10
11.3407102595
 20
8.3331352456
 30
0.0
 10
11.3202253417
 20
8.3259175281
 30
0.0
 10
11.2994139484
 20
8.3198055087
 30
0.0
 10
11.2782898689
 20
8.3152511297
 30
0.0
 10
11.2623387821
 20
8.3127223561
 30
0.0
 10
11.2462915616
 20
8.3111657674
 30
0.0
 10
11.2301923445
 20
8.3106400204
 30
0.0
 10
11.2140931272
 20
8.3111657707
 30
0.0
 10
11.1980459063
 20
8.3127223551
 30
0.0
 10
11.1820948198
 20
8.3152511263
 30
0.0
 10
11.1609707418
 20
8.3198055108
 30
0.0
 10
11.1401593496
 20
8.3259175301
 30
0.0
 10
11.1196744277
 20
8.3331352402
 30
0.0
 10
11.1044153841
 20
8.3390197508
 30
0.0
 10
11.0892693115
 20
8.345275756
 30
0.0
 10
11.074216426
 20
8.3518236337
 30
0.0
 10
11.0592381026
 20
8.3585938913
 30
0.0
 10
11.0443138007
 20
8.3655218872
 30
0.0
 10
11.0294277041
 20
8.3725576871
 30
0.0
 10
11.0096050006
 20
8.3820121942
 30
0.0
 10
10.9947467744
 20
8.3891252366
 30
0.0
 10
10.9848227236
 20
8.3938283409
 30
0.0
  0
SPLINE
  5
321
100
AcDbEntity
  8
0
100
AcDbSpline
 62
7
  6
CONTINUOUS
 70
0
 71
3
 72
35
 73
31
 74
0
 42
0.0000001
 43
0.0000001
 44
0.0000000001
 40
0.0
 40
0.0
 40
0.0
 40
0.0
 40
0.0634332973
 40
0.0951015967
 40
0.1267274122
 40
0.1582987315
 40
0.1898045853
 40
0.2212392448
 40
0.252589891
 40
0.314990409
 40
0.346048144
 40
0.3769945369
 40
0.4078421376
 40
0.438616954
 40
0.469329344
 40
0.5000012535
 40
0.5306725843
 40
0.5613842887
 40
0.5921592638
 40
0.6230072276
 40
0.6539529136
 40
0.6850099244
 40
0.7474103058
 40
0.7787608057
 40
0.8101954866
 40
0.8417013313
 40
0.8732726048
 40
0.9048984237
 40
0.9365667293
 40
1.0
 40
1.0
 40
1.0
 40
1.0
 10
10.9848227236
 20
8.8513241221
 30
0.0
 10
10.9944385724
 20
8.8572296273
 30
0.0
 10
11.0088974575
 20
8.8660154721
 30
0.0
 10
11.0283302844
 20
8.877444587
 30
0.0
 10
11.0429784197
 20
8.8858262357
 30
0.0
 10
11.0577271645
 20
8.8939706326
 30
0.0
 10
11.0725965783
 20
8.9018204917
 30
0.0
 10
11.0876024341
 20
8.9093209515
 30
0.0
 10
11.1077818042
 20
8.9187444542
 30
0.0
 10
11.1283449276
 20
8.9271829651
 30
0.0
 10
11.1493158931
 20
8.9342750312
 30
0.0
 10
11.1652069512
 20
8.9388091119
 30
0.0
 10
11.1812736056
 20
8.9424617145
 30
0.0
 10
11.1974909417
 20
8.945136075
 30
0.0
 10
11.2138137645
 20
8.9467847006
 30
0.0
 10
11.23019291
 20
8.9473530908
 30
0.0
 10
11.2465720165
 20
8.9467857938
 30
0.0
 10
11.2628945317
 20
8.9451357905
 30
0.0
 10
11.2791116778
 20
8.9424607152
 30
0.0
 10
11.2951785115
 20
8.9388090805
 30
0.0
 10
11.3110694336
 20
8.9342751563
 30
0.0
 10
11.3320400802
 20
8.9271830194
 30
0.0
 10
11.3526029424
 20
8.9187443538
 30
0.0
 10
11.3727822867
 20
8.9093209064
 30
0.0
 10
11.3877880631
 20
8.9018203402
 30
0.0
 10
11.4026574983
 20
8.8939705377
 30
0.0
 10
11.4174062891
 20
8.8858262418
 30
0.0
 10
11.4320544071
 20
8.8774445749
 30
0.0
 10
11.4514872182
 20
8.8660154397
 30
0.0
 10
11.4659461171
 20
8.8572296249
 30
0.0
 10
11.4755619619
 20
8.8513241221
 30
0.0
  0
SPLINE
  5
322
100
AcDbEntity
  8
0
100
AcDbSpline
 62
7
  6
CONTINUOUS
 70
0
 71
3
 72
35
 73
31
 74
0
 42
0.0000001
 43
0.0000001
 44
0.0000000001
 40
0.0
 40
0.0
 40
0.0
 40
0.0
 40
0.0630542679
 40
0.0945808789
 40
0.1260959143
 40
0.1575890429
 40
0.1890510624
 40
0.2204698013
 40
0.2518345076
 40
0.2831332239
 40
0.3143559114
 40
0.376529418
 40
0.4074916704
 40
0.4383770075
 40
0.4692043337
 40
0.4999999956
 40
0.5307956579
 40
0.5616229865
 40
0.5925083221
 40
0.6234705695
 40
0.6856440816
 40
0.7168667645
 40
0.7481654882
 40
0.7795301915
 40
0.8109489354
 40
0.8424109557
 40
0.8739040848
 40
0.9054191215
 40
0.9369457322
 40
1.0
 40
1.0
 40
1.0
 40
1.0
 10
10.8905619619
 20
8.3938283409
 30
0.0
 10
10.8806379111
 20
8.3891252365
 30
0.0
 10
10.8657796834
 20
8.3820121971
 30
0.0
 10
10.8459569822
 20
8.3725576856
 30
0.0
 10
10.8310708844
 20
8.3655218888
 30
0.0
 10
10.816146582
 20
8.3585938949
 30
0.0
 10
10.8011682626
 20
8.3518236308
 30
0.0
 10
10.786115373
 20
8.345275764
 30
0.0
 10
10.7709693073
 20
8.3390197462
 30
0.0
 10
10.7557102596
 20
8.3331352459
 30
0.0
 10
10.7352253421
 20
8.325917528
 30
0.0
 10
10.7144139487
 20
8.3198055086
 30
0.0
 10
10.6932898692
 20
8.3152511299
 30
0.0
 10
10.6773387825
 20
8.3127223562
 30
0.0
 10
10.6612915621
 20
8.3111657672
 30
0.0
 10
10.645192345
 20
8.3106400204
 30
0.0
 10
10.6290931277
 20
8.3111657709
 30
0.0
 10
10.6130459068
 20
8.3127223549
 30
0.0
 10
10.5970948201
 20
8.3152511261
 30
0.0
 10
10.5759707421
 20
8.3198055109
 30
0.0
 10
10.55515935
 20
8.3259175302
 30
0.0
 10
10.5346744278
 20
8.3331352399
 30
0.0
 10
10.5194153843
 20
8.339019751
 30
0.0
 10
10.5042693114
 20
8.3452757557
 30
0.0
 10
10.4892164261
 20
8.3518236338
 30
0.0
 10
10.4742381026
 20
8.3585938912
 30
0.0
 10
10.4593138007
 20
8.3655218871
 30
0.0
 10
10.4444277041
 20
8.3725576871
 30
0.0
 10
10.4246050006
 20
8.3820121942
 30
0.0
 10
10.4097467744
 20
8.3891252366
 30
0.0
 10
10.3998227236
 20
8.3938283409
 30
0.0
  0
SPLINE
  5
323
100
AcDbEntity
  8
0
100
AcDbSpline
 62
7
  6
CONTINUOUS
 70
0
 71
3
 72
35
 73
31
 74
0
 42
0.0000001
 43
0.0000001
 44
0.0000000001
 40
0.0
 40
0.0
 40
0.0
 40
0.0
 40
0.0634333046
 40
0.0951016182
 40
0.1267274273
 40
0.1582986908
 40
0.189804566
 40
0.2212393062
 40
0.2525897966
 40
0.3149905809
 40
0.3460480753
 40
0.3769941474
 40
0.4078421832
 40
0.4386174618
 40
0.4693297833
 40
0.500001466
 40
0.5306728622
 40
0.5613844167
 40
0.592158633
 40
0.6230059827
 40
0.6539521584
 40
0.6850096442
 40
0.7474099128
 40
0.7787606229
 40
0.810195257
 40
0.8417011161
 40
0.8732724817
 40
0.9048983388
 40
0.9365666647
 40
1.0
 40
1.0
 40
1.0
 40
1.0
 10
10.3998227236
 20
8.8513241221
 30
0.0
 10
10.4094385761
 20
8.8572296296
 30
0.0
 10
10.4238975023
 20
8.8660154228
 30
0.0
 10
10.4433303276
 20
8.8774445568
 30
0.0
 10
10.4579784306
 20
8.8858262543
 30
0.0
 10
10.4727271961
 20
8.8939706092
 30
0.0
 10
10.4875965987
 20
8.9018205124
 30
0.0
 10
10.5026023265
 20
8.909321219
 30
0.0
 10
10.5227817655
 20
8.9187446741
 30
0.0
 10
10.5433448058
 20
8.9271833178
 30
0.0
 10
10.5643156199
 20
8.9342756834
 30
0.0
 10
10.5802066766
 20
8.9388097535
 30
0.0
 10
10.5962736147
 20
8.9424615936
 30
0.0
 10
10.6124910624
 20
8.945136061
 30
0.0
 10
10.6288138656
 20
8.9467853154
 30
0.0
 10
10.6451930079
 20
8.9473533015
 30
0.0
 10
10.661572029
 20
8.9467856572
 30
0.0
 10
10.6778944695
 20
8.9451364591
 30
0.0
 10
10.6941113949
 20
8.9424614872
 30
0.0
 10
10.7101778228
 20
8.9388087542
 30
0.0
 10
10.726068749
 20
8.9342746661
 30
0.0
 10
10.7470396322
 20
8.9271827383
 30
0.0
 10
10.7676026982
 20
8.9187442686
 30
0.0
 10
10.7877820554
 20
8.9093208172
 30
0.0
 10
10.8027880051
 20
8.9018205183
 30
0.0
 10
10.8176574684
 20
8.8939707315
 30
0.0
 10
10.8324062452
 20
8.8858263486
 30
0.0
 10
10.8470544052
 20
8.8774446927
 30
0.0
 10
10.8664872328
 20
8.8660155294
 30
0.0
 10
10.8809461047
 20
8.8572296325
 30
0.0
 10
10.8905619619
 20
8.8513241221
 30
0.0
  0
SPLINE
  5
324
100
AcDbEntity
  8
0
100
AcDbSpline
 62
7
  6
CONTINUOUS
 70
0
 71
3
 72
18
 73
14
 74
0
 42
0.0000001
 43
0.0000001
 44
0.0000000001
 40
0.0
 40
0.0
 40
0.0
 40
0.0
 40
0.1259098467
 40
0.1888672777
 40
0.2518090901
 40
0.3775796253
 40
0.5030878746
 40
0.6281843844
 40
0.6905389865
 40
0.7527422039
 40
0.8766451658
 40
0.9383845404
 40
1.0
 40
1.0
 40
1.0
 40
1.0
 10
11.4755619619
 20
11.3333021049
 30
0.0
 10
11.466621308
 20
11.329065042
 30
0.0
 10
11.4532327482
 20
11.3226618058
 30
0.0
 10
11.4353766133
 20
11.3141366742
 30
0.0
 10
11.4175099342
 20
11.3056592522
 30
0.0
 10
11.3951233277
 20
11.2952412103
 30
0.0
 10
11.3680515714
 20
11.2833252646
 30
0.0
 10
11.3452013769
 20
11.2742110905
 30
0.0
 10
11.326703391
 20
11.2676694192
 30
0.0
 10
11.3080996124
 20
11.2617412246
 30
0.0
 10
11.28921854
 20
11.2568532777
 30
0.0
 10
11.2701030563
 20
11.2533384327
 30
0.0
 10
11.2604855063
 20
11.2520849251
 30
0.0
 10
11.2556687686
 20
11.2515942566
 30
0.0
  0
SPLINE
  5
325
100
AcDbEntity
  8
0
100
AcDbSpline
 62
7
  6
CONTINUOUS
 70
0
 71
3
 72
24
 73
20
 74
0
 42
0.0000001
 43
0.0000001
 44
0.0000000001
 40
0.0
 40
0.0
 40
0.0
 40
0.0
 40
0.0615159863
 40
0.0922469033
 40
0.1229724829
 40
0.1844537746
 40
0.2460550322
 40
0.2769170497
 40
0.3078194482
 40
0.3697769091
 40
0.4319817915
 40
0.4944137225
 40
0.5570614375
 40
0.6199225699
 40
0.6829610722
 40
0.7461538995
 40
0.8094814058
 40
0.8729123523
 40
1.0
 40
1.0
 40
1.0
 40
1.0
 10
11.1998045664
 20
11.8847336169
 30
0.0
 10
11.2058547879
 20
11.8854828065
 30
0.0
 10
11.2149719912
 20
11.8862863703
 30
0.0
 10
11.2271549025
 20
11.886676591
 30
0.0
 10
11.2393409749
 20
11.8865981057
 30
0.0
 10
11.2545679498
 20
11.8856275528
 30
0.0
 10
11.2696972225
 20
11.8835636747
 30
0.0
 10
11.2817129381
 20
11.8812957897
 30
0.0
 10
11.2936814371
 20
11.8786234384
 30
0.0
 10
11.3085151829
 20
11.8745714179
 30
0.0
 10
11.3260667088
 20
11.8687245507
 30
0.0
 10
11.3433836859
 20
11.8620284321
 30
0.0
 10
11.3604721572
 20
11.8546084579
 30
0.0
 10
11.3773483327
 20
11.846579752
 30
0.0
 10
11.3940402046
 20
11.8380573609
 30
0.0
 10
11.410570289
 20
11.829128893
 30
0.0
 10
11.4269623868
 20
11.8198712703
 30
0.0
 10
11.4486873083
 20
11.8071853557
 30
0.0
 10
11.4648295591
 20
11.7973891151
 30
0.0
 10
11.4755619619
 20
11.7907978861
 30
0.0
  0
SPLINE
  5
326
100
AcDbEntity
  8
0
100
AcDbSpline
 62
7
  6
CONTINUOUS
 70
0
 71
3
 72
18
 73
14
 74
0
 42
0.0000001
 43
0.0000001
 44
0.0000000001
 40
0.0
 40
0.0
 40
0.0
 40
0.0
 40
0.0616154546
 40
0.1233548179
 40
0.2472577776
 40
0.3094610066
 40
0.3718155973
 40
0.4969121162
 40
0.622420378
 40
0.7481909119
 40
0.8111327249
 40
0.8740901547
 40
1.0
 40
1.0
 40
1.0
 40
1.0
 10
10.6197159189
 20
11.2515942553
 30
0.0
 10
10.6148991814
 20
11.2520849222
 30
0.0
 10
10.6052816332
 20
11.253338435
 30
0.0
 10
10.5861661499
 20
11.256853274
 30
0.0
 10
10.5672850773
 20
11.2617412216
 30
0.0
 10
10.5486812999
 20
11.2676694197
 30
0.0
 10
10.5301833111
 20
11.2742110855
 30
0.0
 10
10.5073331152
 20
11.2833252596
 30
0.0
 10
10.4802613598
 20
11.2952412118
 30
0.0
 10
10.457874751
 20
11.3056592516
 30
0.0
 10
10.4400080722
 20
11.3141366743
 30
0.0
 10
10.4221519362
 20
11.3226618037
 30
0.0
 10
10.4087633775
 20
11.329065042
 30
0.0
 10
10.3998227236
 20
11.3333021049
 30
0.0
  0
SPLINE
  5
327
100
AcDbEntity
  8
0
100
AcDbSpline
 62
7
  6
CONTINUOUS
 70
0
 71
3
 72
24
 73
20
 74
0
 42
0.0000001
 43
0.0000001
 44
0.0000000001
 40
0.0
 40
0.0
 40
0.0
 40
0.0
 40
0.1270873709
 40
0.1905181539
 40
0.2538454615
 40
0.3170381326
 40
0.3800765972
 40
0.4429375578
 40
0.505585226
 40
0.5680176294
 40
0.6302233158
 40
0.6921812725
 40
0.7230836195
 40
0.7539456651
 40
0.8155477441
 40
0.8770299826
 40
0.907755497
 40
0.9384858262
 40
1.0
 40
1.0
 40
1.0
 40
1.0
 10
10.3998227236
 20
11.7907978861
 30
0.0
 10
10.4105551145
 20
11.7973891078
 30
0.0
 10
10.4266973668
 20
11.8071853008
 30
0.0
 10
10.4484222523
 20
11.8198712041
 30
0.0
 10
10.4648142953
 20
11.8291288603
 30
0.0
 10
10.4813443215
 20
11.838057395
 30
0.0
 10
10.4980360932
 20
11.8465799473
 30
0.0
 10
10.5149122568
 20
11.8546086698
 30
0.0
 10
10.5320007946
 20
11.8620286045
 30
0.0
 10
10.549317895
 20
11.8687247908
 30
0.0
 10
10.5668695554
 20
11.8745718711
 30
0.0
 10
10.5817034057
 20
11.8786240391
 30
0.0
 10
10.5936719418
 20
11.8812965064
 30
0.0
 10
10.6056877938
 20
11.8835641874
 30
0.0
 10
10.6208173682
 20
11.8856273589
 30
0.0
 10
10.6360445054
 20
11.8865976408
 30
0.0
 10
10.6482306114
 20
11.8866770773
 30
0.0
 10
10.660413313
 20
11.8862872686
 30
0.0
 10
10.6695302835
 20
11.8854835121
 30
0.0
 10
10.6755803086
 20
11.8847341452
 30
0.0
  0
SPLINE
  5
328
100
AcDbEntity
  8
0
100
AcDbSpline
 62
9
  6
CONTINUOUS
 70
0
 71
3
 72
31
 73
27
 74
0
 42
0.0000001
 43
0.0000001
 44
0.0000000001
 40
0.0
 40
0.0
 40
0.0
 40
0.0
 40
0.2146621876
 40
0.4091680649
 40
0.4980000787
 40
0.5807363202
 40
0.6570133617
 40
0.7264923534
 40
0.788836001
 40
0.8437007362
 40
0.8907373697
 40
0.9112135198
 40
0.9296231701
 40
0.9459455502
 40
0.9601598217
 40
0.9722450797
 40
0.9821803542
 40
0.986335178
 40
0.9899446129
 40
0.9930060199
 40
0.9955167561
 40
0.9974741745
 40
0.9988756248
 40
0.9993670326
 40
0.9997184527
 40
1.0
 40
1.0
 40
1.0
 40
1.0
 10
10.665264916
 20
8.1323219418
 30
0.0
 10
10.648180216
 20
8.1285884804
 30
0.0
 10
10.6157548218
 20
8.1208138946
 30
0.0
 10
10.5766864716
 20
8.1098431173
 30
0.0
 10
10.5481924227
 20
8.1010361348
 30
0.0
 10
10.5289969434
 20
8.0947711032
 30
0.0
 10
10.511385992
 20
8.0887396273
 30
0.0
 10
10.4954221355
 20
8.0830313986
 30
0.0
 10
10.4811649632
 20
8.077734926
 30
0.0
 10
10.4686733665
 20
8.0729385713
 30
0.0
 10
10.4593993433
 20
8.0692793311
 30
0.0
 10
10.4529014013
 20
8.0666765253
 30
0.0
 10
10.4487315653
 20
8.0649909024
 30
0.0
 10
10.4450394269
 20
8.0634847922
 30
0.0
 10
10.4418284603
 20
8.0621632629
 30
0.0
 10
10.4391021564
 20
8.0610313456
 30
0.0
 10
10.4371352206
 20
8.0602076824
 30
0.0
 10
10.4358065434
 20
8.0596475287
 30
0.0
 10
10.4349943883
 20
8.0593037102
 30
0.0
 10
10.4343060348
 20
8.059011017
 30
0.0
 10
10.4337418306
 20
8.0587703099
 30
0.0
 10
10.4333024473
 20
8.0585816016
 30
0.0
 10
10.433014069
 20
8.0584582776
 30
0.0
 10
10.4328465556
 20
8.0583849033
 30
0.0
 10
10.4327618833
 20
8.0583501129
 30
0.0
 10
10.4327157398
 20
8.0583265425
 30
0.0
 10
10.4326939625
 20
8.0583193422
 30
0.0
  0
SPLINE
  5
329
100
AcDbEntity
  8
0
100
AcDbSpline
 62
9
  6
CONTINUOUS
 70
0
 71
3
 72
45
 73
41
 74
0
 42
0.0000001
 43
0.0000001
 44
0.0000000001
 40
0.0
 40
0.0
 40
0.0
 40
0.0
 40
0.0991797603
 40
0.1484523199
 40
0.1972833623
 40
0.2931023661
 40
0.3857017716
 40
0.4742081121
 40
0.5578455954
 40
0.6359601185
 40
0.7079217491
 40
0.7731514814
 40
0.8030829098
 40
0.8311395855
 40
0.8572564801
 40
0.8813676518
 40
0.9034076702
 40
0.923317354
 40
0.9410391457
 40
0.95651502
 40
0.9633941158
 40
0.9696944723
 40
0.9754118848
 40
0.9805421376
 40
0.9850810039
 40
0.9890242467
 40
0.9923676192
 40
0.9938130772
 40
0.9951073298
 40
0.9962502274
 40
0.9972416202
 40
0.9980813582
 40
0.9987692918
 40
0.9993052711
 40
0.9995162311
 40
0.9996891465
 40
0.9998239987
 40
0.9999207692
 40
0.9999794403
 40
1.0
 40
1.0
 40
1.0
 40
1.0
 10
10.9376923427
 20
8.0708016614
 30
0.0
 10
10.9557768914
 20
8.0708760212
 30
0.0
 10
10.9828505658
 20
8.0704393481
 30
0.0
 10
11.0187944168
 20
8.068970157
 30
0.0
 10
11.0541013335
 20
8.0670064033
 30
0.0
 10
11.0972401833
 20
8.063669817
 30
0.0
 10
11.1474499465
 20
8.0582382657
 30
0.0
 10
11.1952803508
 20
8.05166283
 30
0.0
 10
11.2403074982
 20
8.0442194149
 30
0.0
 10
11.2821606806
 20
8.0361682865
 30
0.0
 10
11.3205273598
 20
8.0278276693
 30
0.0
 10
11.3501588839
 20
8.0207028495
 30
0.0
 10
11.3719198562
 20
8.0151101164
 30
0.0
 10
11.386735962
 20
8.0111502052
 30
0.0
 10
11.4004929751
 20
8.0073403181
 30
0.0
 10
11.4131628274
 20
8.0037172695
 30
0.0
 10
11.4247190076
 20
8.0003177826
 30
0.0
 10
11.4351357195
 20
7.9971741158
 30
0.0
 10
11.4443885796
 20
7.9943174746
 30
0.0
 10
11.4513593086
 20
7.9921238661
 30
0.0
 10
11.4563380624
 20
7.9905384345
 30
0.0
 10
11.4596190438
 20
7.9894857899
 30
0.0
 10
11.4625943961
 20
7.9885244003
 30
0.0
 10
11.465262412
 20
7.9876565233
 30
0.0
 10
11.4676213868
 20
7.9868844252
 30
0.0
 10
11.4696696163
 20
7.9862103739
 30
0.0
 10
11.4711813914
 20
7.9857106424
 30
0.0
 10
11.4722343278
 20
7.9853618413
 30
0.0
 10
11.4729062901
 20
7.9851389489
 30
0.0
 10
11.4734995836
 20
7.9849418689
 30
0.0
 10
11.4740141407
 20
7.984770666
 30
0.0
 10
11.4744499141
 20
7.9846254352
 30
0.0
 10
11.4748067978
 20
7.984506183
 30
0.0
 10
11.4750549433
 20
7.9844231661
 30
0.0
 10
11.475213852
 20
7.9843696115
 30
0.0
 10
11.4753036551
 20
7.9843396572
 30
0.0
 10
11.4753730832
 20
7.9843153474
 30
0.0
 10
11.4754241992
 20
7.9842997897
 30
0.0
 10
11.4754527397
 20
7.9842866377
 30
0.0
 10
11.4754682711
 20
7.9842846677
 30
0.0
 10
11.4754709277
 20
7.9842820225
 30
0.0
  0
SPLINE
  5
32A
100
AcDbEntity
  8
0
100
AcDbSpline
 62
9
  6
CONTINUOUS
 70
0
 71
3
 72
45
 73
41
 74
0
 42
0.0000001
 43
0.0000001
 44
0.0000000001
 40
0.0
 40
0.0
 40
0.0
 40
0.0
 40
0.0000180359
 40
0.0000741926
 40
0.0001684965
 40
0.0003009669
 40
0.0004716226
 40
0.000680482
 40
0.001212886
 40
0.0018983259
 40
0.0027369199
 40
0.0037284228
 40
0.004872341
 40
0.0061681762
 40
0.0076154303
 40
0.0109622048
 40
0.014908688
 40
0.0194509109
 40
0.0245849124
 40
0.0303067398
 40
0.0366122973
 40
0.0434960556
 40
0.0589729255
 40
0.0766870826
 40
0.0965886477
 40
0.1186247073
 40
0.142732307
 40
0.1688472229
 40
0.1969059905
 40
0.2268436739
 40
0.2585932906
 40
0.2920887208
 40
0.3640462852
 40
0.4421512958
 40
0.5257970552
 40
0.6143104386
 40
0.7069091091
 40
0.8027308251
 40
0.9008247923
 40
1.0
 40
1.0
 40
1.0
 40
1.0
 10
10.3999147936
 20
7.9842829897
 30
0.0
 10
10.3999128254
 20
7.9842803557
 30
0.0
 10
10.3999386139
 20
7.9842928766
 30
0.0
 10
10.3999551609
 20
7.9842938671
 30
0.0
 10
10.400011533
 20
7.9843146686
 30
0.0
 10
10.4000771363
 20
7.9843350746
 30
0.0
 10
10.4001670666
 20
7.9843650799
 30
0.0
 10
10.4003243447
 20
7.9844167723
 30
0.0
 10
10.4005716667
 20
7.9844987837
 30
0.0
 10
10.4009273152
 20
7.9846167847
 30
0.0
 10
10.401362541
 20
7.9847616014
 30
0.0
 10
10.4018769515
 20
7.9849328773
 30
0.0
 10
10.4024705047
 20
7.9851304406
 30
0.0
 10
10.4031429575
 20
7.9853540208
 30
0.0
 10
10.404196676
 20
7.98570381
 30
0.0
 10
10.405709497
 20
7.9862044371
 30
0.0
 10
10.4077589992
 20
7.9868793106
 30
0.0
 10
10.4101192675
 20
7.9876521978
 30
0.0
 10
10.4127886761
 20
7.9885210797
 30
0.0
 10
10.4157655799
 20
7.9894839056
 30
0.0
 10
10.4190480266
 20
7.9905386332
 30
0.0
 10
10.4240271525
 20
7.992126568
 30
0.0
 10
10.43099641
 20
7.9943196407
 30
0.0
 10
10.4402460457
 20
7.9971721714
 30
0.0
 10
10.4506583221
 20
8.000311836
 30
0.0
 10
10.4622098655
 20
8.0037098949
 30
0.0
 10
10.4748762088
 20
8.0073309727
 30
0.0
 10
10.4886304813
 20
8.0111395287
 30
0.0
 10
10.5034450732
 20
8.0150996993
 30
0.0
 10
10.5192915305
 20
8.0191749324
 30
0.0
 10
10.5361406358
 20
8.0233276989
 30
0.0
 10
10.5604900524
 20
8.0290559777
 30
0.0
 10
10.5931947338
 20
8.0361638393
 30
0.0
 10
10.6350411233
 20
8.044206733
 30
0.0
 10
10.6800603892
 20
8.0516579209
 30
0.0
 10
10.7278858123
 20
8.0582310063
 30
0.0
 10
10.7780888696
 20
8.0636614223
 30
0.0
 10
10.8301749911
 20
8.0677087982
 30
0.0
 10
10.8835557788
 20
8.0702600754
 30
0.0
 10
10.9195240246
 20
8.07083543
 30
0.0
 10
10.9376048655
 20
8.0708003656
 30
0.0
  0
SPLINE
  5
32B
100
AcDbEntity
  8
0
100
AcDbSpline
 62
9
  6
CONTINUOUS
 70
0
 71
3
 72
27
 73
23
 74
0
 42
0.0000001
 43
0.0000001
 44
0.0000000001
 40
0.0
 40
0.0
 40
0.0
 40
0.0
 40
0.0002815512
 40
0.0011243911
 40
0.0025258615
 40
0.0044833079
 40
0.0069940797
 40
0.0100555297
 40
0.0178198938
 40
0.0277553031
 40
0.0398407218
 40
0.0540551781
 40
0.0703777657
 40
0.109263993
 40
0.156301154
 40
0.2111664349
 40
0.2735106345
 40
0.3429901728
 40
0.4192677451
 40
0.5908316213
 40
0.7853379835
 40
1.0
 40
1.0
 40
1.0
 40
1.0
 10
11.4426907151
 20
8.0583193525
 30
0.0
 10
11.4426692025
 20
8.0583273146
 30
0.0
 10
11.4425863065
 20
8.0583666201
 30
0.0
 10
11.4423962802
 20
8.0584454652
 30
0.0
 10
11.4420824659
 20
8.0585823609
 30
0.0
 10
11.4416426432
 20
8.0587700692
 30
0.0
 10
11.4410785465
 20
8.0590111898
 30
0.0
 10
11.4400785386
 20
8.0594361709
 30
0.0
 10
11.4385203367
 20
8.0600942772
 30
0.0
 10
11.4362819738
 20
8.0610315741
 30
0.0
 10
11.4335554414
 20
8.0621635895
 30
0.0
 10
11.4303442057
 20
8.0634852298
 30
0.0
 10
11.4251070479
 20
8.065621529
 30
0.0
 10
11.4173782724
 20
8.0687296133
 30
0.0
 10
11.4067083161
 20
8.0729397771
 30
0.0
 10
11.3942156728
 20
8.0777364393
 30
0.0
 10
11.3799573594
 20
8.083033296
 30
0.0
 10
11.3639921875
 20
8.0887418949
 30
0.0
 10
11.3395332034
 20
8.0971186403
 30
0.0
 10
11.3051767908
 20
8.1080242761
 30
0.0
 10
11.259615549
 20
8.1208176234
 30
0.0
 10
11.2271875116
 20
8.1285924326
 30
0.0
 10
11.2101015583
 20
8.1323258985
 30
0.0
  0
SPLINE
  5
32C
100
AcDbEntity
  8
0
100
AcDbSpline
 62
7
  6
CONTINUOUS
 70
0
 71
3
 72
13
 73
9
 74
0
 42
0.0000001
 43
0.0000001
 44
0.0000000001
 40
0.0
 40
0.0
 40
0.0
 40
0.0
 40
0.3218624559
 40
0.5977654467
 40
0.7174455917
 40
0.8245534267
 40
0.9188140742
 40
1.0
 40
1.0
 40
1.0
 40
1.0
 10
11.3244440673
 20
11.067864485
 30
0.0
 10
11.3345387597
 20
11.0681461667
 30
0.0
 10
11.3532858866
 20
11.0686991682
 30
0.0
 10
11.3757831529
 20
11.0694688807
 30
0.0
 10
11.3915428962
 20
11.0700971828
 30
0.0
 10
11.401606076
 20
11.0705449486
 30
0.0
 10
11.4104601742
 20
11.0709917367
 30
0.0
 10
11.4159556556
 20
11.0713126183
 30
0.0
 10
11.418497638
 20
11.0714764384
 30
0.0
  0
SPLINE
  5
32D
100
AcDbEntity
  8
0
100
AcDbSpline
 62
7
  6
CONTINUOUS
 70
0
 71
3
 72
10
 73
6
 74
0
 42
0.0000001
 43
0.0000001
 44
0.0000000001
 40
0.0
 40
0.0
 40
0.0
 40
0.0
 40
0.2102261525
 40
0.4482045732
 40
1.0
 40
1.0
 40
1.0
 40
1.0
 10
10.4969572085
 20
11.067864485
 30
0.0
 10
10.5045992059
 20
11.0681351981
 30
0.0
 10
10.520893596
 20
11.0686683444
 30
0.0
 10
10.5572524004
 20
11.0697252519
 30
0.0
 10
10.5859710044
 20
11.0704384511
 30
0.0
 10
10.6060365678
 20
11.0709086487
 30
0.0
  0
ENDSEC
  0
SECTION
  2
OBJECTS
  0
DICTIONARY
  5
C
100
AcDbDictionary
280
0
281
1
  3
ACAD_GROUP
350
D
  3
ACAD_MLINESTYLE
350
17
  3
ACAD_LAYOUT
350
1A
  3
ACAD_PLOTSETTINGS
350
19
  3
ACAD_PLOTSTYLENAME
350
E
  0
DICTIONARY
  5
D
102
{ACAD_REACTORS
330
C
102
}
100
AcDbDictionary
280
0
281
1
  0
ACDBDICTIONARYWDFLT
  5
E
102
{ACAD_REACTORS
330
C
102
}
100
AcDbDictionary
281
1
  3
Normal
350
F
100
AcDbDictionaryWithDefault
340
F
  0
DICTIONARY
  5
17
102
{ACAD_REACTORS
330
C
102
}
100
AcDbDictionary
280
0
281
1
  3
Standard
350
18
  0
DICTIONARY
  5
19
102
{ACAD_REACTORS
330
C
102
}
100
AcDbDictionary
281
1
  0
DICTIONARY
  5
1A
102
{ACAD_REACTORS
330
C
102
}
100
AcDbDictionary
281
1
  3
Model
350
32E
  3
Layout1
350
32F
  0
ACDBPLACEHOLDER
  5
F
102
{ACAD_REACTORS
330
E
102
}
  0
MLINESTYLE
  5
18
102
{ACAD_REACTORS
330
17
102
}
100
AcDbMlineStyle
  2
STANDARD
 70
0
  3

 62
256
 51
90.0
 52
90.0
 71
2
 49
0.5
 62
256
  6
BYLAYER
 49
-0.5
 62
256
  6
BYLAYER
  0
LAYOUT
  5
32E
102
{ACAD_REACTORS
330
1A
102
}
100
AcDbPlotSettings
  1

  2
none_device
  4
ANSI_C_(22.00_x_17.00_Inches)
  6

 40
0.0
 41
0.0
 42
0.0
 43
0.0
 44
558.8
 45
431.8
 46
0.0
 47
0.0
 48
0.0
 49
0.0
140
0.0
141
0.0
142
1.0
143
1.0
 70
1024
 72
0
 73
0
 74
0
  7

 75
0
147
1.0
148
0.0
149
0.0
100
AcDbLayout
  1
Model
 70
0
 71
0
 10
0.0
 20
0.0
 11
22.0
 21
17.0
 12
0.0
 22
0.0
 32
0.0
 14
0.0
 24
0.0
 34
0.0
 15
0.0
 25
0.0
 35
0.0
146
0.0
 13
0.0
 23
0.0
 33
0.0
 16
1.0
 26
0.0
 36
0.0
 17
0.0
 27
1.0
 37
0.0
 76
0
330
202
345
0
346
0
  0
LAYOUT
  5
32F
102
{ACAD_REACTORS
330
1A
102
}
100
AcDbPlotSettings
  1

  2
none_device
  4
ANSI_C_(22.00_x_17.00_Inches)
  6

 40
0.0
 41
0.0
 42
0.0
 43
0.0
 44
558.8
 45
431.8
 46
0.0
 47
0.0
 48
0.0
 49
0.0
140
0.0
141
0.0
142
1.0
143
1.0
 70
0
 72
0
 73
0
 74
0
  7

 75
0
147
1.0
148
0.0
149
0.0
100
AcDbLayout
  1
Layout1
 70
0
 71
1
 10
0.0
 20
0.0
 11
22.0
 21
17.0
 12
0.0
 22
0.0
 32
0.0
 14
0.0
 24
0.0
 34
0.0
 15
0.0
 25
0.0
 35
0.0
146
0.0
 13
0.0
 23
0.0
 33
0.0
 16
1.0
 26
0.0
 36
0.0
 17
0.0
 27
1.0
 37
0.0
 76
0
330
203
345
0
346
0
  0
ENDSEC
  0
EOF
