999
DXF file: E:\BT Custom\CADOUTPUT\_RIGHT.dxf
999
Pro/ENGINEER 2018400 by Parametric Technology Corporation
  0
SECTION
  2
HEADER
  9
$ACADVER
  1
AC1018
  9
$DWGCODEPAGE
  3
ANSI_1252
  9
$EXTMAX
 10
22.0
 20
17.0
 30
0.0
  9
$EXTMIN
 10
0.0
 20
0.0
 30
0.0
  9
$LIMMIN
 10
0.0
 20
0.0
  9
$LIMMAX
 10
22.0
 20
17.0
  9
$VIEWCTR
 10
11.0
 20
8.5
  9
$VIEWSIZE
 40
17.0
  9
$CLAYER
  8
0
  9
$LTSCALE
 40
1.21
  9
$CELTYPE
  6
BYLAYER
  9
$DIMSCALE
 40
1.0
  9
$DIMASZ
 40
0.1
  9
$DIMEXO
 40
0.0625
  9
$DIMDLI
 40
0.836
  9
$DIMEXE
 40
0.125
  9
$DIMCEN
 40
0.198
  9
$DIMLFAC
 40
1.0
  9
$DIMBLK
  1
_FILLED
  9
$DIMALT
 70
1
  9
$DIMALTD
 70
2
  9
$DIMALTTD
 70
2
  9
$DIMALTF
 40
25.4
  9
$DIMTXT
 40
0.08
  9
$DIMTOL
 70
1
  9
$DIMLIM
 70
0
  9
$DIMTFAC
 40
1.0
  9
$DIMTP
 40
0.001
  9
$DIMTM
 40
0.001
  9
$DIMGAP
 40
0.09
  9
$DIMDSEP
 70
46
  9
$AUNITS
 70
0
  9
$PDMODE
 70
3
  9
$PDSIZE
 40
0.06
  9
$HANDSEED
  5
40C
  9
$TILEMODE
 70
1
  9
$MEASUREMENT
 70
0
  9
$INSUNITS
 70
1
  0
ENDSEC
  0
SECTION
  2
CLASSES
  0
CLASS
  1
ACDBDICTIONARYWDFLT
  2
AcDbDictionaryWithDefault
  3
AutoCAD 2000
 90
0
 91
1
280
0
281
0
  0
CLASS
  1
ACDBPLACEHOLDER
  2
AcDbPlaceHolder
  3
AutoCAD 2000
 90
0
 91
1
280
0
281
0
  0
CLASS
  1
LAYOUT
  2
AcDbLayout
  3
AutoCAD 2000
 90
0
 91
0
280
0
281
0
  0
ENDSEC
  0
SECTION
  2
TABLES
  0
TABLE
  2
VPORT
  5
8
100
AcDbSymbolTable
 70
2
  0
VPORT
  5
1F4
100
AcDbSymbolTableRecord
100
AcDbViewportTableRecord
  2
*ACTIVE
 70
0
 10
0.0
 20
0.0
 11
1.0
 21
1.0
 12
11.0
 22
8.5
 13
0.0
 23
0.0
 14
1.0
 24
1.0
 15
0.0
 25
0.0
 16
0.0
 26
0.0
 36
1.0
 17
0.0
 27
0.0
 37
0.0
 40
17.0
 41
1.2941176471
 42
50.0
 43
0.0
 44
0.0
 50
0.0
 51
0.0
 71
0
 72
100
 73
1
 74
1
 75
0
 76
0
 77
0
 78
0
  0
ENDTAB
  0
TABLE
  2
LTYPE
  5
5
100
AcDbSymbolTable
 70
6
  0
LTYPE
  5
14
100
AcDbSymbolTableRecord
100
AcDbLinetypeTableRecord
  2
BYBLOCK
 70
0
  3

 72
65
 73
0
 40
0.0
  0
LTYPE
  5
15
100
AcDbSymbolTableRecord
100
AcDbLinetypeTableRecord
  2
BYLAYER
 70
0
  3

 72
65
 73
0
 40
0.0
  0
LTYPE
  5
16
100
AcDbSymbolTableRecord
100
AcDbLinetypeTableRecord
  2
CONTINUOUS
 70
64
  3
Solid line
 72
65
 73
0
 40
0.0
  0
LTYPE
  5
1F5
100
AcDbSymbolTableRecord
100
AcDbLinetypeTableRecord
  2
CENTER
 70
64
  3
____ _ ____ _ ____ _ ____ _ ____ _ ____ _ ____
 72
65
 73
4
 40
0.6
 49
0.375
 74
0
 49
-0.075
 74
0
 49
0.075
 74
0
 49
-0.075
 74
0
  0
LTYPE
  5
1F6
100
AcDbSymbolTableRecord
100
AcDbLinetypeTableRecord
  2
HIDDEN
 70
64
  3
- - - - - - - - - - - - - - - - - - - -
 72
65
 73
2
 40
0.2
 49
0.1
 74
0
 49
-0.1
 74
0
  0
LTYPE
  5
1F7
100
AcDbSymbolTableRecord
100
AcDbLinetypeTableRecord
  2
PHANTOM
 70
64
  3
_____ _ _ _____ _ _ _____ _ _ _____
 72
65
 73
6
 40
0.8
 49
0.45
 74
0
 49
-0.05
 74
0
 49
0.1
 74
0
 49
-0.05
 74
0
 49
0.1
 74
0
 49
-0.05
 74
0
  0
LTYPE
  5
1F8
100
AcDbSymbolTableRecord
100
AcDbLinetypeTableRecord
  2
DOT
 70
64
  3
. . . . . . . . . . . . . . . . . . . .
 72
65
 73
2
 40
0.2
 49
0.1
 74
0
 49
-0.1
 74
0
  0
LTYPE
  5
1F9
100
AcDbSymbolTableRecord
100
AcDbLinetypeTableRecord
  2
DASHED
 70
64
  3
- - - - - - - - - - - - - - - - - - - -
 72
65
 73
2
 40
0.2
 49
0.1
 74
0
 49
-0.1
 74
0
  0
ENDTAB
  0
TABLE
  2
LAYER
  5
2
100
AcDbSymbolTable
 70
36
  0
LAYER
  5
10
100
AcDbSymbolTableRecord
100
AcDbLayerTableRecord
  2
0
 70
0
 62
7
  6
CONTINUOUS
370
-3
390
F
  0
LAYER
  5
1FA
100
AcDbSymbolTableRecord
100
AcDbLayerTableRecord
  2
DEFAULT_1
 70
0
 62
7
  6
CENTER
370
-3
390
F
  0
LAYER
  5
1FB
100
AcDbSymbolTableRecord
100
AcDbLayerTableRecord
  2
DEFAULT_2
 70
0
 62
8
  6
HIDDEN
370
-3
390
F
  0
LAYER
  5
1FC
100
AcDbSymbolTableRecord
100
AcDbLayerTableRecord
  2
DEFAULT_3
 70
0
 62
7
  6
PHANTOM
370
-3
390
F
  0
LAYER
  5
1FD
100
AcDbSymbolTableRecord
100
AcDbLayerTableRecord
  2
ALL_FEATURES
 70
0
 62
7
  6
CONTINUOUS
370
-3
390
F
  0
LAYER
  5
1FE
100
AcDbSymbolTableRecord
100
AcDbLayerTableRecord
  2
AXES_FEATURES
 70
0
 62
7
  6
CONTINUOUS
370
-3
390
F
  0
LAYER
  5
1FF
100
AcDbSymbolTableRecord
100
AcDbLayerTableRecord
  2
DIMENSIONS
 70
0
 62
7
  6
CONTINUOUS
370
-3
390
F
  0
ENDTAB
  0
TABLE
  2
STYLE
  5
3
100
AcDbSymbolTable
 70
1
  0
STYLE
  5
11
100
AcDbSymbolTableRecord
100
AcDbTextStyleTableRecord
  2
STANDARD
 70
0
 40
0.0
 41
0.8
 50
0.0
 71
0
 42
0.2
  3
txt
  4

  0
STYLE
  5
200
100
AcDbSymbolTableRecord
100
AcDbTextStyleTableRecord
  2
TEXTSTYLE_1
 70
0
 40
0.0
 41
0.8
 50
0.0
 71
0
 42
0.2
  3
gdt
  4

  0
ENDTAB
  0
TABLE
  2
VIEW
  5
6
100
AcDbSymbolTable
 70
0
  0
ENDTAB
  0
TABLE
  2
UCS
  5
7
100
AcDbSymbolTable
 70
0
  0
ENDTAB
  0
TABLE
  2
APPID
  5
9
100
AcDbSymbolTable
 70
1
  0
APPID
  5
201
100
AcDbSymbolTableRecord
100
AcDbRegAppTableRecord
  2
ACAD
 70
0
  0
ENDTAB
  0
TABLE
  2
BLOCK_RECORD
  5
1
100
AcDbSymbolTable
 70
0
  0
BLOCK_RECORD
  5
202
100
AcDbSymbolTableRecord
100
AcDbBlockTableRecord
  2
*Model_Space
  0
BLOCK_RECORD
  5
203
100
AcDbSymbolTableRecord
100
AcDbBlockTableRecord
  2
*Paper_Space
  0
BLOCK_RECORD
  5
204
100
AcDbSymbolTableRecord
100
AcDbBlockTableRecord
  2
_FILLED
  0
ENDTAB
  0
TABLE
  2
DIMSTYLE
  5
A
100
AcDbSymbolTable
 70
1
100
AcDbDimStyleTable
 71
0
  0
DIMSTYLE
105
205
100
AcDbSymbolTableRecord
100
AcDbDimStyleTableRecord
  2
STANDARD
 70
0
  3

  4

 40
1.0
 41
0.1
 42
0.0625
 43
0.38
 44
0.125
 45
0.0
 46
0.0
 47
0.001
 48
0.001
140
0.08
141
0.09
142
0.0
143
25.4
144
1.0
145
0.0
146
1.0
147
0.09
 71
1.0
 72
0.0
 73
1
 74
1
 75
0
 76
0
 77
0
 78
4
 79
1
170
1
171
2
172
0
173
0
174
0
175
0
176
0
177
0
178
0
270
2
179
3
271
3
272
3
273
2
274
2
275
0
280
0
281
0
282
0
283
1
284
4
285
0
286
0
287
3
288
0
340
11
278
46
341
204
342
204
343
204
344
204
  0
ENDTAB
  0
ENDSEC
  0
SECTION
  2
BLOCKS
  0
BLOCK
  5
20
100
AcDbEntity
  8
0
100
AcDbBlockBegin
  2
*Model_Space
 70
0
 10
0.0
 20
0.0
 30
0.0
  3
*Model_Space
  1

  0
ENDBLK
  5
21
100
AcDbEntity
  8
0
100
AcDbBlockEnd
  0
BLOCK
  5
1C
100
AcDbEntity
  8
0
100
AcDbBlockBegin
  2
*Paper_Space
 70
0
 10
0.0
 20
0.0
 30
0.0
  3
*Paper_Space
  1

  0
ENDBLK
  5
1D
100
AcDbEntity
  8
0
100
AcDbBlockEnd
  0
BLOCK
  5
206
100
AcDbEntity
  8
0
100
AcDbBlockBegin
  2
_FILLED
 70
64
 10
0.0
 20
0.0
  3
_FILLED
  1

  0
SOLID
  5
207
100
AcDbEntity
  8
0
  6
BYBLOCK
 62
0
100
AcDbTrace
 10
0.0
 20
0.0
 11
-1.0
 21
0.2
 12
-1.0
 22
-0.2
 13
-1.0
 23
-0.2
  0
ENDBLK
  5
208
100
AcDbEntity
  8
0
  6
BYBLOCK
 62
0
100
AcDbBlockEnd
  0
ENDSEC
  0
SECTION
  2
ENTITIES
  0
LINE
  5
209
100
AcDbEntity
  8
0
100
AcDbLine
 62
7
  6
CONTINUOUS
 10
-2.7345165109
 20
12.8509355141
 11
-2.7345165109
 21
12.8409355141
  0
LINE
  5
20A
100
AcDbEntity
  8
0
100
AcDbLine
 62
7
  6
CONTINUOUS
 10
-2.7055165109
 20
13.0259355141
 11
-2.7055165109
 21
12.6659355141
  0
LINE
  5
20B
100
AcDbEntity
  8
0
100
AcDbLine
 62
9
  6
CONTINUOUS
 10
-2.6455165109
 20
13.0859355141
 11
-2.6455165109
 21
12.6059355141
  0
LINE
  5
20C
100
AcDbEntity
  8
0
100
AcDbLine
 62
7
  6
CONTINUOUS
 10
-2.6255165109
 20
12.6059355141
 11
-2.6255165109
 21
13.0859355141
  0
LINE
  5
20D
100
AcDbEntity
  8
0
100
AcDbLine
 62
9
  6
CONTINUOUS
 10
-2.5047976893
 20
12.4325424171
 11
-2.5047976892
 21
13.2593286111
  0
LINE
  5
20E
100
AcDbEntity
  8
0
100
AcDbLine
 62
7
  6
CONTINUOUS
 10
-2.4920165109
 20
12.4263002558
 11
-2.4920165109
 21
12.3763002558
  0
LINE
  5
20F
100
AcDbEntity
  8
0
100
AcDbLine
 62
7
  6
CONTINUOUS
 10
-2.5514988196
 20
11.990689049
 11
-2.6100580679
 21
11.407514177
  0
LINE
  5
210
100
AcDbEntity
  8
0
100
AcDbLine
 62
7
  6
CONTINUOUS
 10
-2.1025342021
 20
11.990689049
 11
-2.0439749538
 21
11.407514177
  0
LINE
  5
211
100
AcDbEntity
  8
0
100
AcDbLine
 62
7
  6
CONTINUOUS
 10
-2.1620165109
 20
12.4263002558
 11
-2.1620165109
 21
12.3763002558
  0
LINE
  5
212
100
AcDbEntity
  8
0
100
AcDbLine
 62
9
  6
CONTINUOUS
 10
-2.0936240942
 20
13.2306795587
 11
-2.0936240942
 21
12.4611914695
  0
LINE
  5
213
100
AcDbEntity
  8
0
100
AcDbLine
 62
9
  6
CONTINUOUS
 10
-2.045276253
 20
12.9097355027
 11
-2.0452762591
 21
12.9092676628
  0
LINE
  5
214
100
AcDbEntity
  8
0
100
AcDbLine
 62
9
  6
CONTINUOUS
 10
-2.0452762591
 20
12.9092676628
 11
-2.0452763181
 21
12.5013700453
  0
LINE
  5
215
100
AcDbEntity
  8
0
100
AcDbLine
 62
9
  6
CONTINUOUS
 10
-2.0452763181
 20
13.1905009829
 11
-2.045276253
 21
12.9097355027
  0
LINE
  5
216
100
AcDbEntity
  8
0
100
AcDbLine
 62
9
  6
CONTINUOUS
 10
-2.018571279
 20
13.180260519
 11
-2.018571279
 21
12.5116105092
  0
LINE
  5
217
100
AcDbEntity
  8
0
100
AcDbLine
 62
9
  6
CONTINUOUS
 10
-1.8816593487
 20
12.4716526931
 11
-1.8816593487
 21
13.2202183351
  0
LINE
  5
218
100
AcDbEntity
  8
0
100
AcDbLine
 62
7
  6
CONTINUOUS
 10
-1.8705165109
 20
13.2419734905
 11
-1.8705165109
 21
12.4498975377
  0
LINE
  5
219
100
AcDbEntity
  8
0
100
AcDbLine
 62
9
  6
CONTINUOUS
 10
-1.8328022252
 20
12.4099628972
 11
-1.8328022252
 21
13.281908131
  0
LINE
  5
21A
100
AcDbEntity
  8
0
100
AcDbLine
 62
9
  6
CONTINUOUS
 10
-1.7972224182
 20
12.4012020771
 11
-1.7972224182
 21
13.290668951
  0
LINE
  5
21B
100
AcDbEntity
  8
0
100
AcDbLine
 62
9
  6
CONTINUOUS
 10
-1.7651388817
 20
12.3881521084
 11
-1.7651388817
 21
13.3037189198
  0
LINE
  5
21C
100
AcDbEntity
  8
0
100
AcDbLine
 62
9
  6
CONTINUOUS
 10
-1.4992307966
 20
13.3581911498
 11
-1.4992307966
 21
12.3336798784
  0
LINE
  5
21D
100
AcDbEntity
  8
0
100
AcDbLine
 62
9
  6
CONTINUOUS
 10
-1.4374540109
 20
12.3102742923
 11
-1.4374540109
 21
13.3815967359
  0
LINE
  5
21E
100
AcDbEntity
  8
0
100
AcDbLine
 62
7
  6
CONTINUOUS
 10
-1.3655165109
 20
12.3209355141
 11
-1.3655165109
 21
13.3709355141
  0
LINE
  5
21F
100
AcDbEntity
  8
0
100
AcDbLine
 62
7
  6
CONTINUOUS
 10
-1.3455165109
 20
13.2956375856
 11
-1.3455165109
 21
12.3962334426
  0
LINE
  5
220
100
AcDbEntity
  8
0
100
AcDbLine
 62
9
  6
CONTINUOUS
 10
-1.3183392149
 20
13.3143166028
 11
-1.3183392149
 21
12.3775544254
  0
LINE
  5
221
100
AcDbEntity
  8
0
100
AcDbLine
 62
7
  6
CONTINUOUS
 10
-0.9580165109
 20
11.7550767014
 11
-0.9580165109
 21
12.0059355141
  0
LINE
  5
222
100
AcDbEntity
  8
0
100
AcDbLine
 62
9
  6
CONTINUOUS
 10
-0.9377496284
 20
13.3654765075
 11
-0.9377496284
 21
12.4637023965
  0
LINE
  5
223
100
AcDbEntity
  8
0
100
AcDbLine
 62
7
  6
CONTINUOUS
 10
-0.9325165109
 20
12.0059355141
 11
-0.9325165109
 21
12.0559355141
  0
LINE
  5
224
100
AcDbEntity
  8
0
100
AcDbLine
 62
7
  6
CONTINUOUS
 10
-0.1785165109
 20
12.0059355141
 11
-0.1785165109
 21
12.0559355141
  0
LINE
  5
225
100
AcDbEntity
  8
0
100
AcDbLine
 62
9
  6
CONTINUOUS
 10
-0.1739080728
 20
13.3659355141
 11
-0.1739080728
 21
12.4637009369
  0
LINE
  5
226
100
AcDbEntity
  8
0
100
AcDbLine
 62
7
  6
CONTINUOUS
 10
-0.1530165109
 20
11.7550767014
 11
-0.1530165109
 21
12.0059355141
  0
LINE
  5
227
100
AcDbEntity
  8
0
100
AcDbLine
 62
9
  6
CONTINUOUS
 10
-0.0916197728
 20
13.3459719672
 11
-0.0916197728
 21
12.4272665985
  0
LINE
  5
228
100
AcDbEntity
  8
0
100
AcDbLine
 62
9
  6
CONTINUOUS
 10
0.2138190576
 20
12.2975223028
 11
0.2138190576
 21
13.3943487254
  0
LINE
  5
229
100
AcDbEntity
  8
0
100
AcDbLine
 62
9
  6
CONTINUOUS
 10
0.2366204829
 20
12.3136727959
 11
0.2366204829
 21
13.3781982323
  0
LINE
  5
22A
100
AcDbEntity
  8
0
100
AcDbLine
 62
9
  6
CONTINUOUS
 10
0.3017035571
 20
12.3554375694
 11
0.3017035571
 21
13.3364334588
  0
LWPOLYLINE
  5
22B
100
AcDbEntity
  8
0
100
AcDbPolyline
 62
7
  6
CONTINUOUS
 90
8
 70
0
 10
-0.1121508584
 20
12.262752596
 10
-0.1094770729
 20
12.2772368595
 10
-0.101610512
 20
12.2957903958
 10
-0.0893489187
 20
12.311797817
 10
-0.0734737694
 20
12.3242314258
 10
-0.0549949217
 20
12.3323004004
 10
-0.0350967027
 20
12.3354924637
 10
-0.0199600868
 20
12.3345504985
  0
LINE
  5
22C
100
AcDbEntity
  8
0
100
AcDbLine
 62
9
  6
CONTINUOUS
 10
1.1872634211
 20
12.3554375694
 11
1.1872634211
 21
13.3364334588
  0
LINE
  5
22D
100
AcDbEntity
  8
0
100
AcDbLine
 62
9
  6
CONTINUOUS
 10
1.269707163
 20
13.3813931043
 11
1.269707163
 21
12.3104779239
  0
LINE
  5
22E
100
AcDbEntity
  8
0
100
AcDbLine
 62
9
  6
CONTINUOUS
 10
1.3017810347
 20
13.3918399565
 11
1.3017810347
 21
12.3000310717
  0
LINE
  5
22F
100
AcDbEntity
  8
0
100
AcDbLine
 62
7
  6
CONTINUOUS
 10
1.3815678047
 20
13.3261856757
 11
1.3815678047
 21
12.3656853525
  0
LINE
  5
230
100
AcDbEntity
  8
0
100
AcDbLine
 62
9
  6
CONTINUOUS
 10
1.4544834891
 20
12.3656853525
 11
1.4544834891
 21
13.3261856757
  0
LINE
  5
231
100
AcDbEntity
  8
0
100
AcDbLine
 62
7
  6
CONTINUOUS
 10
1.4744834891
 20
12.3856853525
 11
1.4744834891
 21
13.3061856757
  0
LINE
  5
232
100
AcDbEntity
  8
0
100
AcDbLine
 62
7
  6
CONTINUOUS
 10
1.3815678047
 20
12.3656853525
 11
1.3017810347
 21
12.3000310717
  0
LINE
  5
233
100
AcDbEntity
  8
0
100
AcDbLine
 62
7
  6
CONTINUOUS
 10
-1.9640488052
 20
10.1903217306
 11
-2.0462501369
 21
10.1528369409
  0
LINE
  5
234
100
AcDbEntity
  8
0
100
AcDbLine
 62
7
  6
CONTINUOUS
 10
17.9336901752
 20
4.3845896097
 11
17.9822769423
 21
4.3845896097
  0
LINE
  5
235
100
AcDbEntity
  8
0
100
AcDbLine
 62
9
  6
CONTINUOUS
 10
17.6772160062
 20
4.4411268088
 11
18.2387509721
 21
4.4411268088
  0
LINE
  5
236
100
AcDbEntity
  8
0
100
AcDbLine
 62
9
  6
CONTINUOUS
 10
17.9616535115
 20
4.4786110551
 11
18.3209513112
 21
4.4786111367
  0
LINE
  5
237
100
AcDbEntity
  8
0
100
AcDbLine
 62
9
  6
CONTINUOUS
 10
17.5950156671
 20
4.4786111367
 11
17.9579834891
 21
4.4786110845
  0
LINE
  5
238
100
AcDbEntity
  8
0
100
AcDbLine
 62
9
  6
CONTINUOUS
 10
17.9579834891
 20
4.4786110845
 11
17.9616535115
 21
4.4786110551
  0
LINE
  5
239
100
AcDbEntity
  8
0
100
AcDbLine
 62
9
  6
CONTINUOUS
 10
18.3372228599
 20
4.4903149904
 11
17.5787441184
 21
4.4903149904
  0
LINE
  5
23A
100
AcDbEntity
  8
0
100
AcDbLine
 62
9
  6
CONTINUOUS
 10
18.3474524882
 20
4.5565016064
 11
17.5685144901
 21
4.5565016064
  0
LINE
  5
23B
100
AcDbEntity
  8
0
100
AcDbLine
 62
7
  6
CONTINUOUS
 10
18.3229832872
 20
4.5745896107
 11
17.5929836913
 21
4.5745896107
  0
LINE
  5
23C
100
AcDbEntity
  8
0
100
AcDbLine
 62
7
  6
CONTINUOUS
 10
-2.6899842166
 20
10.1903217306
 11
-2.6077828848
 21
10.1528369409
  0
LINE
  5
23D
100
AcDbEntity
  8
0
100
AcDbLine
 62
7
  6
CONTINUOUS
 10
24.0644834891
 20
5.674224868
 11
24.1444834891
 21
5.674224868
  0
LINE
  5
23E
100
AcDbEntity
  8
0
100
AcDbLine
 62
9
  6
CONTINUOUS
 10
17.6749419321
 20
5.695803531
 11
18.2410250462
 21
5.695803531
  0
LINE
  5
23F
100
AcDbEntity
  8
0
100
AcDbLine
 62
7
  6
CONTINUOUS
 10
23.7844834891
 20
5.989224868
 11
23.7944834891
 21
5.989224868
  0
LINE
  5
240
100
AcDbEntity
  8
0
100
AcDbLine
 62
9
  6
CONTINUOUS
 10
17.7335011804
 20
6.2789784029
 11
18.1824657979
 21
6.2789784029
  0
LINE
  5
241
100
AcDbEntity
  8
0
100
AcDbLine
 62
9
  6
CONTINUOUS
 10
9.7525874437
 20
10.8100867869
 11
9.7565523833
 21
10.8136986321
  0
LINE
  5
242
100
AcDbEntity
  8
0
100
AcDbLine
 62
7
  6
CONTINUOUS
 10
10.5987978533
 20
11.9832440382
 11
10.5694834891
 21
11.9586986321
  0
LINE
  5
243
100
AcDbEntity
  8
0
100
AcDbLine
 62
7
  6
CONTINUOUS
 10
9.5401691407
 20
10.7691532391
 11
9.5694834891
 21
10.7936986321
  0
LINE
  5
244
100
AcDbEntity
  8
0
100
AcDbLine
 62
7
  6
CONTINUOUS
 10
9.5757393885
 20
10.8136986321
 11
9.5694834891
 21
10.8100867869
  0
LINE
  5
245
100
AcDbEntity
  8
0
100
AcDbLine
 62
7
  6
CONTINUOUS
 10
18.9665553156
 20
7.6168799124
 11
19.5044834891
 21
7.66963672
  0
LINE
  5
246
100
AcDbEntity
  8
0
100
AcDbLine
 62
9
  6
CONTINUOUS
 10
18.2020066571
 20
6.3242658144
 11
17.7139603212
 21
6.3242658144
  0
LINE
  5
247
100
AcDbEntity
  8
0
100
AcDbLine
 62
9
  6
CONTINUOUS
 10
17.697265859
 20
6.3815812819
 11
18.2187011192
 21
6.3815812819
  0
LINE
  5
248
100
AcDbEntity
  8
0
100
AcDbLine
 62
7
  6
CONTINUOUS
 10
22.5844834891
 20
6.593224868
 11
23.4544834891
 21
6.593224868
  0
LINE
  5
249
100
AcDbEntity
  8
0
100
AcDbLine
 62
9
  6
CONTINUOUS
 10
17.716181324
 20
6.5991350643
 11
18.1997856542
 21
6.5991350643
  0
LINE
  5
24A
100
AcDbEntity
  8
0
100
AcDbLine
 62
7
  6
CONTINUOUS
 10
17.745681289
 20
6.6345896098
 11
18.1702856892
 21
6.6345896098
  0
LINE
  5
24B
100
AcDbEntity
  8
0
100
AcDbLine
 62
9
  6
CONTINUOUS
 10
17.7929834891
 20
6.6645896098
 11
18.1229834891
 21
6.6645896098
  0
LINE
  5
24C
100
AcDbEntity
  8
0
100
AcDbLine
 62
7
  6
CONTINUOUS
 10
18.1229831811
 20
6.7145896098
 11
17.7929837972
 21
6.7145896098
  0
LINE
  5
24D
100
AcDbEntity
  8
0
100
AcDbLine
 62
7
  6
CONTINUOUS
 10
17.6394834891
 20
6.894224868
 11
17.6594834891
 21
6.894224868
  0
LINE
  5
24E
100
AcDbEntity
  8
0
100
AcDbLine
 62
7
  6
CONTINUOUS
 10
18.9194834891
 20
6.915224868
 11
18.9394834891
 21
6.915224868
  0
LINE
  5
24F
100
AcDbEntity
  8
0
100
AcDbLine
 62
7
  6
CONTINUOUS
 10
1.3815678047
 20
13.3261856757
 11
1.3017810347
 21
13.3918399565
  0
LINE
  5
250
100
AcDbEntity
  8
0
100
AcDbLine
 62
7
  6
CONTINUOUS
 10
9.0094834891
 20
12.3959355141
 11
9.0094834891
 21
13.2959355141
  0
LINE
  5
251
100
AcDbEntity
  8
0
100
AcDbLine
 62
9
  6
CONTINUOUS
 10
9.0294834891
 20
13.3159355141
 11
9.0294834891
 21
12.3759355141
  0
LINE
  5
252
100
AcDbEntity
  8
0
100
AcDbLine
 62
7
  6
CONTINUOUS
 10
9.4194834891
 20
11.0755244068
 11
9.4194834891
 21
11.533020188
  0
LINE
  5
253
100
AcDbEntity
  8
0
100
AcDbLine
 62
7
  6
CONTINUOUS
 10
9.4211944123
 20
11.533020188
 11
9.4211944123
 21
11.0755244068
  0
LINE
  5
254
100
AcDbEntity
  8
0
100
AcDbLine
 62
7
  6
CONTINUOUS
 10
9.5694834891
 20
10.7936986321
 11
9.5694834891
 21
10.8100867869
  0
LINE
  5
255
100
AcDbEntity
  8
0
100
AcDbLine
 62
7
  6
CONTINUOUS
 10
9.5994834891
 20
11.9386986321
 11
9.5994834891
 21
11.9586986321
  0
LINE
  5
256
100
AcDbEntity
  8
0
100
AcDbLine
 62
7
  6
CONTINUOUS
 10
9.7045228436
 20
11.0755244068
 11
9.7045228436
 21
11.533020188
  0
LINE
  5
257
100
AcDbEntity
  8
0
100
AcDbLine
 62
7
  6
CONTINUOUS
 10
9.7861550578
 20
11.533020188
 11
9.7861550578
 21
11.0755244068
  0
LINE
  5
258
100
AcDbEntity
  8
0
100
AcDbLine
 62
7
  6
CONTINUOUS
 10
18.9194834891
 20
7.353224868
 11
18.9394834891
 21
7.353224868
  0
LINE
  5
259
100
AcDbEntity
  8
0
100
AcDbLine
 62
7
  6
CONTINUOUS
 10
17.6394834891
 20
7.374224868
 11
17.6594834891
 21
7.374224868
  0
LINE
  5
25A
100
AcDbEntity
  8
0
100
AcDbLine
 62
7
  6
CONTINUOUS
 10
22.5844834891
 20
7.675224868
 11
23.4544834891
 21
7.675224868
  0
LINE
  5
25B
100
AcDbEntity
  8
0
100
AcDbLine
 62
7
  6
CONTINUOUS
 10
20.097483788
 20
7.874224868
 11
21.1774831902
 21
7.874224868
  0
LINE
  5
25C
100
AcDbEntity
  8
0
100
AcDbLine
 62
7
  6
CONTINUOUS
 10
19.9874834891
 20
8.1360506428
 11
19.9891944123
 21
8.1360506428
  0
LINE
  5
25D
100
AcDbEntity
  8
0
100
AcDbLine
 62
7
  6
CONTINUOUS
 10
20.2725228436
 20
8.1360506428
 11
20.3541550578
 21
8.1360506428
  0
LINE
  5
25E
100
AcDbEntity
  8
0
100
AcDbLine
 62
7
  6
CONTINUOUS
 10
20.9208119205
 20
8.1360506428
 11
21.0024441347
 21
8.1360506428
  0
LINE
  5
25F
100
AcDbEntity
  8
0
100
AcDbLine
 62
7
  6
CONTINUOUS
 10
21.285772566
 20
8.1360506428
 11
21.2874834891
 21
8.1360506428
  0
LINE
  5
260
100
AcDbEntity
  8
0
100
AcDbLine
 62
7
  6
CONTINUOUS
 10
18.9665553156
 20
6.6515698237
 11
19.5044834891
 21
6.5988130161
  0
LWPOLYLINE
  5
261
100
AcDbEntity
  8
0
100
AcDbPolyline
 62
7
  6
CONTINUOUS
 90
6
 70
0
 10
-1.0675210542
 20
12.3895459832
 10
-1.0556234541
 20
12.3851926527
 10
-1.0396032483
 20
12.3754239206
 10
-1.0262997254
 20
12.362193133
 10
-1.0164432761
 20
12.3462266459
 10
-1.0119060421
 20
12.333930971
  0
LINE
  5
262
100
AcDbEntity
  8
0
100
AcDbLine
 62
7
  6
CONTINUOUS
 10
17.5950157834
 20
4.4786110845
 11
17.6772171152
 21
4.4411262949
  0
LINE
  5
263
100
AcDbEntity
  8
0
100
AcDbLine
 62
7
  6
CONTINUOUS
 10
10.3528119205
 20
11.0755244068
 11
10.3528119205
 21
11.533020188
  0
LINE
  5
264
100
AcDbEntity
  8
0
100
AcDbLine
 62
7
  6
CONTINUOUS
 10
10.4344441347
 20
11.533020188
 11
10.4344441347
 21
11.0755244068
  0
LINE
  5
265
100
AcDbEntity
  8
0
100
AcDbLine
 62
7
  6
CONTINUOUS
 10
10.5394834891
 20
11.9386986321
 11
10.5394834891
 21
11.9586986321
  0
LINE
  5
266
100
AcDbEntity
  8
0
100
AcDbLine
 62
7
  6
CONTINUOUS
 10
10.5694834891
 20
10.7936986321
 11
10.5694834891
 21
10.8136986321
  0
LINE
  5
267
100
AcDbEntity
  8
0
100
AcDbLine
 62
7
  6
CONTINUOUS
 10
10.717772566
 20
11.0755244068
 11
10.717772566
 21
11.533020188
  0
LINE
  5
268
100
AcDbEntity
  8
0
100
AcDbLine
 62
7
  6
CONTINUOUS
 10
10.7194834891
 20
11.0755244068
 11
10.7194834891
 21
11.533020188
  0
LINE
  5
269
100
AcDbEntity
  8
0
100
AcDbLine
 62
7
  6
CONTINUOUS
 10
23.7844834891
 20
8.279224868
 11
23.7944834891
 21
8.279224868
  0
LINE
  5
26A
100
AcDbEntity
  8
0
100
AcDbLine
 62
7
  6
CONTINUOUS
 10
21.2874834891
 20
8.593546424
 11
21.285772566
 21
8.593546424
  0
LINE
  5
26B
100
AcDbEntity
  8
0
100
AcDbLine
 62
7
  6
CONTINUOUS
 10
21.0024441347
 20
8.593546424
 11
20.9208119205
 21
8.593546424
  0
LINE
  5
26C
100
AcDbEntity
  8
0
100
AcDbLine
 62
7
  6
CONTINUOUS
 10
20.3541550578
 20
8.593546424
 11
20.2725228436
 21
8.593546424
  0
LINE
  5
26D
100
AcDbEntity
  8
0
100
AcDbLine
 62
7
  6
CONTINUOUS
 10
19.9891944123
 20
8.593546424
 11
19.9874834891
 21
8.593546424
  0
LINE
  5
26E
100
AcDbEntity
  8
0
100
AcDbLine
 62
7
  6
CONTINUOUS
 10
24.0644834891
 20
8.594224868
 11
24.1444834891
 21
8.594224868
  0
LINE
  5
26F
100
AcDbEntity
  8
0
100
AcDbLine
 62
7
  6
CONTINUOUS
 10
21.1424770098
 20
8.999224868
 11
20.1324899685
 21
8.999224868
  0
LINE
  5
270
100
AcDbEntity
  8
0
100
AcDbLine
 62
7
  6
CONTINUOUS
 10
20.1374834891
 20
9.019224868
 11
21.1374834891
 21
9.019224868
  0
LINE
  5
271
100
AcDbEntity
  8
0
100
AcDbLine
 62
9
  6
CONTINUOUS
 10
21.1667978533
 20
9.0437702741
 11
20.108169125
 21
9.0437702741
  0
LINE
  5
272
100
AcDbEntity
  8
0
100
AcDbLine
 62
7
  6
CONTINUOUS
 10
10.0538973515
 20
9.1172042305
 11
10.0850696267
 21
9.1172042305
  0
LINE
  5
273
100
AcDbEntity
  8
0
100
AcDbLine
 62
9
  6
CONTINUOUS
 10
21.169699515
 20
9.1178123769
 11
20.1052674632
 21
9.1178123769
  0
LINE
  5
274
100
AcDbEntity
  8
0
100
AcDbLine
 62
7
  6
CONTINUOUS
 10
11.1274834891
 20
9.4364617501
 11
11.1274834891
 21
10.3764617501
  0
LINE
  5
275
100
AcDbEntity
  8
0
100
AcDbLine
 62
9
  6
CONTINUOUS
 10
9.7003066668
 20
9.1444045689
 11
10.4386603114
 21
9.1444045689
  0
LINE
  5
276
100
AcDbEntity
  8
0
100
AcDbLine
 62
7
  6
CONTINUOUS
 10
9.6372410304
 20
9.2036986321
 11
10.5017261581
 21
9.2036986321
  0
LINE
  5
277
100
AcDbEntity
  8
0
100
AcDbLine
 62
9
  6
CONTINUOUS
 10
21.1470197813
 20
9.2267765373
 11
20.127947197
 21
9.2267765373
  0
LINE
  5
278
100
AcDbEntity
  8
0
100
AcDbLine
 62
9
  6
CONTINUOUS
 10
10.5953076085
 20
9.2684493264
 11
9.5436594469
 21
9.2684491217
  0
LINE
  5
279
100
AcDbEntity
  8
0
100
AcDbLine
 62
7
  6
CONTINUOUS
 10
19.9825188707
 20
9.4364617501
 11
19.5974834891
 21
9.4364617501
  0
LINE
  5
27A
100
AcDbEntity
  8
0
100
AcDbLine
 62
7
  6
CONTINUOUS
 10
10.7244481076
 20
9.4364617501
 11
11.1274834891
 21
9.4364617501
  0
LINE
  5
27B
100
AcDbEntity
  8
0
100
AcDbLine
 62
7
  6
CONTINUOUS
 10
19.5774834891
 20
9.5314617501
 11
11.1274834891
 21
9.5314617501
  0
LINE
  5
27C
100
AcDbEntity
  8
0
100
AcDbLine
 62
7
  6
CONTINUOUS
 10
-2.3513098248
 20
10.0963002558
 11
-2.3027231969
 21
10.0963002558
  0
LINE
  5
27D
100
AcDbEntity
  8
0
100
AcDbLine
 62
9
  6
CONTINUOUS
 10
-2.6077839938
 20
10.1528374548
 11
-2.3270165118
 21
10.1528369409
  0
LINE
  5
27E
100
AcDbEntity
  8
0
100
AcDbLine
 62
9
  6
CONTINUOUS
 10
-2.3270165118
 20
10.1528369409
 11
-2.0462490279
 21
10.1528374548
  0
LINE
  5
27F
100
AcDbEntity
  8
0
100
AcDbLine
 62
9
  6
CONTINUOUS
 10
-2.3270165109
 20
10.1903217306
 11
-2.3233464885
 21
10.1903217011
  0
LINE
  5
280
100
AcDbEntity
  8
0
100
AcDbLine
 62
9
  6
CONTINUOUS
 10
-2.6899843329
 20
10.1903217828
 11
-2.3270165109
 21
10.1903217306
  0
LINE
  5
281
100
AcDbEntity
  8
0
100
AcDbLine
 62
9
  6
CONTINUOUS
 10
-2.3233464885
 20
10.1903217011
 11
-1.9640486888
 21
10.1903217828
  0
LINE
  5
282
100
AcDbEntity
  8
0
100
AcDbLine
 62
9
  6
CONTINUOUS
 10
-1.9477771401
 20
10.2020256364
 11
-2.7062558816
 21
10.2020256365
  0
LINE
  5
283
100
AcDbEntity
  8
0
100
AcDbLine
 62
9
  6
CONTINUOUS
 10
-1.9375475118
 20
10.2682122524
 11
-2.7164855099
 21
10.2682122524
  0
LINE
  5
284
100
AcDbEntity
  8
0
100
AcDbLine
 62
7
  6
CONTINUOUS
 10
19.5774834891
 20
10.2814617501
 11
11.1274834891
 21
10.2814617501
  0
LINE
  5
285
100
AcDbEntity
  8
0
100
AcDbLine
 62
7
  6
CONTINUOUS
 10
-2.6920165111
 20
10.2863002567
 11
-1.9620165106
 21
10.2863002567
  0
LINE
  5
286
100
AcDbEntity
  8
0
100
AcDbLine
 62
7
  6
CONTINUOUS
 10
19.9825188707
 20
10.3764617501
 11
19.5974834891
 21
10.3764617501
  0
LINE
  5
287
100
AcDbEntity
  8
0
100
AcDbLine
 62
7
  6
CONTINUOUS
 10
10.7244481076
 20
10.3764617501
 11
11.1274834891
 21
10.3764617501
  0
LINE
  5
288
100
AcDbEntity
  8
0
100
AcDbLine
 62
9
  6
CONTINUOUS
 10
20.1116593698
 20
10.5444741736
 11
21.1633076085
 21
10.5444741736
  0
LINE
  5
289
100
AcDbEntity
  8
0
100
AcDbLine
 62
9
  6
CONTINUOUS
 10
9.559947197
 20
10.5861469629
 11
10.5790197813
 21
10.5861469629
  0
LINE
  5
28A
100
AcDbEntity
  8
0
100
AcDbLine
 62
7
  6
CONTINUOUS
 10
21.0697261653
 20
10.609224868
 11
20.2052408129
 21
10.609224868
  0
LINE
  5
28B
100
AcDbEntity
  8
0
100
AcDbLine
 62
9
  6
CONTINUOUS
 10
21.0066642282
 20
10.6685183249
 11
20.2683027501
 21
10.6685183249
  0
LINE
  5
28C
100
AcDbEntity
  8
0
100
AcDbLine
 62
9
  6
CONTINUOUS
 10
9.5372674725
 20
10.6951111141
 11
10.6016995057
 21
10.6951111141
  0
LINE
  5
28D
100
AcDbEntity
  8
0
100
AcDbLine
 62
7
  6
CONTINUOUS
 10
20.6532057759
 20
10.6957202343
 11
20.6217612024
 21
10.6957202343
  0
LINE
  5
28E
100
AcDbEntity
  8
0
100
AcDbLine
 62
9
  6
CONTINUOUS
 10
9.5401691407
 20
10.7691532391
 11
10.5987978376
 21
10.7691532391
  0
LINE
  5
28F
100
AcDbEntity
  8
0
100
AcDbLine
 62
7
  6
CONTINUOUS
 10
9.5694834891
 20
10.7936986321
 11
10.5694834891
 21
10.7936986321
  0
LINE
  5
290
100
AcDbEntity
  8
0
100
AcDbLine
 62
7
  6
CONTINUOUS
 10
9.7525874437
 20
10.8100867869
 11
9.5694834891
 21
10.8100867869
  0
LINE
  5
291
100
AcDbEntity
  8
0
100
AcDbLine
 62
7
  6
CONTINUOUS
 10
9.529483788
 20
10.8136986321
 11
10.6094831902
 21
10.8136986321
  0
LINE
  5
292
100
AcDbEntity
  8
0
100
AcDbLine
 62
7
  6
CONTINUOUS
 10
-0.0199602748
 20
12.3345493115
 11
0.2138190576
 21
12.2975223028
  0
LINE
  5
293
100
AcDbEntity
  8
0
100
AcDbLine
 62
7
  6
CONTINUOUS
 10
10.5987978376
 20
10.7691532391
 11
10.5694834891
 21
10.7936986321
  0
LINE
  5
294
100
AcDbEntity
  8
0
100
AcDbLine
 62
7
  6
CONTINUOUS
 10
9.540169125
 20
11.9832440382
 11
9.5694834891
 21
11.9586986321
  0
LINE
  5
295
100
AcDbEntity
  8
0
100
AcDbLine
 62
7
  6
CONTINUOUS
 10
9.4194834891
 20
11.0755244068
 11
9.4211944123
 21
11.0755244068
  0
LINE
  5
296
100
AcDbEntity
  8
0
100
AcDbLine
 62
7
  6
CONTINUOUS
 10
9.7045228436
 20
11.0755244068
 11
9.7861550578
 21
11.0755244068
  0
LINE
  5
297
100
AcDbEntity
  8
0
100
AcDbLine
 62
7
  6
CONTINUOUS
 10
10.3528119205
 20
11.0755244068
 11
10.4344441347
 21
11.0755244068
  0
LINE
  5
298
100
AcDbEntity
  8
0
100
AcDbLine
 62
7
  6
CONTINUOUS
 10
10.717772566
 20
11.0755244068
 11
10.7194834891
 21
11.0755244068
  0
LINE
  5
299
100
AcDbEntity
  8
0
100
AcDbLine
 62
9
  6
CONTINUOUS
 10
-2.0439749538
 20
11.407514177
 11
-2.6100580679
 21
11.407514177
  0
LINE
  5
29A
100
AcDbEntity
  8
0
100
AcDbLine
 62
7
  6
CONTINUOUS
 10
10.7194834891
 20
11.533020188
 11
10.717772566
 21
11.533020188
  0
LINE
  5
29B
100
AcDbEntity
  8
0
100
AcDbLine
 62
7
  6
CONTINUOUS
 10
10.4344441347
 20
11.533020188
 11
10.3528119205
 21
11.533020188
  0
LINE
  5
29C
100
AcDbEntity
  8
0
100
AcDbLine
 62
7
  6
CONTINUOUS
 10
9.7861550578
 20
11.533020188
 11
9.7045228436
 21
11.533020188
  0
LINE
  5
29D
100
AcDbEntity
  8
0
100
AcDbLine
 62
7
  6
CONTINUOUS
 10
9.4211944123
 20
11.533020188
 11
9.4194834891
 21
11.533020188
  0
LINE
  5
29E
100
AcDbEntity
  8
0
100
AcDbLine
 62
7
  6
CONTINUOUS
 10
-0.9517340194
 20
11.7059355141
 11
-0.1592990023
 21
11.7059355141
  0
LINE
  5
29F
100
AcDbEntity
  8
0
100
AcDbLine
 62
9
  6
CONTINUOUS
 10
-0.9580165109
 20
11.7550767014
 11
-0.1530165109
 21
11.7550767014
  0
LINE
  5
2A0
100
AcDbEntity
  8
0
100
AcDbLine
 62
7
  6
CONTINUOUS
 10
10.5744770098
 20
11.9386986321
 11
9.5644899685
 21
11.9386986321
  0
LINE
  5
2A1
100
AcDbEntity
  8
0
100
AcDbLine
 62
7
  6
CONTINUOUS
 10
9.5694834891
 20
11.9586986321
 11
10.5694834891
 21
11.9586986321
  0
LINE
  5
2A2
100
AcDbEntity
  8
0
100
AcDbLine
 62
9
  6
CONTINUOUS
 10
10.5987978533
 20
11.9832440382
 11
9.540169125
 21
11.9832440382
  0
LINE
  5
2A3
100
AcDbEntity
  8
0
100
AcDbLine
 62
9
  6
CONTINUOUS
 10
-2.5514988196
 20
11.990689049
 11
-2.1025342021
 21
11.990689049
  0
LINE
  5
2A4
100
AcDbEntity
  8
0
100
AcDbLine
 62
7
  6
CONTINUOUS
 10
-0.1530200014
 20
12.0059355141
 11
-0.9580130203
 21
12.0059355141
  0
LINE
  5
2A5
100
AcDbEntity
  8
0
100
AcDbLine
 62
9
  6
CONTINUOUS
 10
-2.0829933429
 20
12.0359764605
 11
-2.5710396788
 21
12.0359764605
  0
LINE
  5
2A6
100
AcDbEntity
  8
0
100
AcDbLine
 62
7
  6
CONTINUOUS
 10
-1.0052185824
 20
12.0559355141
 11
-0.1058144393
 21
12.0559355141
  0
LINE
  5
2A7
100
AcDbEntity
  8
0
100
AcDbLine
 62
9
  6
CONTINUOUS
 10
10.601699515
 20
12.057286141
 11
9.5372674632
 21
12.057286141
  0
LINE
  5
2A8
100
AcDbEntity
  8
0
100
AcDbLine
 62
9
  6
CONTINUOUS
 10
-1.0238975995
 20
12.08311281
 11
-0.0871354222
 21
12.08311281
  0
LINE
  5
2A9
100
AcDbEntity
  8
0
100
AcDbLine
 62
9
  6
CONTINUOUS
 10
-2.587734141
 20
12.093291928
 11
-2.0662988808
 21
12.093291928
  0
LINE
  5
2AA
100
AcDbEntity
  8
0
100
AcDbLine
 62
9
  6
CONTINUOUS
 10
10.5790197813
 20
12.1662503013
 11
9.559947197
 21
12.1662503013
  0
LINE
  5
2AB
100
AcDbEntity
  8
0
100
AcDbLine
 62
9
  6
CONTINUOUS
 10
-2.568818676
 20
12.3108457103
 11
-2.0852143458
 21
12.3108457103
  0
LINE
  5
2AC
100
AcDbEntity
  8
0
100
AcDbLine
 62
7
  6
CONTINUOUS
 10
-2.1147143108
 20
12.3463002558
 11
-2.539318711
 21
12.3463002558
  0
LINE
  5
2AD
100
AcDbEntity
  8
0
100
AcDbLine
 62
7
  6
CONTINUOUS
 10
1.4544834891
 20
12.3656853525
 11
1.3815678047
 21
12.3656853525
  0
LINE
  5
2AE
100
AcDbEntity
  8
0
100
AcDbLine
 62
7
  6
CONTINUOUS
 10
9.4145188707
 20
12.3759355141
 11
9.0294834891
 21
12.3759355141
  0
LINE
  5
2AF
100
AcDbEntity
  8
0
100
AcDbLine
 62
9
  6
CONTINUOUS
 10
-2.4920165109
 20
12.3763002558
 11
-2.1620165109
 21
12.3763002558
  0
LINE
  5
2B0
100
AcDbEntity
  8
0
100
AcDbLine
 62
7
  6
CONTINUOUS
 10
-2.1620168189
 20
12.4263002558
 11
-2.4920162028
 21
12.4263002558
  0
LINE
  5
2B1
100
AcDbEntity
  8
0
100
AcDbLine
 62
9
  6
CONTINUOUS
 10
-0.1739080728
 20
12.4637009369
 11
-0.9377496284
 21
12.4637023965
  0
LINE
  5
2B2
100
AcDbEntity
  8
0
100
AcDbLine
 62
7
  6
CONTINUOUS
 10
1.4744834891
 20
12.4709355141
 11
9.0094834891
 21
12.4709355141
  0
LINE
  5
2B3
100
AcDbEntity
  8
0
100
AcDbLine
 62
7
  6
CONTINUOUS
 10
-1.3455165109
 20
12.5524355141
 11
-1.3655165109
 21
12.5524355141
  0
LINE
  5
2B4
100
AcDbEntity
  8
0
100
AcDbLine
 62
7
  6
CONTINUOUS
 10
-1.3655165109
 20
12.5834357841
 11
-1.3455165109
 21
12.5834357841
  0
LINE
  5
2B5
100
AcDbEntity
  8
0
100
AcDbLine
 62
7
  6
CONTINUOUS
 10
-2.6455165109
 20
12.6059355141
 11
-2.6255165109
 21
12.6059355141
  0
LINE
  5
2B6
100
AcDbEntity
  8
0
100
AcDbLine
 62
7
  6
CONTINUOUS
 10
-1.3455165109
 20
12.8149352441
 11
-1.3655165109
 21
12.8149352441
  0
LINE
  5
2B7
100
AcDbEntity
  8
0
100
AcDbLine
 62
7
  6
CONTINUOUS
 10
-1.3655165109
 20
12.8769357841
 11
-1.3455165109
 21
12.8769357841
  0
LINE
  5
2B8
100
AcDbEntity
  8
0
100
AcDbLine
 62
7
  6
CONTINUOUS
 10
-2.6455165109
 20
13.0859355141
 11
-2.6255165109
 21
13.0859355141
  0
LINE
  5
2B9
100
AcDbEntity
  8
0
100
AcDbLine
 62
7
  6
CONTINUOUS
 10
-1.3455165109
 20
13.1084352441
 11
-1.3655165109
 21
13.1084352441
  0
LINE
  5
2BA
100
AcDbEntity
  8
0
100
AcDbLine
 62
7
  6
CONTINUOUS
 10
-1.3655165109
 20
13.1394355141
 11
-1.3455165109
 21
13.1394355141
  0
LINE
  5
2BB
100
AcDbEntity
  8
0
100
AcDbLine
 62
7
  6
CONTINUOUS
 10
1.4744834891
 20
13.2209355141
 11
9.0094834891
 21
13.2209355141
  0
LINE
  5
2BC
100
AcDbEntity
  8
0
100
AcDbLine
 62
7
  6
CONTINUOUS
 10
9.4145188707
 20
13.3159355141
 11
9.0294834891
 21
13.3159355141
  0
LINE
  5
2BD
100
AcDbEntity
  8
0
100
AcDbLine
 62
7
  6
CONTINUOUS
 10
1.4544834891
 20
13.3261856757
 11
1.3815678047
 21
13.3261856757
  0
LINE
  5
2BE
100
AcDbEntity
  8
0
100
AcDbLine
 62
9
  6
CONTINUOUS
 10
9.5436593698
 20
13.4839479376
 11
10.5953076085
 21
13.4839479376
  0
LINE
  5
2BF
100
AcDbEntity
  8
0
100
AcDbLine
 62
7
  6
CONTINUOUS
 10
10.5017261653
 20
13.5486986321
 11
9.6372408129
 21
13.5486986321
  0
LINE
  5
2C0
100
AcDbEntity
  8
0
100
AcDbLine
 62
9
  6
CONTINUOUS
 10
10.4386642282
 20
13.607992089
 11
9.7003027501
 21
13.607992089
  0
LINE
  5
2C1
100
AcDbEntity
  8
0
100
AcDbLine
 62
7
  6
CONTINUOUS
 10
10.0852057759
 20
13.6351939984
 11
10.0537612024
 21
13.6351939984
  0
LINE
  5
2C2
100
AcDbEntity
  8
0
100
AcDbLine
 62
7
  6
CONTINUOUS
 10
21.1667978533
 20
9.0437702741
 11
21.1374834891
 21
9.019224868
  0
LINE
  5
2C3
100
AcDbEntity
  8
0
100
AcDbLine
 62
7
  6
CONTINUOUS
 10
-0.0916197728
 20
13.3459719672
 11
0.2138190576
 21
13.3943487254
  0
LINE
  5
2C4
100
AcDbEntity
  8
0
100
AcDbLine
 62
7
  6
CONTINUOUS
 10
20.108169125
 20
9.0437702741
 11
20.1374834891
 21
9.019224868
  0
LINE
  5
2C5
100
AcDbEntity
  8
0
100
AcDbLine
 62
7
  6
CONTINUOUS
 10
18.1824657979
 20
6.2789784029
 11
18.2410250462
 21
5.695803531
  0
LINE
  5
2C6
100
AcDbEntity
  8
0
100
AcDbLine
 62
7
  6
CONTINUOUS
 10
17.5504834891
 20
7.139224868
 11
17.5504834891
 21
7.129224868
  0
LINE
  5
2C7
100
AcDbEntity
  8
0
100
AcDbLine
 62
7
  6
CONTINUOUS
 10
17.5794834891
 20
7.314224868
 11
17.5794834891
 21
6.954224868
  0
LINE
  5
2C8
100
AcDbEntity
  8
0
100
AcDbLine
 62
9
  6
CONTINUOUS
 10
17.6394834891
 20
7.374224868
 11
17.6394834891
 21
6.894224868
  0
LINE
  5
2C9
100
AcDbEntity
  8
0
100
AcDbLine
 62
7
  6
CONTINUOUS
 10
17.6594834891
 20
6.894224868
 11
17.6594834891
 21
7.374224868
  0
LINE
  5
2CA
100
AcDbEntity
  8
0
100
AcDbLine
 62
9
  6
CONTINUOUS
 10
17.7802023107
 20
6.7208317711
 11
17.7802023108
 21
7.547617965
  0
LINE
  5
2CB
100
AcDbEntity
  8
0
100
AcDbLine
 62
7
  6
CONTINUOUS
 10
17.7929834891
 20
6.7145896098
 11
17.7929834891
 21
6.6645896098
  0
LINE
  5
2CC
100
AcDbEntity
  8
0
100
AcDbLine
 62
7
  6
CONTINUOUS
 10
18.1229834891
 20
6.7145896098
 11
18.1229834891
 21
6.6645896098
  0
LINE
  5
2CD
100
AcDbEntity
  8
0
100
AcDbLine
 62
9
  6
CONTINUOUS
 10
18.1913759058
 20
7.5189689126
 11
18.1913759058
 21
6.7494808235
  0
LINE
  5
2CE
100
AcDbEntity
  8
0
100
AcDbLine
 62
9
  6
CONTINUOUS
 10
18.2397236819
 20
7.4787903368
 11
18.2397236819
 21
6.7896593993
  0
LINE
  5
2CF
100
AcDbEntity
  8
0
100
AcDbLine
 62
9
  6
CONTINUOUS
 10
18.266428721
 20
7.4685498729
 11
18.266428721
 21
6.7998998632
  0
LINE
  5
2D0
100
AcDbEntity
  8
0
100
AcDbLine
 62
9
  6
CONTINUOUS
 10
18.4033406513
 20
6.7599420471
 11
18.4033406513
 21
7.508507689
  0
LINE
  5
2D1
100
AcDbEntity
  8
0
100
AcDbLine
 62
7
  6
CONTINUOUS
 10
18.4144834891
 20
7.5302628444
 11
18.4144834891
 21
6.7381868917
  0
LINE
  5
2D2
100
AcDbEntity
  8
0
100
AcDbLine
 62
7
  6
CONTINUOUS
 10
17.7335011804
 20
6.2789784029
 11
17.6749419321
 21
5.695803531
  0
LINE
  5
2D3
100
AcDbEntity
  8
0
100
AcDbLine
 62
7
  6
CONTINUOUS
 10
18.3209511948
 20
4.4786110845
 11
18.2387498631
 21
4.4411262949
  0
LINE
  5
2D4
100
AcDbEntity
  8
0
100
AcDbLine
 62
9
  6
CONTINUOUS
 10
18.4521977748
 20
6.6982522512
 11
18.4521977748
 21
7.5701974849
  0
LINE
  5
2D5
100
AcDbEntity
  8
0
100
AcDbLine
 62
9
  6
CONTINUOUS
 10
18.4877775818
 20
6.6894914311
 11
18.4877775818
 21
7.578958305
  0
LINE
  5
2D6
100
AcDbEntity
  8
0
100
AcDbLine
 62
9
  6
CONTINUOUS
 10
18.5198611183
 20
6.6764414623
 11
18.5198611183
 21
7.5920082737
  0
LINE
  5
2D7
100
AcDbEntity
  8
0
100
AcDbLine
 62
9
  6
CONTINUOUS
 10
18.7857692034
 20
7.6464805037
 11
18.7857692034
 21
6.6219692324
  0
LINE
  5
2D8
100
AcDbEntity
  8
0
100
AcDbLine
 62
9
  6
CONTINUOUS
 10
18.8475459891
 20
6.5985636463
 11
18.8475459891
 21
7.6698860898
  0
LINE
  5
2D9
100
AcDbEntity
  8
0
100
AcDbLine
 62
7
  6
CONTINUOUS
 10
18.9194834891
 20
6.609224868
 11
18.9194834891
 21
7.659224868
  0
LINE
  5
2DA
100
AcDbEntity
  8
0
100
AcDbLine
 62
7
  6
CONTINUOUS
 10
18.9394834891
 20
7.5870173421
 11
18.9394834891
 21
6.681432394
  0
LINE
  5
2DB
100
AcDbEntity
  8
0
100
AcDbLine
 62
9
  6
CONTINUOUS
 10
18.9665553156
 20
7.6168799124
 11
18.9665553156
 21
6.6515698237
  0
LINE
  5
2DC
100
AcDbEntity
  8
0
100
AcDbLine
 62
9
  6
CONTINUOUS
 10
19.5044834891
 20
6.5988130161
 11
19.5044834891
 21
7.66963672
  0
LINE
  5
2DD
100
AcDbEntity
  8
0
100
AcDbLine
 62
7
  6
CONTINUOUS
 10
19.5774834891
 20
9.4564617501
 11
19.5774834891
 21
10.3564617501
  0
LINE
  5
2DE
100
AcDbEntity
  8
0
100
AcDbLine
 62
9
  6
CONTINUOUS
 10
19.5974834891
 20
10.3764617501
 11
19.5974834891
 21
9.4364617501
  0
LINE
  5
2DF
100
AcDbEntity
  8
0
100
AcDbLine
 62
9
  6
CONTINUOUS
 10
19.7428016919
 20
6.9441121284
 11
19.7428016919
 21
6.714862148
  0
LINE
  5
2E0
100
AcDbEntity
  8
0
100
AcDbLine
 62
9
  6
CONTINUOUS
 10
19.7428016919
 20
6.5247494084
 11
19.7428016919
 21
6.5105431754
  0
LINE
  5
2E1
100
AcDbEntity
  8
0
100
AcDbLine
 62
9
  6
CONTINUOUS
 10
19.7428016919
 20
7.3243376077
 11
19.7428016919
 21
7.5535875881
  0
LINE
  5
2E2
100
AcDbEntity
  8
0
100
AcDbLine
 62
9
  6
CONTINUOUS
 10
19.7428016919
 20
7.7437003277
 11
19.7428016919
 21
7.7579065607
  0
LINE
  5
2E3
100
AcDbEntity
  8
0
100
AcDbLine
 62
7
  6
CONTINUOUS
 10
19.8844834891
 20
7.684224868
 11
19.8844834891
 21
6.5842251716
  0
LINE
  5
2E4
100
AcDbEntity
  8
0
100
AcDbLine
 62
9
  6
CONTINUOUS
 10
19.9331679803
 20
6.5287165091
 11
19.9331679803
 21
7.739733227
  0
LINE
  5
2E5
100
AcDbEntity
  8
0
100
AcDbLine
 62
7
  6
CONTINUOUS
 10
19.9874834891
 20
8.1360506428
 11
19.9874834891
 21
8.593546424
  0
LINE
  5
2E6
100
AcDbEntity
  8
0
100
AcDbLine
 62
7
  6
CONTINUOUS
 10
19.9891944123
 20
8.593546424
 11
19.9891944123
 21
8.1360506428
  0
LINE
  5
2E7
100
AcDbEntity
  8
0
100
AcDbLine
 62
7
  6
CONTINUOUS
 10
20.1674834891
 20
8.999224868
 11
20.1674834891
 21
9.019224868
  0
LINE
  5
2E8
100
AcDbEntity
  8
0
100
AcDbLine
 62
7
  6
CONTINUOUS
 10
20.2725228436
 20
8.1360506428
 11
20.2725228436
 21
8.593546424
  0
LINE
  5
2E9
100
AcDbEntity
  8
0
100
AcDbLine
 62
7
  6
CONTINUOUS
 10
20.3541550578
 20
8.593546424
 11
20.3541550578
 21
8.1360506428
  0
LINE
  5
2EA
100
AcDbEntity
  8
0
100
AcDbLine
 62
7
  6
CONTINUOUS
 10
20.9208119205
 20
8.1360506428
 11
20.9208119205
 21
8.593546424
  0
LINE
  5
2EB
100
AcDbEntity
  8
0
100
AcDbLine
 62
7
  6
CONTINUOUS
 10
21.0024441347
 20
8.593546424
 11
21.0024441347
 21
8.1360506428
  0
LINE
  5
2EC
100
AcDbEntity
  8
0
100
AcDbLine
 62
7
  6
CONTINUOUS
 10
21.1074834891
 20
8.999224868
 11
21.1074834891
 21
9.019224868
  0
LINE
  5
2ED
100
AcDbEntity
  8
0
100
AcDbLine
 62
7
  6
CONTINUOUS
 10
21.285772566
 20
8.1360506428
 11
21.285772566
 21
8.593546424
  0
LINE
  5
2EE
100
AcDbEntity
  8
0
100
AcDbLine
 62
7
  6
CONTINUOUS
 10
21.2874834891
 20
8.1360506428
 11
21.2874834891
 21
8.593546424
  0
LINE
  5
2EF
100
AcDbEntity
  8
0
100
AcDbLine
 62
9
  6
CONTINUOUS
 10
21.3047601099
 20
7.7611018256
 11
21.3047601099
 21
6.5073479105
  0
LINE
  5
2F0
100
AcDbEntity
  8
0
100
AcDbLine
 62
7
  6
CONTINUOUS
 10
21.3344834891
 20
7.794224868
 11
21.3344834891
 21
6.474224868
  0
LINE
  5
2F1
100
AcDbEntity
  8
0
100
AcDbLine
 62
9
  6
CONTINUOUS
 10
21.3908912828
 20
6.4465354048
 11
21.3908912828
 21
7.8219143312
  0
LINE
  5
2F2
100
AcDbEntity
  8
0
100
AcDbLine
 62
9
  6
CONTINUOUS
 10
22.5464053398
 20
7.7596692083
 11
22.5464053398
 21
6.5087805278
  0
LINE
  5
2F3
100
AcDbEntity
  8
0
100
AcDbLine
 62
7
  6
CONTINUOUS
 10
22.5844834891
 20
6.5300869281
 11
22.5844834891
 21
7.738362808
  0
LINE
  5
2F4
100
AcDbEntity
  8
0
100
AcDbLine
 62
7
  6
CONTINUOUS
 10
23.4544834891
 20
7.8692241003
 11
23.4544834891
 21
6.3992256358
  0
LINE
  5
2F5
100
AcDbEntity
  8
0
100
AcDbLine
 62
7
  6
CONTINUOUS
 10
23.7844834891
 20
8.2792242361
 11
23.7844834891
 21
5.9892255
  0
LINE
  5
2F6
100
AcDbEntity
  8
0
100
AcDbLine
 62
7
  6
CONTINUOUS
 10
23.7944834891
 20
5.989224868
 11
23.7944834891
 21
8.279224868
  0
LINE
  5
2F7
100
AcDbEntity
  8
0
100
AcDbLine
 62
7
  6
CONTINUOUS
 10
24.0344834891
 20
8.5642128209
 11
24.0344834891
 21
5.704224868
  0
LINE
  5
2F8
100
AcDbEntity
  8
0
100
AcDbLine
 62
9
  6
CONTINUOUS
 10
24.0644834891
 20
8.594224868
 11
24.0644834891
 21
5.674224868
  0
LINE
  5
2F9
100
AcDbEntity
  8
0
100
AcDbLine
 62
7
  6
CONTINUOUS
 10
24.1444834891
 20
5.6742370103
 11
24.1444834891
 21
8.5942127257
  0
LINE
  5
2FA
100
AcDbEntity
  8
0
100
AcDbLine
 62
7
  6
CONTINUOUS
 10
24.1544834891
 20
8.476224868
 11
24.1544834891
 21
5.792224868
  0
ARC
  5
2FB
100
AcDbEntity
  8
0
100
AcDbCircle
 62
7
  6
CONTINUOUS
 10
-31.917913406
 20
8.6601879588
 40
30.0
100
AcDbArc
 50
3.1071684918
 51
5.2543683477
  0
ARC
  5
2FC
100
AcDbEntity
  8
0
100
AcDbCircle
 62
7
  6
CONTINUOUS
 10
-11.632913406
 20
2.9484773128
 40
30.0
100
AcDbArc
 50
3.1071684918
 51
5.2543683477
  0
ARC
  5
2FD
100
AcDbEntity
  8
0
100
AcDbCircle
 62
7
  6
CONTINUOUS
 10
-2.3513099641
 20
10.7063002558
 40
0.61
100
AcDbArc
 50
245.1371623573
 51
270.0
  0
ARC
  5
2FE
100
AcDbEntity
  8
0
100
AcDbCircle
 62
7
  6
CONTINUOUS
 10
-2.3027230577
 20
10.7063002558
 40
0.61
100
AcDbArc
 50
270.0
 51
294.8628376427
  0
ARC
  5
2FF
100
AcDbEntity
  8
0
100
AcDbCircle
 62
7
  6
CONTINUOUS
 10
-0.7625829679
 20
11.7550767014
 40
0.1954335429
100
AcDbArc
 50
180.0
 51
194.5631575117
  0
ARC
  5
300
100
AcDbEntity
  8
0
100
AcDbCircle
 62
7
  6
CONTINUOUS
 10
-1.991864385
 20
10.2427234845
 40
0.06
100
AcDbArc
 50
317.2892559533
 51
25.1388147426
  0
ARC
  5
301
100
AcDbEntity
  8
0
100
AcDbCircle
 62
7
  6
CONTINUOUS
 10
-2.6621686367
 20
10.2427234845
 40
0.06
100
AcDbArc
 50
154.8611852891
 51
222.7107439917
  0
ARC
  5
302
100
AcDbEntity
  8
0
100
AcDbCircle
 62
7
  6
CONTINUOUS
 10
-2.6695165109
 20
10.2359405099
 40
0.05
100
AcDbArc
 50
222.7107439923
 51
245.8357322902
  0
ARC
  5
303
100
AcDbEntity
  8
0
100
AcDbCircle
 62
7
  6
CONTINUOUS
 10
-1.9845165109
 20
10.2359405099
 40
0.05
100
AcDbArc
 50
294.1642677098
 51
317.2892559526
  0
ARC
  5
304
100
AcDbEntity
  8
0
100
AcDbCircle
 62
7
  6
CONTINUOUS
 10
-1.9665165109
 20
10.2546182429
 40
0.032
100
AcDbArc
 50
25.1388147428
 51
81.9159861861
  0
ARC
  5
305
100
AcDbEntity
  8
0
100
AcDbCircle
 62
7
  6
CONTINUOUS
 10
-2.6875165109
 20
10.2546182429
 40
0.032
100
AcDbArc
 50
98.0840135454
 51
154.8611852888
  0
ARC
  5
306
100
AcDbEntity
  8
0
100
AcDbCircle
 62
7
  6
CONTINUOUS
 10
-2.971984864
 20
12.2363002558
 40
0.41
100
AcDbArc
 50
339.5860158063
 51
10.4756816964
  0
ARC
  5
307
100
AcDbEntity
  8
0
100
AcDbCircle
 62
7
  6
CONTINUOUS
 10
-2.0632311733
 20
12.1040500918
 40
0.41
100
AcDbArc
 50
63.7136175837
 51
83.7465591694
  0
ARC
  5
308
100
AcDbEntity
  8
0
100
AcDbCircle
 62
7
  6
CONTINUOUS
 10
-2.2040965048
 20
12.6433036506
 40
0.213
100
AcDbArc
 50
301.2417265131
 51
318.2136420574
  0
ARC
  5
309
100
AcDbEntity
  8
0
100
AcDbCircle
 62
7
  6
CONTINUOUS
 10
-2.4257838322
 20
12.6162726824
 40
0.2
100
AcDbArc
 50
182.9627007011
 51
246.7297047215
  0
ARC
  5
30A
100
AcDbEntity
  8
0
100
AcDbCircle
 62
7
  6
CONTINUOUS
 10
-2.6455165109
 20
12.6659355141
 40
0.06
100
AcDbArc
 50
180.0
 51
270.0
  0
ARC
  5
30B
100
AcDbEntity
  8
0
100
AcDbCircle
 62
7
  6
CONTINUOUS
 10
-2.5408742967
 20
12.075851888
 40
0.05
100
AcDbArc
 50
159.5860158063
 51
232.8928407794
  0
ARC
  5
30C
100
AcDbEntity
  8
0
100
AcDbCircle
 62
7
  6
CONTINUOUS
 10
-2.601205061
 20
11.9961010329
 40
0.05
100
AcDbArc
 50
353.786149249
 51
52.8928407793
  0
ARC
  5
30D
100
AcDbEntity
  8
0
100
AcDbCircle
 62
7
  6
CONTINUOUS
 10
-2.0528279608
 20
11.9961010329
 40
0.05
100
AcDbArc
 50
127.1071592207
 51
186.213850751
  0
ARC
  5
30E
100
AcDbEntity
  8
0
100
AcDbCircle
 62
7
  6
CONTINUOUS
 10
-2.113158725
 20
12.075851888
 40
0.05
100
AcDbArc
 50
307.1071592206
 51
20.4139841937
  0
ARC
  5
30F
100
AcDbEntity
  8
0
100
AcDbCircle
 62
7
  6
CONTINUOUS
 10
-2.0219752344
 20
12.480546453
 40
0.03125
100
AcDbArc
 50
83.7465591694
 51
138.213642052
  0
ARC
  5
310
100
AcDbEntity
  8
0
100
AcDbCircle
 62
7
  6
CONTINUOUS
 10
-2.1320165109
 20
12.3763002558
 40
0.03
100
AcDbArc
 50
180.0
 51
270.0
  0
ARC
  5
311
100
AcDbEntity
  8
0
100
AcDbCircle
 62
7
  6
CONTINUOUS
 10
-2.1147143108
 20
12.3163002558
 40
0.03
100
AcDbArc
 50
349.5243183037
 51
90.0
  0
ARC
  5
312
100
AcDbEntity
  8
0
100
AcDbCircle
 62
7
  6
CONTINUOUS
 10
-2.539318711
 20
12.3163002558
 40
0.03
100
AcDbArc
 50
90.0
 51
190.4756816963
  0
ARC
  5
313
100
AcDbEntity
  8
0
100
AcDbCircle
 62
7
  6
CONTINUOUS
 10
-2.5220165109
 20
12.3763002558
 40
0.03
100
AcDbArc
 50
270.0
 51
360.0
  0
ARC
  5
314
100
AcDbEntity
  8
0
100
AcDbCircle
 62
7
  6
CONTINUOUS
 10
-2.3270165109
 20
12.8459355141
 40
0.45
100
AcDbArc
 50
291.1684488458
 51
301.2417272574
  0
ARC
  5
315
100
AcDbEntity
  8
0
100
AcDbCircle
 62
7
  6
CONTINUOUS
 10
-2.3270165109
 20
12.8459355141
 40
0.45
100
AcDbArc
 50
246.7297047215
 51
248.8315511542
  0
ARC
  5
316
100
AcDbEntity
  8
0
100
AcDbCircle
 62
7
  6
CONTINUOUS
 10
-2.3270165109
 20
12.8459355141
 40
0.45
100
AcDbArc
 50
58.75827275
 51
113.270295265
  0
ARC
  5
317
100
AcDbEntity
  8
0
100
AcDbCircle
 62
7
  6
CONTINUOUS
 10
-2.0632311733
 20
13.5878209364
 40
0.41
100
AcDbArc
 50
276.253440829
 51
296.2863824163
  0
ARC
  5
318
100
AcDbEntity
  8
0
100
AcDbCircle
 62
7
  6
CONTINUOUS
 10
-2.2040965047
 20
13.0485673776
 40
0.213
100
AcDbArc
 50
41.786357948
 51
58.7582734951
  0
ARC
  5
319
100
AcDbEntity
  8
0
100
AcDbCircle
 62
7
  6
CONTINUOUS
 10
-2.4257838322
 20
13.0755983457
 40
0.2
100
AcDbArc
 50
113.2702952785
 51
177.0372992989
  0
ARC
  5
31A
100
AcDbEntity
  8
0
100
AcDbCircle
 62
7
  6
CONTINUOUS
 10
-2.6455165109
 20
13.0259355141
 40
0.06
100
AcDbArc
 50
90.0
 51
180.0
  0
ARC
  5
31B
100
AcDbEntity
  8
0
100
AcDbCircle
 62
7
  6
CONTINUOUS
 10
-2.0219752344
 20
13.2113245752
 40
0.03125
100
AcDbArc
 50
221.7863579427
 51
276.253440829
  0
ARC
  5
31C
100
AcDbEntity
  8
0
100
AcDbCircle
 62
7
  6
CONTINUOUS
 10
-1.4455165109
 20
12.4197270985
 40
0.94
100
AcDbArc
 50
93.2758289597
 51
109.8783240235
  0
ARC
  5
31D
100
AcDbEntity
  8
0
100
AcDbCircle
 62
7
  6
CONTINUOUS
 10
-1.6155284102
 20
12.8019355141
 40
0.44
100
AcDbArc
 50
245.6102863759
 51
250.1216759766
  0
ARC
  5
31E
100
AcDbEntity
  8
0
100
AcDbCircle
 62
7
  6
CONTINUOUS
 10
-1.6820481577
 20
12.2363002558
 40
0.41
100
AcDbArc
 50
169.5243183036
 51
200.4139841937
  0
ARC
  5
31F
100
AcDbEntity
  8
0
100
AcDbCircle
 62
7
  6
CONTINUOUS
 10
-1.1747934223
 20
12.0041985558
 40
0.4
100
AcDbArc
 50
74.4439504133
 51
111.0304763259
  0
ARC
  5
320
100
AcDbEntity
  8
0
100
AcDbCircle
 62
7
  6
CONTINUOUS
 10
-1.3972534692
 20
12.2266586027
 40
0.4
100
AcDbArc
 50
338.9695236741
 51
15.5560496423
  0
ARC
  5
321
100
AcDbEntity
  8
0
100
AcDbCircle
 62
7
  6
CONTINUOUS
 10
-1.5055165109
 20
12.2238596171
 40
0.11
100
AcDbArc
 50
51.7750897985
 51
86.7241710402
  0
ARC
  5
322
100
AcDbEntity
  8
0
100
AcDbCircle
 62
7
  6
CONTINUOUS
 10
-1.8385165109
 20
12.310126296
 40
0.1
100
AcDbArc
 50
65.610286376
 51
86.7241710402
  0
ARC
  5
323
100
AcDbEntity
  8
0
100
AcDbCircle
 62
7
  6
CONTINUOUS
 10
-1.4065165109
 20
12.3495536901
 40
0.05
100
AcDbArc
 50
231.7750897984
 51
325.0847937526
  0
ARC
  5
324
100
AcDbEntity
  8
0
100
AcDbCircle
 62
7
  6
CONTINUOUS
 10
-1.8305165109
 20
12.4498975377
 40
0.04
100
AcDbArc
 50
180.0
 51
266.7241710402
  0
ARC
  5
325
100
AcDbEntity
  8
0
100
AcDbCircle
 62
7
  6
CONTINUOUS
 10
-1.8905165109
 20
12.4537208589
 40
0.02
100
AcDbArc
 50
0.0
 51
63.7136175836
  0
ARC
  5
326
100
AcDbEntity
  8
0
100
AcDbCircle
 62
7
  6
CONTINUOUS
 10
-1.3255165109
 20
12.3962222165
 40
0.02
100
AcDbArc
 50
180.0
 51
291.0304772467
  0
ARC
  5
327
100
AcDbEntity
  8
0
100
AcDbCircle
 62
7
  6
CONTINUOUS
 10
-1.0052298085
 20
12.0759355141
 40
0.02
100
AcDbArc
 50
158.9695227533
 51
270.0
  0
ARC
  5
328
100
AcDbEntity
  8
0
100
AcDbCircle
 62
7
  6
CONTINUOUS
 10
-1.4455165109
 20
13.2721439297
 40
0.94
100
AcDbArc
 50
250.1216759765
 51
266.7241710403
  0
ARC
  5
329
100
AcDbEntity
  8
0
100
AcDbCircle
 62
7
  6
CONTINUOUS
 10
-1.6155284102
 20
12.8899355141
 40
0.44
100
AcDbArc
 50
109.8783240234
 51
114.3897136241
  0
ARC
  5
32A
100
AcDbEntity
  8
0
100
AcDbCircle
 62
7
  6
CONTINUOUS
 10
-1.1747934223
 20
13.6876724724
 40
0.4
100
AcDbArc
 50
248.9695236741
 51
306.3424046392
  0
ARC
  5
32B
100
AcDbEntity
  8
0
100
AcDbCircle
 62
7
  6
CONTINUOUS
 10
-1.5055165109
 20
13.4680114111
 40
0.11
100
AcDbArc
 50
273.2758289598
 51
308.2249102015
  0
ARC
  5
32C
100
AcDbEntity
  8
0
100
AcDbCircle
 62
7
  6
CONTINUOUS
 10
-1.8385165109
 20
13.3817447322
 40
0.1
100
AcDbArc
 50
273.2758289598
 51
294.389713624
  0
ARC
  5
32D
100
AcDbEntity
  8
0
100
AcDbCircle
 62
7
  6
CONTINUOUS
 10
-1.4065165109
 20
13.342317338
 40
0.05
100
AcDbArc
 50
34.9152062474
 51
128.2249102016
  0
ARC
  5
32E
100
AcDbEntity
  8
0
100
AcDbCircle
 62
7
  6
CONTINUOUS
 10
-1.8305165109
 20
13.2419734905
 40
0.04
100
AcDbArc
 50
93.2758289598
 51
180.0
  0
ARC
  5
32F
100
AcDbEntity
  8
0
100
AcDbCircle
 62
7
  6
CONTINUOUS
 10
-1.8905165109
 20
13.2381501693
 40
0.02
100
AcDbArc
 50
296.2863824164
 51
360.0
  0
ARC
  5
330
100
AcDbEntity
  8
0
100
AcDbCircle
 62
7
  6
CONTINUOUS
 10
-1.3255165109
 20
13.2956488117
 40
0.02
100
AcDbArc
 50
68.9695227533
 51
180.0
  0
ARC
  5
331
100
AcDbEntity
  8
0
100
AcDbCircle
 62
7
  6
CONTINUOUS
 10
-0.3484500538
 20
11.7550767014
 40
0.1954335429
100
AcDbArc
 50
345.4368424883
 51
360.0
  0
ARC
  5
332
100
AcDbEntity
  8
0
100
AcDbCircle
 62
7
  6
CONTINUOUS
 10
1.4354574192
 20
12.20307949
 40
4.2200000006
100
AcDbArc
 50
168.8942811622
 51
171.1690064968
  0
ARC
  5
333
100
AcDbEntity
  8
0
100
AcDbCircle
 62
7
  6
CONTINUOUS
 10
1.4354574192
 20
13.4887915382
 40
4.2200000006
100
AcDbArc
 50
188.8309935032
 51
191.1057188378
  0
ARC
  5
334
100
AcDbEntity
  8
0
100
AcDbCircle
 62
7
  6
CONTINUOUS
 10
0.7444834891
 20
12.2859355141
 40
1.14
100
AcDbArc
 50
67.1448062399
 51
112.8551937601
  0
ARC
  5
335
100
AcDbEntity
  8
0
100
AcDbCircle
 62
7
  6
CONTINUOUS
 10
0.7444834891
 20
13.4059355141
 40
1.14
100
AcDbArc
 50
247.1448062399
 51
292.8551937601
  0
ARC
  5
336
100
AcDbEntity
  8
0
100
AcDbCircle
 62
7
  6
CONTINUOUS
 10
-0.5555165109
 20
12.8459355141
 40
0.645
100
AcDbArc
 50
53.7264555496
 51
126.3424046392
  0
ARC
  5
337
100
AcDbEntity
  8
0
100
AcDbCircle
 62
7
  6
CONTINUOUS
 10
0.2862204475
 20
12.2266586027
 40
0.4
100
AcDbArc
 50
174.8229144869
 51
201.0304763259
  0
ARC
  5
338
100
AcDbEntity
  8
0
100
AcDbCircle
 62
9
  6
CONTINUOUS
 10
-0.2349216235
 20
12.2096740536
 40
0.2605416209
100
AcDbArc
 50
56.6319445166
 51
61.0550559035
  0
ARC
  5
339
100
AcDbEntity
  8
0
100
AcDbCircle
 62
7
  6
CONTINUOUS
 10
-0.108827564
 20
13.4546176846
 40
0.11
100
AcDbArc
 50
233.7264555496
 51
279.0
  0
ARC
  5
33A
100
AcDbEntity
  8
0
100
AcDbCircle
 62
7
  6
CONTINUOUS
 10
1.4544834891
 20
13.3061856757
 40
0.02
100
AcDbArc
 50
0.0
 51
90.0
  0
ARC
  5
33B
100
AcDbEntity
  8
0
100
AcDbCircle
 62
7
  6
CONTINUOUS
 10
1.4544834891
 20
12.3856853525
 40
0.02
100
AcDbArc
 50
270.0
 51
360.0
  0
ARC
  5
33C
100
AcDbEntity
  8
0
100
AcDbCircle
 62
7
  6
CONTINUOUS
 10
-0.1058032133
 20
12.0759355141
 40
0.02
100
AcDbArc
 50
270.0
 51
21.0304772467
  0
ARC
  5
33D
100
AcDbEntity
  8
0
100
AcDbCircle
 62
7
  6
CONTINUOUS
 10
1.2890729259
 20
12.3154746455
 40
0.02
100
AcDbArc
 50
194.467889245
 51
309.45
  0
ARC
  5
33E
100
AcDbEntity
  8
0
100
AcDbCircle
 62
7
  6
CONTINUOUS
 10
1.2890729259
 20
13.3763963827
 40
0.02
100
AcDbArc
 50
50.55
 51
165.532110755
  0
ARC
  5
33F
100
AcDbEntity
  8
0
100
AcDbCircle
 62
7
  6
CONTINUOUS
 10
0.2169477499
 20
13.3745949591
 40
0.02
100
AcDbArc
 50
10.3793406104
 51
99.0
  0
ARC
  5
340
100
AcDbEntity
  8
0
100
AcDbCircle
 62
7
  6
CONTINUOUS
 10
0.2169477499
 20
12.3172760691
 40
0.02
100
AcDbArc
 50
261.0
 51
349.6206593896
  0
ARC
  5
341
100
AcDbEntity
  8
0
100
AcDbCircle
 62
7
  6
CONTINUOUS
 10
10.6778361617
 20
-30.7486357725
 40
41.5690209887
100
AcDbArc
 50
91.027678323
 51
91.2754022963
  0
ARC
  5
342
100
AcDbEntity
  8
0
100
AcDbCircle
 62
7
  6
CONTINUOUS
 10
17.9336900359
 20
4.9945896097
 40
0.61
100
AcDbArc
 50
245.1371623573
 51
270.0
  0
ARC
  5
343
100
AcDbEntity
  8
0
100
AcDbCircle
 62
7
  6
CONTINUOUS
 10
17.9822769423
 20
4.9945896097
 40
0.61
100
AcDbArc
 50
270.0
 51
294.8628376427
  0
ARC
  5
344
100
AcDbEntity
  8
0
100
AcDbCircle
 62
7
  6
CONTINUOUS
 10
19.4556805962
 20
6.1012004383
 40
0.5
100
AcDbArc
 50
54.9534203508
 51
84.3986824383
  0
ARC
  5
345
100
AcDbEntity
  8
0
100
AcDbCircle
 62
7
  6
CONTINUOUS
 10
18.293135615
 20
4.5310128385
 40
0.06
100
AcDbArc
 50
317.2892559533
 51
25.1388147426
  0
ARC
  5
346
100
AcDbEntity
  8
0
100
AcDbCircle
 62
7
  6
CONTINUOUS
 10
17.6228313633
 20
4.5310128385
 40
0.06
100
AcDbArc
 50
154.8611852891
 51
222.7107439917
  0
ARC
  5
347
100
AcDbEntity
  8
0
100
AcDbCircle
 62
7
  6
CONTINUOUS
 10
17.6154834891
 20
4.5242298638
 40
0.05
100
AcDbArc
 50
222.7107439923
 51
245.8357322902
  0
ARC
  5
348
100
AcDbEntity
  8
0
100
AcDbCircle
 62
7
  6
CONTINUOUS
 10
18.3004834891
 20
4.5242298638
 40
0.05
100
AcDbArc
 50
294.1642677098
 51
317.2892559526
  0
ARC
  5
349
100
AcDbEntity
  8
0
100
AcDbCircle
 62
7
  6
CONTINUOUS
 10
17.683794939
 20
6.2843903869
 40
0.05
100
AcDbArc
 50
353.786149249
 51
52.8928407793
  0
ARC
  5
34A
100
AcDbEntity
  8
0
100
AcDbCircle
 62
7
  6
CONTINUOUS
 10
18.2321720392
 20
6.2843903869
 40
0.05
100
AcDbArc
 50
127.1071592207
 51
186.213850751
  0
ARC
  5
34B
100
AcDbEntity
  8
0
100
AcDbCircle
 62
7
  6
CONTINUOUS
 10
18.3184834891
 20
4.5429075968
 40
0.032
100
AcDbArc
 50
25.1388147428
 51
81.9159861861
  0
ARC
  5
34C
100
AcDbEntity
  8
0
100
AcDbCircle
 62
7
  6
CONTINUOUS
 10
17.5974834891
 20
4.5429075968
 40
0.032
100
AcDbArc
 50
98.0840135454
 51
154.8611852888
  0
ARC
  5
34D
100
AcDbEntity
  8
0
100
AcDbCircle
 62
7
  6
CONTINUOUS
 10
18.8394834891
 20
6.7080164525
 40
0.94
100
AcDbArc
 50
93.2758289597
 51
109.8783240235
  0
ARC
  5
34E
100
AcDbEntity
  8
0
100
AcDbCircle
 62
7
  6
CONTINUOUS
 10
17.9579834891
 20
7.134224868
 40
0.45
100
AcDbArc
 50
291.1684488458
 51
301.2417272574
  0
ARC
  5
34F
100
AcDbEntity
  8
0
100
AcDbCircle
 62
7
  6
CONTINUOUS
 10
17.9579834891
 20
7.134224868
 40
0.45
100
AcDbArc
 50
246.7297047215
 51
248.8315511542
  0
ARC
  5
350
100
AcDbEntity
  8
0
100
AcDbCircle
 62
7
  6
CONTINUOUS
 10
17.9579834891
 20
7.134224868
 40
0.45
100
AcDbArc
 50
58.75827275
 51
113.270295265
  0
ARC
  5
351
100
AcDbEntity
  8
0
100
AcDbCircle
 62
7
  6
CONTINUOUS
 10
18.6694715898
 20
7.1782248681
 40
0.44
100
AcDbArc
 50
109.8783240234
 51
114.3897136241
  0
ARC
  5
352
100
AcDbEntity
  8
0
100
AcDbCircle
 62
7
  6
CONTINUOUS
 10
18.6694715898
 20
7.090224868
 40
0.44
100
AcDbArc
 50
245.6102863759
 51
250.1216759766
  0
ARC
  5
353
100
AcDbEntity
  8
0
100
AcDbCircle
 62
7
  6
CONTINUOUS
 10
18.6029518423
 20
6.5245896098
 40
0.41
100
AcDbArc
 50
169.5243183036
 51
200.4139841937
  0
ARC
  5
354
100
AcDbEntity
  8
0
100
AcDbCircle
 62
7
  6
CONTINUOUS
 10
17.313015136
 20
6.5245896098
 40
0.41
100
AcDbArc
 50
339.5860158063
 51
10.4756816964
  0
ARC
  5
355
100
AcDbEntity
  8
0
100
AcDbCircle
 62
7
  6
CONTINUOUS
 10
18.2217688267
 20
6.3923394457
 40
0.41
100
AcDbArc
 50
63.7136175837
 51
83.7465591694
  0
ARC
  5
356
100
AcDbEntity
  8
0
100
AcDbCircle
 62
7
  6
CONTINUOUS
 10
18.0809034952
 20
6.9315930046
 40
0.213
100
AcDbArc
 50
301.2417265131
 51
318.2136420574
  0
ARC
  5
357
100
AcDbEntity
  8
0
100
AcDbCircle
 62
7
  6
CONTINUOUS
 10
17.8592161678
 20
6.9045620364
 40
0.2
100
AcDbArc
 50
182.9627007011
 51
246.7297047215
  0
ARC
  5
358
100
AcDbEntity
  8
0
100
AcDbCircle
 62
7
  6
CONTINUOUS
 10
18.7794834891
 20
6.512148971
 40
0.11
100
AcDbArc
 50
51.7750897985
 51
86.7241710402
  0
ARC
  5
359
100
AcDbEntity
  8
0
100
AcDbCircle
 62
7
  6
CONTINUOUS
 10
18.4464834891
 20
6.59841565
 40
0.1
100
AcDbArc
 50
65.610286376
 51
86.7241710402
  0
ARC
  5
35A
100
AcDbEntity
  8
0
100
AcDbCircle
 62
7
  6
CONTINUOUS
 10
17.6394834891
 20
6.954224868
 40
0.06
100
AcDbArc
 50
180.0
 51
270.0
  0
ARC
  5
35B
100
AcDbEntity
  8
0
100
AcDbCircle
 62
7
  6
CONTINUOUS
 10
17.7441257033
 20
6.364141242
 40
0.05
100
AcDbArc
 50
159.5860158063
 51
232.8928407794
  0
ARC
  5
35C
100
AcDbEntity
  8
0
100
AcDbCircle
 62
7
  6
CONTINUOUS
 10
18.171841275
 20
6.364141242
 40
0.05
100
AcDbArc
 50
307.1071592206
 51
20.4139841937
  0
ARC
  5
35D
100
AcDbEntity
  8
0
100
AcDbCircle
 62
7
  6
CONTINUOUS
 10
18.8784834891
 20
6.6378430441
 40
0.05
100
AcDbArc
 50
231.7750897984
 51
325.0847937526
  0
ARC
  5
35E
100
AcDbEntity
  8
0
100
AcDbCircle
 62
7
  6
CONTINUOUS
 10
18.4544834891
 20
6.7381868917
 40
0.04
100
AcDbArc
 50
180.0
 51
266.7241710402
  0
ARC
  5
35F
100
AcDbEntity
  8
0
100
AcDbCircle
 62
7
  6
CONTINUOUS
 10
18.2630247656
 20
6.768835807
 40
0.03125
100
AcDbArc
 50
83.7465591694
 51
138.213642052
  0
ARC
  5
360
100
AcDbEntity
  8
0
100
AcDbCircle
 62
7
  6
CONTINUOUS
 10
18.9694834891
 20
6.6814265784
 40
0.03
100
AcDbArc
 50
180.0
 51
264.3986824383
  0
ARC
  5
361
100
AcDbEntity
  8
0
100
AcDbCircle
 62
7
  6
CONTINUOUS
 10
18.1529834891
 20
6.6645896098
 40
0.03
100
AcDbArc
 50
180.0
 51
270.0
  0
ARC
  5
362
100
AcDbEntity
  8
0
100
AcDbCircle
 62
7
  6
CONTINUOUS
 10
18.1702856892
 20
6.6045896098
 40
0.03
100
AcDbArc
 50
349.5243183037
 51
90.0
  0
ARC
  5
363
100
AcDbEntity
  8
0
100
AcDbCircle
 62
7
  6
CONTINUOUS
 10
17.745681289
 20
6.6045896098
 40
0.03
100
AcDbArc
 50
90.0
 51
190.4756816963
  0
ARC
  5
364
100
AcDbEntity
  8
0
100
AcDbCircle
 62
7
  6
CONTINUOUS
 10
17.7629834891
 20
6.6645896098
 40
0.03
100
AcDbArc
 50
270.0
 51
360.0
  0
ARC
  5
365
100
AcDbEntity
  8
0
100
AcDbCircle
 62
7
  6
CONTINUOUS
 10
18.3944834891
 20
6.7420102129
 40
0.02
100
AcDbArc
 50
0.0
 51
63.7136175836
  0
ARC
  5
366
100
AcDbEntity
  8
0
100
AcDbCircle
 62
7
  6
CONTINUOUS
 10
18.8394834891
 20
7.5604332836
 40
0.94
100
AcDbArc
 50
250.1216759765
 51
266.7241710403
  0
ARC
  5
367
100
AcDbEntity
  8
0
100
AcDbCircle
 62
7
  6
CONTINUOUS
 10
18.2217688267
 20
7.8761102903
 40
0.41
100
AcDbArc
 50
276.253440829
 51
296.2863824163
  0
ARC
  5
368
100
AcDbEntity
  8
0
100
AcDbCircle
 62
7
  6
CONTINUOUS
 10
18.0809034953
 20
7.3368567315
 40
0.213
100
AcDbArc
 50
41.786357948
 51
58.7582734951
  0
ARC
  5
369
100
AcDbEntity
  8
0
100
AcDbCircle
 62
7
  6
CONTINUOUS
 10
17.8592161678
 20
7.3638876997
 40
0.2
100
AcDbArc
 50
113.2702952785
 51
177.0372992989
  0
ARC
  5
36A
100
AcDbEntity
  8
0
100
AcDbCircle
 62
7
  6
CONTINUOUS
 10
18.7794834891
 20
7.7563007651
 40
0.11
100
AcDbArc
 50
273.2758289598
 51
308.2249102015
  0
ARC
  5
36B
100
AcDbEntity
  8
0
100
AcDbCircle
 62
7
  6
CONTINUOUS
 10
18.4464834891
 20
7.6700340861
 40
0.1
100
AcDbArc
 50
273.2758289598
 51
294.389713624
  0
ARC
  5
36C
100
AcDbEntity
  8
0
100
AcDbCircle
 62
7
  6
CONTINUOUS
 10
17.6394834891
 20
7.314224868
 40
0.06
100
AcDbArc
 50
90.0
 51
180.0
  0
ARC
  5
36D
100
AcDbEntity
  8
0
100
AcDbCircle
 62
7
  6
CONTINUOUS
 10
18.8784834891
 20
7.630606692
 40
0.05
100
AcDbArc
 50
34.9152062474
 51
128.2249102016
  0
ARC
  5
36E
100
AcDbEntity
  8
0
100
AcDbCircle
 62
7
  6
CONTINUOUS
 10
18.4544834891
 20
7.5302628444
 40
0.04
100
AcDbArc
 50
93.2758289598
 51
180.0
  0
ARC
  5
36F
100
AcDbEntity
  8
0
100
AcDbCircle
 62
7
  6
CONTINUOUS
 10
18.2630247656
 20
7.4996139291
 40
0.03125
100
AcDbArc
 50
221.7863579427
 51
276.253440829
  0
ARC
  5
370
100
AcDbEntity
  8
0
100
AcDbCircle
 62
7
  6
CONTINUOUS
 10
18.9694834891
 20
7.5870231577
 40
0.03
100
AcDbArc
 50
95.6013175617
 51
180.0
  0
ARC
  5
371
100
AcDbEntity
  8
0
100
AcDbCircle
 62
7
  6
CONTINUOUS
 10
18.3944834891
 20
7.5264395232
 40
0.02
100
AcDbArc
 50
296.2863824164
 51
360.0
  0
ARC
  5
372
100
AcDbEntity
  8
0
100
AcDbCircle
 62
7
  6
CONTINUOUS
 10
20.6374834891
 20
6.561704868
 40
1.37252
100
AcDbArc
 50
60.9109121001
 51
65.7406771287
  0
ARC
  5
373
100
AcDbEntity
  8
0
100
AcDbCircle
 62
7
  6
CONTINUOUS
 10
20.6374834891
 20
6.561704868
 40
1.37252
100
AcDbArc
 50
114.2594044275
 51
120.8742125682
  0
ARC
  5
374
100
AcDbEntity
  8
0
100
AcDbCircle
 62
7
  6
CONTINUOUS
 10
19.9844834891
 20
6.6145460993
 40
0.1
100
AcDbArc
 50
180.0
 51
239.1257819437
  0
ARC
  5
375
100
AcDbEntity
  8
0
100
AcDbCircle
 62
7
  6
CONTINUOUS
 10
19.7944834891
 20
6.584224868
 40
0.09
100
AcDbArc
 50
234.9534203508
 51
360.0
  0
ARC
  5
376
100
AcDbEntity
  8
0
100
AcDbCircle
 62
7
  6
CONTINUOUS
 10
20.6374834891
 20
7.706744868
 40
1.37252
100
AcDbArc
 50
239.1257874318
 51
299.0890878999
  0
ARC
  5
377
100
AcDbEntity
  8
0
100
AcDbCircle
 62
7
  6
CONTINUOUS
 10
19.4556805962
 20
8.1672492978
 40
0.5
100
AcDbArc
 50
275.6013175617
 51
305.0465796492
  0
ARC
  5
378
100
AcDbEntity
  8
0
100
AcDbCircle
 62
7
  6
CONTINUOUS
 10
19.7475535954
 20
7.881229831
 40
0.35
100
AcDbArc
 50
358.85319539
 51
46.7239576672
  0
ARC
  5
379
100
AcDbEntity
  8
0
100
AcDbCircle
 62
7
  6
CONTINUOUS
 10
20.0324681198
 20
7.9042109615
 40
0.1000174805
100
AcDbArc
 50
294.2557369673
 51
342.4533138655
  0
ARC
  5
37A
100
AcDbEntity
  8
0
100
AcDbCircle
 62
7
  6
CONTINUOUS
 10
19.9844834891
 20
7.6539036368
 40
0.1
100
AcDbArc
 50
120.8742180563
 51
180.0
  0
ARC
  5
37B
100
AcDbEntity
  8
0
100
AcDbCircle
 62
7
  6
CONTINUOUS
 10
19.7944834891
 20
7.684224868
 40
0.09
100
AcDbArc
 50
0.0
 51
125.0465796492
  0
ARC
  5
37C
100
AcDbEntity
  8
0
100
AcDbCircle
 62
7
  6
CONTINUOUS
 10
22.0137199832
 20
5.6409506402
 40
1.0182742278
100
AcDbArc
 50
58.4578522728
 51
127.708994818
  0
ARC
  5
37D
100
AcDbEntity
  8
0
100
AcDbCircle
 62
7
  6
CONTINUOUS
 10
23.2631322411
 20
5.2752459809
 40
0.89
100
AcDbArc
 50
29.9241230472
 51
53.3429556259
  0
ARC
  5
37E
100
AcDbEntity
  8
0
100
AcDbCircle
 62
7
  6
CONTINUOUS
 10
24.1194834891
 20
5.792224868
 40
0.035
100
AcDbArc
 50
316.1484090249
 51
360.0
  0
ARC
  5
37F
100
AcDbEntity
  8
0
100
AcDbCircle
 62
7
  6
CONTINUOUS
 10
24.0644834891
 20
5.704224868
 40
0.03
100
AcDbArc
 50
180.0
 51
270.0
  0
ARC
  5
380
100
AcDbEntity
  8
0
100
AcDbCircle
 62
7
  6
CONTINUOUS
 10
21.7204574192
 20
6.491368844
 40
4.2200000006
100
AcDbArc
 50
168.8942811622
 51
171.1690064968
  0
ARC
  5
381
100
AcDbEntity
  8
0
100
AcDbCircle
 62
7
  6
CONTINUOUS
 10
21.7204574192
 20
7.7770808921
 40
4.2200000006
100
AcDbArc
 50
188.8309935032
 51
191.1057188378
  0
ARC
  5
382
100
AcDbEntity
  8
0
100
AcDbCircle
 62
7
  6
CONTINUOUS
 10
23.9155176534
 20
6.4905895186
 40
0.47
100
AcDbArc
 50
191.2092591463
 51
253.8116350097
  0
ARC
  5
383
100
AcDbEntity
  8
0
100
AcDbCircle
 62
7
  6
CONTINUOUS
 10
23.9155176534
 20
7.7778602175
 40
0.47
100
AcDbArc
 50
106.1883649903
 51
168.7907408537
  0
ARC
  5
384
100
AcDbEntity
  8
0
100
AcDbCircle
 62
7
  6
CONTINUOUS
 10
21.5274133828
 20
7.881229831
 40
0.35
100
AcDbArc
 50
133.2760423328
 51
181.14680461
  0
ARC
  5
385
100
AcDbEntity
  8
0
100
AcDbCircle
 62
7
  6
CONTINUOUS
 10
21.2424988043
 20
7.9042109405
 40
0.1000174556
100
AcDbArc
 50
197.5466424266
 51
245.7443243003
  0
ARC
  5
386
100
AcDbEntity
  8
0
100
AcDbCircle
 62
7
  6
CONTINUOUS
 10
21.3694834891
 20
7.794224868
 40
0.035
100
AcDbArc
 50
52.2910051816
 51
180.0
  0
ARC
  5
387
100
AcDbEntity
  8
0
100
AcDbCircle
 62
7
  6
CONTINUOUS
 10
21.3694834891
 20
6.474224868
 40
0.035
100
AcDbArc
 50
180.0
 51
307.7089948184
  0
ARC
  5
388
100
AcDbEntity
  8
0
100
AcDbCircle
 62
7
  6
CONTINUOUS
 10
22.5594834891
 20
7.738362824
 40
0.025
100
AcDbArc
 50
359.99996341
 51
121.542170036
  0
ARC
  5
389
100
AcDbEntity
  8
0
100
AcDbCircle
 62
7
  6
CONTINUOUS
 10
22.5594834891
 20
6.5300869121
 40
0.025
100
AcDbArc
 50
238.457829964
 51
0.00003659
  0
ARC
  5
38A
100
AcDbEntity
  8
0
100
AcDbCircle
 62
7
  6
CONTINUOUS
 10
21.3144834891
 20
7.7785791222
 40
0.02
100
AcDbArc
 50
240.9109121012
 51
360.0
  0
ARC
  5
38B
100
AcDbEntity
  8
0
100
AcDbCircle
 62
7
  6
CONTINUOUS
 10
21.3144834891
 20
6.4898706139
 40
0.02
100
AcDbArc
 50
0.0
 51
119.0890878988
  0
ARC
  5
38C
100
AcDbEntity
  8
0
100
AcDbCircle
 62
7
  6
CONTINUOUS
 10
8.9014834891
 20
9.9064617501
 40
1.81
100
AcDbArc
 50
17.3632888069
 51
22.0562511617
  0
ARC
  5
38D
100
AcDbEntity
  8
0
100
AcDbCircle
 62
7
  6
CONTINUOUS
 10
8.9014834891
 20
9.9064617501
 40
1.81
100
AcDbArc
 50
339.3601226786
 51
342.6367111931
  0
ARC
  5
38E
100
AcDbEntity
  8
0
100
AcDbCircle
 62
7
  6
CONTINUOUS
 10
11.2374834891
 20
9.9064617501
 40
1.81
100
AcDbArc
 50
157.9437488383
 51
200.639884246
  0
ARC
  5
38F
100
AcDbEntity
  8
0
100
AcDbCircle
 62
9
  6
CONTINUOUS
 10
11.938138867
 20
9.5378218815
 40
1.4748815166
100
AcDbArc
 50
149.3542029833
 51
149.5741011072
  0
ARC
  5
390
100
AcDbEntity
  8
0
100
AcDbCircle
 62
9
  6
CONTINUOUS
 10
11.8750375018
 20
9.5746903987
 40
1.4017989172
100
AcDbArc
 50
149.6388684042
 51
150.2709060853
  0
ARC
  5
391
100
AcDbEntity
  8
0
100
AcDbCircle
 62
9
  6
CONTINUOUS
 10
11.7861502147
 20
9.6250858236
 40
1.2996199546
100
AcDbArc
 50
150.2569391226
 51
151.6643806816
  0
ARC
  5
392
100
AcDbEntity
  8
0
100
AcDbCircle
 62
9
  6
CONTINUOUS
 10
11.7287226441
 20
9.6561327179
 40
1.2343372587
100
AcDbArc
 50
151.667619223
 51
152.1780635836
  0
ARC
  5
393
100
AcDbEntity
  8
0
100
AcDbCircle
 62
7
  6
CONTINUOUS
 10
9.1795535954
 20
10.820703595
 40
0.35
100
AcDbArc
 50
358.85319539
 51
46.7239576672
  0
ARC
  5
394
100
AcDbEntity
  8
0
100
AcDbCircle
 62
7
  6
CONTINUOUS
 10
10.9594133828
 20
10.820703595
 40
0.35
100
AcDbArc
 50
133.2760423328
 51
181.14680461
  0
ARC
  5
395
100
AcDbEntity
  8
0
100
AcDbCircle
 62
7
  6
CONTINUOUS
 10
10.5017261656
 20
9.3036986321
 40
0.1
100
AcDbArc
 50
269.9997651526
 51
339.3599970517
  0
ARC
  5
396
100
AcDbEntity
  8
0
100
AcDbCircle
 62
7
  6
CONTINUOUS
 10
9.6372408127
 20
9.3036986321
 40
0.1
100
AcDbArc
 50
200.6398776134
 51
270.0000001415
  0
ARC
  5
397
100
AcDbEntity
  8
0
100
AcDbCircle
 62
7
  6
CONTINUOUS
 10
9.4672656339
 20
10.6236986321
 40
0.1
100
AcDbArc
 50
337.9437488383
 51
45.5715208257
  0
ARC
  5
398
100
AcDbEntity
  8
0
100
AcDbCircle
 62
7
  6
CONTINUOUS
 10
10.6717013444
 20
10.6236986321
 40
0.1
100
AcDbArc
 50
134.4284791743
 51
202.0562511617
  0
ARC
  5
399
100
AcDbEntity
  8
0
100
AcDbCircle
 62
7
  6
CONTINUOUS
 10
10.4294834891
 20
9.2036986321
 40
0.06
100
AcDbArc
 50
278.7977505622
 51
360.0
  0
ARC
  5
39A
100
AcDbEntity
  8
0
100
AcDbCircle
 62
7
  6
CONTINUOUS
 10
9.7094834891
 20
9.2036986321
 40
0.06
100
AcDbArc
 50
180.0
 51
261.2022494378
  0
ARC
  5
39B
100
AcDbEntity
  8
0
100
AcDbCircle
 62
7
  6
CONTINUOUS
 10
10.5666986003
 20
10.7308173687
 40
0.05
100
AcDbArc
 50
314.4284569072
 51
50.0600232456
  0
ARC
  5
39C
100
AcDbEntity
  8
0
100
AcDbCircle
 62
7
  6
CONTINUOUS
 10
9.572268378
 20
10.7308173687
 40
0.05
100
AcDbArc
 50
129.9399767544
 51
225.5715430928
  0
ARC
  5
39D
100
AcDbEntity
  8
0
100
AcDbCircle
 62
7
  6
CONTINUOUS
 10
10.0850696267
 20
11.4290547168
 40
2.3118504862
100
AcDbArc
 50
270.0
 51
278.7977505622
  0
ARC
  5
39E
100
AcDbEntity
  8
0
100
AcDbCircle
 62
7
  6
CONTINUOUS
 10
10.0538973515
 20
11.4290547168
 40
2.3118504862
100
AcDbArc
 50
261.2022494378
 51
270.0
  0
ARC
  5
39F
100
AcDbEntity
  8
0
100
AcDbCircle
 62
7
  6
CONTINUOUS
 10
10.0537612024
 20
11.3251939984
 40
2.31
100
AcDbArc
 50
90.0
 51
98.8015353093
  0
ARC
  5
3A0
100
AcDbEntity
  8
0
100
AcDbCircle
 62
7
  6
CONTINUOUS
 10
10.0852057759
 20
11.3251939984
 40
2.31
100
AcDbArc
 50
81.1984646907
 51
90.0
  0
ARC
  5
3A1
100
AcDbEntity
  8
0
100
AcDbCircle
 62
7
  6
CONTINUOUS
 10
11.2374834891
 20
12.8459355141
 40
1.81
100
AcDbArc
 50
197.3632888069
 51
202.0562511617
  0
ARC
  5
3A2
100
AcDbEntity
  8
0
100
AcDbCircle
 62
7
  6
CONTINUOUS
 10
11.2374834891
 20
12.8459355141
 40
1.81
100
AcDbArc
 50
159.3601226816
 51
162.6367111931
  0
ARC
  5
3A3
100
AcDbEntity
  8
0
100
AcDbCircle
 62
7
  6
CONTINUOUS
 10
8.9014834891
 20
12.8459355141
 40
1.81
100
AcDbArc
 50
337.9437488383
 51
20.6398773184
  0
ARC
  5
3A4
100
AcDbEntity
  8
0
100
AcDbCircle
 62
9
  6
CONTINUOUS
 10
8.3149981809
 20
12.5438151313
 40
1.3427474823
100
AcDbArc
 50
27.9263857665
 51
30.4237327142
  0
ARC
  5
3A5
100
AcDbEntity
  8
0
100
AcDbCircle
 62
9
  6
CONTINUOUS
 10
8.4368495561
 20
13.0822085604
 40
1.2042474862
100
AcDbArc
 50
332.167890757
 51
332.3274544939
  0
ARC
  5
3A6
100
AcDbEntity
  8
0
100
AcDbCircle
 62
7
  6
CONTINUOUS
 10
8.9244834891
 20
11.9386986321
 40
0.64
100
AcDbArc
 50
320.6635849213
 51
360.0
  0
ARC
  5
3A7
100
AcDbEntity
  8
0
100
AcDbCircle
 62
7
  6
CONTINUOUS
 10
11.2144834891
 20
11.9386986321
 40
0.64
100
AcDbArc
 50
180.0
 51
219.3364150787
  0
ARC
  5
3A8
100
AcDbEntity
  8
0
100
AcDbCircle
 62
7
  6
CONTINUOUS
 10
9.6372408127
 20
13.4486986321
 40
0.1
100
AcDbArc
 50
89.9999998498
 51
159.3601224411
  0
ARC
  5
3A9
100
AcDbEntity
  8
0
100
AcDbCircle
 62
7
  6
CONTINUOUS
 10
10.5017261656
 20
13.4486986321
 40
0.1
100
AcDbArc
 50
20.6398775589
 51
90.0000001502
  0
ARC
  5
3AA
100
AcDbEntity
  8
0
100
AcDbCircle
 62
7
  6
CONTINUOUS
 10
10.6717013444
 20
12.1286986321
 40
0.1
100
AcDbArc
 50
157.9437488383
 51
225.5715282959
  0
ARC
  5
3AB
100
AcDbEntity
  8
0
100
AcDbCircle
 62
7
  6
CONTINUOUS
 10
9.4672656339
 20
12.1286986321
 40
0.1
100
AcDbArc
 50
314.4284717041
 51
22.0562511617
  0
ARC
  5
3AC
100
AcDbEntity
  8
0
100
AcDbCircle
 62
7
  6
CONTINUOUS
 10
9.7094834891
 20
13.5486986321
 40
0.06
100
AcDbArc
 50
98.8015353092
 51
180.0
  0
ARC
  5
3AD
100
AcDbEntity
  8
0
100
AcDbCircle
 62
7
  6
CONTINUOUS
 10
10.4294834891
 20
13.5486986321
 40
0.06
100
AcDbArc
 50
0.0
 51
81.1984646908
  0
ARC
  5
3AE
100
AcDbEntity
  8
0
100
AcDbCircle
 62
7
  6
CONTINUOUS
 10
9.572268378
 20
12.0215798955
 40
0.05
100
AcDbArc
 50
134.4284718478
 51
230.0599998062
  0
ARC
  5
3AF
100
AcDbEntity
  8
0
100
AcDbCircle
 62
7
  6
CONTINUOUS
 10
10.5666986003
 20
12.0215798955
 40
0.05
100
AcDbArc
 50
309.9400001938
 51
45.5715281522
  0
ARC
  5
3B0
100
AcDbEntity
  8
0
100
AcDbCircle
 62
7
  6
CONTINUOUS
 10
9.0294834891
 20
13.2959355141
 40
0.02
100
AcDbArc
 50
90.0
 51
180.0
  0
ARC
  5
3B1
100
AcDbEntity
  8
0
100
AcDbCircle
 62
7
  6
CONTINUOUS
 10
9.0294834891
 20
12.3959355141
 40
0.02
100
AcDbArc
 50
180.0
 51
270.0
  0
ARC
  5
3B2
100
AcDbEntity
  8
0
100
AcDbCircle
 62
7
  6
CONTINUOUS
 10
27.2638803843
 20
8.6601879588
 40
30.0
100
AcDbArc
 50
174.7456316523
 51
176.8928315082
  0
ARC
  5
3B3
100
AcDbEntity
  8
0
100
AcDbCircle
 62
7
  6
CONTINUOUS
 10
20.6217612024
 20
8.3857202344
 40
2.31
100
AcDbArc
 50
90.0
 51
98.8015353093
  0
ARC
  5
3B4
100
AcDbEntity
  8
0
100
AcDbCircle
 62
7
  6
CONTINUOUS
 10
20.6532057759
 20
8.3857202344
 40
2.31
100
AcDbArc
 50
81.1984646907
 51
90.0
  0
ARC
  5
3B5
100
AcDbEntity
  8
0
100
AcDbCircle
 62
7
  6
CONTINUOUS
 10
21.8054834891
 20
9.9064617501
 40
1.81
100
AcDbArc
 50
197.3632888069
 51
202.0562511617
  0
ARC
  5
3B6
100
AcDbEntity
  8
0
100
AcDbCircle
 62
7
  6
CONTINUOUS
 10
21.8054834891
 20
9.9064617501
 40
1.81
100
AcDbArc
 50
159.3601226816
 51
162.6367111931
  0
ARC
  5
3B7
100
AcDbEntity
  8
0
100
AcDbCircle
 62
7
  6
CONTINUOUS
 10
19.4694834891
 20
9.9064617501
 40
1.81
100
AcDbArc
 50
337.9437488383
 51
20.6398773184
  0
ARC
  5
3B8
100
AcDbEntity
  8
0
100
AcDbCircle
 62
9
  6
CONTINUOUS
 10
18.8941314322
 20
9.6105022546
 40
1.3300253474
100
AcDbArc
 50
27.9165060336
 51
30.2116877737
  0
ARC
  5
3B9
100
AcDbEntity
  8
0
100
AcDbCircle
 62
9
  6
CONTINUOUS
 10
19.0048495563
 20
10.1427347963
 40
1.204247486
100
AcDbArc
 50
332.1678907569
 51
332.3274544939
  0
ARC
  5
3BA
100
AcDbEntity
  8
0
100
AcDbCircle
 62
7
  6
CONTINUOUS
 10
22.0137199832
 20
8.6274990959
 40
1.0182742278
100
AcDbArc
 50
232.291005182
 51
301.5421477272
  0
ARC
  5
3BB
100
AcDbEntity
  8
0
100
AcDbCircle
 62
7
  6
CONTINUOUS
 10
23.2631322411
 20
8.9932037552
 40
0.89
100
AcDbArc
 50
306.6570443741
 51
330.0758769528
  0
ARC
  5
3BC
100
AcDbEntity
  8
0
100
AcDbCircle
 62
7
  6
CONTINUOUS
 10
19.4924834891
 20
8.999224868
 40
0.64
100
AcDbArc
 50
320.6635849213
 51
360.0
  0
ARC
  5
3BD
100
AcDbEntity
  8
0
100
AcDbCircle
 62
7
  6
CONTINUOUS
 10
21.7824834891
 20
8.999224868
 40
0.64
100
AcDbArc
 50
180.0
 51
219.3364150787
  0
ARC
  5
3BE
100
AcDbEntity
  8
0
100
AcDbCircle
 62
7
  6
CONTINUOUS
 10
20.2052408127
 20
10.509224868
 40
0.1
100
AcDbArc
 50
89.9999998498
 51
159.3601224411
  0
ARC
  5
3BF
100
AcDbEntity
  8
0
100
AcDbCircle
 62
7
  6
CONTINUOUS
 10
21.0697261656
 20
10.509224868
 40
0.1
100
AcDbArc
 50
20.6398775589
 51
90.0000001502
  0
ARC
  5
3C0
100
AcDbEntity
  8
0
100
AcDbCircle
 62
7
  6
CONTINUOUS
 10
21.2397013444
 20
9.189224868
 40
0.1
100
AcDbArc
 50
157.9437488383
 51
225.5715282959
  0
ARC
  5
3C1
100
AcDbEntity
  8
0
100
AcDbCircle
 62
7
  6
CONTINUOUS
 10
20.0352656339
 20
9.189224868
 40
0.1
100
AcDbArc
 50
314.4284717041
 51
22.0562511617
  0
ARC
  5
3C2
100
AcDbEntity
  8
0
100
AcDbCircle
 62
7
  6
CONTINUOUS
 10
20.2774834891
 20
10.609224868
 40
0.06
100
AcDbArc
 50
98.8015353092
 51
180.0
  0
ARC
  5
3C3
100
AcDbEntity
  8
0
100
AcDbCircle
 62
7
  6
CONTINUOUS
 10
20.9974834891
 20
10.609224868
 40
0.06
100
AcDbArc
 50
0.0
 51
81.1984646908
  0
ARC
  5
3C4
100
AcDbEntity
  8
0
100
AcDbCircle
 62
7
  6
CONTINUOUS
 10
20.140268378
 20
9.0821061314
 40
0.05
100
AcDbArc
 50
134.4284718477
 51
230.0599998062
  0
ARC
  5
3C5
100
AcDbEntity
  8
0
100
AcDbCircle
 62
7
  6
CONTINUOUS
 10
21.1346986003
 20
9.0821061314
 40
0.05
100
AcDbArc
 50
309.9400001938
 51
45.5715281523
  0
ARC
  5
3C6
100
AcDbEntity
  8
0
100
AcDbCircle
 62
7
  6
CONTINUOUS
 10
24.1194834891
 20
8.476224868
 40
0.035
100
AcDbArc
 50
0.0
 51
43.8515909751
  0
ARC
  5
3C7
100
AcDbEntity
  8
0
100
AcDbCircle
 62
7
  6
CONTINUOUS
 10
24.0644834891
 20
8.564224868
 40
0.03
100
AcDbArc
 50
90.0
 51
180.0
  0
ARC
  5
3C8
100
AcDbEntity
  8
0
100
AcDbCircle
 62
7
  6
CONTINUOUS
 10
19.5974834891
 20
10.3564617501
 40
0.02
100
AcDbArc
 50
90.0
 51
180.0
  0
ARC
  5
3C9
100
AcDbEntity
  8
0
100
AcDbCircle
 62
7
  6
CONTINUOUS
 10
19.5974834891
 20
9.4564617501
 40
0.02
100
AcDbArc
 50
180.0
 51
270.0
  0
ARC
  5
3CA
100
AcDbEntity
  8
0
100
AcDbCircle
 62
7
  6
CONTINUOUS
 10
47.5488803843
 20
2.9484773128
 40
30.0
100
AcDbArc
 50
174.7456316523
 51
176.8928315082
  0
SPLINE
  5
3CB
100
AcDbEntity
  8
0
100
AcDbSpline
 62
7
  6
CONTINUOUS
 70
0
 71
3
 72
44
 73
40
 74
0
 42
0.0000001
 43
0.0000001
 44
0.0000000001
 40
0.0
 40
0.0
 40
0.0
 40
0.0
 40
0.013088001
 40
0.0260305522
 40
0.0509924943
 40
0.0743277827
 40
0.0959561725
 40
0.1160482176
 40
0.1348462666
 40
0.1525834073
 40
0.1694590343
 40
0.2012310724
 40
0.2311452318
 40
0.2598211229
 40
0.2876643385
 40
0.3149443968
 40
0.3418427493
 40
0.3684827499
 40
0.3949488815
 40
0.44756793
 40
0.5000077275
 40
0.5524475324
 40
0.6050665799
 40
0.6581578785
 40
0.6850562048
 40
0.7123362456
 40
0.7401794437
 40
0.768855306
 40
0.7987694277
 40
0.8305414036
 40
0.8474169908
 40
0.8651540733
 40
0.8839520218
 40
0.9040439685
 40
0.925672267
 40
0.9490075839
 40
0.9739696183
 40
0.986912201
 40
1.0
 40
1.0
 40
1.0
 40
1.0
 10
19.7944834891
 20
7.7677720053
 30
0.0
 10
19.7958758874
 20
7.7677720053
 30
0.0
 10
19.7986460328
 20
7.7676832639
 30
0.0
 10
19.8040500341
 20
7.7671783382
 30
0.0
 10
19.8104725792
 20
7.7659864388
 30
0.0
 10
19.8175961935
 20
7.7637912714
 30
0.0
 10
19.8239656276
 20
7.7610521457
 30
0.0
 10
19.8296086828
 20
7.757932396
 30
0.0
 10
19.8346007297
 20
7.7545464771
 30
0.0
 10
19.8390249154
 20
7.7509707634
 30
0.0
 10
19.8441637923
 20
7.7461179659
 30
0.0
 10
19.8496255554
 20
7.7397563636
 30
0.0
 10
19.8549701901
 20
7.7317428341
 30
0.0
 10
19.8592678923
 20
7.7235979605
 30
0.0
 10
19.8627296661
 20
7.7153720646
 30
0.0
 10
19.8655118091
 20
7.7070942629
 30
0.0
 10
19.8677323266
 20
7.698782872
 30
0.0
 10
19.8694807611
 20
7.6904491779
 30
0.0
 10
19.8712704454
 20
7.6793413569
 30
0.0
 10
19.872645737
 20
7.6654021575
 30
0.0
 10
19.8731687774
 20
7.6486440434
 30
0.0
 10
19.8726458334
 20
7.6318847098
 30
0.0
 10
19.87099186
 20
7.615127413
 30
0.0
 10
19.8684586016
 20
7.6012248083
 30
0.0
 10
19.8655118086
 20
7.5901935019
 30
0.0
 10
19.8627296089
 20
7.5819156221
 30
0.0
 10
19.8592678219
 20
7.5736897684
 30
0.0
 10
19.8549700959
 20
7.5655449098
 30
0.0
 10
19.8496254631
 20
7.5575313967
 30
0.0
 10
19.8441636738
 20
7.5511698368
 30
0.0
 10
19.8390248108
 20
7.5463170496
 30
0.0
 10
19.8346006237
 20
7.5427413708
 30
0.0
 10
19.8296085974
 20
7.5393554715
 30
0.0
 10
19.8239655657
 20
7.5362357427
 30
0.0
 10
19.8175961475
 20
7.5334966251
 30
0.0
 10
19.8104725318
 20
7.5313014496
 30
0.0
 10
19.8040499409
 20
7.5301096494
 30
0.0
 10
19.7986459738
 20
7.529604718
 30
0.0
 10
19.7958758657
 20
7.5295152342
 30
0.0
 10
19.7944834889
 20
7.5295152342
 30
0.0
  0
SPLINE
  5
3CC
100
AcDbEntity
  8
0
100
AcDbSpline
 62
7
  6
CONTINUOUS
 70
0
 71
3
 72
16
 73
12
 74
0
 42
0.0000001
 43
0.0000001
 44
0.0000000001
 40
0.0
 40
0.0
 40
0.0
 40
0.0
 40
0.0791028415
 40
0.157114366
 40
0.3064728474
 40
0.444583317
 40
0.5714995206
 40
0.688804038
 40
0.7983074026
 40
0.9016108079
 40
1.0
 40
1.0
 40
1.0
 40
1.0
 10
19.7944834889
 20
7.5295152342
 30
0.0
 10
19.7929332282
 20
7.5295152342
 30
0.0
 10
19.7898530094
 20
7.5296260439
 30
0.0
 10
19.7838753133
 20
7.5302461944
 30
0.0
 10
19.7768381535
 20
7.5316993212
 30
0.0
 10
19.7691370486
 20
7.5343375179
 30
0.0
 10
19.7623641721
 20
7.5375787368
 30
0.0
 10
19.7564532129
 20
7.5412229518
 30
0.0
 10
19.7512923396
 20
7.5451395695
 30
0.0
 10
19.7467726252
 20
7.5492447237
 30
0.0
 10
19.7440666239
 20
7.5521322397
 30
0.0
 10
19.7428016919
 20
7.5535875881
 30
0.0
  0
SPLINE
  5
3CD
100
AcDbEntity
  8
0
100
AcDbSpline
 62
7
  6
CONTINUOUS
 70
0
 71
3
 72
18
 73
14
 74
0
 42
0.0000001
 43
0.0000001
 44
0.0000000001
 40
0.0
 40
0.0
 40
0.0
 40
0.0
 40
0.1250106656
 40
0.2500257747
 40
0.3750300392
 40
0.5000225726
 40
0.5625432985
 40
0.6250636435
 40
0.7499695192
 40
0.8124836424
 40
0.8749917678
 40
0.9374977731
 40
1.0
 40
1.0
 40
1.0
 40
1.0
 10
19.7428016919
 20
7.3243376077
 30
0.0
 10
19.7440398303
 20
7.3271866506
 30
0.0
 10
19.7466704235
 20
7.3328197793
 30
0.0
 10
19.7511529472
 20
7.3409990119
 30
0.0
 10
19.7562643672
 20
7.3488041316
 30
0.0
 10
19.7611421431
 20
7.3548694839
 30
0.0
 10
19.7654734725
 20
7.3593309428
 30
0.0
 10
19.7701062936
 20
7.3634722812
 30
0.0
 10
19.7752375371
 20
7.3670465225
 30
0.0
 10
19.7808341727
 20
7.3697646317
 30
0.0
 10
19.785246609
 20
7.3713013231
 30
0.0
 10
19.7898200882
 20
7.3722577083
 30
0.0
 10
19.7929303411
 20
7.3724808271
 30
0.0
 10
19.794483489
 20
7.3724808271
 30
0.0
  0
SPLINE
  5
3CE
100
AcDbEntity
  8
0
100
AcDbSpline
 62
7
  6
CONTINUOUS
 70
0
 71
3
 72
29
 73
25
 74
0
 42
0.0000001
 43
0.0000001
 44
0.0000000001
 40
0.0
 40
0.0
 40
0.0
 40
0.0
 40
0.0156275901
 40
0.0312580366
 40
0.0468860088
 40
0.0625168644
 40
0.0937476269
 40
0.1249909135
 40
0.1562402273
 40
0.1874923703
 40
0.2187459225
 40
0.2499998318
 40
0.2812528573
 40
0.3125063986
 40
0.3437594446
 40
0.3750120199
 40
0.4375103645
 40
0.5000099861
 40
0.5625099867
 40
0.6250097729
 40
0.687509899
 40
0.7500099541
 40
0.8750042302
 40
1.0
 40
1.0
 40
1.0
 40
1.0
 10
19.794483489
 20
7.3724808271
 30
0.0
 10
19.7958779653
 20
7.3724808271
 30
0.0
 10
19.7986700359
 20
7.3723011857
 30
0.0
 10
19.8027908977
 20
7.3715264616
 30
0.0
 10
19.8067935215
 20
7.3702763475
 30
0.0
 10
19.8119126324
 20
7.368042912
 30
0.0
 10
19.8178567095
 20
7.3643263966
 30
0.0
 10
19.8241861717
 20
7.3588218551
 30
0.0
 10
19.8297844775
 20
7.3525833016
 30
0.0
 10
19.8347361463
 20
7.3458267868
 30
0.0
 10
19.8391277771
 20
7.3386970882
 30
0.0
 10
19.8430344232
 20
7.3312930016
 30
0.0
 10
19.8465207753
 20
7.3236835412
 30
0.0
 10
19.8496387602
 20
7.3159169977
 30
0.0
 10
19.8524334274
 20
7.3080290547
 30
0.0
 10
19.8557777285
 20
7.2973858651
 30
0.0
 10
19.8593230363
 20
7.2838929903
 30
0.0
 10
19.862760508
 20
7.267513851
 30
0.0
 10
19.8655287968
 20
7.2510096589
 30
0.0
 10
19.8677415174
 20
7.2344231001
 30
0.0
 10
19.8694856669
 20
7.2177813993
 30
0.0
 10
19.8712755784
 20
7.1955441838
 30
0.0
 10
19.8726469097
 20
7.1676869165
 30
0.0
 10
19.8729946348
 20
7.145378452
 30
0.0
 10
19.8729946348
 20
7.134224868
 30
0.0
  0
SPLINE
  5
3CF
100
AcDbEntity
  8
0
100
AcDbSpline
 62
7
  6
CONTINUOUS
 70
0
 71
3
 72
18
 73
14
 74
0
 42
0.0000001
 43
0.0000001
 44
0.0000000001
 40
0.0
 40
0.0
 40
0.0
 40
0.0
 40
0.0625023463
 40
0.1250085355
 40
0.1875165364
 40
0.250030703
 40
0.3749365059
 40
0.4374567825
 40
0.4999774643
 40
0.6249699379
 40
0.7499741752
 40
0.8749893116
 40
1.0
 40
1.0
 40
1.0
 40
1.0
 10
19.794483489
 20
6.8959685219
 30
0.0
 10
19.7929303376
 20
6.8959685219
 30
0.0
 10
19.7898201117
 20
6.8961921739
 30
0.0
 10
19.7852466222
 20
6.8971483895
 30
0.0
 10
19.7808341723
 20
6.8986850982
 30
0.0
 10
19.7752375492
 20
6.9014032178
 30
0.0
 10
19.7701062987
 20
6.9049774506
 30
0.0
 10
19.7654734791
 20
6.9091187873
 30
0.0
 10
19.7611421505
 20
6.9135802441
 30
0.0
 10
19.7562643742
 20
6.9196455957
 30
0.0
 10
19.7511529516
 20
6.9274507159
 30
0.0
 10
19.7466704254
 20
6.9356299519
 30
0.0
 10
19.744039831
 20
6.9412630839
 30
0.0
 10
19.7428016919
 20
6.9441121284
 30
0.0
  0
SPLINE
  5
3D0
100
AcDbEntity
  8
0
100
AcDbSpline
 62
7
  6
CONTINUOUS
 70
0
 71
3
 72
15
 73
11
 74
0
 42
0.0000001
 43
0.0000001
 44
0.0000000001
 40
0.0
 40
0.0
 40
0.0
 40
0.0
 40
0.1249945657
 40
0.2499898412
 40
0.3749886131
 40
0.4999896432
 40
0.6249919851
 40
0.7499940751
 40
0.8749984399
 40
1.0
 40
1.0
 40
1.0
 40
1.0
 10
19.6949660953
 20
7.134224868
 30
0.0
 10
19.6949660953
 20
7.1259980018
 30
0.0
 10
19.6955966736
 20
7.1095375212
 30
0.0
 10
19.6983787058
 20
7.0849934244
 30
0.0
 10
19.7028447955
 20
7.0607014309
 30
0.0
 10
19.7087823477
 20
7.0367310149
 30
0.0
 10
19.7159563191
 20
7.0131049386
 30
0.0
 10
19.7241377602
 20
6.9898116018
 30
0.0
 10
19.7331196946
 20
6.9668176496
 30
0.0
 10
19.7395225248
 20
6.9516577208
 30
0.0
 10
19.7428016919
 20
6.9441121284
 30
0.0
  0
SPLINE
  5
3D1
100
AcDbEntity
  8
0
100
AcDbSpline
 62
7
  6
CONTINUOUS
 70
0
 71
3
 72
28
 73
24
 74
0
 42
0.0000001
 43
0.0000001
 44
0.0000000001
 40
0.0
 40
0.0
 40
0.0
 40
0.0
 40
0.068386361
 40
0.1354129244
 40
0.168327807
 40
0.2008049066
 40
0.2642990738
 40
0.3257375029
 40
0.3852063866
 40
0.4430422827
 40
0.471574133
 40
0.4999885589
 40
0.5284042188
 40
0.5569381779
 40
0.5857044979
 40
0.6148049894
 40
0.6742659928
 40
0.7357019284
 40
0.7991979988
 40
0.8316771439
 40
0.8645927927
 40
0.9316164329
 40
1.0
 40
1.0
 40
1.0
 40
1.0
 10
19.7428016919
 20
6.714862148
 30
0.0
 10
19.7395509773
 20
6.7111220875
 30
0.0
 10
19.7332135615
 20
6.7036287906
 30
0.0
 10
19.7256969668
 20
6.694017315
 30
0.0
 10
19.7200799355
 20
6.68623661
 30
0.0
 10
19.7148342883
 20
6.6785086535
 30
0.0
 10
19.7088940162
 20
6.668758607
 30
0.0
 10
19.7029336925
 20
6.6567764389
 30
0.0
 10
19.6984352032
 20
6.6446004521
 30
0.0
 10
19.6960631474
 20
6.6342635402
 30
0.0
 10
19.6951260514
 20
6.6259921636
 30
0.0
 10
19.6948950182
 20
6.6198050543
 30
0.0
 10
19.6951313447
 20
6.6136182405
 30
0.0
 10
19.6958329614
 20
6.6074411378
 30
0.0
 10
19.6969997452
 20
6.6012844858
 30
0.0
 10
19.6991606468
 20
6.5930561913
 30
0.0
 10
19.7029338596
 20
6.5828328213
 30
0.0
 10
19.7088929949
 20
6.5708522817
 30
0.0
 10
19.7148349691
 20
6.5611026904
 30
0.0
 10
19.7200817757
 20
6.5533751791
 30
0.0
 10
19.7256990004
 20
6.545594619
 30
0.0
 10
19.7332145
 20
6.5359827723
 30
0.0
 10
19.7395511101
 20
6.5284893161
 30
0.0
 10
19.7428016919
 20
6.5247494084
 30
0.0
  0
SPLINE
  5
3D2
100
AcDbEntity
  8
0
100
AcDbSpline
 62
7
  6
CONTINUOUS
 70
0
 71
3
 72
28
 73
24
 74
0
 42
0.0000001
 43
0.0000001
 44
0.0000000001
 40
0.0
 40
0.0
 40
0.0
 40
0.0
 40
0.0312018502
 40
0.046830681
 40
0.0624624645
 40
0.0936950266
 40
0.1249401314
 40
0.1561912589
 40
0.1874452162
 40
0.2187005835
 40
0.2499563086
 40
0.2812111489
 40
0.3124665048
 40
0.3437213653
 40
0.3749757547
 40
0.4374777269
 40
0.4999809758
 40
0.562484603
 40
0.6249880158
 40
0.6874917687
 40
0.7499954499
 40
0.8749969781
 40
1.0
 40
1.0
 40
1.0
 40
1.0
 10
19.794483489
 20
6.8959685219
 30
0.0
 10
19.7972675217
 20
6.8959685219
 30
0.0
 10
19.8014661799
 20
6.8965087832
 30
0.0
 10
19.8067926955
 20
6.8981732429
 30
0.0
 10
19.8119130628
 20
6.9004068934
 30
0.0
 10
19.817856532
 20
6.9041232916
 30
0.0
 10
19.8241861921
 20
6.9096278692
 30
0.0
 10
19.8297844494
 20
6.9158664109
 30
0.0
 10
19.8347361347
 20
6.9226229282
 30
0.0
 10
19.8391277644
 20
6.929752626
 30
0.0
 10
19.8430344131
 20
6.9371567136
 30
0.0
 10
19.8465207667
 20
6.9447661746
 30
0.0
 10
19.849638753
 20
6.9525327189
 30
0.0
 10
19.8524334212
 20
6.9604206628
 30
0.0
 10
19.8557777236
 20
6.9710638535
 30
0.0
 10
19.8593230326
 20
6.9845567299
 30
0.0
 10
19.8627605053
 20
7.000935871
 30
0.0
 10
19.865528795
 20
7.0174400649
 30
0.0
 10
19.8677415164
 20
7.0340266255
 30
0.0
 10
19.8694856659
 20
7.0506683281
 30
0.0
 10
19.8712755782
 20
7.0729055459
 30
0.0
 10
19.8726469094
 20
7.1007628161
 30
0.0
 10
19.8729946348
 20
7.1230712829
 30
0.0
 10
19.8729946348
 20
7.134224868
 30
0.0
  0
SPLINE
  5
3D3
100
AcDbEntity
  8
0
100
AcDbSpline
 62
7
  6
CONTINUOUS
 70
0
 71
3
 72
28
 73
24
 74
0
 42
0.0000001
 43
0.0000001
 44
0.0000000001
 40
0.0
 40
0.0
 40
0.0
 40
0.0
 40
0.0683834613
 40
0.1354070048
 40
0.1683226909
 40
0.200801849
 40
0.2642976903
 40
0.32573361
 40
0.3851946832
 40
0.4142951437
 40
0.4430614604
 40
0.471595491
 40
0.5000112119
 40
0.5284256542
 40
0.5569575124
 40
0.6147935354
 40
0.6742624243
 40
0.7357008569
 40
0.7991951251
 40
0.8316722396
 40
0.864587116
 40
0.9316136586
 40
1.0
 40
1.0
 40
1.0
 40
1.0
 10
19.7428016919
 20
7.7437003277
 30
0.0
 10
19.7395511157
 20
7.7399604263
 30
0.0
 10
19.733214527
 20
7.7324669726
 30
0.0
 10
19.7256990495
 20
7.7228551272
 30
0.0
 10
19.7200818021
 20
7.7150745897
 30
0.0
 10
19.7148349708
 20
7.7073471128
 30
0.0
 10
19.70889301
 20
7.6975975303
 30
0.0
 10
19.7029339881
 20
7.6856169547
 30
0.0
 10
19.6991606753
 20
7.6753936276
 30
0.0
 10
19.6969997219
 20
7.6671653416
 30
0.0
 10
19.6958330306
 20
7.6610086692
 30
0.0
 10
19.6951314388
 20
7.6548315579
 30
0.0
 10
19.6948950575
 20
7.6486447376
 30
0.0
 10
19.6951260325
 20
7.6424576189
 30
0.0
 10
19.6960632036
 20
7.634186239
 30
0.0
 10
19.6984352815
 20
7.6238493317
 30
0.0
 10
19.7029336692
 20
7.6116732976
 30
0.0
 10
19.7088940283
 20
7.5996911365
 30
0.0
 10
19.7148343104
 20
7.5899410899
 30
0.0
 10
19.7200799578
 20
7.5822131255
 30
0.0
 10
19.7256969814
 20
7.5744324178
 30
0.0
 10
19.7332135676
 20
7.5648209421
 30
0.0
 10
19.7395509788
 20
7.557327647
 30
0.0
 10
19.7428016919
 20
7.5535875881
 30
0.0
  0
SPLINE
  5
3D4
100
AcDbEntity
  8
0
100
AcDbSpline
 62
7
  6
CONTINUOUS
 70
0
 71
3
 72
15
 73
11
 74
0
 42
0.0000001
 43
0.0000001
 44
0.0000000001
 40
0.0
 40
0.0
 40
0.0
 40
0.0
 40
0.1250015549
 40
0.2500059174
 40
0.3750080126
 40
0.5000103646
 40
0.6250114019
 40
0.750010196
 40
0.8750054698
 40
1.0
 40
1.0
 40
1.0
 40
1.0
 10
19.7428016919
 20
7.3243376077
 30
0.0
 10
19.7395225249
 20
7.3167920156
 30
0.0
 10
19.7331196961
 20
7.3016320868
 30
0.0
 10
19.7241377597
 20
7.2786381355
 30
0.0
 10
19.7159563194
 20
7.2553447976
 30
0.0
 10
19.7087823473
 20
7.23171872
 30
0.0
 10
19.7028447944
 20
7.2077483014
 30
0.0
 10
19.6983787053
 20
7.183456306
 30
0.0
 10
19.6955966736
 20
7.15891221
 30
0.0
 10
19.6949660953
 20
7.1424517319
 30
0.0
 10
19.6949660953
 20
7.134224868
 30
0.0
  0
SPLINE
  5
3D5
100
AcDbEntity
  8
0
100
AcDbSpline
 62
7
  6
CONTINUOUS
 70
0
 71
3
 72
16
 73
12
 74
0
 42
0.0000001
 43
0.0000001
 44
0.0000000001
 40
0.0
 40
0.0
 40
0.0
 40
0.0
 40
0.0983890801
 40
0.2016923511
 40
0.311195611
 40
0.4285000405
 40
0.5554162013
 40
0.6935265519
 40
0.84288491
 40
0.9208961793
 40
1.0
 40
1.0
 40
1.0
 40
1.0
 10
19.7428016919
 20
6.714862148
 30
0.0
 10
19.7440666219
 20
6.7163174942
 30
0.0
 10
19.746772619
 20
6.7192050055
 30
0.0
 10
19.7512923258
 20
6.7233101544
 30
0.0
 10
19.7564531901
 20
6.7272267685
 30
0.0
 10
19.7623641419
 20
6.7308709848
 30
0.0
 10
19.7691370096
 20
6.7341121919
 30
0.0
 10
19.776838101
 20
6.7367504485
 30
0.0
 10
19.7838752494
 20
6.7382034107
 30
0.0
 10
19.7898529457
 20
6.7388239532
 30
0.0
 10
19.7929332098
 20
6.7389338256
 30
0.0
 10
19.7944834891
 20
6.7389338256
 30
0.0
  0
SPLINE
  5
3D6
100
AcDbEntity
  8
0
100
AcDbSpline
 62
7
  6
CONTINUOUS
 70
0
 71
3
 72
44
 73
40
 74
0
 42
0.0000001
 43
0.0000001
 44
0.0000000001
 40
0.0
 40
0.0
 40
0.0
 40
0.0
 40
0.013088001
 40
0.0260305522
 40
0.0509924943
 40
0.0743277827
 40
0.0959561726
 40
0.1160482177
 40
0.1348462666
 40
0.1525834073
 40
0.1694590343
 40
0.2012310724
 40
0.2311452318
 40
0.2598211229
 40
0.2876643386
 40
0.3149443968
 40
0.3418427493
 40
0.3684827499
 40
0.3949488815
 40
0.44756793
 40
0.5000077275
 40
0.5524475324
 40
0.6050665799
 40
0.6581578785
 40
0.6850562048
 40
0.7123362457
 40
0.7401794437
 40
0.768855306
 40
0.7987694277
 40
0.8305414036
 40
0.8474169908
 40
0.8651540733
 40
0.8839520218
 40
0.9040439685
 40
0.925672267
 40
0.9490075839
 40
0.9739696183
 40
0.986912201
 40
1.0
 40
1.0
 40
1.0
 40
1.0
 10
19.7944834891
 20
6.7389338256
 30
0.0
 10
19.7958758874
 20
6.7389338256
 30
0.0
 10
19.7986460328
 20
6.7388450842
 30
0.0
 10
19.8040500342
 20
6.7383401585
 30
0.0
 10
19.8104725792
 20
6.7371482591
 30
0.0
 10
19.8175961935
 20
6.7349530917
 30
0.0
 10
19.8239656276
 20
6.732213966
 30
0.0
 10
19.8296086828
 20
6.7290942163
 30
0.0
 10
19.8346007297
 20
6.7257082974
 30
0.0
 10
19.8390249154
 20
6.7221325837
 30
0.0
 10
19.8441637923
 20
6.7172797862
 30
0.0
 10
19.8496255554
 20
6.7109181839
 30
0.0
 10
19.8549701901
 20
6.7029046544
 30
0.0
 10
19.8592678923
 20
6.6947597808
 30
0.0
 10
19.8627296661
 20
6.6865338849
 30
0.0
 10
19.8655118091
 20
6.6782560832
 30
0.0
 10
19.8677323266
 20
6.6699446923
 30
0.0
 10
19.8694807611
 20
6.6616109982
 30
0.0
 10
19.8712704454
 20
6.6505031772
 30
0.0
 10
19.872645737
 20
6.6365639778
 30
0.0
 10
19.8731687774
 20
6.6198058637
 30
0.0
 10
19.8726458334
 20
6.6030465301
 30
0.0
 10
19.87099186
 20
6.5862892333
 30
0.0
 10
19.8684586016
 20
6.5723866286
 30
0.0
 10
19.8655118086
 20
6.5613553222
 30
0.0
 10
19.8627296089
 20
6.5530774424
 30
0.0
 10
19.8592678219
 20
6.5448515887
 30
0.0
 10
19.8549700959
 20
6.5367067301
 30
0.0
 10
19.8496254631
 20
6.528693217
 30
0.0
 10
19.8441636738
 20
6.5223316571
 30
0.0
 10
19.8390248108
 20
6.5174788699
 30
0.0
 10
19.8346006237
 20
6.5139031911
 30
0.0
 10
19.8296085974
 20
6.5105172918
 30
0.0
 10
19.8239655657
 20
6.507397563
 30
0.0
 10
19.8175961475
 20
6.5046584454
 30
0.0
 10
19.8104725318
 20
6.5024632699
 30
0.0
 10
19.8040499409
 20
6.5012714697
 30
0.0
 10
19.7986459738
 20
6.5007665383
 30
0.0
 10
19.7958758657
 20
6.5006770544
 30
0.0
 10
19.7944834889
 20
6.5006770544
 30
0.0
  0
SPLINE
  5
3D7
100
AcDbEntity
  8
0
100
AcDbSpline
 62
7
  6
CONTINUOUS
 70
0
 71
3
 72
16
 73
12
 74
0
 42
0.0000001
 43
0.0000001
 44
0.0000000001
 40
0.0
 40
0.0
 40
0.0
 40
0.0
 40
0.0791028414
 40
0.1571143659
 40
0.3064728473
 40
0.444583317
 40
0.5714995206
 40
0.688804038
 40
0.7983074026
 40
0.9016108079
 40
1.0
 40
1.0
 40
1.0
 40
1.0
 10
19.7944834889
 20
6.5006770544
 30
0.0
 10
19.7929332282
 20
6.5006770544
 30
0.0
 10
19.7898530094
 20
6.5007878642
 30
0.0
 10
19.7838753133
 20
6.5014080146
 30
0.0
 10
19.7768381535
 20
6.5028611415
 30
0.0
 10
19.7691370486
 20
6.5054993382
 30
0.0
 10
19.7623641721
 20
6.5087405571
 30
0.0
 10
19.7564532129
 20
6.5123847721
 30
0.0
 10
19.7512923396
 20
6.5163013898
 30
0.0
 10
19.7467726252
 20
6.520406544
 30
0.0
 10
19.7440666239
 20
6.52329406
 30
0.0
 10
19.7428016919
 20
6.5247494084
 30
0.0
  0
SPLINE
  5
3D8
100
AcDbEntity
  8
0
100
AcDbSpline
 62
7
  6
CONTINUOUS
 70
0
 71
3
 72
16
 73
12
 74
0
 42
0.0000001
 43
0.0000001
 44
0.0000000001
 40
0.0
 40
0.0
 40
0.0
 40
0.0
 40
0.0983890801
 40
0.2016923511
 40
0.3111956111
 40
0.4285000405
 40
0.5554162014
 40
0.693526552
 40
0.84288491
 40
0.9208961794
 40
1.0
 40
1.0
 40
1.0
 40
1.0
 10
19.7428016919
 20
7.7437003277
 30
0.0
 10
19.7440666219
 20
7.7451556739
 30
0.0
 10
19.746772619
 20
7.7480431852
 30
0.0
 10
19.7512923258
 20
7.7521483341
 30
0.0
 10
19.7564531901
 20
7.7560649482
 30
0.0
 10
19.7623641419
 20
7.7597091645
 30
0.0
 10
19.7691370096
 20
7.7629503716
 30
0.0
 10
19.776838101
 20
7.7655886282
 30
0.0
 10
19.7838752495
 20
7.7670415904
 30
0.0
 10
19.7898529457
 20
7.7676621329
 30
0.0
 10
19.7929332098
 20
7.7677720053
 30
0.0
 10
19.7944834891
 20
7.7677720053
 30
0.0
  0
SPLINE
  5
3D9
100
AcDbEntity
  8
0
100
AcDbSpline
 62
7
  6
CONTINUOUS
 70
0
 71
3
 72
22
 73
18
 74
0
 42
0.0000001
 43
0.0000001
 44
0.0000000001
 40
0.0
 40
0.0
 40
0.0
 40
0.0
 40
0.0624977506
 40
0.1250362546
 40
0.1563095789
 40
0.1875752741
 40
0.2500924313
 40
0.3126129646
 40
0.3751216706
 40
0.4376203603
 40
0.5001254823
 40
0.5626260316
 40
0.6251127615
 40
0.6875984283
 40
0.7500853981
 40
0.8750442299
 40
1.0
 40
1.0
 40
1.0
 40
1.0
 10
10.0694834891
 20
11.6288599644
 30
0.0
 10
10.0757790923
 20
11.6288599644
 30
0.0
 10
10.0883771485
 20
11.6284848069
 30
0.0
 10
10.1040716557
 20
11.6271167177
 30
0.0
 10
10.1165689731
 20
11.6255047798
 30
0.0
 10
10.1290157668
 20
11.6235544364
 30
0.0
 10
10.1444708871
 20
11.6205100915
 30
0.0
 10
10.1628194757
 20
11.6159851543
 30
0.0
 10
10.1809555849
 20
11.6106822482
 30
0.0
 10
10.1988743553
 20
11.60469453
 30
0.0
 10
10.2165824591
 20
11.5981150527
 30
0.0
 10
10.2340944977
 20
11.5910356718
 30
0.0
 10
10.2514283396
 20
11.5835369193
 30
0.0
 10
10.2686013756
 20
11.5756811782
 30
0.0
 10
10.2913131811
 20
11.5648150457
 30
0.0
 10
10.3194205361
 20
11.5506559194
 30
0.0
 10
10.3416987881
 20
11.5389308558
 30
0.0
 10
10.3528119205
 20
11.533020188
 30
0.0
  0
SPLINE
  5
3DA
100
AcDbEntity
  8
0
100
AcDbSpline
 62
7
  6
CONTINUOUS
 70
0
 71
3
 72
21
 73
17
 74
0
 42
0.0000001
 43
0.0000001
 44
0.0000000001
 40
0.0
 40
0.0
 40
0.0
 40
0.0
 40
0.1249972989
 40
0.187496389
 40
0.2499955165
 40
0.3124946291
 40
0.3749950351
 40
0.4374951117
 40
0.4999970101
 40
0.5624984169
 40
0.6250016827
 40
0.7499862341
 40
0.8124903309
 40
0.8749928236
 40
0.9374976386
 40
1.0
 40
1.0
 40
1.0
 40
1.0
 10
10.3528119205
 20
11.0755244068
 30
0.0
 10
10.3413551698
 20
11.0708223516
 30
0.0
 10
10.3241950402
 20
11.0637084225
 30
0.0
 10
10.3013029724
 20
11.054252021
 30
0.0
 10
10.2841108472
 20
11.0472154738
 30
0.0
 10
10.2668748808
 20
11.0402863775
 30
0.0
 10
10.2495762355
 20
11.0335145136
 30
0.0
 10
10.2321910202
 20
11.0269663708
 30
0.0
 10
10.2146987677
 20
11.0207086144
 30
0.0
 10
10.1970757822
 20
11.0148244435
 30
0.0
 10
10.1733851142
 20
11.0075956324
 30
0.0
 10
10.1493531757
 20
11.001489167
 30
0.0
 10
10.1249981642
 20
10.9969432622
 30
0.0
 10
10.1065847666
 20
10.9944168307
 30
0.0
 10
10.0880638077
 20
10.9928613959
 30
0.0
 10
10.0756759175
 20
10.9925109288
 30
0.0
 10
10.0694834891
 20
10.9925109288
 30
0.0
  0
SPLINE
  5
3DB
100
AcDbEntity
  8
0
100
AcDbSpline
 62
7
  6
CONTINUOUS
 70
0
 71
3
 72
39
 73
35
 74
0
 42
0.0000001
 43
0.0000001
 44
0.0000000001
 40
0.0
 40
0.0
 40
0.0
 40
0.0
 40
0.0665555395
 40
0.0998282259
 40
0.1330198418
 40
0.1660597732
 40
0.1988775011
 40
0.2313905483
 40
0.2635150892
 40
0.295163945
 40
0.3262541909
 40
0.3567154794
 40
0.3865056174
 40
0.4156255407
 40
0.4441410438
 40
0.4721921123
 40
0.4861123628
 40
0.4999999966
 40
0.5138876301
 40
0.5278078821
 40
0.5558589517
 40
0.5843744521
 40
0.6134943727
 40
0.6432845099
 40
0.6737458038
 40
0.7048360428
 40
0.7364849093
 40
0.7686094412
 40
0.8011224977
 40
0.8339402232
 40
0.8669801556
 40
0.9001717751
 40
0.9334444592
 40
1.0
 40
1.0
 40
1.0
 40
1.0
 10
9.7045228436
 20
11.0755244068
 30
0.0
 10
9.6987857285
 20
11.0708151777
 30
0.0
 10
9.690215657
 20
11.063708978
 30
0.0
 10
9.6787789231
 20
11.0542609946
 30
0.0
 10
9.6701923852
 20
11.0472315719
 30
0.0
 10
9.6615838111
 20
11.0403096377
 30
0.0
 10
9.6529457584
 20
11.0335462321
 30
0.0
 10
9.6442653654
 20
11.0270048809
 30
0.0
 10
9.6355320454
 20
11.0207548175
 30
0.0
 10
9.6267343463
 20
11.0148751347
 30
0.0
 10
9.6178611468
 20
11.0094555066
 30
0.0
 10
9.6089033948
 20
11.004593919
 30
0.0
 10
9.5998545586
 20
11.0003970516
 30
0.0
 10
9.5907131365
 20
10.9969748391
 30
0.0
 10
9.5814868648
 20
10.9944328879
 30
0.0
 10
9.5737193235
 20
10.9931235194
 30
0.0
 10
9.5675092507
 20
10.9925984689
 30
0.0
 10
9.5628586291
 20
10.9924677314
 30
0.0
 10
9.5582080069
 20
10.992598465
 30
0.0
 10
9.5519979348
 20
10.9931235251
 30
0.0
 10
9.5442303927
 20
10.9944328858
 30
0.0
 10
9.5350041205
 20
10.9969748357
 30
0.0
 10
9.5258627013
 20
11.0003970534
 30
0.0
 10
9.5168138623
 20
11.0045939153
 30
0.0
 10
9.5078561132
 20
11.0094555077
 30
0.0
 10
9.4989829089
 20
11.0148751298
 30
0.0
 10
9.4901852158
 20
11.0207548206
 30
0.0
 10
9.4814518876
 20
11.0270048747
 30
0.0
 10
9.4727715008
 20
11.0335462338
 30
0.0
 10
9.4641334435
 20
11.0403096348
 30
0.0
 10
9.4555248702
 20
11.0472315705
 30
0.0
 10
9.4469383339
 20
11.0542609955
 30
0.0
 10
9.4355015972
 20
11.0637089759
 30
0.0
 10
9.4269315275
 20
11.0708151776
 30
0.0
 10
9.4211944123
 20
11.0755244068
 30
0.0
  0
SPLINE
  5
3DC
100
AcDbEntity
  8
0
100
AcDbSpline
 62
7
  6
CONTINUOUS
 70
0
 71
3
 72
35
 73
31
 74
0
 42
0.0000001
 43
0.0000001
 44
0.0000000001
 40
0.0
 40
0.0
 40
0.0
 40
0.0
 40
0.0690372408
 40
0.1032427633
 40
0.1371650491
 40
0.2038652897
 40
0.2365061306
 40
0.2685689231
 40
0.2999704131
 40
0.3306545252
 40
0.3605766116
 40
0.389707823
 40
0.4180816838
 40
0.4458048715
 40
0.4730390778
 40
0.5000010556
 40
0.5269624494
 40
0.5541963302
 40
0.5819199475
 40
0.6102937713
 40
0.6394241428
 40
0.669345614
 40
0.7000298904
 40
0.731431317
 40
0.7634939824
 40
0.7961349255
 40
0.862834976
 40
0.8967572664
 40
0.9309628124
 40
1.0
 40
1.0
 40
1.0
 40
1.0
 10
9.4211944123
 20
11.533020188
 30
0.0
 10
9.426725837
 20
11.5389041122
 30
0.0
 10
9.4350443381
 20
11.5476603655
 30
0.0
 10
9.4462843088
 20
11.5591112788
 30
0.0
 10
9.4574859385
 20
11.5702140632
 30
0.0
 10
9.4688475781
 20
11.5808965975
 30
0.0
 10
9.4804681662
 20
11.5909613772
 30
0.0
 10
9.4892086584
 20
11.5980356189
 30
0.0
 10
9.4980497885
 20
11.6046086974
 30
0.0
 10
9.5069985113
 20
11.6105977532
 30
0.0
 10
9.5160586207
 20
11.6159135342
 30
0.0
 10
9.5252318848
 20
11.6204573443
 30
0.0
 10
9.5345172524
 20
11.6241247181
 30
0.0
 10
9.5439037172
 20
11.6268155688
 30
0.0
 10
9.55336051
 20
11.6284767633
 30
0.0
 10
9.5628589306
 20
11.629050323
 30
0.0
 10
9.572357457
 20
11.6284778506
 30
0.0
 10
9.5818139969
 20
11.6268152651
 30
0.0
 10
9.5912002135
 20
11.6241237694
 30
0.0
 10
9.6004858736
 20
11.6204573029
 30
0.0
 10
9.6096590386
 20
11.6159136324
 30
0.0
 10
9.618718969
 20
11.6105978476
 30
0.0
 10
9.6276675161
 20
11.6046086368
 30
0.0
 10
9.6365086332
 20
11.5980355516
 30
0.0
 10
9.6452491201
 20
11.5909613169
 30
0.0
 10
9.6568695957
 20
11.5808964475
 30
0.0
 10
9.6682313526
 20
11.5702140559
 30
0.0
 10
9.6794329516
 20
11.5591112656
 30
0.0
 10
9.6906729051
 20
11.5476603401
 30
0.0
 10
9.6989914231
 20
11.5389041077
 30
0.0
 10
9.7045228436
 20
11.533020188
 30
0.0
  0
SPLINE
  5
3DD
100
AcDbEntity
  8
0
100
AcDbSpline
 62
7
  6
CONTINUOUS
 70
0
 71
3
 72
39
 73
35
 74
0
 42
0.0000001
 43
0.0000001
 44
0.0000000001
 40
0.0
 40
0.0
 40
0.0
 40
0.0
 40
0.0665555395
 40
0.0998282259
 40
0.1330198417
 40
0.1660597731
 40
0.198877501
 40
0.2313905478
 40
0.263515089
 40
0.2951639443
 40
0.3262541905
 40
0.3567154788
 40
0.3865056168
 40
0.4156255402
 40
0.4441410431
 40
0.4721921115
 40
0.4861123618
 40
0.4999999957
 40
0.5138876291
 40
0.5278078812
 40
0.5558589508
 40
0.5843744515
 40
0.6134943721
 40
0.6432845093
 40
0.6737458034
 40
0.7048360421
 40
0.7364849092
 40
0.7686094408
 40
0.8011224976
 40
0.8339402231
 40
0.8669801555
 40
0.9001717751
 40
0.9334444592
 40
1.0
 40
1.0
 40
1.0
 40
1.0
 10
10.717772566
 20
11.0755244068
 30
0.0
 10
10.7120354509
 20
11.0708151777
 30
0.0
 10
10.7034653794
 20
11.063708978
 30
0.0
 10
10.6920286455
 20
11.0542609946
 30
0.0
 10
10.6834421076
 20
11.047231572
 30
0.0
 10
10.6748335335
 20
11.0403096378
 30
0.0
 10
10.6661954809
 20
11.0335462321
 30
0.0
 10
10.6575150878
 20
11.0270048811
 30
0.0
 10
10.648781768
 20
11.0207548174
 30
0.0
 10
10.6399840687
 20
11.0148751349
 30
0.0
 10
10.6311108695
 20
11.0094555066
 30
0.0
 10
10.6221531174
 20
11.0045939192
 30
0.0
 10
10.6131042812
 20
11.0003970516
 30
0.0
 10
10.6039628591
 20
10.9969748392
 30
0.0
 10
10.5947365874
 20
10.9944328881
 30
0.0
 10
10.5869690462
 20
10.9931235191
 30
0.0
 10
10.5807589735
 20
10.9925984691
 30
0.0
 10
10.5761083518
 20
10.9924677314
 30
0.0
 10
10.5714577297
 20
10.9925984648
 30
0.0
 10
10.5652476575
 20
10.9931235254
 30
0.0
 10
10.5574801154
 20
10.9944328856
 30
0.0
 10
10.5482538432
 20
10.9969748356
 30
0.0
 10
10.539112424
 20
11.0003970534
 30
0.0
 10
10.5300635848
 20
11.0045939151
 30
0.0
 10
10.5211058359
 20
11.0094555078
 30
0.0
 10
10.5122326313
 20
11.0148751296
 30
0.0
 10
10.5034349385
 20
11.0207548207
 30
0.0
 10
10.49470161
 20
11.0270048744
 30
0.0
 10
10.4860212233
 20
11.0335462338
 30
0.0
 10
10.4773831659
 20
11.0403096347
 30
0.0
 10
10.4687745926
 20
11.0472315704
 30
0.0
 10
10.4601880564
 20
11.0542609955
 30
0.0
 10
10.4487513196
 20
11.0637089758
 30
0.0
 10
10.4401812499
 20
11.0708151776
 30
0.0
 10
10.4344441347
 20
11.0755244068
 30
0.0
  0
SPLINE
  5
3DE
100
AcDbEntity
  8
0
100
AcDbSpline
 62
7
  6
CONTINUOUS
 70
0
 71
3
 72
35
 73
31
 74
0
 42
0.0000001
 43
0.0000001
 44
0.0000000001
 40
0.0
 40
0.0
 40
0.0
 40
0.0
 40
0.0690371613
 40
0.1032427003
 40
0.137165005
 40
0.2038652474
 40
0.2365063637
 40
0.2685690067
 40
0.2999704583
 40
0.3306550561
 40
0.3605770717
 40
0.3897078907
 40
0.418081788
 40
0.4458053959
 40
0.4730396489
 40
0.5000013923
 40
0.5269628525
 40
0.554196435
 40
0.5819193672
 40
0.6102931465
 40
0.6394241793
 40
0.6693459682
 40
0.700029786
 40
0.731431237
 40
0.7634940236
 40
0.7961346665
 40
0.8628347899
 40
0.8967571036
 40
0.9309626737
 40
1.0
 40
1.0
 40
1.0
 40
1.0
 10
10.4344441347
 20
11.533020188
 30
0.0
 10
10.4399755566
 20
11.5389041092
 30
0.0
 10
10.4482940963
 20
11.5476603265
 30
0.0
 10
10.4595340603
 20
11.5591112527
 30
0.0
 10
10.4707356574
 20
11.5702140925
 30
0.0
 10
10.4820973931
 20
11.5808965828
 30
0.0
 10
10.4937177973
 20
11.5909616123
 30
0.0
 10
10.5024583181
 20
11.5980358515
 30
0.0
 10
10.5112995016
 20
11.6046089227
 30
0.0
 10
10.5202481371
 20
11.6105981971
 30
0.0
 10
10.5293081509
 20
11.6159141575
 30
0.0
 10
10.5384813878
 20
11.6204579688
 30
0.0
 10
10.5477670543
 20
11.6241246294
 30
0.0
 10
10.557153526
 20
11.6268155506
 30
0.0
 10
10.5666102576
 20
11.628477375
 30
0.0
 10
10.5761087276
 20
11.6290505334
 30
0.0
 10
10.5856071461
 20
11.6284777185
 30
0.0
 10
10.5950637095
 20
11.6268159376
 30
0.0
 10
10.6044498763
 20
11.6241244965
 30
0.0
 10
10.6137351249
 20
11.6204569948
 30
0.0
 10
10.6229083185
 20
11.6159131782
 30
0.0
 10
10.6319683889
 20
11.6105974985
 30
0.0
 10
10.640917085
 20
11.6046085209
 30
0.0
 10
10.6497581879
 20
11.59803546
 30
0.0
 10
10.6584986835
 20
11.5909612585
 30
0.0
 10
10.6701193874
 20
11.5808966551
 30
0.0
 10
10.6814810386
 20
11.5702141629
 30
0.0
 10
10.6926826765
 20
11.5591113798
 30
0.0
 10
10.7039226436
 20
11.5476604216
 30
0.0
 10
10.7122411308
 20
11.5389041233
 30
0.0
 10
10.717772566
 20
11.533020188
 30
0.0
  0
SPLINE
  5
3DF
100
AcDbEntity
  8
0
100
AcDbSpline
 62
7
  6
CONTINUOUS
 70
0
 71
3
 72
21
 73
17
 74
0
 42
0.0000001
 43
0.0000001
 44
0.0000000001
 40
0.0
 40
0.0
 40
0.0
 40
0.0
 40
0.0625023633
 40
0.1250071786
 40
0.1875096689
 40
0.2500137629
 40
0.3749983128
 40
0.43750158
 40
0.5000029876
 40
0.5625048871
 40
0.6250049641
 40
0.6875053704
 40
0.7500044832
 40
0.8125036107
 40
0.8750027008
 40
1.0
 40
1.0
 40
1.0
 40
1.0
 10
10.0694834891
 20
10.9925109288
 30
0.0
 10
10.0632910605
 20
10.9925109288
 30
0.0
 10
10.0509031702
 20
10.9928613963
 30
0.0
 10
10.0323822112
 20
10.9944168305
 30
0.0
 10
10.0139688142
 20
10.9969432622
 30
0.0
 10
9.9896138033
 20
11.0014891668
 30
0.0
 10
9.9655818651
 20
11.0075956321
 30
0.0
 10
9.941891197
 20
11.0148244432
 30
0.0
 10
9.9242682112
 20
11.020708614
 30
0.0
 10
9.9067759585
 20
11.0269663707
 30
0.0
 10
9.8893907429
 20
11.0335145133
 30
0.0
 10
9.8720920976
 20
11.0402863775
 30
0.0
 10
9.8548561312
 20
11.0472154738
 30
0.0
 10
9.8376640059
 20
11.0542520208
 30
0.0
 10
9.8147719383
 20
11.0637084228
 30
0.0
 10
9.7976118085
 20
11.0708223515
 30
0.0
 10
9.7861550578
 20
11.0755244068
 30
0.0
  0
SPLINE
  5
3E0
100
AcDbEntity
  8
0
100
AcDbSpline
 62
7
  6
CONTINUOUS
 70
0
 71
3
 72
22
 73
18
 74
0
 42
0.0000001
 43
0.0000001
 44
0.0000000001
 40
0.0
 40
0.0
 40
0.0
 40
0.0
 40
0.1249558822
 40
0.249914818
 40
0.3124019029
 40
0.3748876956
 40
0.4373744323
 40
0.4998749019
 40
0.562380168
 40
0.6248790063
 40
0.687387731
 40
0.7499085607
 40
0.8124258375
 40
0.8436912987
 40
0.8749643091
 40
0.9375023766
 40
1.0
 40
1.0
 40
1.0
 40
1.0
 10
9.7861550578
 20
11.533020188
 30
0.0
 10
9.797268199
 20
11.5389308605
 30
0.0
 10
9.8195464715
 20
11.5506559278
 30
0.0
 10
9.8476539073
 20
11.5648149592
 30
0.0
 10
9.8703657193
 20
11.5756811508
 30
0.0
 10
9.8875387235
 20
11.583537016
 30
0.0
 10
9.9048725326
 20
11.5910358551
 30
0.0
 10
9.9223845854
 20
11.5981152153
 30
0.0
 10
9.9400926956
 20
11.6046947303
 30
0.0
 10
9.9580115013
 20
11.6106824402
 30
0.0
 10
9.9761477045
 20
11.6159851926
 30
0.0
 10
9.9944964079
 20
11.620509842
 30
0.0
 10
10.0099515635
 20
11.6235540662
 30
0.0
 10
10.0223982913
 20
11.6255045364
 30
0.0
 10
10.0348954894
 20
11.6271166162
 30
0.0
 10
10.0505899011
 20
11.6284847893
 30
0.0
 10
10.0631878995
 20
11.6288599644
 30
0.0
 10
10.0694834891
 20
11.6288599644
 30
0.0
  0
SPLINE
  5
3E1
100
AcDbEntity
  8
0
100
AcDbSpline
 62
7
  6
CONTINUOUS
 70
0
 71
3
 72
22
 73
18
 74
0
 42
0.0000001
 43
0.0000001
 44
0.0000000001
 40
0.0
 40
0.0
 40
0.0
 40
0.0
 40
0.0624977506
 40
0.1250362546
 40
0.1563095789
 40
0.1875752741
 40
0.2500924313
 40
0.3126129646
 40
0.3751216706
 40
0.4376203603
 40
0.5001254823
 40
0.5626260316
 40
0.6251127615
 40
0.6875984283
 40
0.7500853981
 40
0.8750442299
 40
1.0
 40
1.0
 40
1.0
 40
1.0
 10
20.6374834891
 20
8.6893862003
 30
0.0
 10
20.6437790923
 20
8.6893862003
 30
0.0
 10
20.6563771485
 20
8.6890110428
 30
0.0
 10
20.6720716557
 20
8.6876429537
 30
0.0
 10
20.6845689731
 20
8.6860310157
 30
0.0
 10
20.6970157668
 20
8.6840806724
 30
0.0
 10
20.7124708871
 20
8.6810363275
 30
0.0
 10
20.7308194757
 20
8.6765113903
 30
0.0
 10
20.7489555849
 20
8.6712084841
 30
0.0
 10
20.7668743553
 20
8.665220766
 30
0.0
 10
20.7845824591
 20
8.6586412886
 30
0.0
 10
20.8020944977
 20
8.6515619078
 30
0.0
 10
20.8194283396
 20
8.6440631553
 30
0.0
 10
20.8366013756
 20
8.6362074141
 30
0.0
 10
20.8593131811
 20
8.6253412816
 30
0.0
 10
20.8874205361
 20
8.6111821554
 30
0.0
 10
20.9096987881
 20
8.5994570918
 30
0.0
 10
20.9208119205
 20
8.593546424
 30
0.0
  0
SPLINE
  5
3E2
100
AcDbEntity
  8
0
100
AcDbSpline
 62
7
  6
CONTINUOUS
 70
0
 71
3
 72
21
 73
17
 74
0
 42
0.0000001
 43
0.0000001
 44
0.0000000001
 40
0.0
 40
0.0
 40
0.0
 40
0.0
 40
0.1249972989
 40
0.187496389
 40
0.2499955165
 40
0.3124946291
 40
0.3749950351
 40
0.4374951117
 40
0.4999970101
 40
0.5624984169
 40
0.6250016827
 40
0.7499862341
 40
0.8124903309
 40
0.8749928236
 40
0.9374976386
 40
1.0
 40
1.0
 40
1.0
 40
1.0
 10
20.9208119205
 20
8.1360506428
 30
0.0
 10
20.9093551698
 20
8.1313485875
 30
0.0
 10
20.8921950402
 20
8.1242346585
 30
0.0
 10
20.8693029724
 20
8.114778257
 30
0.0
 10
20.8521108472
 20
8.1077417098
 30
0.0
 10
20.8348748808
 20
8.1008126135
 30
0.0
 10
20.8175762355
 20
8.0940407496
 30
0.0
 10
20.8001910202
 20
8.0874926068
 30
0.0
 10
20.7826987677
 20
8.0812348503
 30
0.0
 10
20.7650757822
 20
8.0753506794
 30
0.0
 10
20.7413851142
 20
8.0681218683
 30
0.0
 10
20.7173531757
 20
8.062015403
 30
0.0
 10
20.6929981642
 20
8.0574694982
 30
0.0
 10
20.6745847666
 20
8.0549430667
 30
0.0
 10
20.6560638077
 20
8.0533876319
 30
0.0
 10
20.6436759175
 20
8.0530371648
 30
0.0
 10
20.6374834891
 20
8.0530371648
 30
0.0
  0
SPLINE
  5
3E3
100
AcDbEntity
  8
0
100
AcDbSpline
 62
7
  6
CONTINUOUS
 70
0
 71
3
 72
39
 73
35
 74
0
 42
0.0000001
 43
0.0000001
 44
0.0000000001
 40
0.0
 40
0.0
 40
0.0
 40
0.0
 40
0.0665555395
 40
0.0998282259
 40
0.1330198418
 40
0.1660597732
 40
0.1988775011
 40
0.2313905483
 40
0.2635150892
 40
0.295163945
 40
0.3262541909
 40
0.3567154794
 40
0.3865056174
 40
0.4156255407
 40
0.4441410438
 40
0.4721921123
 40
0.4861123628
 40
0.4999999966
 40
0.5138876301
 40
0.5278078821
 40
0.5558589517
 40
0.5843744521
 40
0.6134943727
 40
0.6432845099
 40
0.6737458038
 40
0.7048360428
 40
0.7364849093
 40
0.7686094412
 40
0.8011224977
 40
0.8339402232
 40
0.8669801556
 40
0.9001717751
 40
0.9334444592
 40
1.0
 40
1.0
 40
1.0
 40
1.0
 10
20.2725228436
 20
8.1360506428
 30
0.0
 10
20.2667857285
 20
8.1313414136
 30
0.0
 10
20.258215657
 20
8.124235214
 30
0.0
 10
20.2467789231
 20
8.1147872306
 30
0.0
 10
20.2381923852
 20
8.1077578079
 30
0.0
 10
20.2295838111
 20
8.1008358737
 30
0.0
 10
20.2209457584
 20
8.0940724681
 30
0.0
 10
20.2122653654
 20
8.0875311168
 30
0.0
 10
20.2035320454
 20
8.0812810534
 30
0.0
 10
20.1947343463
 20
8.0754013707
 30
0.0
 10
20.1858611468
 20
8.0699817426
 30
0.0
 10
20.1769033948
 20
8.065120155
 30
0.0
 10
20.1678545586
 20
8.0609232876
 30
0.0
 10
20.1587131365
 20
8.057501075
 30
0.0
 10
20.1494868648
 20
8.0549591239
 30
0.0
 10
20.1417193235
 20
8.0536497553
 30
0.0
 10
20.1355092507
 20
8.0531247048
 30
0.0
 10
20.1308586291
 20
8.0529939674
 30
0.0
 10
20.1262080069
 20
8.053124701
 30
0.0
 10
20.1199979348
 20
8.053649761
 30
0.0
 10
20.1122303927
 20
8.0549591218
 30
0.0
 10
20.1030041205
 20
8.0575010717
 30
0.0
 10
20.0938627013
 20
8.0609232894
 30
0.0
 10
20.0848138623
 20
8.0651201513
 30
0.0
 10
20.0758561132
 20
8.0699817437
 30
0.0
 10
20.0669829089
 20
8.0754013658
 30
0.0
 10
20.0581852158
 20
8.0812810566
 30
0.0
 10
20.0494518876
 20
8.0875311106
 30
0.0
 10
20.0407715008
 20
8.0940724698
 30
0.0
 10
20.0321334435
 20
8.1008358708
 30
0.0
 10
20.0235248702
 20
8.1077578065
 30
0.0
 10
20.0149383339
 20
8.1147872314
 30
0.0
 10
20.0035015972
 20
8.1242352118
 30
0.0
 10
19.9949315275
 20
8.1313414135
 30
0.0
 10
19.9891944123
 20
8.1360506428
 30
0.0
  0
SPLINE
  5
3E4
100
AcDbEntity
  8
0
100
AcDbSpline
 62
7
  6
CONTINUOUS
 70
0
 71
3
 72
35
 73
31
 74
0
 42
0.0000001
 43
0.0000001
 44
0.0000000001
 40
0.0
 40
0.0
 40
0.0
 40
0.0
 40
0.0690372408
 40
0.1032427633
 40
0.1371650491
 40
0.2038652897
 40
0.2365061306
 40
0.2685689231
 40
0.2999704131
 40
0.3306545252
 40
0.3605766116
 40
0.389707823
 40
0.4180816838
 40
0.4458048715
 40
0.4730390778
 40
0.5000010556
 40
0.5269624494
 40
0.5541963302
 40
0.5819199475
 40
0.6102937713
 40
0.6394241428
 40
0.669345614
 40
0.7000298904
 40
0.731431317
 40
0.7634939824
 40
0.7961349255
 40
0.862834976
 40
0.8967572664
 40
0.9309628124
 40
1.0
 40
1.0
 40
1.0
 40
1.0
 10
19.9891944123
 20
8.593546424
 30
0.0
 10
19.994725837
 20
8.5994303482
 30
0.0
 10
20.0030443381
 20
8.6081866015
 30
0.0
 10
20.0142843088
 20
8.6196375148
 30
0.0
 10
20.0254859385
 20
8.6307402992
 30
0.0
 10
20.0368475781
 20
8.6414228335
 30
0.0
 10
20.0484681662
 20
8.6514876131
 30
0.0
 10
20.0572086584
 20
8.6585618548
 30
0.0
 10
20.0660497885
 20
8.6651349334
 30
0.0
 10
20.0749985113
 20
8.6711239892
 30
0.0
 10
20.0840586207
 20
8.6764397701
 30
0.0
 10
20.0932318848
 20
8.6809835803
 30
0.0
 10
20.1025172524
 20
8.6846509541
 30
0.0
 10
20.1119037172
 20
8.6873418048
 30
0.0
 10
20.12136051
 20
8.6890029993
 30
0.0
 10
20.1308589306
 20
8.689576559
 30
0.0
 10
20.140357457
 20
8.6890040865
 30
0.0
 10
20.1498139969
 20
8.687341501
 30
0.0
 10
20.1592002135
 20
8.6846500054
 30
0.0
 10
20.1684858736
 20
8.6809835389
 30
0.0
 10
20.1776590386
 20
8.6764398684
 30
0.0
 10
20.186718969
 20
8.6711240836
 30
0.0
 10
20.1956675161
 20
8.6651348728
 30
0.0
 10
20.2045086332
 20
8.6585617876
 30
0.0
 10
20.2132491201
 20
8.6514875529
 30
0.0
 10
20.2248695957
 20
8.6414226835
 30
0.0
 10
20.2362313526
 20
8.6307402919
 30
0.0
 10
20.2474329516
 20
8.6196375015
 30
0.0
 10
20.2586729051
 20
8.6081865761
 30
0.0
 10
20.2669914231
 20
8.5994303437
 30
0.0
 10
20.2725228436
 20
8.593546424
 30
0.0
  0
SPLINE
  5
3E5
100
AcDbEntity
  8
0
100
AcDbSpline
 62
7
  6
CONTINUOUS
 70
0
 71
3
 72
39
 73
35
 74
0
 42
0.0000001
 43
0.0000001
 44
0.0000000001
 40
0.0
 40
0.0
 40
0.0
 40
0.0
 40
0.0665555395
 40
0.0998282259
 40
0.1330198417
 40
0.1660597731
 40
0.198877501
 40
0.2313905478
 40
0.263515089
 40
0.2951639443
 40
0.3262541905
 40
0.3567154788
 40
0.3865056168
 40
0.4156255402
 40
0.4441410431
 40
0.4721921115
 40
0.4861123618
 40
0.4999999957
 40
0.5138876291
 40
0.5278078812
 40
0.5558589508
 40
0.5843744515
 40
0.6134943721
 40
0.6432845093
 40
0.6737458034
 40
0.7048360421
 40
0.7364849092
 40
0.7686094408
 40
0.8011224976
 40
0.8339402231
 40
0.8669801555
 40
0.9001717751
 40
0.9334444592
 40
1.0
 40
1.0
 40
1.0
 40
1.0
 10
21.285772566
 20
8.1360506428
 30
0.0
 10
21.2800354509
 20
8.1313414136
 30
0.0
 10
21.2714653794
 20
8.124235214
 30
0.0
 10
21.2600286455
 20
8.1147872306
 30
0.0
 10
21.2514421076
 20
8.1077578079
 30
0.0
 10
21.2428335335
 20
8.1008358738
 30
0.0
 10
21.2341954809
 20
8.0940724681
 30
0.0
 10
21.2255150878
 20
8.0875311171
 30
0.0
 10
21.216781768
 20
8.0812810533
 30
0.0
 10
21.2079840687
 20
8.0754013709
 30
0.0
 10
21.1991108695
 20
8.0699817425
 30
0.0
 10
21.1901531174
 20
8.0651201552
 30
0.0
 10
21.1811042812
 20
8.0609232875
 30
0.0
 10
21.1719628591
 20
8.0575010752
 30
0.0
 10
21.1627365874
 20
8.0549591241
 30
0.0
 10
21.1549690462
 20
8.053649755
 30
0.0
 10
21.1487589735
 20
8.0531247051
 30
0.0
 10
21.1441083518
 20
8.0529939674
 30
0.0
 10
21.1394577297
 20
8.0531247008
 30
0.0
 10
21.1332476575
 20
8.0536497614
 30
0.0
 10
21.1254801154
 20
8.0549591216
 30
0.0
 10
21.1162538432
 20
8.0575010716
 30
0.0
 10
21.107112424
 20
8.0609232894
 30
0.0
 10
21.0980635848
 20
8.0651201511
 30
0.0
 10
21.0891058359
 20
8.0699817437
 30
0.0
 10
21.0802326313
 20
8.0754013655
 30
0.0
 10
21.0714349385
 20
8.0812810567
 30
0.0
 10
21.06270161
 20
8.0875311104
 30
0.0
 10
21.0540212233
 20
8.0940724698
 30
0.0
 10
21.0453831659
 20
8.1008358707
 30
0.0
 10
21.0367745926
 20
8.1077578064
 30
0.0
 10
21.0281880564
 20
8.1147872315
 30
0.0
 10
21.0167513196
 20
8.1242352118
 30
0.0
 10
21.0081812499
 20
8.1313414135
 30
0.0
 10
21.0024441347
 20
8.1360506428
 30
0.0
  0
SPLINE
  5
3E6
100
AcDbEntity
  8
0
100
AcDbSpline
 62
7
  6
CONTINUOUS
 70
0
 71
3
 72
35
 73
31
 74
0
 42
0.0000001
 43
0.0000001
 44
0.0000000001
 40
0.0
 40
0.0
 40
0.0
 40
0.0
 40
0.0690371613
 40
0.1032427003
 40
0.137165005
 40
0.2038652474
 40
0.2365063637
 40
0.2685690067
 40
0.2999704583
 40
0.3306550561
 40
0.3605770717
 40
0.3897078907
 40
0.418081788
 40
0.4458053959
 40
0.4730396489
 40
0.5000013923
 40
0.5269628525
 40
0.554196435
 40
0.5819193672
 40
0.6102931465
 40
0.6394241793
 40
0.6693459682
 40
0.700029786
 40
0.731431237
 40
0.7634940236
 40
0.7961346665
 40
0.8628347899
 40
0.8967571036
 40
0.9309626737
 40
1.0
 40
1.0
 40
1.0
 40
1.0
 10
21.0024441347
 20
8.593546424
 30
0.0
 10
21.0079755566
 20
8.5994303452
 30
0.0
 10
21.0162940963
 20
8.6081865625
 30
0.0
 10
21.0275340603
 20
8.6196374886
 30
0.0
 10
21.0387356574
 20
8.6307403284
 30
0.0
 10
21.0500973931
 20
8.6414228188
 30
0.0
 10
21.0617177973
 20
8.6514878482
 30
0.0
 10
21.0704583181
 20
8.6585620875
 30
0.0
 10
21.0792995016
 20
8.6651351587
 30
0.0
 10
21.0882481371
 20
8.6711244331
 30
0.0
 10
21.0973081509
 20
8.6764403935
 30
0.0
 10
21.1064813878
 20
8.6809842048
 30
0.0
 10
21.1157670543
 20
8.6846508654
 30
0.0
 10
21.125153526
 20
8.6873417866
 30
0.0
 10
21.1346102576
 20
8.689003611
 30
0.0
 10
21.1441087276
 20
8.6895767694
 30
0.0
 10
21.1536071461
 20
8.6890039544
 30
0.0
 10
21.1630637095
 20
8.6873421736
 30
0.0
 10
21.1724498763
 20
8.6846507324
 30
0.0
 10
21.1817351249
 20
8.6809832307
 30
0.0
 10
21.1909083185
 20
8.6764394142
 30
0.0
 10
21.1999683889
 20
8.6711237344
 30
0.0
 10
21.208917085
 20
8.6651347569
 30
0.0
 10
21.2177581879
 20
8.658561696
 30
0.0
 10
21.2264986835
 20
8.6514874944
 30
0.0
 10
21.2381193874
 20
8.641422891
 30
0.0
 10
21.2494810386
 20
8.6307403989
 30
0.0
 10
21.2606826765
 20
8.6196376157
 30
0.0
 10
21.2719226436
 20
8.6081866576
 30
0.0
 10
21.2802411308
 20
8.5994303593
 30
0.0
 10
21.285772566
 20
8.593546424
 30
0.0
  0
SPLINE
  5
3E7
100
AcDbEntity
  8
0
100
AcDbSpline
 62
7
  6
CONTINUOUS
 70
0
 71
3
 72
21
 73
17
 74
0
 42
0.0000001
 43
0.0000001
 44
0.0000000001
 40
0.0
 40
0.0
 40
0.0
 40
0.0
 40
0.0625023633
 40
0.1250071786
 40
0.1875096689
 40
0.2500137629
 40
0.3749983128
 40
0.43750158
 40
0.5000029876
 40
0.5625048871
 40
0.6250049641
 40
0.6875053704
 40
0.7500044832
 40
0.8125036107
 40
0.8750027008
 40
1.0
 40
1.0
 40
1.0
 40
1.0
 10
20.6374834891
 20
8.0530371648
 30
0.0
 10
20.6312910605
 20
8.0530371648
 30
0.0
 10
20.6189031702
 20
8.0533876322
 30
0.0
 10
20.6003822112
 20
8.0549430665
 30
0.0
 10
20.5819688142
 20
8.0574694982
 30
0.0
 10
20.5576138033
 20
8.0620154028
 30
0.0
 10
20.5335818651
 20
8.0681218681
 30
0.0
 10
20.509891197
 20
8.0753506791
 30
0.0
 10
20.4922682112
 20
8.0812348499
 30
0.0
 10
20.4747759585
 20
8.0874926067
 30
0.0
 10
20.4573907429
 20
8.0940407493
 30
0.0
 10
20.4400920976
 20
8.1008126135
 30
0.0
 10
20.4228561312
 20
8.1077417098
 30
0.0
 10
20.4056640059
 20
8.1147782568
 30
0.0
 10
20.3827719383
 20
8.1242346588
 30
0.0
 10
20.3656118085
 20
8.1313485875
 30
0.0
 10
20.3541550578
 20
8.1360506428
 30
0.0
  0
SPLINE
  5
3E8
100
AcDbEntity
  8
0
100
AcDbSpline
 62
7
  6
CONTINUOUS
 70
0
 71
3
 72
22
 73
18
 74
0
 42
0.0000001
 43
0.0000001
 44
0.0000000001
 40
0.0
 40
0.0
 40
0.0
 40
0.0
 40
0.1249558822
 40
0.249914818
 40
0.3124019029
 40
0.3748876956
 40
0.4373744323
 40
0.4998749019
 40
0.562380168
 40
0.6248790063
 40
0.687387731
 40
0.7499085607
 40
0.8124258375
 40
0.8436912987
 40
0.8749643091
 40
0.9375023766
 40
1.0
 40
1.0
 40
1.0
 40
1.0
 10
20.3541550578
 20
8.593546424
 30
0.0
 10
20.365268199
 20
8.5994570965
 30
0.0
 10
20.3875464715
 20
8.6111821638
 30
0.0
 10
20.4156539073
 20
8.6253411952
 30
0.0
 10
20.4383657193
 20
8.6362073868
 30
0.0
 10
20.4555387235
 20
8.644063252
 30
0.0
 10
20.4728725326
 20
8.651562091
 30
0.0
 10
20.4903845854
 20
8.6586414512
 30
0.0
 10
20.5080926956
 20
8.6652209663
 30
0.0
 10
20.5260115013
 20
8.6712086762
 30
0.0
 10
20.5441477045
 20
8.6765114286
 30
0.0
 10
20.5624964079
 20
8.6810360779
 30
0.0
 10
20.5779515635
 20
8.6840803021
 30
0.0
 10
20.5903982913
 20
8.6860307724
 30
0.0
 10
20.6028954894
 20
8.6876428522
 30
0.0
 10
20.6185899011
 20
8.6890110253
 30
0.0
 10
20.6311878995
 20
8.6893862003
 30
0.0
 10
20.6374834891
 20
8.6893862003
 30
0.0
  0
SPLINE
  5
3E9
100
AcDbEntity
  8
0
100
AcDbSpline
 62
7
  6
CONTINUOUS
 70
0
 71
3
 72
15
 73
11
 74
0
 42
0.0000001
 43
0.0000001
 44
0.0000000001
 40
0.0
 40
0.0
 40
0.0
 40
0.0
 40
0.243158903
 40
0.3066564479
 40
0.3708043736
 40
0.4999999431
 40
0.6291955212
 40
0.6933434572
 40
0.756841016
 40
1.0
 40
1.0
 40
1.0
 40
1.0
 10
10.7244481076
 20
10.3764615666
 30
0.0
 10
10.714196435
 20
10.3764615508
 30
0.0
 10
10.7011356941
 20
10.3784869327
 30
0.0
 10
10.6864488794
 20
10.3838540785
 30
0.0
 10
10.6765966406
 20
10.3883751262
 30
0.0
 10
10.6649500038
 20
10.3955192335
 30
0.0
 10
10.6546557487
 20
10.4045031492
 30
0.0
 10
10.6474005244
 20
10.4125572309
 30
0.0
 10
10.6378949785
 20
10.4249730885
 30
0.0
 10
10.632064186
 20
10.436834247
 30
0.0
 10
10.629004804
 20
10.4466187777
 30
0.0
  0
SPLINE
  5
3EA
100
AcDbEntity
  8
0
100
AcDbSpline
 62
7
  6
CONTINUOUS
 70
0
 71
3
 72
15
 73
11
 74
0
 42
0.0000001
 43
0.0000001
 44
0.0000000001
 40
0.0
 40
0.0
 40
0.0
 40
0.0
 40
0.2431587986
 40
0.3066563358
 40
0.3708042602
 40
0.4999998416
 40
0.629195447
 40
0.6933434002
 40
0.7568409761
 40
1.0
 40
1.0
 40
1.0
 40
1.0
 10
10.7244481076
 20
9.4364621096
 30
0.0
 10
10.7141964207
 20
9.4364621421
 30
0.0
 10
10.7011356567
 20
9.4344367715
 30
0.0
 10
10.686448817
 20
9.4290696244
 30
0.0
 10
10.6765965591
 20
9.4245485706
 30
0.0
 10
10.6649499006
 20
9.4174044471
 30
0.0
 10
10.654655631
 20
9.4084205059
 30
0.0
 10
10.6474004
 20
9.4003664001
 30
0.0
 10
10.6378948501
 20
9.3879505056
 30
0.0
 10
10.6320640657
 20
9.3760893122
 30
0.0
 10
10.629004697
 20
9.366304756
 30
0.0
  0
SPLINE
  5
3EB
100
AcDbEntity
  8
0
100
AcDbSpline
 62
9
  6
CONTINUOUS
 70
0
 71
3
 72
34
 73
30
 74
0
 42
0.0000001
 43
0.0000001
 44
0.0000000001
 40
0.0
 40
0.0
 40
0.0
 40
0.0
 40
0.0000735396
 40
0.0002900942
 40
0.0006493557
 40
0.0011510162
 40
0.0017947673
 40
0.0025803012
 40
0.0045754845
 40
0.0071341021
 40
0.0102536902
 40
0.0139317859
 40
0.0181659265
 40
0.0282924948
 40
0.0406137064
 40
0.0551098814
 40
0.0717613454
 40
0.0905424302
 40
0.1114092633
 40
0.1343145761
 40
0.1592111602
 40
0.2147895961
 40
0.2777683313
 40
0.3477624217
 40
0.4243586018
 40
0.5071406239
 40
0.5956954125
 40
0.7885525656
 40
1.0
 40
1.0
 40
1.0
 40
1.0
 10
10.7244477485
 20
9.4364621096
 30
0.0
 10
10.7244449321
 20
9.4364651318
 30
0.0
 10
10.7244368591
 20
9.4364794892
 30
0.0
 10
10.7244152468
 20
9.4365087711
 30
0.0
 10
10.7243818015
 20
9.4365593
 30
0.0
 10
10.7243340146
 20
9.4366289876
 30
0.0
 10
10.7242731711
 20
9.4367188009
 30
0.0
 10
10.7241650917
 20
9.4368779333
 30
0.0
 10
10.7239968178
 20
9.4371262249
 30
0.0
 10
10.7237551416
 20
9.4374831547
 30
0.0
 10
10.723460744
 20
9.4379185596
 30
0.0
 10
10.7231139207
 20
9.438432135
 30
0.0
 10
10.7225473057
 20
9.4392722489
 30
0.0
 10
10.7217103495
 20
9.440515668
 30
0.0
 10
10.7205534906
 20
9.4422386556
 30
0.0
 10
10.7191946866
 20
9.4442675431
 30
0.0
 10
10.7176366712
 20
9.446599761
 30
0.0
 10
10.7158830886
 20
9.4492317122
 30
0.0
 10
10.7139396365
 20
9.4521593002
 30
0.0
 10
10.7118125647
 20
9.4553773311
 30
0.0
 10
10.708621109
 20
9.4602292016
 30
0.0
 10
10.704218189
 20
9.4669786457
 30
0.0
 10
10.698480313
 20
9.4758818101
 30
0.0
 10
10.6921638272
 20
9.4858164782
 30
0.0
 10
10.6853305761
 20
9.4967404882
 30
0.0
 10
10.6780429206
 20
9.50860959
 30
0.0
 10
10.6674987516
 20
9.5261420628
 30
0.0
 10
10.6536022853
 20
9.5500911308
 30
0.0
 10
10.6427056777
 20
9.5700223895
 30
0.0
 10
10.6371603868
 20
9.5805266225
 30
0.0
  0
SPLINE
  5
3EC
100
AcDbEntity
  8
0
100
AcDbSpline
 62
9
  6
CONTINUOUS
 70
0
 71
3
 72
23
 73
19
 74
0
 42
0.0000001
 43
0.0000001
 44
0.0000000001
 40
0.0
 40
0.0
 40
0.0
 40
0.0
 40
0.0546390924
 40
0.1124564108
 40
0.1729513899
 40
0.2356602834
 40
0.365930838
 40
0.3992413631
 40
0.4327282495
 40
0.4999627237
 40
0.5671978195
 40
0.6006858218
 40
0.6339982659
 40
0.7642832573
 40
0.8270027869
 40
0.8875104033
 40
0.9453429098
 40
1.0
 40
1.0
 40
1.0
 40
1.0
 10
10.6371603868
 20
9.5805266225
 30
0.0
 10
10.6313430888
 20
9.591546108
 30
0.0
 10
10.6197191671
 20
9.6144131543
 30
0.0
 10
10.6031326317
 20
9.6502085647
 30
0.0
 10
10.5873960007
 20
9.6883946817
 30
0.0
 10
10.5681660821
 20
9.7429220258
 30
0.0
 10
10.5554934629
 20
9.793170811
 30
0.0
 10
10.548846979
 20
9.8376276742
 30
0.0
 10
10.5455630871
 20
9.8680249535
 30
0.0
 10
10.5438420384
 20
9.9063413253
 30
0.0
 10
10.5455453364
 20
9.9446587807
 30
0.0
 10
10.5488162006
 20
9.9750583099
 30
0.0
 10
10.5554443141
 20
10.0195219464
 30
0.0
 10
10.5681001965
 20
10.0697816316
 30
0.0
 10
10.5873169518
 20
10.1243227663
 30
0.0
 10
10.6030474875
 20
10.1625209214
 30
0.0
 10
10.6196310207
 20
10.1983292603
 30
0.0
 10
10.6312543812
 20
10.2212050957
 30
0.0
 10
10.6370718739
 20
10.2322291196
 30
0.0
  0
LINE
  5
3ED
100
AcDbEntity
  8
0
100
AcDbLine
 62
9
  6
CONTINUOUS
 10
10.6654858374
 20
10.2832276068
 11
10.6663708897
 21
10.2847366691
  0
SPLINE
  5
3EE
100
AcDbEntity
  8
0
100
AcDbSpline
 62
9
  6
CONTINUOUS
 70
0
 71
3
 72
31
 73
27
 74
0
 42
0.0000001
 43
0.0000001
 44
0.0000000001
 40
0.0
 40
0.0
 40
0.0
 40
0.0
 40
0.2190717963
 40
0.4157329601
 40
0.5049145735
 40
0.5875961001
 40
0.6634893975
 40
0.7323233345
 40
0.7938272849
 40
0.8477299962
 40
0.8937598701
 40
0.9137461237
 40
0.9316898056
 40
0.9475767022
 40
0.961392595
 40
0.9731232602
 40
0.9827544691
 40
0.9867783298
 40
0.9902719885
 40
0.9932336652
 40
0.9956615796
 40
0.9975539513
 40
0.9989089993
 40
0.9993844703
 40
0.9997249426
 40
1.0
 40
1.0
 40
1.0
 40
1.0
 10
10.6692468679
 20
10.2896121333
 30
0.0
 10
10.6730778182
 20
10.2960782918
 30
0.0
 10
10.6804394286
 20
10.3082951
 30
0.0
 10
10.6895798907
 20
10.3230101149
 30
0.0
 10
10.6963455679
 20
10.3336907612
 30
0.0
 10
10.7009299858
 20
10.3408484216
 30
0.0
 10
10.7051670309
 20
10.3473994795
 30
0.0
 10
10.7090341642
 20
10.3533244375
 30
0.0
 10
10.7125088154
 20
10.3586045841
 30
0.0
 10
10.7155685985
 20
10.3632211467
 30
0.0
 10
10.7178504278
 20
10.3666444849
 30
0.0
 10
10.7194513004
 20
10.3690391069
 30
0.0
 10
10.7204788218
 20
10.3705730903
 30
0.0
 10
10.7213897409
 20
10.371930385
 30
0.0
 10
10.7221829257
 20
10.3731099869
 30
0.0
 10
10.7228572381
 20
10.3741108959
 30
0.0
 10
10.7233444881
 20
10.3748327626
 30
0.0
 10
10.7236739774
 20
10.3753201738
 30
0.0
 10
10.7238754648
 20
10.3756179211
 30
0.0
 10
10.724046351
 20
10.3758702687
 30
0.0
 10
10.7241866131
 20
10.3760769968
 30
0.0
 10
10.7242957898
 20
10.3762382336
 30
0.0
 10
10.7243679167
 20
10.3763436034
 30
0.0
 10
10.7244093412
 20
10.3764055575
 30
0.0
 10
10.7244312295
 20
10.3764358438
 30
0.0
 10
10.7244415211
 20
10.3764545641
 30
0.0
 10
10.7244478813
 20
10.3764615352
 30
0.0
  0
SPLINE
  5
3EF
100
AcDbEntity
  8
0
100
AcDbSpline
 62
9
  6
CONTINUOUS
 70
0
 71
3
 72
92
 73
88
 74
0
 42
0.0000001
 43
0.0000001
 44
0.0000000001
 40
0.0
 40
0.0
 40
0.0
 40
0.0
 40
0.0000285244
 40
0.0000761863
 40
0.0001442899
 40
0.0002333216
 40
0.0004751715
 40
0.0008032356
 40
0.0012186249
 40
0.0017223528
 40
0.0023154003
 40
0.00299874
 40
0.0037733461
 40
0.0046401992
 40
0.0066525395
 40
0.0090301544
 40
0.0117634285
 40
0.0148427149
 40
0.0182583532
 40
0.022001052
 40
0.0260632599
 40
0.030437938
 40
0.0351180592
 40
0.045366181
 40
0.0567409915
 40
0.0691651436
 40
0.0825647269
 40
0.096878514
 40
0.1120482511
 40
0.1280162221
 40
0.1447252036
 40
0.1621188448
 40
0.1801472386
 40
0.1987663908
 40
0.2376074411
 40
0.2783301688
 40
0.3206482477
 40
0.3423179469
 40
0.3642826667
 40
0.3865027181
 40
0.4089368435
 40
0.4315465561
 40
0.4542908455
 40
0.4771233943
 40
0.499999337
 40
0.5228754005
 40
0.5457070478
 40
0.5684479187
 40
0.5910539149
 40
0.6356991317
 40
0.6793273387
 40
0.7006674775
 40
0.7216396137
 40
0.7623533708
 40
0.801201935
 40
0.8378558067
 40
0.8552476045
 40
0.8719522197
 40
0.8879201721
 40
0.9030951537
 40
0.917416429
 40
0.9308222119
 40
0.9432461438
 40
0.9546196686
 40
0.964873617
 40
0.9695586757
 40
0.9739372684
 40
0.9780004972
 40
0.9817395341
 40
0.9851473648
 40
0.9882188365
 40
0.9909488751
 40
0.9933324034
 40
0.9953643464
 40
0.9962467517
 40
0.997038826
 40
0.9977395088
 40
0.9983477387
 40
0.998862455
 40
0.9992826014
 40
0.9994568843
 40
0.9996071358
 40
0.9997332322
 40
0.9998350578
 40
0.9999125154
 40
0.9999655611
 40
1.0
 40
1.0
 40
1.0
 40
1.0
 10
10.6290049338
 20
10.4466188181
 30
0.0
 10
10.6290081396
 20
10.4466085655
 30
0.0
 10
10.6290055507
 20
10.4465788311
 30
0.0
 10
10.6289927172
 20
10.4465265523
 30
0.0
 10
10.6289677625
 20
10.4464532313
 30
0.0
 10
10.6289130301
 20
10.4463134321
 30
0.0
 10
10.6288125128
 20
10.446086344
 30
0.0
 10
10.6286552546
 20
10.4457503194
 30
0.0
 10
10.6284513522
 20
10.445327171
 30
0.0
 10
10.6282016986
 20
10.4448153481
 30
0.0
 10
10.6279069128
 20
10.4442132532
 30
0.0
 10
10.6275677829
 20
10.4435192923
 30
0.0
 10
10.6271850733
 20
10.4427318603
 30
0.0
 10
10.6265874475
 20
10.441492411
 30
0.0
 10
10.6257385267
 20
10.439703959
 30
0.0
 10
10.6245995868
 20
10.4372751674
 30
0.0
 10
10.623297832
 20
10.4344789478
 30
0.0
 10
10.6218359981
 20
10.4313260592
 30
0.0
 10
10.6202167053
 20
10.4278271609
 30
0.0
 10
10.6184422015
 20
10.4239922114
 30
0.0
 10
10.6165194879
 20
10.4198278817
 30
0.0
 10
10.6144552831
 20
10.4153400432
 30
0.0
 10
10.6114302402
 20
10.408729967
 30
0.0
 10
10.6073421334
 20
10.3997072616
 30
0.0
 10
10.6021130747
 20
10.3879999523
 30
0.0
 10
10.5964638939
 20
10.3751806568
 30
0.0
 10
10.5904393675
 20
10.3613174449
 30
0.0
 10
10.5841017984
 20
10.3464632091
 30
0.0
 10
10.5775104909
 20
10.3306661607
 30
0.0
 10
10.5707211917
 20
10.3139750618
 30
0.0
 10
10.5637851157
 20
10.2964404109
 30
0.0
 10
10.5567523983
 20
10.278110608
 30
0.0
 10
10.5496786556
 20
10.2590272839
 30
0.0
 10
10.540137403
 20
10.2322469726
 30
0.0
 10
10.528463544
 20
10.1971564542
 30
0.0
 10
10.5154396032
 20
10.153132852
 30
0.0
 10
10.5057547752
 20
10.1148933298
 30
0.0
 10
10.498884013
 20
10.0832589224
 30
0.0
 10
10.4942192878
 20
10.0588983159
 30
0.0
 10
10.4901406348
 20
10.0341407802
 30
0.0
 10
10.4867025972
 20
10.0090406135
 30
0.0
 10
10.4839636132
 20
9.9836556214
 30
0.0
 10
10.4819707784
 20
9.9580504642
 30
0.0
 10
10.4807521212
 20
9.9322962158
 30
0.0
 10
10.4803435565
 20
9.906466429
 30
0.0
 10
10.4807641359
 20
9.8806372704
 30
0.0
 10
10.4819819839
 20
9.8548846801
 30
0.0
 10
10.4839741897
 20
9.8292823491
 30
0.0
 10
10.4876063125
 20
9.7955828786
 30
0.0
 10
10.4938347689
 20
9.7542705679
 30
0.0
 10
10.5021125185
 20
9.7138114288
 30
0.0
 10
10.5097058472
 20
9.6823477749
 30
0.0
 10
10.517704159
 20
9.6521186079
 30
0.0
 10
10.5284749825
 20
9.6158127853
 30
0.0
 10
10.5422648488
 20
9.5742692839
 30
0.0
 10
10.5542107285
 20
9.5413840052
 30
0.0
 10
10.5637631206
 20
9.5165105786
 30
0.0
 10
10.5707100081
 20
9.4989827019
 30
0.0
 10
10.5775055619
 20
9.4822938381
 30
0.0
 10
10.5840952904
 20
9.4664909674
 30
0.0
 10
10.5904273202
 20
9.4516266281
 30
0.0
 10
10.5964471718
 20
9.4377558368
 30
0.0
 10
10.6021026066
 20
9.4249373431
 30
0.0
 10
10.6073412841
 20
9.4132325614
 30
0.0
 10
10.6114296364
 20
9.404206067
 30
0.0
 10
10.6144522963
 20
9.3975888233
 30
0.0
 10
10.6165152312
 20
9.3930963083
 30
0.0
 10
10.618437391
 20
9.3889311929
 30
0.0
 10
10.6202133437
 20
9.3851012487
 30
0.0
 10
10.6218377632
 20
9.3816127358
 30
0.0
 10
10.6233053594
 20
9.3784703617
 30
0.0
 10
10.6246112554
 20
9.3756782122
 30
0.0
 10
10.6257506243
 20
9.3732403607
 30
0.0
 10
10.6265925747
 20
9.3714315582
 30
0.0
 10
10.6271782194
 20
9.3701645389
 30
0.0
 10
10.6275525362
 20
9.3693521549
 30
0.0
 10
10.6278831873
 20
9.3686333294
 30
0.0
 10
10.6281702867
 20
9.368009469
 30
0.0
 10
10.628414028
 20
9.3674818778
 30
0.0
 10
10.6285904099
 20
9.3671033841
 30
0.0
 10
10.628710494
 20
9.3668497215
 30
0.0
 10
10.6287836669
 20
9.3666971304
 30
0.0
 10
10.6288471512
 20
9.366568099
 30
0.0
 10
10.6288969039
 20
9.3664685894
 30
0.0
 10
10.6289433777
 20
9.3663836133
 30
0.0
 10
10.6289627957
 20
9.3663469248
 30
0.0
 10
10.6290010633
 20
9.3662923035
 30
0.0
 10
10.6290049338
 20
9.366304682
 30
0.0
  0
SPLINE
  5
3F0
100
AcDbEntity
  8
0
100
AcDbSpline
 62
7
  6
CONTINUOUS
 70
0
 71
3
 72
15
 73
11
 74
0
 42
0.0000001
 43
0.0000001
 44
0.0000000001
 40
0.0
 40
0.0
 40
0.0
 40
0.0
 40
0.2431589184
 40
0.3066564646
 40
0.3708043907
 40
0.4999999588
 40
0.6291955332
 40
0.6933434668
 40
0.7568410231
 40
1.0
 40
1.0
 40
1.0
 40
1.0
 10
9.4145188707
 20
12.3759356746
 30
0.0
 10
9.4247705414
 20
12.3759356884
 30
0.0
 10
9.4378312794
 20
12.373910305
 30
0.0
 10
9.4525180909
 20
12.3685431592
 30
0.0
 10
9.4623703272
 20
12.3640221123
 30
0.0
 10
9.4740169611
 20
12.3568780069
 30
0.0
 10
9.4843112142
 20
12.3478940945
 30
0.0
 10
9.4915664374
 20
12.3398400159
 30
0.0
 10
9.5010719826
 20
12.3274241631
 30
0.0
 10
9.506902776
 20
12.3155630092
 30
0.0
 10
9.5099621596
 20
12.3057784819
 30
0.0
  0
SPLINE
  5
3F1
100
AcDbEntity
  8
0
100
AcDbSpline
 62
7
  6
CONTINUOUS
 70
0
 71
3
 72
15
 73
11
 74
0
 42
0.0000001
 43
0.0000001
 44
0.0000000001
 40
0.0
 40
0.0
 40
0.0
 40
0.0
 40
0.2431589328
 40
0.3066564803
 40
0.3708044069
 40
0.4999999741
 40
0.6291955453
 40
0.6933434767
 40
0.7568410307
 40
1.0
 40
1.0
 40
1.0
 40
1.0
 10
9.4145188707
 20
13.3159353722
 30
0.0
 10
9.42477054
 20
13.3159353602
 30
0.0
 10
9.4378312757
 20
13.3179607447
 30
0.0
 10
9.4525180847
 20
13.3233278905
 30
0.0
 10
9.462370319
 20
13.3278489369
 30
0.0
 10
9.4740169504
 20
13.3349930407
 30
0.0
 10
9.4843112018
 20
13.3439769506
 30
0.0
 10
9.4915664242
 20
13.3520310267
 30
0.0
 10
9.5010719686
 20
13.3644468755
 30
0.0
 10
9.5069027626
 20
13.3763080256
 30
0.0
 10
9.5099621476
 20
13.3860925501
 30
0.0
  0
SPLINE
  5
3F2
100
AcDbEntity
  8
0
100
AcDbSpline
 62
9
  6
CONTINUOUS
 70
0
 71
3
 72
97
 73
93
 74
0
 42
0.0000001
 43
0.0000001
 44
0.0000000001
 40
0.0
 40
0.0
 40
0.0
 40
0.0
 40
0.0000274573
 40
0.0000744345
 40
0.0001421319
 40
0.0002309777
 40
0.0003412063
 40
0.0004729829
 40
0.0008016999
 40
0.0012180639
 40
0.0017229137
 40
0.0023170588
 40
0.0030012993
 40
0.0037764357
 40
0.0046432723
 40
0.0066542065
 40
0.0090300353
 40
0.0117617497
 40
0.0148402769
 40
0.0182565317
 40
0.0220014787
 40
0.0260667994
 40
0.0304446795
 40
0.035127323
 40
0.0453757446
 40
0.0567468666
 40
0.0691692738
 40
0.082571503
 40
0.09688882
 40
0.112060938
 40
0.1280288237
 40
0.1447368698
 40
0.1621308245
 40
0.180159207
 40
0.1987777805
 40
0.2376184526
 40
0.2783399663
 40
0.3206558659
 40
0.3423238743
 40
0.3642862652
 40
0.3865051649
 40
0.4089385397
 40
0.4315469058
 40
0.4542899116
 40
0.4771214289
 40
0.4999962338
 40
0.522870893
 40
0.5457011424
 40
0.56844081
 40
0.5910456887
 40
0.6134763822
 40
0.6356916886
 40
0.6793151722
 40
0.7006517956
 40
0.7216211961
 40
0.7421933394
 40
0.7623364572
 40
0.8011850447
 40
0.8378383322
 40
0.8552306066
 40
0.8719372539
 40
0.8879075834
 40
0.9030837165
 40
0.9174062775
 40
0.9308133882
 40
0.9432382085
 40
0.9546129692
 40
0.9648686079
 40
0.9695545645
 40
0.9739340551
 40
0.9779981552
 40
0.9817382427
 40
0.9851477481
 40
0.9882209385
 40
0.9909520782
 40
0.9933354281
 40
0.9953652464
 40
0.9962457464
 40
0.9970356064
 40
0.9977340432
 40
0.9983402738
 40
0.9988535157
 40
0.9992729884
 40
0.9995979175
 40
0.999724691
 40
0.9998275485
 40
0.9999064072
 40
0.9999368171
 40
0.9999612088
 40
0.9999795892
 40
0.9999919934
 40
1.0
 40
1.0
 40
1.0
 40
1.0
 10
9.5099620445
 20
12.305778446
 30
0.0
 10
9.5099589586
 20
12.3057883151
 30
0.0
 10
9.5099620513
 20
12.3058173881
 30
0.0
 10
9.5099750104
 20
12.305868715
 30
0.0
 10
9.5100001678
 20
12.3059414959
 30
0.0
 10
9.5100368607
 20
12.3060348986
 30
0.0
 10
9.5100855486
 20
12.306149652
 30
0.0
 10
9.5101728935
 20
12.3063460189
 30
0.0
 10
9.5103125359
 20
12.306645298
 30
0.0
 10
9.5105159328
 20
12.3070697985
 30
0.0
 10
9.5107651483
 20
12.30758319
 30
0.0
 10
9.5110594682
 20
12.3081868182
 30
0.0
 10
9.5113982354
 20
12.3088820204
 30
0.0
 10
9.5117807312
 20
12.3096701513
 30
0.0
 10
9.512378335
 20
12.3109092429
 30
0.0
 10
9.5132284169
 20
12.3126958104
 30
0.0
 10
9.5143688122
 20
12.3151219546
 30
0.0
 10
9.5156720627
 20
12.3179157848
 30
0.0
 10
9.5171348682
 20
12.3210675316
 30
0.0
 10
9.5187540515
 20
12.3245673707
 30
0.0
 10
9.5205269503
 20
12.3284055603
 30
0.0
 10
9.5224481698
 20
12.3325741498
 30
0.0
 10
9.5245110609
 20
12.3370662752
 30
0.0
 10
9.5275344689
 20
12.3436796228
 30
0.0
 10
9.5316245476
 20
12.3527011038
 30
0.0
 10
9.5368604583
 20
12.3644032854
 30
0.0
 10
9.5425131153
 20
12.377219976
 30
0.0
 10
9.5485346456
 20
12.3910863821
 30
0.0
 10
9.5548695014
 20
12.4059453395
 30
0.0
 10
9.5614599933
 20
12.4217451663
 30
0.0
 10
9.5682505475
 20
12.438436375
 30
0.0
 10
9.5751877681
 20
12.4559703714
 30
0.0
 10
9.5822193978
 20
12.4743004193
 30
0.0
 10
9.5892933894
 20
12.493383615
 30
0.0
 10
9.5988353957
 20
12.5201633948
 30
0.0
 10
9.6105060846
 20
12.5552542815
 30
0.0
 10
9.6235276735
 20
12.5992772433
 30
0.0
 10
9.633212267
 20
12.6375149674
 30
0.0
 10
9.6400844796
 20
12.6691467871
 30
0.0
 10
9.6447504106
 20
12.6935052899
 30
0.0
 10
9.6488277381
 20
12.7182615456
 30
0.0
 10
9.6522643288
 20
12.7433607568
 30
0.0
 10
9.6550039537
 20
12.7687444884
 30
0.0
 10
9.6569966454
 20
12.7943483865
 30
0.0
 10
9.6582148657
 20
12.8201014363
 30
0.0
 10
9.6586249922
 20
12.8459299484
 30
0.0
 10
9.6582044675
 20
12.8717577352
 30
0.0
 10
9.6569855634
 20
12.8975088998
 30
0.0
 10
9.6549931234
 20
12.9231097614
 30
0.0
 10
9.6522587494
 20
12.9484903417
 30
0.0
 10
9.6488337496
 20
12.9735875573
 30
0.0
 10
9.6434422084
 20
13.0063926428
 30
0.0
 10
9.6368568213
 20
13.0385716957
 30
0.0
 10
9.6292599451
 20
13.0700299639
 30
0.0
 10
9.6231998812
 20
13.0929230428
 30
0.0
 10
9.6168106718
 20
13.1152587623
 30
0.0
 10
9.6080576151
 20
13.1439165214
 30
0.0
 10
9.5967145686
 20
13.1781097885
 30
0.0
 10
9.5847630207
 20
13.2109928645
 30
0.0
 10
9.5752091411
 20
13.2358666192
 30
0.0
 10
9.5682629995
 20
13.2533968346
 30
0.0
 10
9.5614690693
 20
13.2700886993
 30
0.0
 10
9.5548788303
 20
13.2858933973
 30
0.0
 10
9.5485459558
 20
13.3007589857
 30
0.0
 10
9.5425246109
 20
13.3146306321
 30
0.0
 10
9.5368671323
 20
13.3274497025
 30
0.0
 10
9.5316275749
 20
13.3391557158
 30
0.0
 10
9.5275388213
 20
13.3481836507
 30
0.0
 10
9.5245158822
 20
13.3548022406
 30
0.0
 10
9.5224528961
 20
13.3592958579
 30
0.0
 10
9.5205308628
 20
13.3634622203
 30
0.0
 10
9.5187552288
 20
13.3672938225
 30
0.0
 10
9.51713132
 20
13.3707844351
 30
0.0
 10
9.5156640718
 20
13.3739288544
 30
0.0
 10
9.5143582999
 20
13.3767221731
 30
0.0
 10
9.5132186691
 20
13.3791594138
 30
0.0
 10
9.5123759871
 20
13.3809661338
 30
0.0
 10
9.5117888619
 20
13.3822298798
 30
0.0
 10
9.5114134262
 20
13.383039111
 30
0.0
 10
9.5110815964
 20
13.3837547099
 30
0.0
 10
9.510793364
 20
13.3843756943
 30
0.0
 10
9.5105487393
 20
13.3849011049
 30
0.0
 10
9.5103477412
 20
13.3853299484
 30
0.0
 10
9.5102070553
 20
13.3856263734
 30
0.0
 10
9.5101159854
 20
13.3858142662
 30
0.0
 10
9.5100643148
 20
13.3859184302
 30
0.0
 10
9.5100281444
 20
13.385989413
 30
0.0
 10
9.510003955
 20
13.3860339468
 30
0.0
 10
9.5099910784
 20
13.386057529
 30
0.0
 10
9.5099786395
 20
13.3860763347
 30
0.0
 10
9.5099739259
 20
13.3860861222
 30
0.0
 10
9.5099629443
 20
13.38609546
 30
0.0
 10
9.5099620445
 20
13.3860925822
 30
0.0
  0
SPLINE
  5
3F3
100
AcDbEntity
  8
0
100
AcDbSpline
 62
9
  6
CONTINUOUS
 70
0
 71
3
 72
31
 73
27
 74
0
 42
0.0000001
 43
0.0000001
 44
0.0000000001
 40
0.0
 40
0.0
 40
0.0
 40
0.0
 40
0.0002755597
 40
0.0006170806
 40
0.0010941229
 40
0.0024538544
 40
0.0043529192
 40
0.0067894827
 40
0.0097617106
 40
0.0132677689
 40
0.0173058237
 40
0.0269705899
 40
0.0387413458
 40
0.0526034336
 40
0.0685422002
 40
0.0865429982
 40
0.1065911855
 40
0.1527502913
 40
0.2067743603
 40
0.2683843188
 40
0.3373016773
 40
0.4132486163
 40
0.495944771
 40
0.5850889869
 40
0.7814878607
 40
1.0
 40
1.0
 40
1.0
 40
1.0
 10
9.4145193001
 20
13.3159353722
 30
0.0
 10
9.4145258431
 20
13.3159279989
 30
0.0
 10
9.4145367449
 20
13.3159085617
 30
0.0
 10
9.4145595532
 20
13.3158768179
 30
0.0
 10
9.4146029285
 20
13.3158120324
 30
0.0
 10
9.4146783585
 20
13.3157017416
 30
0.0
 10
9.4147926059
 20
13.315533026
 30
0.0
 10
9.4149393619
 20
13.3153166802
 30
0.0
 10
9.4151181689
 20
13.3150526007
 30
0.0
 10
9.4153289883
 20
13.3147410109
 30
0.0
 10
9.4156737237
 20
13.3142309575
 30
0.0
 10
9.4161834861
 20
13.3134755864
 30
0.0
 10
9.416888898
 20
13.3124282657
 30
0.0
 10
9.4177185805
 20
13.3111940391
 30
0.0
 10
9.4186713125
 20
13.309773982
 30
0.0
 10
9.4197458746
 20
13.3081691709
 30
0.0
 10
9.4214196333
 20
13.3056645058
 30
0.0
 10
9.4238042263
 20
13.302084912
 30
0.0
 10
9.4269996088
 20
13.2972589339
 30
0.0
 10
9.4306254577
 20
13.2917415797
 30
0.0
 10
9.4346577423
 20
13.285552926
 30
0.0
 10
9.4390722946
 20
13.2787131028
 30
0.0
 10
9.4438446952
 20
13.2712431256
 30
0.0
 10
9.4508779025
 20
13.2601043723
 30
0.0
 10
9.4603634992
 20
13.2447683474
 30
0.0
 10
9.4679924229
 20
13.2320351973
 30
0.0
 10
9.4719569176
 20
13.2252981048
 30
0.0
  0
LINE
  5
3F4
100
AcDbEntity
  8
0
100
AcDbLine
 62
9
  6
CONTINUOUS
 10
9.4719569176
 20
13.2252981048
 11
9.472854691
 21
13.2237703528
  0
SPLINE
  5
3F5
100
AcDbEntity
  8
0
100
AcDbSpline
 62
9
  6
CONTINUOUS
 70
0
 71
3
 72
26
 73
22
 74
0
 42
0.0000001
 43
0.0000001
 44
0.0000000001
 40
0.0
 40
0.0
 40
0.0
 40
0.0
 40
0.054505607
 40
0.1121898193
 40
0.1725554355
 40
0.235140285
 40
0.299531968
 40
0.3652748951
 40
0.4319730549
 40
0.4655378553
 40
0.4991612224
 40
0.5327903041
 40
0.5663735322
 40
0.5998533463
 40
0.6331665444
 40
0.6662487831
 40
0.6990535594
 40
0.7636267949
 40
0.8264448152
 40
0.8870922688
 40
1.0
 40
1.0
 40
1.0
 40
1.0
 10
9.5013827807
 20
13.1726731301
 30
0.0
 10
9.5071762285
 20
13.1617186436
 30
0.0
 10
9.5187572168
 20
13.1389864569
 30
0.0
 10
9.5352981451
 20
13.103401967
 30
0.0
 10
9.5510135882
 20
13.0654433748
 30
0.0
 10
9.5652731294
 20
13.025284683
 30
0.0
 10
9.5774333996
 20
12.9831584225
 30
0.0
 10
9.586849838
 20
12.9393679041
 30
0.0
 10
9.5918369149
 20
12.9019096604
 30
0.0
 10
9.5939740669
 20
12.8715376625
 30
0.0
 10
9.5946033276
 20
12.8486172737
 30
0.0
 10
9.5942105503
 20
12.8256877295
 30
0.0
 10
9.5928288902
 20
12.8028296879
 30
0.0
 10
9.5905000958
 20
12.7801212825
 30
0.0
 10
9.5872647944
 20
12.7576395508
 30
0.0
 10
9.5831578136
 20
12.7354569149
 30
0.0
 10
9.5766575747
 20
12.7065112533
 30
0.0
 10
9.5668154102
 20
12.6714146465
 30
0.0
 10
9.552768181
 20
12.6310127788
 30
0.0
 10
9.5324796785
 20
12.5812301271
 30
0.0
 10
9.5152723487
 20
12.5456685873
 30
0.0
 10
9.5033507146
 20
12.5229346679
 30
0.0
  0
SPLINE
  5
3F6
100
AcDbEntity
  8
0
100
AcDbSpline
 62
9
  6
CONTINUOUS
 70
0
 71
3
 72
32
 73
28
 74
0
 42
0.0000001
 43
0.0000001
 44
0.0000000001
 40
0.0
 40
0.0
 40
0.0
 40
0.0
 40
0.2114520973
 40
0.4043115282
 40
0.4928661652
 40
0.5756472776
 40
0.6522420923
 40
0.7222346679
 40
0.7852120495
 40
0.8407895226
 40
0.8885909908
 40
0.9094578898
 40
0.9282392463
 40
0.9448912004
 40
0.9593879923
 40
0.971709804
 40
0.9818368113
 40
0.986071066
 40
0.9897491815
 40
0.9928686772
 40
0.9954270719
 40
0.997421884
 40
0.9988506313
 40
0.9993519548
 40
0.999710831
 40
0.9999269495
 40
1.0
 40
1.0
 40
1.0
 40
1.0
 10
9.501789052
 20
12.5199667281
 30
0.0
 10
9.4962445529
 20
12.5094647931
 30
0.0
 10
9.4853496483
 20
12.489537967
 30
0.0
 10
9.4714556278
 20
12.4655942204
 30
0.0
 10
9.4609135674
 20
12.448065754
 30
0.0
 10
9.4536275088
 20
12.4361994972
 30
0.0
 10
9.4467958311
 20
12.4252781623
 30
0.0
 10
9.4404808455
 20
12.4153459513
 30
0.0
 10
9.4347443276
 20
12.4064449922
 30
0.0
 10
9.4296396054
 20
12.398619761
 30
0.0
 10
9.4257984508
 20
12.3927941374
 30
0.0
 10
9.4230820613
 20
12.3887023023
 30
0.0
 10
9.4213288199
 20
12.38607092
 30
0.0
 10
9.4197710795
 20
12.3837391818
 30
0.0
 10
9.4184124953
 20
12.3817106908
 30
0.0
 10
9.4172558148
 20
12.379988032
 30
0.0
 10
9.4164189935
 20
12.378744849
 30
0.0
 10
9.415852476
 20
12.377904905
 30
0.0
 10
9.4155057338
 20
12.377391439
 30
0.0
 10
9.4152113918
 20
12.3769561612
 30
0.0
 10
9.4149698548
 20
12.376599294
 30
0.0
 10
9.4147812312
 20
12.3763212922
 30
0.0
 10
9.4146576683
 20
12.3761387238
 30
0.0
 10
9.4145850971
 20
12.3760326455
 30
0.0
 10
9.4145516189
 20
12.3759822568
 30
0.0
 10
9.4145302138
 20
12.3759528935
 30
0.0
 10
9.4145220231
 20
12.3759387248
 30
0.0
 10
9.4145193001
 20
12.375935656
 30
0.0
  0
SPLINE
  5
3F7
100
AcDbEntity
  8
0
100
AcDbSpline
 62
7
  6
CONTINUOUS
 70
0
 71
3
 72
15
 73
11
 74
0
 42
0.0000001
 43
0.0000001
 44
0.0000000001
 40
0.0
 40
0.0
 40
0.0
 40
0.0
 40
0.2431589184
 40
0.3066564646
 40
0.3708043907
 40
0.4999999588
 40
0.6291955332
 40
0.6933434668
 40
0.7568410231
 40
1.0
 40
1.0
 40
1.0
 40
1.0
 10
19.9825188707
 20
9.4364619106
 30
0.0
 10
19.9927705414
 20
9.4364619243
 30
0.0
 10
20.0058312794
 20
9.434436541
 30
0.0
 10
20.0205180909
 20
9.4290693952
 30
0.0
 10
20.0303703272
 20
9.4245483483
 30
0.0
 10
20.0420169611
 20
9.4174042429
 30
0.0
 10
20.0523112142
 20
9.4084203305
 30
0.0
 10
20.0595664374
 20
9.4003662519
 30
0.0
 10
20.0690719826
 20
9.3879503991
 30
0.0
 10
20.074902776
 20
9.3760892452
 30
0.0
 10
20.0779621596
 20
9.3663047179
 30
0.0
  0
SPLINE
  5
3F8
100
AcDbEntity
  8
0
100
AcDbSpline
 62
7
  6
CONTINUOUS
 70
0
 71
3
 72
15
 73
11
 74
0
 42
0.0000001
 43
0.0000001
 44
0.0000000001
 40
0.0
 40
0.0
 40
0.0
 40
0.0
 40
0.2431589328
 40
0.3066564803
 40
0.3708044069
 40
0.4999999741
 40
0.6291955453
 40
0.6933434767
 40
0.7568410307
 40
1.0
 40
1.0
 40
1.0
 40
1.0
 10
19.9825188707
 20
10.3764616082
 30
0.0
 10
19.99277054
 20
10.3764615961
 30
0.0
 10
20.0058312757
 20
10.3784869807
 30
0.0
 10
20.0205180847
 20
10.3838541265
 30
0.0
 10
20.030370319
 20
10.3883751729
 30
0.0
 10
20.0420169504
 20
10.3955192767
 30
0.0
 10
20.0523112018
 20
10.4045031865
 30
0.0
 10
20.0595664242
 20
10.4125572627
 30
0.0
 10
20.0690719686
 20
10.4249731115
 30
0.0
 10
20.0749027626
 20
10.4368342615
 30
0.0
 10
20.0779621476
 20
10.446618786
 30
0.0
  0
SPLINE
  5
3F9
100
AcDbEntity
  8
0
100
AcDbSpline
 62
9
  6
CONTINUOUS
 70
0
 71
3
 72
97
 73
93
 74
0
 42
0.0000001
 43
0.0000001
 44
0.0000000001
 40
0.0
 40
0.0
 40
0.0
 40
0.0
 40
0.0000274573
 40
0.0000744345
 40
0.0001421319
 40
0.0002309777
 40
0.0003412063
 40
0.0004729829
 40
0.0008016999
 40
0.0012180639
 40
0.0017229137
 40
0.0023170588
 40
0.0030012993
 40
0.0037764357
 40
0.0046432723
 40
0.0066542065
 40
0.0090300353
 40
0.0117617497
 40
0.0148402769
 40
0.0182565317
 40
0.0220014787
 40
0.0260667994
 40
0.0304446795
 40
0.035127323
 40
0.0453757446
 40
0.0567468666
 40
0.0691692738
 40
0.082571503
 40
0.09688882
 40
0.112060938
 40
0.1280288237
 40
0.1447368698
 40
0.1621308245
 40
0.180159207
 40
0.1987777805
 40
0.2376184526
 40
0.2783399663
 40
0.3206558659
 40
0.3423238743
 40
0.3642862652
 40
0.3865051649
 40
0.4089385397
 40
0.4315469058
 40
0.4542899116
 40
0.4771214289
 40
0.4999962338
 40
0.522870893
 40
0.5457011424
 40
0.56844081
 40
0.5910456887
 40
0.6134763822
 40
0.6356916886
 40
0.6793151722
 40
0.7006517956
 40
0.7216211961
 40
0.7421933394
 40
0.7623364572
 40
0.8011850447
 40
0.8378383322
 40
0.8552306066
 40
0.8719372539
 40
0.8879075834
 40
0.9030837165
 40
0.9174062775
 40
0.9308133882
 40
0.9432382085
 40
0.9546129692
 40
0.9648686079
 40
0.9695545645
 40
0.9739340551
 40
0.9779981552
 40
0.9817382427
 40
0.9851477481
 40
0.9882209385
 40
0.9909520782
 40
0.9933354281
 40
0.9953652464
 40
0.9962457464
 40
0.9970356064
 40
0.9977340432
 40
0.9983402738
 40
0.9988535157
 40
0.9992729884
 40
0.9995979175
 40
0.999724691
 40
0.9998275485
 40
0.9999064072
 40
0.9999368171
 40
0.9999612088
 40
0.9999795892
 40
0.9999919934
 40
1.0
 40
1.0
 40
1.0
 40
1.0
 10
20.0779620445
 20
9.366304682
 30
0.0
 10
20.0779589586
 20
9.3663145511
 30
0.0
 10
20.0779620513
 20
9.3663436241
 30
0.0
 10
20.0779750104
 20
9.3663949509
 30
0.0
 10
20.0780001678
 20
9.3664677319
 30
0.0
 10
20.0780368607
 20
9.3665611345
 30
0.0
 10
20.0780855486
 20
9.3666758879
 30
0.0
 10
20.0781728935
 20
9.3668722549
 30
0.0
 10
20.0783125359
 20
9.367171534
 30
0.0
 10
20.0785159328
 20
9.3675960345
 30
0.0
 10
20.0787651483
 20
9.3681094259
 30
0.0
 10
20.0790594682
 20
9.3687130541
 30
0.0
 10
20.0793982354
 20
9.3694082564
 30
0.0
 10
20.0797807312
 20
9.3701963872
 30
0.0
 10
20.080378335
 20
9.3714354789
 30
0.0
 10
20.0812284169
 20
9.3732220463
 30
0.0
 10
20.0823688122
 20
9.3756481905
 30
0.0
 10
20.0836720627
 20
9.3784420207
 30
0.0
 10
20.0851348682
 20
9.3815937675
 30
0.0
 10
20.0867540515
 20
9.3850936067
 30
0.0
 10
20.0885269503
 20
9.3889317962
 30
0.0
 10
20.0904481698
 20
9.3931003858
 30
0.0
 10
20.0925110609
 20
9.3975925112
 30
0.0
 10
20.0955344689
 20
9.4042058588
 30
0.0
 10
20.0996245476
 20
9.4132273398
 30
0.0
 10
20.1048604583
 20
9.4249295214
 30
0.0
 10
20.1105131153
 20
9.437746212
 30
0.0
 10
20.1165346456
 20
9.451612618
 30
0.0
 10
20.1228695014
 20
9.4664715754
 30
0.0
 10
20.1294599933
 20
9.4822714022
 30
0.0
 10
20.1362505475
 20
9.4989626109
 30
0.0
 10
20.1431877681
 20
9.5164966073
 30
0.0
 10
20.1502193978
 20
9.5348266553
 30
0.0
 10
20.1572933894
 20
9.553909851
 30
0.0
 10
20.1668353957
 20
9.5806896307
 30
0.0
 10
20.1785060846
 20
9.6157805174
 30
0.0
 10
20.1915276735
 20
9.6598034793
 30
0.0
 10
20.201212267
 20
9.6980412034
 30
0.0
 10
20.2080844796
 20
9.7296730231
 30
0.0
 10
20.2127504106
 20
9.7540315259
 30
0.0
 10
20.2168277381
 20
9.7787877816
 30
0.0
 10
20.2202643288
 20
9.8038869928
 30
0.0
 10
20.2230039537
 20
9.8292707243
 30
0.0
 10
20.2249966454
 20
9.8548746225
 30
0.0
 10
20.2262148657
 20
9.8806276722
 30
0.0
 10
20.2266249922
 20
9.9064561843
 30
0.0
 10
20.2262044675
 20
9.9322839712
 30
0.0
 10
20.2249855634
 20
9.9580351358
 30
0.0
 10
20.2229931234
 20
9.9836359973
 30
0.0
 10
20.2202587494
 20
10.0090165776
 30
0.0
 10
20.2168337496
 20
10.0341137933
 30
0.0
 10
20.2114422084
 20
10.0669188787
 30
0.0
 10
20.2048568213
 20
10.0990979317
 30
0.0
 10
20.1972599451
 20
10.1305561999
 30
0.0
 10
20.1911998812
 20
10.1534492788
 30
0.0
 10
20.1848106718
 20
10.1757849983
 30
0.0
 10
20.1760576151
 20
10.2044427574
 30
0.0
 10
20.1647145686
 20
10.2386360245
 30
0.0
 10
20.1527630207
 20
10.2715191004
 30
0.0
 10
20.1432091411
 20
10.2963928552
 30
0.0
 10
20.1362629995
 20
10.3139230706
 30
0.0
 10
20.1294690693
 20
10.3306149353
 30
0.0
 10
20.1228788303
 20
10.3464196332
 30
0.0
 10
20.1165459558
 20
10.3612852217
 30
0.0
 10
20.1105246109
 20
10.3751568681
 30
0.0
 10
20.1048671323
 20
10.3879759385
 30
0.0
 10
20.0996275749
 20
10.3996819518
 30
0.0
 10
20.0955388213
 20
10.4087098867
 30
0.0
 10
20.0925158822
 20
10.4153284765
 30
0.0
 10
20.0904528961
 20
10.4198220938
 30
0.0
 10
20.0885308628
 20
10.4239884563
 30
0.0
 10
20.0867552288
 20
10.4278200585
 30
0.0
 10
20.08513132
 20
10.4313106711
 30
0.0
 10
20.0836640718
 20
10.4344550904
 30
0.0
 10
20.0823582999
 20
10.4372484091
 30
0.0
 10
20.0812186691
 20
10.4396856497
 30
0.0
 10
20.0803759871
 20
10.4414923698
 30
0.0
 10
20.0797888619
 20
10.4427561158
 30
0.0
 10
20.0794134262
 20
10.4435653469
 30
0.0
 10
20.0790815964
 20
10.4442809459
 30
0.0
 10
20.078793364
 20
10.4449019303
 30
0.0
 10
20.0785487393
 20
10.4454273408
 30
0.0
 10
20.0783477412
 20
10.4458561844
 30
0.0
 10
20.0782070553
 20
10.4461526094
 30
0.0
 10
20.0781159854
 20
10.4463405022
 30
0.0
 10
20.0780643148
 20
10.4464446661
 30
0.0
 10
20.0780281444
 20
10.446515649
 30
0.0
 10
20.078003955
 20
10.4465601827
 30
0.0
 10
20.0779910784
 20
10.4465837649
 30
0.0
 10
20.0779786395
 20
10.4466025707
 30
0.0
 10
20.0779739259
 20
10.4466123581
 30
0.0
 10
20.0779629443
 20
10.446621696
 30
0.0
 10
20.0779620445
 20
10.4466188181
 30
0.0
  0
SPLINE
  5
3FA
100
AcDbEntity
  8
0
100
AcDbSpline
 62
9
  6
CONTINUOUS
 70
0
 71
3
 72
31
 73
27
 74
0
 42
0.0000001
 43
0.0000001
 44
0.0000000001
 40
0.0
 40
0.0
 40
0.0
 40
0.0
 40
0.0002771019
 40
0.0006206092
 40
0.0011004354
 40
0.002468089
 40
0.0043781516
 40
0.0068287122
 40
0.0098178602
 40
0.0133436853
 40
0.0174042778
 40
0.0271221264
 40
0.0389561339
 40
0.0528910337
 40
0.0689115646
 40
0.0870024716
 40
0.1071484845
 40
0.1535083983
 40
0.2077214619
 40
0.2694971154
 40
0.338545466
 40
0.4145773277
 40
0.497294794
 40
0.5863786804
 40
0.7823633371
 40
1.0
 40
1.0
 40
1.0
 40
1.0
 10
19.9825193001
 20
10.3764616082
 30
0.0
 10
19.98252631
 20
10.3764537086
 30
0.0
 10
19.9825379891
 20
10.3764328802
 30
0.0
 10
19.9825624288
 20
10.3763988646
 30
0.0
 10
19.9826089069
 20
10.3763294374
 30
0.0
 10
19.9826897318
 20
10.3762112465
 30
0.0
 10
19.9828121436
 20
10.3760304493
 30
0.0
 10
19.9829693773
 20
10.3757986194
 30
0.0
 10
19.9831609365
 20
10.3755156506
 30
0.0
 10
19.9833867743
 20
10.3751817876
 30
0.0
 10
19.9837560267
 20
10.374635317
 30
0.0
 10
19.984301973
 20
10.3738260735
 30
0.0
 10
19.9850573506
 20
10.3727041389
 30
0.0
 10
19.9859456524
 20
10.3713821101
 30
0.0
 10
19.9869655254
 20
10.369861182
 30
0.0
 10
19.9881156064
 20
10.3681425433
 30
0.0
 10
19.9899062758
 20
10.3654612098
 30
0.0
 10
19.9924553442
 20
10.3616308281
 30
0.0
 10
19.9958675451
 20
10.3564689921
 30
0.0
 10
19.9997348143
 20
10.35057143
 30
0.0
 10
20.0040303973
 20
10.3439603662
 30
0.0
 10
20.008727559
 20
10.3366584734
 30
0.0
 10
20.0137980672
 20
10.3286888886
 30
0.0
 10
20.0212541126
 20
10.3168185907
 30
0.0
 10
20.0312828077
 20
10.3004922079
 30
0.0
 10
20.0393301875
 20
10.2869353103
 30
0.0
 10
20.0435023267
 20
10.2797660081
 30
0.0
  0
SPLINE
  5
3FB
100
AcDbEntity
  8
0
100
AcDbSpline
 62
9
  6
CONTINUOUS
 70
0
 71
3
 72
26
 73
22
 74
0
 42
0.0000001
 43
0.0000001
 44
0.0000000001
 40
0.0
 40
0.0
 40
0.0
 40
0.0
 40
0.054505607
 40
0.1121898193
 40
0.1725554355
 40
0.235140285
 40
0.299531968
 40
0.3652748951
 40
0.4319730549
 40
0.4655378553
 40
0.4991612224
 40
0.5327903041
 40
0.5663735322
 40
0.5998533463
 40
0.6331665444
 40
0.6662487831
 40
0.6990535594
 40
0.7636267949
 40
0.8264448152
 40
0.8870922688
 40
1.0
 40
1.0
 40
1.0
 40
1.0
 10
20.0693827807
 20
10.233199366
 30
0.0
 10
20.0751762285
 20
10.2222448795
 30
0.0
 10
20.0867572168
 20
10.1995126929
 30
0.0
 10
20.1032981451
 20
10.163928203
 30
0.0
 10
20.1190135882
 20
10.1259696107
 30
0.0
 10
20.1332731294
 20
10.0858109189
 30
0.0
 10
20.1454333996
 20
10.0436846585
 30
0.0
 10
20.154849838
 20
9.9998941401
 30
0.0
 10
20.1598369149
 20
9.9624358964
 30
0.0
 10
20.1619740669
 20
9.9320638985
 30
0.0
 10
20.1626033276
 20
9.9091435097
 30
0.0
 10
20.1622105503
 20
9.8862139655
 30
0.0
 10
20.1608288902
 20
9.8633559239
 30
0.0
 10
20.1585000958
 20
9.8406475185
 30
0.0
 10
20.1552647944
 20
9.8181657868
 30
0.0
 10
20.1511578136
 20
9.7959831509
 30
0.0
 10
20.1446575747
 20
9.7670374893
 30
0.0
 10
20.1348154102
 20
9.7319408825
 30
0.0
 10
20.120768181
 20
9.6915390147
 30
0.0
 10
20.1004796785
 20
9.6417563631
 30
0.0
 10
20.0832723487
 20
9.6061948233
 30
0.0
 10
20.0713507146
 20
9.5834609039
 30
0.0
  0
SPLINE
  5
3FC
100
AcDbEntity
  8
0
100
AcDbSpline
 62
9
  6
CONTINUOUS
 70
0
 71
3
 72
32
 73
28
 74
0
 42
0.0000001
 43
0.0000001
 44
0.0000000001
 40
0.0
 40
0.0
 40
0.0
 40
0.0
 40
0.2114520973
 40
0.4043115282
 40
0.4928661652
 40
0.5756472776
 40
0.6522420923
 40
0.7222346679
 40
0.7852120495
 40
0.8407895226
 40
0.8885909908
 40
0.9094578898
 40
0.9282392463
 40
0.9448912004
 40
0.9593879923
 40
0.971709804
 40
0.9818368113
 40
0.986071066
 40
0.9897491815
 40
0.9928686772
 40
0.9954270719
 40
0.997421884
 40
0.9988506313
 40
0.9993519548
 40
0.999710831
 40
0.9999269495
 40
1.0
 40
1.0
 40
1.0
 40
1.0
 10
20.069789052
 20
9.5804929641
 30
0.0
 10
20.0642445529
 20
9.5699910291
 30
0.0
 10
20.0533496483
 20
9.550064203
 30
0.0
 10
20.0394556278
 20
9.5261204564
 30
0.0
 10
20.0289135674
 20
9.50859199
 30
0.0
 10
20.0216275088
 20
9.4967257331
 30
0.0
 10
20.0147958311
 20
9.4858043983
 30
0.0
 10
20.0084808455
 20
9.4758721873
 30
0.0
 10
20.0027443276
 20
9.4669712282
 30
0.0
 10
19.9976396054
 20
9.4591459969
 30
0.0
 10
19.9937984508
 20
9.4533203734
 30
0.0
 10
19.9910820613
 20
9.4492285383
 30
0.0
 10
19.9893288199
 20
9.446597156
 30
0.0
 10
19.9877710795
 20
9.4442654178
 30
0.0
 10
19.9864124953
 20
9.4422369268
 30
0.0
 10
19.9852558148
 20
9.440514268
 30
0.0
 10
19.9844189935
 20
9.439271085
 30
0.0
 10
19.983852476
 20
9.438431141
 30
0.0
 10
19.9835057338
 20
9.437917675
 30
0.0
 10
19.9832113918
 20
9.4374823971
 30
0.0
 10
19.9829698548
 20
9.43712553
 30
0.0
 10
19.9827812312
 20
9.4368475282
 30
0.0
 10
19.9826576683
 20
9.4366649598
 30
0.0
 10
19.9825850971
 20
9.4365588815
 30
0.0
 10
19.9825516189
 20
9.4365084928
 30
0.0
 10
19.9825302138
 20
9.4364791294
 30
0.0
 10
19.9825220231
 20
9.4364649607
 30
0.0
 10
19.9825193001
 20
9.436461892
 30
0.0
  0
SPLINE
  5
3FD
100
AcDbEntity
  8
0
100
AcDbSpline
 62
7
  6
CONTINUOUS
 70
0
 71
3
 72
22
 73
18
 74
0
 42
0.0000001
 43
0.0000001
 44
0.0000000001
 40
0.0
 40
0.0
 40
0.0
 40
0.0
 40
0.0713841882
 40
0.1384347562
 40
0.2617206563
 40
0.319457255
 40
0.3755698083
 40
0.4308891123
 40
0.486257124
 40
0.5424902632
 40
0.6002422088
 40
0.6597614867
 40
0.7213405209
 40
0.7854433825
 40
0.8527047967
 40
0.923916174
 40
1.0
 40
1.0
 40
1.0
 40
1.0
 10
1.269707163
 20
12.3104779239
 30
0.0
 10
1.2690619092
 20
12.3129787139
 30
0.0
 10
1.2676532744
 20
12.3177912799
 30
0.0
 10
1.2643124978
 20
12.3266562276
 30
0.0
 10
1.2600918006
 20
12.3346514856
 30
0.0
 10
1.254916583
 20
12.3415133702
 30
0.0
 10
1.2507011963
 20
12.3459695844
 30
0.0
 10
1.2460652866
 20
12.349854314
 30
0.0
 10
1.2410071548
 20
12.3531783357
 30
0.0
 10
1.2355298955
 20
12.35595133
 30
0.0
 10
1.2296496351
 20
12.3581827568
 30
0.0
 10
1.2233694813
 20
12.3597988962
 30
0.0
 10
1.2167154789
 20
12.3607102156
 30
0.0
 10
1.2097187617
 20
12.3608260608
 30
0.0
 10
1.2024117313
 20
12.3600559233
 30
0.0
 10
1.1948293189
 20
12.358311152
 30
0.0
 10
1.1898000297
 20
12.3565067379
 30
0.0
 10
1.1872634211
 20
12.3554375694
 30
0.0
  0
SPLINE
  5
3FE
100
AcDbEntity
  8
0
100
AcDbSpline
 62
7
  6
CONTINUOUS
 70
0
 71
3
 72
22
 73
18
 74
0
 42
0.0000001
 43
0.0000001
 44
0.0000000001
 40
0.0
 40
0.0
 40
0.0
 40
0.0
 40
0.0713841882
 40
0.1384347562
 40
0.2617206563
 40
0.319457255
 40
0.3755698083
 40
0.4308891123
 40
0.486257124
 40
0.5424902632
 40
0.6002422088
 40
0.6597614867
 40
0.7213405209
 40
0.7854433825
 40
0.8527047967
 40
0.923916174
 40
1.0
 40
1.0
 40
1.0
 40
1.0
 10
1.269707163
 20
13.3813931043
 30
0.0
 10
1.2690619092
 20
13.3788923143
 30
0.0
 10
1.2676532744
 20
13.3740797483
 30
0.0
 10
1.2643124978
 20
13.3652148006
 30
0.0
 10
1.2600918006
 20
13.3572195426
 30
0.0
 10
1.254916583
 20
13.350357658
 30
0.0
 10
1.2507011963
 20
13.3459014437
 30
0.0
 10
1.2460652866
 20
13.3420167141
 30
0.0
 10
1.2410071548
 20
13.3386926925
 30
0.0
 10
1.2355298955
 20
13.3359196982
 30
0.0
 10
1.2296496351
 20
13.3336882714
 30
0.0
 10
1.2233694813
 20
13.3320721319
 30
0.0
 10
1.2167154789
 20
13.3311608126
 30
0.0
 10
1.2097187617
 20
13.3310449674
 30
0.0
 10
1.2024117313
 20
13.3318151049
 30
0.0
 10
1.1948293189
 20
13.3335598762
 30
0.0
 10
1.1898000297
 20
13.3353642902
 30
0.0
 10
1.1872634211
 20
13.3364334588
 30
0.0
  0
SPLINE
  5
3FF
100
AcDbEntity
  8
0
100
AcDbSpline
 62
7
  6
CONTINUOUS
 70
0
 71
3
 72
23
 73
19
 74
0
 42
0.0000001
 43
0.0000001
 44
0.0000000001
 40
0.0
 40
0.0
 40
0.0
 40
0.0
 40
0.0748959265
 40
0.1447349372
 40
0.2105873052
 40
0.2733367676
 40
0.3336488724
 40
0.3919592998
 40
0.4484906972
 40
0.5036394336
 40
0.558251181
 40
0.613253426
 40
0.6695834524
 40
0.7281438928
 40
0.789768117
 40
0.8552005263
 40
0.9250910856
 40
1.0
 40
1.0
 40
1.0
 40
1.0
 10
0.3017035571
 20
12.3554375694
 30
0.0
 10
0.2996156982
 20
12.3563175921
 30
0.0
 10
0.2954736399
 20
12.3577793622
 30
0.0
 10
0.2892247478
 20
12.3591065974
 30
0.0
 10
0.2832216301
 20
12.3595693689
 30
0.0
 10
0.2774991673
 20
12.3592572123
 30
0.0
 10
0.2720887572
 20
12.3582621084
 30
0.0
 10
0.2670209314
 20
12.3566736438
 30
0.0
 10
0.2623104586
 20
12.3545838363
 30
0.0
 10
0.257962836
 20
12.3520300656
 30
0.0
 10
0.2539924544
 20
12.3489959607
 30
0.0
 10
0.2503984769
 20
12.3454731655
 30
0.0
 10
0.2471790316
 20
12.3414517374
 30
0.0
 10
0.24433003
 20
12.3369228599
 30
0.0
 10
0.2418458888
 20
12.3318768391
 30
0.0
 10
0.2397202242
 20
12.3263027413
 30
0.0
 10
0.2379466934
 20
12.3201888807
 30
0.0
 10
0.2370287606
 20
12.3159018506
 30
0.0
 10
0.2366204829
 20
12.3136727959
 30
0.0
  0
SPLINE
  5
400
100
AcDbEntity
  8
0
100
AcDbSpline
 62
7
  6
CONTINUOUS
 70
0
 71
3
 72
23
 73
19
 74
0
 42
0.0000001
 43
0.0000001
 44
0.0000000001
 40
0.0
 40
0.0
 40
0.0
 40
0.0
 40
0.0748959265
 40
0.1447349372
 40
0.2105873052
 40
0.2733367676
 40
0.3336488724
 40
0.3919592998
 40
0.4484906972
 40
0.5036394336
 40
0.558251181
 40
0.613253426
 40
0.6695834524
 40
0.7281438928
 40
0.789768117
 40
0.8552005263
 40
0.9250910856
 40
1.0
 40
1.0
 40
1.0
 40
1.0
 10
0.3017035571
 20
13.3364334588
 30
0.0
 10
0.2996156982
 20
13.3355534361
 30
0.0
 10
0.2954736399
 20
13.3340916659
 30
0.0
 10
0.2892247478
 20
13.3327644308
 30
0.0
 10
0.2832216301
 20
13.3323016593
 30
0.0
 10
0.2774991673
 20
13.3326138159
 30
0.0
 10
0.2720887572
 20
13.3336089198
 30
0.0
 10
0.2670209314
 20
13.3351973843
 30
0.0
 10
0.2623104586
 20
13.3372871919
 30
0.0
 10
0.257962836
 20
13.3398409625
 30
0.0
 10
0.2539924544
 20
13.3428750675
 30
0.0
 10
0.2503984769
 20
13.3463978627
 30
0.0
 10
0.2471790316
 20
13.3504192908
 30
0.0
 10
0.24433003
 20
13.3549481683
 30
0.0
 10
0.2418458888
 20
13.3599941891
 30
0.0
 10
0.2397202242
 20
13.3655682869
 30
0.0
 10
0.2379466934
 20
13.3716821475
 30
0.0
 10
0.2370287606
 20
13.3759691776
 30
0.0
 10
0.2366204829
 20
13.3781982323
 30
0.0
  0
SPLINE
  5
401
100
AcDbEntity
  8
0
100
AcDbSpline
 62
9
  6
CONTINUOUS
 70
0
 71
3
 72
39
 73
35
 74
0
 42
0.0000001
 43
0.0000001
 44
0.0000000001
 40
0.0
 40
0.0
 40
0.0
 40
0.0
 40
0.0000224116
 40
0.0000896678
 40
0.0002017693
 40
0.0003587168
 40
0.0008071529
 40
0.001434982
 40
0.0022422097
 40
0.003228808
 40
0.0043942585
 40
0.0057376743
 40
0.0089548188
 40
0.0128730748
 40
0.0174852759
 40
0.0227842556
 40
0.0287624918
 40
0.0354093652
 40
0.050660153
 40
0.0684388215
 40
0.0886434273
 40
0.111153212
 40
0.1358420868
 40
0.1625839528
 40
0.1912525854
 40
0.2538650771
 40
0.3226899678
 40
0.396798208
 40
0.4753115454
 40
0.5574656683
 40
0.6425359375
 40
0.7298921528
 40
0.8189364279
 40
1.0
 40
1.0
 40
1.0
 40
1.0
 10
-1.011905879
 20
12.3339317699
 30
0.0
 10
-1.0119068371
 20
12.3339311965
 30
0.0
 10
-1.011900827
 20
12.3339387685
 30
0.0
 10
-1.0118992793
 20
12.3339437994
 30
0.0
 10
-1.0118886673
 20
12.333960237
 30
0.0
 10
-1.0118716122
 20
12.3339897057
 30
0.0
 10
-1.0118392444
 20
12.3340434169
 30
0.0
 10
-1.0117916621
 20
12.3341235914
 30
0.0
 10
-1.0117297381
 20
12.3342274213
 30
0.0
 10
-1.0116543407
 20
12.334354026
 30
0.0
 10
-1.0115651882
 20
12.3345036668
 30
0.0
 10
-1.0114191963
 20
12.334748757
 30
0.0
 10
-1.011203021
 20
12.3351117077
 30
0.0
 10
-1.0109035659
 20
12.3356146047
 30
0.0
 10
-1.0105511068
 20
12.3362066654
 30
0.0
 10
-1.0101462331
 20
12.3368869667
 30
0.0
 10
-1.0096896071
 20
12.3376544377
 30
0.0
 10
-1.008979725
 20
12.3388481851
 30
0.0
 10
-1.0079702321
 20
12.3405478031
 30
0.0
 10
-1.0066179347
 20
12.3428294693
 30
0.0
 10
-1.0050841366
 20
12.3454239792
 30
0.0
 10
-1.0033782536
 20
12.3483167075
 30
0.0
 10
-1.0015103307
 20
12.3514920017
 30
0.0
 10
-0.9994905217
 20
12.3549339558
 30
0.0
 10
-0.9965203246
 20
12.3600089879
 30
0.0
 10
-0.9925046503
 20
12.3669015552
 30
0.0
 10
-0.9873746938
 20
12.3757650491
 30
0.0
 10
-0.9818729101
 20
12.3853286522
 30
0.0
 10
-0.9760659183
 20
12.3954827902
 30
0.0
 10
-0.9700141185
 20
12.4061260542
 30
0.0
 10
-0.9637720957
 20
12.4171679345
 30
0.0
 10
-0.9573851409
 20
12.4285221935
 30
0.0
 10
-0.948680997
 20
12.4440604334
 30
0.0
 10
-0.9421310542
 20
12.4558166365
 30
0.0
 10
-0.9377496284
 20
12.4637023965
 30
0.0
  0
SPLINE
  5
402
100
AcDbEntity
  8
0
100
AcDbSpline
 62
9
  6
CONTINUOUS
 70
0
 71
3
 72
10
 73
6
 74
0
 42
0.0000001
 43
0.0000001
 44
0.0000000001
 40
0.0
 40
0.0
 40
0.0
 40
0.0
 40
0.5375354087
 40
0.7798112449
 40
1.0
 40
1.0
 40
1.0
 40
1.0
 10
-0.108827564
 20
12.4376701597
 30
0.0
 10
-0.1198377797
 20
12.4437665423
 30
0.0
 10
-0.1364531097
 20
12.451512624
 30
0.0
 10
-0.1585273088
 20
12.4593376014
 30
0.0
 10
-0.1689248969
 20
12.4623826438
 30
0.0
 10
-0.1739080728
 20
12.4637036106
 30
0.0
  0
SPLINE
  5
403
100
AcDbEntity
  8
0
100
AcDbSpline
 62
9
  6
CONTINUOUS
 70
0
 71
3
 72
10
 73
6
 74
0
 42
0.0000001
 43
0.0000001
 44
0.0000000001
 40
0.0
 40
0.0
 40
0.0
 40
0.0
 40
0.2445820615
 40
0.4932922253
 40
1.0
 40
1.0
 40
1.0
 40
1.0
 10
-0.1739099291
 20
12.4636999701
 30
0.0
 10
-0.1733375643
 20
12.4580411538
 30
0.0
 10
-0.1719842451
 20
12.4466477166
 30
0.0
 10
-0.1686379332
 20
12.4236333238
 30
0.0
 10
-0.1656309084
 20
12.4063231429
 30
0.0
 10
-0.1635675428
 20
12.3947218557
 30
0.0
  0
SPLINE
  5
404
100
AcDbEntity
  8
0
100
AcDbSpline
 62
9
  6
CONTINUOUS
 70
0
 71
3
 72
34
 73
30
 74
0
 42
0.0000001
 43
0.0000001
 44
0.0000000001
 40
0.0
 40
0.0
 40
0.0
 40
0.0
 40
0.2021370403
 40
0.3893351417
 40
0.4765191575
 40
0.558853967
 40
0.6358754951
 40
0.7070914684
 40
0.7719725161
 40
0.8299195359
 40
0.8560984053
 40
0.88030905
 40
0.9024720264
 40
0.9225074001
 40
0.9403416066
 40
0.9559280106
 40
0.9692266737
 40
0.9801975687
 40
0.9847975729
 40
0.9888005862
 40
0.9922015815
 40
0.994995527
 40
0.9971773856
 40
0.9980372072
 40
0.9987421159
 40
0.999291481
 40
0.9996846711
 40
0.9999210547
 40
1.0
 40
1.0
 40
1.0
 40
1.0
 10
-0.1635696393
 20
12.3947241364
 30
0.0
 10
-0.1618931722
 20
12.3852852937
 30
0.0
 10
-0.1577082491
 20
12.3672646045
 30
0.0
 10
-0.150714473
 20
12.3457545924
 30
0.0
 10
-0.1447257858
 20
12.3299304707
 30
0.0
 10
-0.1402854751
 20
12.3191123875
 30
0.0
 10
-0.1358843171
 20
12.3091009973
 30
0.0
 10
-0.1316184651
 20
12.2999372209
 30
0.0
 10
-0.12758584
 20
12.2916645994
 30
0.0
 10
-0.1243885779
 20
12.2853621085
 30
0.0
 10
-0.1220152178
 20
12.2808051057
 30
0.0
 10
-0.1204067059
 20
12.277763314
 30
0.0
 10
-0.1189189786
 20
12.2749873058
 30
0.0
 10
-0.1175623324
 20
12.2724841906
 30
0.0
 10
-0.1163464044
 20
12.2702595955
 30
0.0
 10
-0.1152770152
 20
12.2683190267
 30
0.0
 10
-0.1143591091
 20
12.2666666455
 30
0.0
 10
-0.1136902513
 20
12.265471964
 30
0.0
 10
-0.1132346548
 20
12.2646631378
 30
0.0
 10
-0.1129544399
 20
12.2641675718
 30
0.0
 10
-0.1127157165
 20
12.2637469423
 30
0.0
 10
-0.1125190422
 20
12.2634017662
 30
0.0
 10
-0.1123817233
 20
12.2631614638
 30
0.0
 10
-0.1122932492
 20
12.2630073867
 30
0.0
 10
-0.1122434784
 20
12.2629203151
 30
0.0
 10
-0.1122040539
 20
12.2628529425
 30
0.0
 10
-0.1121771499
 20
12.2628037193
 30
0.0
 10
-0.1121585468
 20
12.2627760004
 30
0.0
 10
-0.1121529232
 20
12.2627616251
 30
0.0
 10
-0.1121502803
 20
12.2627589732
 30
0.0
  0
SPLINE
  5
405
100
AcDbEntity
  8
0
100
AcDbSpline
 62
9
  6
CONTINUOUS
 70
0
 71
3
 72
22
 73
18
 74
0
 42
0.0000001
 43
0.0000001
 44
0.0000000001
 40
0.0
 40
0.0
 40
0.0
 40
0.0
 40
0.1857441965
 40
0.3650333114
 40
0.5334550291
 40
0.685446092
 40
0.7534199273
 40
0.814901004
 40
0.8689667133
 40
0.9146942102
 40
0.951226714
 40
0.9658557454
 40
0.9779723475
 40
0.9875108016
 40
0.994405383
 40
0.9985903611
 40
1.0
 40
1.0
 40
1.0
 40
1.0
 10
-0.9377496336
 20
12.4637024026
 30
0.0
 10
-0.9458384605
 20
12.4592062105
 30
0.0
 10
-0.9617261794
 20
12.4503541791
 30
0.0
 10
-0.9849042626
 20
12.4373462651
 30
0.0
 10
-1.0065602914
 20
12.4250629614
 30
0.0
 10
-1.023346721
 20
12.4154362041
 30
0.0
 10
-1.0354796439
 20
12.4084057187
 30
0.0
 10
-1.0433788531
 20
12.4038003662
 30
0.0
 10
-1.0503109211
 20
12.3997368546
 30
0.0
 10
-1.0561633044
 20
12.396289505
 30
0.0
 10
-1.0603182363
 20
12.39383186
 30
0.0
 10
-1.0630294784
 20
12.3922228315
 30
0.0
 10
-1.0645834909
 20
12.3912991349
 30
0.0
 10
-1.0658052105
 20
12.3905706177
 30
0.0
 10
-1.0666880924
 20
12.3900454284
 30
0.0
 10
-1.0672208337
 20
12.3897239193
 30
0.0
 10
-1.0674614046
 20
12.38958305
 30
0.0
 10
-1.0675210613
 20
12.3895459851
 30
0.0
  0
SPLINE
  5
406
100
AcDbEntity
  8
0
100
AcDbSpline
 62
9
  6
CONTINUOUS
 70
0
 71
3
 72
15
 73
11
 74
0
 42
0.0000001
 43
0.0000001
 44
0.0000000001
 40
0.0
 40
0.0
 40
0.0
 40
0.0
 40
0.1194093696
 40
0.2437997008
 40
0.371759691
 40
0.501439626
 40
0.6309188996
 40
0.7582974094
 40
0.881770191
 40
1.0
 40
1.0
 40
1.0
 40
1.0
 10
-0.0916183582
 20
12.4272652544
 30
0.0
 10
-0.0948517784
 20
12.4272503688
 30
0.0
 10
-0.1014562887
 20
12.4268567602
 30
0.0
 10
-0.1114059864
 20
12.4252137374
 30
0.0
 10
-0.1213962782
 20
12.42245627
 30
0.0
 10
-0.1311799851
 20
12.4186399397
 30
0.0
 10
-0.1404926171
 20
12.4138200511
 30
0.0
 10
-0.1491185563
 20
12.4081581954
 30
0.0
 10
-0.1568546378
 20
12.4018021705
 30
0.0
 10
-0.1614542709
 20
12.39712501
 30
0.0
 10
-0.1635672966
 20
12.3947198466
 30
0.0
  0
SPLINE
  5
407
100
AcDbEntity
  8
0
100
AcDbSpline
 62
9
  6
CONTINUOUS
 70
0
 71
3
 72
16
 73
12
 74
0
 42
0.0000001
 43
0.0000001
 44
0.0000000001
 40
0.0
 40
0.0
 40
0.0
 40
0.0
 40
0.1250926529
 40
0.2500492756
 40
0.3750538316
 40
0.5000697391
 40
0.625053298
 40
0.750036548
 40
0.8750180951
 40
0.9375091622
 40
1.0
 40
1.0
 40
1.0
 40
1.0
 10
-0.0916197728
 20
12.4272665985
 30
0.0
 10
-0.0894616035
 20
12.4228600074
 30
0.0
 10
-0.0848072469
 20
12.4142151165
 30
0.0
 10
-0.0769869028
 20
12.4017447569
 30
0.0
 10
-0.0684930119
 20
12.3897294435
 30
0.0
 10
-0.0594825922
 20
12.3780982421
 30
0.0
 10
-0.0500646147
 20
12.3667968468
 30
0.0
 10
-0.0403049965
 20
12.3557919987
 30
0.0
 10
-0.0319411243
 20
12.3468318938
 30
0.0
 10
-0.0251313639
 20
12.3397776505
 30
0.0
 10
-0.0216886533
 20
12.3362874053
 30
0.0
 10
-0.019960275
 20
12.3345493118
 30
0.0
  0
SPLINE
  5
408
100
AcDbEntity
  8
0
100
AcDbSpline
 62
9
  6
CONTINUOUS
 70
0
 71
3
 72
79
 73
75
 74
0
 42
0.0000001
 43
0.0000001
 44
0.0000000001
 40
0.0
 40
0.0
 40
0.0
 40
0.0
 40
0.0000877468
 40
0.0002434219
 40
0.0004714646
 40
0.0007737787
 40
0.0011516764
 40
0.0016062709
 40
0.0021385954
 40
0.0027496489
 40
0.0042118818
 40
0.0060008433
 40
0.0081238179
 40
0.0105798453
 40
0.0133622656
 40
0.0164642798
 40
0.0198790711
 40
0.0235998124
 40
0.0319330828
 40
0.041421126
 40
0.0520262015
 40
0.063709773
 40
0.0764252238
 40
0.090122177
 40
0.104750936
 40
0.1202657685
 40
0.1537788034
 40
0.1903047826
 40
0.2294770108
 40
0.2709411692
 40
0.3143501018
 40
0.359340335
 40
0.4055397858
 40
0.4525527364
 40
0.4999772225
 40
0.5237155555
 40
0.5474020878
 40
0.5709862815
 40
0.5944177016
 40
0.6176455048
 40
0.6406192208
 40
0.6856147331
 40
0.7290295243
 40
0.7705013377
 40
0.8096764975
 40
0.8462023103
 40
0.879723086
 40
0.895243697
 40
0.9098765575
 40
0.9235746735
 40
0.9362903277
 40
0.9479756413
 40
0.9585852518
 40
0.9680765085
 40
0.9764067398
 40
0.9801232291
 40
0.9835337335
 40
0.9866330992
 40
0.9894161726
 40
0.9918778014
 40
0.9940128858
 40
0.9958191726
 40
0.996599635
 40
0.9972987093
 40
0.9979166942
 40
0.9984538886
 40
0.998910594
 40
0.9992871179
 40
0.999583783
 40
0.9998009525
 40
0.9998798768
 40
0.9999391496
 40
0.9999789705
 40
1.0
 40
1.0
 40
1.0
 40
1.0
 10
20.0735582527
 20
7.8130239633
 30
0.0
 10
20.0735887849
 20
7.8130377231
 30
0.0
 10
20.0736862107
 20
7.8130356085
 30
0.0
 10
20.0738617467
 20
7.8130099074
 30
0.0
 10
20.0741183478
 20
7.8129509613
 30
0.0
 10
20.0744529126
 20
7.812862267
 30
0.0
 10
20.0748693794
 20
7.8127425314
 30
0.0
 10
20.0753683003
 20
7.8125930673
 30
0.0
 10
20.0759514569
 20
7.8124144085
 30
0.0
 10
20.0769014346
 20
7.8121203493
 30
0.0
 10
20.0783092453
 20
7.8116833525
 30
0.0
 10
20.0802707088
 20
7.811083559
 30
0.0
 10
20.0825999544
 20
7.8103896064
 30
0.0
 10
20.0852972628
 20
7.809603322
 30
0.0
 10
20.0883567714
 20
7.8087244729
 30
0.0
 10
20.0917708037
 20
7.8077544889
 30
0.0
 10
20.0955315126
 20
7.806694376
 30
0.0
 10
20.1012163263
 20
7.8051012142
 30
0.0
 10
20.1091361438
 20
7.8028935263
 30
0.0
 10
20.1195960475
 20
7.8000130895
 30
0.0
 10
20.1313032754
 20
7.7968463234
 30
0.0
 10
20.1442186049
 20
7.7934290812
 30
0.0
 10
20.1582966172
 20
7.7897936725
 30
0.0
 10
20.1734872977
 20
7.7859725317
 30
0.0
 10
20.1897407001
 20
7.7819977759
 30
0.0
 10
20.2133825342
 20
7.7764003371
 30
0.0
 10
20.2452513054
 20
7.7692805786
 30
0.0
 10
20.2860971762
 20
7.7609621271
 30
0.0
 10
20.3300916049
 20
7.7529405003
 30
0.0
 10
20.3768530259
 20
7.7455118387
 30
0.0
 10
20.4259893224
 20
7.7389734979
 30
0.0
 10
20.4770830076
 20
7.7335777861
 30
0.0
 10
20.5296842354
 20
7.7295630732
 30
0.0
 10
20.583309959
 20
7.7270707865
 30
0.0
 10
20.6284153838
 20
7.7263663653
 30
0.0
 10
20.66461583
 20
7.7266387572
 30
0.0
 10
20.6917110065
 20
7.7272706913
 30
0.0
 10
20.7186759182
 20
7.728318908
 30
0.0
 10
20.7454469684
 20
7.7297663514
 30
0.0
 10
20.7719610231
 20
7.7315971009
 30
0.0
 10
20.8066463641
 20
7.7345089081
 30
0.0
 10
20.8489290233
 20
7.7389663874
 30
0.0
 10
20.8980730931
 20
7.7454997746
 30
0.0
 10
20.9448416758
 20
7.7529237165
 30
0.0
 10
20.9888395307
 20
7.7609492729
 30
0.0
 10
21.0296867482
 20
7.769281083
 30
0.0
 10
21.0615609656
 20
7.7763994255
 30
0.0
 10
21.0852109883
 20
7.7819914693
 30
0.0
 10
21.1014692576
 20
7.7859641056
 30
0.0
 10
21.1166614674
 20
7.7897877585
 30
0.0
 10
21.1307397337
 20
7.7934269237
 30
0.0
 10
21.1436571438
 20
7.7968459407
 30
0.0
 10
21.1553686703
 20
7.8000106692
 30
0.0
 10
21.1658309977
 20
7.802889087
 30
0.0
 10
21.173748765
 20
7.8050983596
 30
0.0
 10
21.1794275934
 20
7.8066964936
 30
0.0
 10
21.1831829091
 20
7.8077599908
 30
0.0
 10
21.1865937281
 20
7.8087325004
 30
0.0
 10
21.1896545034
 20
7.8096119126
 30
0.0
 10
21.1923597489
 20
7.8103959767
 30
0.0
 10
21.1947049453
 20
7.8110830754
 30
0.0
 10
21.1964327293
 20
7.8115953974
 30
0.0
 10
21.1976345244
 20
7.8119536977
 30
0.0
 10
21.1984015901
 20
7.812182778
 30
0.0
 10
21.1990797277
 20
7.8123851652
 30
0.0
 10
21.1996694248
 20
7.8125604525
 30
0.0
 10
21.2001711486
 20
7.8127081965
 30
0.0
 10
21.2005854149
 20
7.8128281193
 30
0.0
 10
21.2009125929
 20
7.8129196089
 30
0.0
 10
21.2011315321
 20
7.8129774213
 30
0.0
 10
21.2012634799
 20
7.8130077995
 30
0.0
 10
21.2013305054
 20
7.8130213821
 30
0.0
 10
21.2013752276
 20
7.8130267931
 30
0.0
 10
21.2013996271
 20
7.8130280636
 30
0.0
 10
21.2014069445
 20
7.813024766
 30
0.0
  0
SPLINE
  5
409
100
AcDbEntity
  8
0
100
AcDbSpline
 62
9
  6
CONTINUOUS
 70
0
 71
3
 72
29
 73
25
 74
0
 42
0.0000001
 43
0.0000001
 44
0.0000000001
 40
0.0
 40
0.0
 40
0.0
 40
0.0
 40
0.0453548118
 40
0.0974320947
 40
0.1553256519
 40
0.218149583
 40
0.2511202572
 40
0.2849750327
 40
0.3196034078
 40
0.3548937837
 40
0.3907146519
 40
0.4269300712
 40
0.5000041467
 40
0.5730783163
 40
0.6092937853
 40
0.6451146457
 40
0.6804049126
 40
0.7150330524
 40
0.7488874717
 40
0.7818576728
 40
0.844680322
 40
0.9025721979
 40
0.9546474696
 40
1.0
 40
1.0
 40
1.0
 40
1.0
 10
21.0626900276
 20
7.8745448543
 30
0.0
 10
21.050283403
 20
7.8703105087
 30
0.0
 10
21.023516558
 20
7.8615464538
 30
0.0
 10
20.9804732262
 20
7.8487614963
 30
0.0
 10
20.9321432723
 20
7.8361246046
 30
0.0
 10
20.8887574056
 20
7.8265257039
 30
0.0
 10
20.851933056
 20
7.8195665463
 30
0.0
 10
20.8230025574
 20
7.8147618971
 30
0.0
 10
20.7933029673
 20
7.8105443313
 30
0.0
 10
20.7629427287
 20
7.8070033828
 30
0.0
 10
20.7320466701
 20
7.8041776124
 30
0.0
 10
20.6901920362
 20
7.8014098615
 30
0.0
 10
20.6374746799
 20
7.7999608758
 30
0.0
 10
20.5847573326
 20
7.8014106713
 30
0.0
 10
20.5429026988
 20
7.804179016
 30
0.0
 10
20.5120066987
 20
7.8070052129
 30
0.0
 10
20.4816466107
 20
7.8105465744
 30
0.0
 10
20.4519472801
 20
7.814764527
 30
0.0
 10
20.4230171496
 20
7.8195695131
 30
0.0
 10
20.3861934896
 20
7.8265290329
 30
0.0
 10
20.3428087103
 20
7.8361282457
 30
0.0
 10
20.2944802813
 20
7.84876528
 30
0.0
 10
20.2514387181
 20
7.8615501243
 30
0.0
 10
20.2246731156
 20
7.870313985
 30
0.0
 10
20.2122671434
 20
7.8745482004
 30
0.0
  0
ENDSEC
  0
SECTION
  2
OBJECTS
  0
DICTIONARY
  5
C
100
AcDbDictionary
280
0
281
1
  3
ACAD_GROUP
350
D
  3
ACAD_MLINESTYLE
350
17
  3
ACAD_LAYOUT
350
1A
  3
ACAD_PLOTSETTINGS
350
19
  3
ACAD_PLOTSTYLENAME
350
E
  0
DICTIONARY
  5
D
102
{ACAD_REACTORS
330
C
102
}
100
AcDbDictionary
280
0
281
1
  0
ACDBDICTIONARYWDFLT
  5
E
102
{ACAD_REACTORS
330
C
102
}
100
AcDbDictionary
281
1
  3
Normal
350
F
100
AcDbDictionaryWithDefault
340
F
  0
DICTIONARY
  5
17
102
{ACAD_REACTORS
330
C
102
}
100
AcDbDictionary
280
0
281
1
  3
Standard
350
18
  0
DICTIONARY
  5
19
102
{ACAD_REACTORS
330
C
102
}
100
AcDbDictionary
281
1
  0
DICTIONARY
  5
1A
102
{ACAD_REACTORS
330
C
102
}
100
AcDbDictionary
281
1
  3
Model
350
40A
  3
Layout1
350
40B
  0
ACDBPLACEHOLDER
  5
F
102
{ACAD_REACTORS
330
E
102
}
  0
MLINESTYLE
  5
18
102
{ACAD_REACTORS
330
17
102
}
100
AcDbMlineStyle
  2
STANDARD
 70
0
  3

 62
256
 51
90.0
 52
90.0
 71
2
 49
0.5
 62
256
  6
BYLAYER
 49
-0.5
 62
256
  6
BYLAYER
  0
LAYOUT
  5
40A
102
{ACAD_REACTORS
330
1A
102
}
100
AcDbPlotSettings
  1

  2
none_device
  4
ANSI_C_(22.00_x_17.00_Inches)
  6

 40
0.0
 41
0.0
 42
0.0
 43
0.0
 44
558.8
 45
431.8
 46
0.0
 47
0.0
 48
0.0
 49
0.0
140
0.0
141
0.0
142
1.0
143
1.0
 70
1024
 72
0
 73
0
 74
0
  7

 75
0
147
1.0
148
0.0
149
0.0
100
AcDbLayout
  1
Model
 70
0
 71
0
 10
0.0
 20
0.0
 11
22.0
 21
17.0
 12
0.0
 22
0.0
 32
0.0
 14
0.0
 24
0.0
 34
0.0
 15
0.0
 25
0.0
 35
0.0
146
0.0
 13
0.0
 23
0.0
 33
0.0
 16
1.0
 26
0.0
 36
0.0
 17
0.0
 27
1.0
 37
0.0
 76
0
330
202
345
0
346
0
  0
LAYOUT
  5
40B
102
{ACAD_REACTORS
330
1A
102
}
100
AcDbPlotSettings
  1

  2
none_device
  4
ANSI_C_(22.00_x_17.00_Inches)
  6

 40
0.0
 41
0.0
 42
0.0
 43
0.0
 44
558.8
 45
431.8
 46
0.0
 47
0.0
 48
0.0
 49
0.0
140
0.0
141
0.0
142
1.0
143
1.0
 70
0
 72
0
 73
0
 74
0
  7

 75
0
147
1.0
148
0.0
149
0.0
100
AcDbLayout
  1
Layout1
 70
0
 71
1
 10
0.0
 20
0.0
 11
22.0
 21
17.0
 12
0.0
 22
0.0
 32
0.0
 14
0.0
 24
0.0
 34
0.0
 15
0.0
 25
0.0
 35
0.0
146
0.0
 13
0.0
 23
0.0
 33
0.0
 16
1.0
 26
0.0
 36
0.0
 17
0.0
 27
1.0
 37
0.0
 76
0
330
203
345
0
346
0
  0
ENDSEC
  0
EOF
