999
DXF file: E:\BT Custom\CADOUTPUT\_TOP.dxf
999
Pro/ENGINEER 2018400 by Parametric Technology Corporation
  0
SECTION
  2
HEADER
  9
$ACADVER
  1
AC1018
  9
$DWGCODEPAGE
  3
ANSI_1252
  9
$EXTMAX
 10
22.0
 20
17.0
 30
0.0
  9
$EXTMIN
 10
0.0
 20
0.0
 30
0.0
  9
$LIMMIN
 10
0.0
 20
0.0
  9
$LIMMAX
 10
22.0
 20
17.0
  9
$VIEWCTR
 10
11.0
 20
8.5
  9
$VIEWSIZE
 40
17.0
  9
$CLAYER
  8
0
  9
$LTSCALE
 40
1.21
  9
$CELTYPE
  6
BYLAYER
  9
$DIMSCALE
 40
1.0
  9
$DIMASZ
 40
0.1
  9
$DIMEXO
 40
0.0625
  9
$DIMDLI
 40
0.836
  9
$DIMEXE
 40
0.125
  9
$DIMCEN
 40
0.198
  9
$DIMLFAC
 40
1.0
  9
$DIMBLK
  1
_FILLED
  9
$DIMALT
 70
1
  9
$DIMALTD
 70
2
  9
$DIMALTTD
 70
2
  9
$DIMALTF
 40
25.4
  9
$DIMTXT
 40
0.08
  9
$DIMTOL
 70
1
  9
$DIMLIM
 70
0
  9
$DIMTFAC
 40
1.0
  9
$DIMTP
 40
0.001
  9
$DIMTM
 40
0.001
  9
$DIMGAP
 40
0.09
  9
$DIMDSEP
 70
46
  9
$AUNITS
 70
0
  9
$PDMODE
 70
3
  9
$PDSIZE
 40
0.06
  9
$HANDSEED
  5
317
  9
$TILEMODE
 70
1
  9
$MEASUREMENT
 70
0
  9
$INSUNITS
 70
1
  0
ENDSEC
  0
SECTION
  2
CLASSES
  0
CLASS
  1
ACDBDICTIONARYWDFLT
  2
AcDbDictionaryWithDefault
  3
AutoCAD 2000
 90
0
 91
1
280
0
281
0
  0
CLASS
  1
ACDBPLACEHOLDER
  2
AcDbPlaceHolder
  3
AutoCAD 2000
 90
0
 91
1
280
0
281
0
  0
CLASS
  1
LAYOUT
  2
AcDbLayout
  3
AutoCAD 2000
 90
0
 91
0
280
0
281
0
  0
ENDSEC
  0
SECTION
  2
TABLES
  0
TABLE
  2
VPORT
  5
8
100
AcDbSymbolTable
 70
2
  0
VPORT
  5
1F4
100
AcDbSymbolTableRecord
100
AcDbViewportTableRecord
  2
*ACTIVE
 70
0
 10
0.0
 20
0.0
 11
1.0
 21
1.0
 12
11.0
 22
8.5
 13
0.0
 23
0.0
 14
1.0
 24
1.0
 15
0.0
 25
0.0
 16
0.0
 26
0.0
 36
1.0
 17
0.0
 27
0.0
 37
0.0
 40
17.0
 41
1.2941176471
 42
50.0
 43
0.0
 44
0.0
 50
0.0
 51
0.0
 71
0
 72
100
 73
1
 74
1
 75
0
 76
0
 77
0
 78
0
  0
ENDTAB
  0
TABLE
  2
LTYPE
  5
5
100
AcDbSymbolTable
 70
6
  0
LTYPE
  5
14
100
AcDbSymbolTableRecord
100
AcDbLinetypeTableRecord
  2
BYBLOCK
 70
0
  3

 72
65
 73
0
 40
0.0
  0
LTYPE
  5
15
100
AcDbSymbolTableRecord
100
AcDbLinetypeTableRecord
  2
BYLAYER
 70
0
  3

 72
65
 73
0
 40
0.0
  0
LTYPE
  5
16
100
AcDbSymbolTableRecord
100
AcDbLinetypeTableRecord
  2
CONTINUOUS
 70
64
  3
Solid line
 72
65
 73
0
 40
0.0
  0
LTYPE
  5
1F5
100
AcDbSymbolTableRecord
100
AcDbLinetypeTableRecord
  2
CENTER
 70
64
  3
____ _ ____ _ ____ _ ____ _ ____ _ ____ _ ____
 72
65
 73
4
 40
0.6
 49
0.375
 74
0
 49
-0.075
 74
0
 49
0.075
 74
0
 49
-0.075
 74
0
  0
LTYPE
  5
1F6
100
AcDbSymbolTableRecord
100
AcDbLinetypeTableRecord
  2
HIDDEN
 70
64
  3
- - - - - - - - - - - - - - - - - - - -
 72
65
 73
2
 40
0.2
 49
0.1
 74
0
 49
-0.1
 74
0
  0
LTYPE
  5
1F7
100
AcDbSymbolTableRecord
100
AcDbLinetypeTableRecord
  2
PHANTOM
 70
64
  3
_____ _ _ _____ _ _ _____ _ _ _____
 72
65
 73
6
 40
0.8
 49
0.45
 74
0
 49
-0.05
 74
0
 49
0.1
 74
0
 49
-0.05
 74
0
 49
0.1
 74
0
 49
-0.05
 74
0
  0
LTYPE
  5
1F8
100
AcDbSymbolTableRecord
100
AcDbLinetypeTableRecord
  2
DOT
 70
64
  3
. . . . . . . . . . . . . . . . . . . .
 72
65
 73
2
 40
0.2
 49
0.1
 74
0
 49
-0.1
 74
0
  0
LTYPE
  5
1F9
100
AcDbSymbolTableRecord
100
AcDbLinetypeTableRecord
  2
DASHED
 70
64
  3
- - - - - - - - - - - - - - - - - - - -
 72
65
 73
2
 40
0.2
 49
0.1
 74
0
 49
-0.1
 74
0
  0
ENDTAB
  0
TABLE
  2
LAYER
  5
2
100
AcDbSymbolTable
 70
36
  0
LAYER
  5
10
100
AcDbSymbolTableRecord
100
AcDbLayerTableRecord
  2
0
 70
0
 62
7
  6
CONTINUOUS
370
-3
390
F
  0
LAYER
  5
1FA
100
AcDbSymbolTableRecord
100
AcDbLayerTableRecord
  2
DEFAULT_1
 70
0
 62
7
  6
CENTER
370
-3
390
F
  0
LAYER
  5
1FB
100
AcDbSymbolTableRecord
100
AcDbLayerTableRecord
  2
DEFAULT_2
 70
0
 62
8
  6
HIDDEN
370
-3
390
F
  0
LAYER
  5
1FC
100
AcDbSymbolTableRecord
100
AcDbLayerTableRecord
  2
DEFAULT_3
 70
0
 62
7
  6
PHANTOM
370
-3
390
F
  0
LAYER
  5
1FD
100
AcDbSymbolTableRecord
100
AcDbLayerTableRecord
  2
ALL_FEATURES
 70
0
 62
7
  6
CONTINUOUS
370
-3
390
F
  0
LAYER
  5
1FE
100
AcDbSymbolTableRecord
100
AcDbLayerTableRecord
  2
AXES_FEATURES
 70
0
 62
7
  6
CONTINUOUS
370
-3
390
F
  0
LAYER
  5
1FF
100
AcDbSymbolTableRecord
100
AcDbLayerTableRecord
  2
DEFAULT_COORDINATE_SYSTEM
 70
0
 62
7
  6
CONTINUOUS
370
-3
390
F
  0
LAYER
  5
200
100
AcDbSymbolTableRecord
100
AcDbLayerTableRecord
  2
DEFAULT_DATUM_AXES
 70
0
 62
7
  6
CONTINUOUS
370
-3
390
F
  0
LAYER
  5
201
100
AcDbSymbolTableRecord
100
AcDbLayerTableRecord
  2
DEFAULT_DATUM_PLANES
 70
0
 62
7
  6
CONTINUOUS
370
-3
390
F
  0
LAYER
  5
202
100
AcDbSymbolTableRecord
100
AcDbLayerTableRecord
  2
DIMENSIONS
 70
0
 62
7
  6
CONTINUOUS
370
-3
390
F
  0
ENDTAB
  0
TABLE
  2
STYLE
  5
3
100
AcDbSymbolTable
 70
1
  0
STYLE
  5
11
100
AcDbSymbolTableRecord
100
AcDbTextStyleTableRecord
  2
STANDARD
 70
0
 40
0.0
 41
0.8
 50
0.0
 71
0
 42
0.2
  3
txt
  4

  0
STYLE
  5
203
100
AcDbSymbolTableRecord
100
AcDbTextStyleTableRecord
  2
TEXTSTYLE_1
 70
0
 40
0.0
 41
0.8
 50
0.0
 71
0
 42
0.2
  3
gdt
  4

  0
ENDTAB
  0
TABLE
  2
VIEW
  5
6
100
AcDbSymbolTable
 70
0
  0
ENDTAB
  0
TABLE
  2
UCS
  5
7
100
AcDbSymbolTable
 70
0
  0
ENDTAB
  0
TABLE
  2
APPID
  5
9
100
AcDbSymbolTable
 70
1
  0
APPID
  5
204
100
AcDbSymbolTableRecord
100
AcDbRegAppTableRecord
  2
ACAD
 70
0
  0
ENDTAB
  0
TABLE
  2
BLOCK_RECORD
  5
1
100
AcDbSymbolTable
 70
0
  0
BLOCK_RECORD
  5
205
100
AcDbSymbolTableRecord
100
AcDbBlockTableRecord
  2
*Model_Space
  0
BLOCK_RECORD
  5
206
100
AcDbSymbolTableRecord
100
AcDbBlockTableRecord
  2
*Paper_Space
  0
BLOCK_RECORD
  5
207
100
AcDbSymbolTableRecord
100
AcDbBlockTableRecord
  2
_FILLED
  0
ENDTAB
  0
TABLE
  2
DIMSTYLE
  5
A
100
AcDbSymbolTable
 70
1
100
AcDbDimStyleTable
 71
0
  0
DIMSTYLE
105
208
100
AcDbSymbolTableRecord
100
AcDbDimStyleTableRecord
  2
STANDARD
 70
0
  3

  4

 40
1.0
 41
0.1
 42
0.0625
 43
0.38
 44
0.125
 45
0.0
 46
0.0
 47
0.001
 48
0.001
140
0.08
141
0.09
142
0.0
143
25.4
144
1.0
145
0.0
146
1.0
147
0.09
 71
1.0
 72
0.0
 73
1
 74
1
 75
0
 76
0
 77
0
 78
4
 79
1
170
1
171
2
172
0
173
0
174
0
175
0
176
0
177
0
178
0
270
2
179
3
271
3
272
3
273
2
274
2
275
0
280
0
281
0
282
0
283
1
284
4
285
0
286
0
287
3
288
0
340
11
278
46
341
207
342
207
343
207
344
207
  0
ENDTAB
  0
ENDSEC
  0
SECTION
  2
BLOCKS
  0
BLOCK
  5
20
100
AcDbEntity
  8
0
100
AcDbBlockBegin
  2
*Model_Space
 70
0
 10
0.0
 20
0.0
 30
0.0
  3
*Model_Space
  1

  0
ENDBLK
  5
21
100
AcDbEntity
  8
0
100
AcDbBlockEnd
  0
BLOCK
  5
1C
100
AcDbEntity
  8
0
100
AcDbBlockBegin
  2
*Paper_Space
 70
0
 10
0.0
 20
0.0
 30
0.0
  3
*Paper_Space
  1

  0
ENDBLK
  5
1D
100
AcDbEntity
  8
0
100
AcDbBlockEnd
  0
BLOCK
  5
209
100
AcDbEntity
  8
0
100
AcDbBlockBegin
  2
_FILLED
 70
64
 10
0.0
 20
0.0
  3
_FILLED
  1

  0
SOLID
  5
20A
100
AcDbEntity
  8
0
  6
BYBLOCK
 62
0
100
AcDbTrace
 10
0.0
 20
0.0
 11
-1.0
 21
0.2
 12
-1.0
 22
-0.2
 13
-1.0
 23
-0.2
  0
ENDBLK
  5
20B
100
AcDbEntity
  8
0
  6
BYBLOCK
 62
0
100
AcDbBlockEnd
  0
ENDSEC
  0
SECTION
  2
ENTITIES
  0
LINE
  5
20C
100
AcDbEntity
  8
0
100
AcDbLine
 62
7
  6
CONTINUOUS
 10
8.3707784467
 20
9.4272261619
 11
8.3997784467
 21
9.5922261619
  0
LINE
  5
20D
100
AcDbEntity
  8
0
100
AcDbLine
 62
7
  6
CONTINUOUS
 10
9.3401560759
 20
9.8800095676
 11
9.3080725394
 21
9.8669595989
  0
LINE
  5
20E
100
AcDbEntity
  8
0
100
AcDbLine
 62
7
  6
CONTINUOUS
 10
8.3707784467
 20
9.4172440517
 11
8.3707784467
 21
9.4272082722
  0
LINE
  5
20F
100
AcDbEntity
  8
0
100
AcDbLine
 62
7
  6
CONTINUOUS
 10
8.3997784467
 20
9.6022117754
 11
8.3997784467
 21
9.5205215731
  0
LINE
  5
210
100
AcDbEntity
  8
0
100
AcDbLine
 62
7
  6
CONTINUOUS
 10
8.3997784467
 20
9.3239307508
 11
8.3997784467
 21
9.2422261619
  0
LINE
  5
211
100
AcDbEntity
  8
0
100
AcDbLine
 62
9
  6
CONTINUOUS
 10
8.4597784467
 20
9.6622261619
 11
8.4597784467
 21
9.6512676676
  0
LINE
  5
212
100
AcDbEntity
  8
0
100
AcDbLine
 62
9
  6
CONTINUOUS
 10
8.4597784467
 20
9.1822261619
 11
8.4597784467
 21
9.1931846563
  0
LINE
  5
213
100
AcDbEntity
  8
0
100
AcDbLine
 62
9
  6
CONTINUOUS
 10
8.6004972683
 20
9.008833065
 11
8.6004972683
 21
9.0740883418
  0
LINE
  5
214
100
AcDbEntity
  8
0
100
AcDbLine
 62
9
  6
CONTINUOUS
 10
8.6004972683
 20
9.7703639821
 11
8.6004972683
 21
9.8356192589
  0
LINE
  5
215
100
AcDbEntity
  8
0
100
AcDbLine
 62
7
  6
CONTINUOUS
 10
8.3707784467
 20
9.4172261619
 11
8.3997784467
 21
9.2522261619
  0
LINE
  5
216
100
AcDbEntity
  8
0
100
AcDbLine
 62
9
  6
CONTINUOUS
 10
9.0116708635
 20
9.0374821174
 11
9.0116708635
 21
9.1092967363
  0
LINE
  5
217
100
AcDbEntity
  8
0
100
AcDbLine
 62
9
  6
CONTINUOUS
 10
9.0116708634
 20
9.7351555876
 11
9.0116708634
 21
9.8069702065
  0
LINE
  5
218
100
AcDbEntity
  8
0
100
AcDbLine
 62
9
  6
CONTINUOUS
 10
9.0600186395
 20
9.0776606932
 11
9.0600186395
 21
9.151761658
  0
LINE
  5
219
100
AcDbEntity
  8
0
100
AcDbLine
 62
9
  6
CONTINUOUS
 10
9.0600186395
 20
9.6926906659
 11
9.0600186395
 21
9.7667916307
  0
LINE
  5
21A
100
AcDbEntity
  8
0
100
AcDbLine
 62
9
  6
CONTINUOUS
 10
9.0867236786
 20
9.087901157
 11
9.0867236786
 21
9.1814206086
  0
LINE
  5
21B
100
AcDbEntity
  8
0
100
AcDbLine
 62
9
  6
CONTINUOUS
 10
9.0867236786
 20
9.6630317153
 11
9.0867236786
 21
9.7565511668
  0
LINE
  5
21C
100
AcDbEntity
  8
0
100
AcDbLine
 62
9
  6
CONTINUOUS
 10
9.2236356089
 20
9.7965089829
 11
9.2236356089
 21
9.047943341
  0
LINE
  5
21D
100
AcDbEntity
  8
0
100
AcDbLine
 62
7
  6
CONTINUOUS
 10
9.2347784467
 20
9.0262060165
 11
9.2347784467
 21
9.8182463074
  0
LINE
  5
21E
100
AcDbEntity
  8
0
100
AcDbLine
 62
9
  6
CONTINUOUS
 10
9.2724927324
 20
8.9862535451
 11
9.2724927324
 21
9.8581987788
  0
LINE
  5
21F
100
AcDbEntity
  8
0
100
AcDbLine
 62
9
  6
CONTINUOUS
 10
9.3080725394
 20
8.977492725
 11
9.3080725394
 21
9.8669595989
  0
LINE
  5
220
100
AcDbEntity
  8
0
100
AcDbLine
 62
9
  6
CONTINUOUS
 10
9.3401560759
 20
8.9644427562
 11
9.3401560759
 21
9.8800095676
  0
LINE
  5
221
100
AcDbEntity
  8
0
100
AcDbLine
 62
9
  6
CONTINUOUS
 10
9.606064161
 20
8.9099705262
 11
9.606064161
 21
9.9344817976
  0
LINE
  5
222
100
AcDbEntity
  8
0
100
AcDbLine
 62
9
  6
CONTINUOUS
 10
9.6678409467
 20
8.8865649401
 11
9.6678409467
 21
9.9578873837
  0
LINE
  5
223
100
AcDbEntity
  8
0
100
AcDbLine
 62
7
  6
CONTINUOUS
 10
9.7397784467
 20
8.8972261619
 11
9.7397784467
 21
9.9472261619
  0
LINE
  5
224
100
AcDbEntity
  8
0
100
AcDbLine
 62
7
  6
CONTINUOUS
 10
9.7597784467
 20
8.9074206214
 11
9.7597784467
 21
9.9370317025
  0
LINE
  5
225
100
AcDbEntity
  8
0
100
AcDbLine
 62
9
  6
CONTINUOUS
 10
9.7888924071
 20
8.8896153622
 11
9.7888924071
 21
9.9548369617
  0
LINE
  5
226
100
AcDbEntity
  8
0
100
AcDbLine
 62
9
  6
CONTINUOUS
 10
9.8497784467
 20
8.9117208684
 11
9.8497784467
 21
9.9327314555
  0
LINE
  5
227
100
AcDbEntity
  8
0
100
AcDbLine
 62
9
  6
CONTINUOUS
 10
11.3413932107
 20
4.9805085289
 11
11.3414607185
 21
4.980402126
  0
LINE
  5
228
100
AcDbEntity
  8
0
100
AcDbLine
 62
7
  6
CONTINUOUS
 10
10.2097784467
 20
8.9472261619
 11
10.2097784467
 21
9.8972261619
  0
LINE
  5
229
100
AcDbEntity
  8
0
100
AcDbLine
 62
7
  6
CONTINUOUS
 10
11.3414607237
 20
4.9804021293
 11
11.3481159319
 21
4.9694389803
  0
LINE
  5
22A
100
AcDbEntity
  8
0
100
AcDbLine
 62
7
  6
CONTINUOUS
 10
11.348125341
 20
4.9694227245
 11
11.3490382225
 21
4.9678397484
  0
LINE
  5
22B
100
AcDbEntity
  8
0
100
AcDbLine
 62
7
  6
CONTINUOUS
 10
12.7544806006
 20
8.9644427562
 11
12.7865641371
 21
8.977492725
  0
LINE
  5
22C
100
AcDbEntity
  8
0
100
AcDbLine
 62
7
  6
CONTINUOUS
 10
10.7948183383
 20
9.4222261619
 11
10.7948183383
 21
4.8270541684
  0
LINE
  5
22D
100
AcDbEntity
  8
0
100
AcDbLine
 62
7
  6
CONTINUOUS
 10
11.2948183383
 20
9.4222261619
 11
11.2948183383
 21
4.8270541684
  0
LINE
  5
22E
100
AcDbEntity
  8
0
100
AcDbLine
 62
7
  6
CONTINUOUS
 10
11.8798582298
 20
8.9472261619
 11
11.8798582298
 21
9.8972261619
  0
LINE
  5
22F
100
AcDbEntity
  8
0
100
AcDbLine
 62
7
  6
CONTINUOUS
 10
9.3401560759
 20
8.9644427562
 11
9.3080725394
 21
8.977492725
  0
LINE
  5
230
100
AcDbEntity
  8
0
100
AcDbLine
 62
7
  6
CONTINUOUS
 10
10.7405994206
 20
4.9678414358
 11
10.7415111618
 21
4.9694224252
  0
LINE
  5
231
100
AcDbEntity
  8
0
100
AcDbLine
 62
7
  6
CONTINUOUS
 10
10.7415205709
 20
4.969438681
 11
10.7481735936
 21
4.980398409
  0
LINE
  5
232
100
AcDbEntity
  8
0
100
AcDbLine
 62
9
  6
CONTINUOUS
 10
10.7481735988
 20
4.9803984057
 11
10.7482434659
 21
4.9805085289
  0
LINE
  5
233
100
AcDbEntity
  8
0
100
AcDbLine
 62
9
  6
CONTINUOUS
 10
12.2398582298
 20
8.9117208684
 11
12.2398582298
 21
9.9327314555
  0
LINE
  5
234
100
AcDbEntity
  8
0
100
AcDbLine
 62
9
  6
CONTINUOUS
 10
12.3007442694
 20
9.9548369617
 11
12.3007442694
 21
8.8896153622
  0
LINE
  5
235
100
AcDbEntity
  8
0
100
AcDbLine
 62
7
  6
CONTINUOUS
 10
12.3298582298
 20
9.9370342729
 11
12.3298582298
 21
8.9074180509
  0
LINE
  5
236
100
AcDbEntity
  8
0
100
AcDbLine
 62
7
  6
CONTINUOUS
 10
12.3548582298
 20
8.8972261619
 11
12.3548582298
 21
9.9472261619
  0
LINE
  5
237
100
AcDbEntity
  8
0
100
AcDbLine
 62
9
  6
CONTINUOUS
 10
12.4267957298
 20
8.8865649401
 11
12.4267957298
 21
9.9578873837
  0
LINE
  5
238
100
AcDbEntity
  8
0
100
AcDbLine
 62
9
  6
CONTINUOUS
 10
12.4885725155
 20
8.9099705262
 11
12.4885725155
 21
9.9344817976
  0
LINE
  5
239
100
AcDbEntity
  8
0
100
AcDbLine
 62
7
  6
CONTINUOUS
 10
11.8798582298
 20
8.9472261619
 11
11.6896804114
 21
8.9472261619
  0
LINE
  5
23A
100
AcDbEntity
  8
0
100
AcDbLine
 62
7
  6
CONTINUOUS
 10
10.2097784467
 20
8.9472261619
 11
10.3999562645
 21
8.9472261619
  0
LINE
  5
23B
100
AcDbEntity
  8
0
100
AcDbLine
 62
9
  6
CONTINUOUS
 10
12.7544806006
 20
8.9644427562
 11
12.7544806006
 21
9.8800095676
  0
LINE
  5
23C
100
AcDbEntity
  8
0
100
AcDbLine
 62
9
  6
CONTINUOUS
 10
12.7865641371
 20
8.977492725
 11
12.7865641371
 21
9.8669595989
  0
LINE
  5
23D
100
AcDbEntity
  8
0
100
AcDbLine
 62
9
  6
CONTINUOUS
 10
12.8221439441
 20
8.9862535451
 11
12.8221439441
 21
9.8581987788
  0
LINE
  5
23E
100
AcDbEntity
  8
0
100
AcDbLine
 62
7
  6
CONTINUOUS
 10
12.8598582298
 20
9.8182463074
 11
12.8598582298
 21
9.0261881855
  0
LINE
  5
23F
100
AcDbEntity
  8
0
100
AcDbLine
 62
9
  6
CONTINUOUS
 10
12.8710010677
 20
9.047943341
 11
12.8710010677
 21
9.7965089829
  0
LINE
  5
240
100
AcDbEntity
  8
0
100
AcDbLine
 62
7
  6
CONTINUOUS
 10
12.3548582298
 20
9.1722261619
 11
12.3298582298
 21
9.1722261619
  0
LINE
  5
241
100
AcDbEntity
  8
0
100
AcDbLine
 62
7
  6
CONTINUOUS
 10
9.7397784467
 20
9.1722261619
 11
9.7597784467
 21
9.1722261619
  0
LINE
  5
242
100
AcDbEntity
  8
0
100
AcDbLine
 62
7
  6
CONTINUOUS
 10
13.6348582298
 20
9.1822261619
 11
13.6255287852
 21
9.1822261619
  0
LINE
  5
243
100
AcDbEntity
  8
0
100
AcDbLine
 62
7
  6
CONTINUOUS
 10
8.4597784467
 20
9.1822261619
 11
8.4691078914
 21
9.1822261619
  0
LINE
  5
244
100
AcDbEntity
  8
0
100
AcDbLine
 62
9
  6
CONTINUOUS
 10
13.007912998
 20
9.7565511668
 11
13.007912998
 21
9.6630317153
  0
LINE
  5
245
100
AcDbEntity
  8
0
100
AcDbLine
 62
9
  6
CONTINUOUS
 10
13.007912998
 20
9.1814206085
 11
13.007912998
 21
9.087901157
  0
LINE
  5
246
100
AcDbEntity
  8
0
100
AcDbLine
 62
9
  6
CONTINUOUS
 10
13.034618037
 20
9.7667916307
 11
13.034618037
 21
9.6926906659
  0
LINE
  5
247
100
AcDbEntity
  8
0
100
AcDbLine
 62
9
  6
CONTINUOUS
 10
13.0346180371
 20
9.1517616579
 11
13.0346180371
 21
9.0776606932
  0
LINE
  5
248
100
AcDbEntity
  8
0
100
AcDbLine
 62
9
  6
CONTINUOUS
 10
13.0829658131
 20
9.8069702065
 11
13.0829658131
 21
9.7351555876
  0
LINE
  5
249
100
AcDbEntity
  8
0
100
AcDbLine
 62
9
  6
CONTINUOUS
 10
13.0829658132
 20
9.1092967363
 11
13.0829658132
 21
9.0374821174
  0
LINE
  5
24A
100
AcDbEntity
  8
0
100
AcDbLine
 62
7
  6
CONTINUOUS
 10
13.6348582298
 20
9.6622261619
 11
13.6255287852
 21
9.6622261619
  0
LINE
  5
24B
100
AcDbEntity
  8
0
100
AcDbLine
 62
7
  6
CONTINUOUS
 10
8.4597784467
 20
9.6622261619
 11
8.4691078914
 21
9.6622261619
  0
LINE
  5
24C
100
AcDbEntity
  8
0
100
AcDbLine
 62
7
  6
CONTINUOUS
 10
12.3548582298
 20
9.6722261619
 11
12.3298582298
 21
9.6722261619
  0
LINE
  5
24D
100
AcDbEntity
  8
0
100
AcDbLine
 62
7
  6
CONTINUOUS
 10
9.7397784467
 20
9.6722261619
 11
9.7597784467
 21
9.6722261619
  0
LINE
  5
24E
100
AcDbEntity
  8
0
100
AcDbLine
 62
9
  6
CONTINUOUS
 10
13.4941394082
 20
9.8356192589
 11
13.4941394082
 21
9.7703639821
  0
LINE
  5
24F
100
AcDbEntity
  8
0
100
AcDbLine
 62
9
  6
CONTINUOUS
 10
13.4941394082
 20
9.0740883418
 11
13.4941394082
 21
9.008833065
  0
LINE
  5
250
100
AcDbEntity
  8
0
100
AcDbLine
 62
7
  6
CONTINUOUS
 10
13.7238582298
 20
9.4172261619
 11
13.6948582298
 21
9.2522261619
  0
LINE
  5
251
100
AcDbEntity
  8
0
100
AcDbLine
 62
7
  6
CONTINUOUS
 10
11.8798582298
 20
9.8972261619
 11
11.6896803969
 21
9.8972261619
  0
LINE
  5
252
100
AcDbEntity
  8
0
100
AcDbLine
 62
7
  6
CONTINUOUS
 10
10.2097784467
 20
9.8972261619
 11
10.3999562688
 21
9.8972261619
  0
LINE
  5
253
100
AcDbEntity
  8
0
100
AcDbLine
 62
9
  6
CONTINUOUS
 10
13.6348582298
 20
9.6622261619
 11
13.6348582298
 21
9.6512676676
  0
LINE
  5
254
100
AcDbEntity
  8
0
100
AcDbLine
 62
9
  6
CONTINUOUS
 10
13.6348582298
 20
9.1822261619
 11
13.6348582298
 21
9.1931846563
  0
LINE
  5
255
100
AcDbEntity
  8
0
100
AcDbLine
 62
7
  6
CONTINUOUS
 10
13.6948582298
 20
9.6022117754
 11
13.6948582298
 21
9.5205215731
  0
LINE
  5
256
100
AcDbEntity
  8
0
100
AcDbLine
 62
7
  6
CONTINUOUS
 10
13.6948582298
 20
9.2422261619
 11
13.6948582298
 21
9.3239307507
  0
LINE
  5
257
100
AcDbEntity
  8
0
100
AcDbLine
 62
7
  6
CONTINUOUS
 10
13.7238582298
 20
9.4172440517
 11
13.7238582298
 21
9.4272082722
  0
LINE
  5
258
100
AcDbEntity
  8
0
100
AcDbLine
 62
7
  6
CONTINUOUS
 10
12.7544806006
 20
9.8800095676
 11
12.7865641371
 21
9.8669595989
  0
LINE
  5
259
100
AcDbEntity
  8
0
100
AcDbLine
 62
7
  6
CONTINUOUS
 10
13.7238582298
 20
9.4272261619
 11
13.6948582298
 21
9.5922261619
  0
ARC
  5
25A
100
AcDbEntity
  8
0
100
AcDbCircle
 62
7
  6
CONTINUOUS
 10
10.1709838165
 20
7.4977452284
 40
1.45
100
AcDbArc
 50
88.4668732052
 51
102.7983811059
  0
ARC
  5
25B
100
AcDbEntity
  8
0
100
AcDbCircle
 62
7
  6
CONTINUOUS
 10
11.0277348981
 20
4.8026503945
 40
0.3312904915
100
AcDbArc
 50
134.7609991682
 51
146.1991159873
  0
ARC
  5
25C
100
AcDbEntity
  8
0
100
AcDbCircle
 62
7
  6
CONTINUOUS
 10
11.0212938479
 20
4.8071896323
 40
0.3234129729
100
AcDbArc
 50
146.2325613775
 51
147.5946367765
  0
ARC
  5
25D
100
AcDbEntity
  8
0
100
AcDbCircle
 62
7
  6
CONTINUOUS
 10
11.0202852558
 20
4.8074992856
 40
0.3223868729
100
AcDbArc
 50
146.1802418456
 51
147.553628467
  0
ARC
  5
25E
100
AcDbEntity
  8
0
100
AcDbCircle
 62
9
  6
CONTINUOUS
 10
11.0193641001
 20
4.8084335808
 40
0.3211147524
100
AcDbArc
 50
147.6207518776
 51
148.8373943258
  0
ARC
  5
25F
100
AcDbEntity
  8
0
100
AcDbCircle
 62
7
  6
CONTINUOUS
 10
11.0188317082
 20
4.8084137351
 40
0.3206696216
100
AcDbArc
 50
147.5521732733
 51
149.8610932472
  0
ARC
  5
260
100
AcDbEntity
  8
0
100
AcDbCircle
 62
9
  6
CONTINUOUS
 10
11.0184691276
 20
4.8089752619
 40
0.3200686195
100
AcDbArc
 50
148.8374654911
 51
149.9183574636
  0
ARC
  5
261
100
AcDbEntity
  8
0
100
AcDbCircle
 62
9
  6
CONTINUOUS
 10
11.0178691413
 20
4.8093245723
 40
0.3193743581
100
AcDbArc
 50
149.9186318184
 51
150.246763266
  0
ARC
  5
262
100
AcDbEntity
  8
0
100
AcDbCircle
 62
9
  6
CONTINUOUS
 10
11.0238427275
 20
4.8117923134
 40
0.3187025278
100
AcDbArc
 50
136.256396303
 51
148.5889833538
  0
ARC
  5
263
100
AcDbEntity
  8
0
100
AcDbCircle
 62
9
  6
CONTINUOUS
 10
11.0154525836
 20
4.8106603311
 40
0.3166134846
100
AcDbArc
 50
150.2395993246
 51
154.2428143857
  0
ARC
  5
264
100
AcDbEntity
  8
0
100
AcDbCircle
 62
9
  6
CONTINUOUS
 10
11.0133509317
 20
4.8116895322
 40
0.3142733975
100
AcDbArc
 50
154.2453035628
 51
154.7163000737
  0
ARC
  5
265
100
AcDbEntity
  8
0
100
AcDbCircle
 62
7
  6
CONTINUOUS
 10
11.0106997892
 20
4.8102498323
 40
0.3123089206
100
AcDbArc
 50
178.0267500536
 51
179.2454409339
  0
ARC
  5
266
100
AcDbEntity
  8
0
100
AcDbCircle
 62
9
  6
CONTINUOUS
 10
11.0181686447
 20
4.8154371654
 40
0.311960415
100
AcDbArc
 50
148.6171790603
 51
150.9949028417
  0
ARC
  5
267
100
AcDbEntity
  8
0
100
AcDbCircle
 62
7
  6
CONTINUOUS
 10
11.0098380015
 20
4.8102622927
 40
0.3114470435
100
AcDbArc
 50
179.2456451974
 51
179.9998548473
  0
ARC
  5
268
100
AcDbEntity
  8
0
100
AcDbCircle
 62
9
  6
CONTINUOUS
 10
11.0169382117
 20
4.8161247553
 40
0.3105509034
100
AcDbArc
 50
150.9957752437
 51
151.3299751092
  0
ARC
  5
269
100
AcDbEntity
  8
0
100
AcDbCircle
 62
9
  6
CONTINUOUS
 10
11.0158843642
 20
4.8166963079
 40
0.3093520499
100
AcDbArc
 50
151.3292120453
 51
152.8609925477
  0
ARC
  5
26A
100
AcDbEntity
  8
0
100
AcDbCircle
 62
7
  6
CONTINUOUS
 10
11.0026747971
 20
4.813951104
 40
0.3033564565
100
AcDbArc
 50
178.6802844004
 51
180.0008540993
  0
ARC
  5
26B
100
AcDbEntity
  8
0
100
AcDbCircle
 62
9
  6
CONTINUOUS
 10
11.00241666
 20
4.8139402459
 40
0.3030983195
100
AcDbArc
 50
179.9988022762
 51
180.6679107084
  0
ARC
  5
26C
100
AcDbEntity
  8
0
100
AcDbCircle
 62
9
  6
CONTINUOUS
 10
11.0025466386
 20
4.8142848623
 40
0.3030506788
100
AcDbArc
 50
180.000138756
 51
180.7287814678
  0
ARC
  5
26D
100
AcDbEntity
  8
0
100
AcDbCircle
 62
9
  6
CONTINUOUS
 10
11.0040914115
 20
4.8201491747
 40
0.2969398114
100
AcDbArc
 50
181.0029948585
 51
181.685577109
  0
ARC
  5
26E
100
AcDbEntity
  8
0
100
AcDbCircle
 62
9
  6
CONTINUOUS
 10
11.0033203524
 20
4.8201364186
 40
0.2961686472
100
AcDbArc
 50
180.0002803721
 51
181.0031385854
  0
ARC
  5
26F
100
AcDbEntity
  8
0
100
AcDbCircle
 62
7
  6
CONTINUOUS
 10
9.6597784467
 20
8.9960177464
 40
0.94
100
AcDbArc
 50
93.2758289598
 51
109.8783240235
  0
ARC
  5
270
100
AcDbEntity
  8
0
100
AcDbCircle
 62
7
  6
CONTINUOUS
 10
9.6597784467
 20
9.8484345775
 40
0.94
100
AcDbArc
 50
250.1216759765
 51
266.7241710402
  0
ARC
  5
271
100
AcDbEntity
  8
0
100
AcDbCircle
 62
7
  6
CONTINUOUS
 10
8.7782784467
 20
9.4222261619
 40
0.45
100
AcDbArc
 50
58.75827275
 51
113.2702952784
  0
ARC
  5
272
100
AcDbEntity
  8
0
100
AcDbCircle
 62
7
  6
CONTINUOUS
 10
8.7782784467
 20
9.4222261619
 40
0.45
100
AcDbArc
 50
246.7297047216
 51
301.2417272574
  0
ARC
  5
273
100
AcDbEntity
  8
0
100
AcDbCircle
 62
7
  6
CONTINUOUS
 10
9.0420637843
 20
8.6803407396
 40
0.41
100
AcDbArc
 50
63.7136175837
 51
83.7465591694
  0
CIRCLE
  5
274
100
AcDbEntity
  8
0
100
AcDbCircle
 62
7
  6
CONTINUOUS
 10
8.7782784467
 20
9.4222261619
 40
0.3925
  0
CIRCLE
  5
275
100
AcDbEntity
  8
0
100
AcDbCircle
 62
9
  6
CONTINUOUS
 10
8.7782784467
 20
9.4222261619
 40
0.3647321392
  0
ARC
  5
276
100
AcDbEntity
  8
0
100
AcDbCircle
 62
7
  6
CONTINUOUS
 10
8.9011984529
 20
9.2195942985
 40
0.213
100
AcDbArc
 50
301.2417272574
 51
318.213642052
  0
ARC
  5
277
100
AcDbEntity
  8
0
100
AcDbCircle
 62
7
  6
CONTINUOUS
 10
8.9011984528
 20
9.6248580254
 40
0.213
100
AcDbArc
 50
41.7863579427
 51
58.75827275
  0
ARC
  5
278
100
AcDbEntity
  8
0
100
AcDbCircle
 62
7
  6
CONTINUOUS
 10
8.6795111254
 20
9.1925633303
 40
0.2
100
AcDbArc
 50
187.1809147058
 51
246.7297047216
  0
ARC
  5
279
100
AcDbEntity
  8
0
100
AcDbCircle
 62
7
  6
CONTINUOUS
 10
8.6795111254
 20
9.6518889936
 40
0.2
100
AcDbArc
 50
113.2702952784
 51
172.8190853007
  0
ARC
  5
27A
100
AcDbEntity
  8
0
100
AcDbCircle
 62
7
  6
CONTINUOUS
 10
9.5997784467
 20
8.8001502649
 40
0.11
100
AcDbArc
 50
51.7750897984
 51
86.7241710402
  0
ARC
  5
27B
100
AcDbEntity
  8
0
100
AcDbCircle
 62
7
  6
CONTINUOUS
 10
9.2667784467
 20
9.95803538
 40
0.1
100
AcDbArc
 50
273.2758289598
 51
294.389713624
  0
ARC
  5
27C
100
AcDbEntity
  8
0
100
AcDbCircle
 62
7
  6
CONTINUOUS
 10
9.2667784467
 20
8.8864169439
 40
0.1
100
AcDbArc
 50
65.610286376
 51
86.7241710402
  0
ARC
  5
27D
100
AcDbEntity
  8
0
100
AcDbCircle
 62
7
  6
CONTINUOUS
 10
8.4597784467
 20
9.2422261619
 40
0.06
100
AcDbArc
 50
180.0
 51
270.0
  0
ARC
  5
27E
100
AcDbEntity
  8
0
100
AcDbCircle
 62
7
  6
CONTINUOUS
 10
8.4597784467
 20
9.6022261619
 40
0.06
100
AcDbArc
 50
90.0
 51
180.0
  0
ARC
  5
27F
100
AcDbEntity
  8
0
100
AcDbCircle
 62
7
  6
CONTINUOUS
 10
9.6987784467
 20
9.9186079859
 40
0.05
100
AcDbArc
 50
34.9152062474
 51
128.2249102016
  0
ARC
  5
280
100
AcDbEntity
  8
0
100
AcDbCircle
 62
7
  6
CONTINUOUS
 10
9.6987784467
 20
8.925844338
 40
0.05
100
AcDbArc
 50
231.7750897984
 51
325.0847937526
  0
ARC
  5
281
100
AcDbEntity
  8
0
100
AcDbCircle
 62
7
  6
CONTINUOUS
 10
9.2747784467
 20
9.8182641383
 40
0.04
100
AcDbArc
 50
93.2758289598
 51
180.0
  0
ARC
  5
282
100
AcDbEntity
  8
0
100
AcDbCircle
 62
7
  6
CONTINUOUS
 10
9.2747784467
 20
9.0261881855
 40
0.04
100
AcDbArc
 50
180.0
 51
266.7241710402
  0
ARC
  5
283
100
AcDbEntity
  8
0
100
AcDbCircle
 62
7
  6
CONTINUOUS
 10
9.0833197232
 20
9.0568371008
 40
0.03125
100
AcDbArc
 50
83.7465591694
 51
138.213642052
  0
ARC
  5
284
100
AcDbEntity
  8
0
100
AcDbCircle
 62
7
  6
CONTINUOUS
 10
9.0833197232
 20
9.787615223
 40
0.03125
100
AcDbArc
 50
221.7863579427
 51
276.253440829
  0
ARC
  5
285
100
AcDbEntity
  8
0
100
AcDbCircle
 62
7
  6
CONTINUOUS
 10
9.2147784467
 20
9.0300115067
 40
0.02
100
AcDbArc
 50
0.0
 51
63.7136175837
  0
ARC
  5
286
100
AcDbEntity
  8
0
100
AcDbCircle
 62
7
  6
CONTINUOUS
 10
9.2147784467
 20
9.8144408171
 40
0.02
100
AcDbArc
 50
296.2863824163
 51
360.0
  0
ARC
  5
287
100
AcDbEntity
  8
0
100
AcDbCircle
 62
7
  6
CONTINUOUS
 10
9.0420637843
 20
10.1641115842
 40
0.41
100
AcDbArc
 50
276.253440829
 51
296.2863824163
  0
ARC
  5
288
100
AcDbEntity
  8
0
100
AcDbCircle
 62
7
  6
CONTINUOUS
 10
9.5997784467
 20
10.0443020589
 40
0.11
100
AcDbArc
 50
273.2758289598
 51
308.2249102016
  0
ARC
  5
289
100
AcDbEntity
  8
0
100
AcDbCircle
 62
7
  6
CONTINUOUS
 10
9.9073738923
 20
8.6581804088
 40
0.26
100
AcDbArc
 50
102.7983811059
 51
117.1098550633
  0
ARC
  5
28A
100
AcDbEntity
  8
0
100
AcDbCircle
 62
7
  6
CONTINUOUS
 10
9.7797784467
 20
8.9074180509
 40
0.02
100
AcDbArc
 50
180.0
 51
297.1098550633
  0
ARC
  5
28B
100
AcDbEntity
  8
0
100
AcDbCircle
 62
7
  6
CONTINUOUS
 10
9.7797784467
 20
9.9370342729
 40
0.02
100
AcDbArc
 50
62.8901449367
 51
180.0
  0
ARC
  5
28C
100
AcDbEntity
  8
0
100
AcDbCircle
 62
7
  6
CONTINUOUS
 10
11.0448183383
 20
9.4222261619
 40
1.1502904291
100
AcDbArc
 50
25.011715625
 51
154.988284375
  0
ARC
  5
28D
100
AcDbEntity
  8
0
100
AcDbCircle
 62
7
  6
CONTINUOUS
 10
11.0448183383
 20
9.4222261619
 40
1.1502904291
100
AcDbArc
 50
282.5922694899
 51
334.988284375
  0
ARC
  5
28E
100
AcDbEntity
  8
0
100
AcDbCircle
 62
7
  6
CONTINUOUS
 10
11.0448183383
 20
9.4222261619
 40
1.1502904291
100
AcDbArc
 50
205.011715625
 51
257.4077305101
  0
ARC
  5
28F
100
AcDbEntity
  8
0
100
AcDbCircle
 62
9
  6
CONTINUOUS
 10
11.0448183383
 20
9.4222261619
 40
1.1443912622
100
AcDbArc
 50
25.0764090813
 51
154.9235909187
  0
ARC
  5
290
100
AcDbEntity
  8
0
100
AcDbCircle
 62
9
  6
CONTINUOUS
 10
11.0448183383
 20
9.4222261619
 40
1.1443912622
100
AcDbArc
 50
205.0764090813
 51
257.3758337736
  0
ARC
  5
291
100
AcDbEntity
  8
0
100
AcDbCircle
 62
9
  6
CONTINUOUS
 10
11.0448183383
 20
9.4222261619
 40
1.1443912622
100
AcDbArc
 50
282.6241662264
 51
334.9235909187
  0
ARC
  5
292
100
AcDbEntity
  8
0
100
AcDbCircle
 62
9
  6
CONTINUOUS
 10
11.0448183383
 20
9.4222261619
 40
1.1035925784
100
AcDbArc
 50
25.834726208
 51
154.165273792
  0
ARC
  5
293
100
AcDbEntity
  8
0
100
AcDbCircle
 62
9
  6
CONTINUOUS
 10
11.0448183383
 20
9.4222261619
 40
1.1035925784
100
AcDbArc
 50
205.834726208
 51
256.903919429
  0
ARC
  5
294
100
AcDbEntity
  8
0
100
AcDbCircle
 62
9
  6
CONTINUOUS
 10
11.0448183383
 20
9.4222261619
 40
1.1035925784
100
AcDbArc
 50
283.096080571
 51
334.165273792
  0
ARC
  5
295
100
AcDbEntity
  8
0
100
AcDbCircle
 62
9
  6
CONTINUOUS
 10
11.0448183383
 20
9.4222261619
 40
0.9787883126
100
AcDbArc
 50
29.1010636161
 51
150.8989363839
  0
ARC
  5
296
100
AcDbEntity
  8
0
100
AcDbCircle
 62
9
  6
CONTINUOUS
 10
11.0448183383
 20
9.4222261619
 40
0.9787883126
100
AcDbArc
 50
284.8080649129
 51
330.8989363839
  0
ARC
  5
297
100
AcDbEntity
  8
0
100
AcDbCircle
 62
9
  6
CONTINUOUS
 10
11.0448183383
 20
9.4222261619
 40
0.9787883126
100
AcDbArc
 50
209.1010636161
 51
255.1919350871
  0
ARC
  5
298
100
AcDbEntity
  8
0
100
AcDbCircle
 62
7
  6
CONTINUOUS
 10
11.0448183383
 20
9.4222261619
 40
0.9775
100
AcDbArc
 50
29.150065283
 51
150.849934717
  0
ARC
  5
299
100
AcDbEntity
  8
0
100
AcDbCircle
 62
7
  6
CONTINUOUS
 10
11.0448183383
 20
9.4222261619
 40
0.9775
100
AcDbArc
 50
284.8333109885
 51
330.849934717
  0
ARC
  5
29A
100
AcDbEntity
  8
0
100
AcDbCircle
 62
7
  6
CONTINUOUS
 10
11.0448183383
 20
9.4222261619
 40
0.9775
100
AcDbArc
 50
209.150065283
 51
255.1666890115
  0
ARC
  5
29B
100
AcDbEntity
  8
0
100
AcDbCircle
 62
9
  6
CONTINUOUS
 10
11.0448183383
 20
9.4222261619
 40
0.9721439021
100
AcDbArc
 50
29.3025914482
 51
150.6974085518
  0
ARC
  5
29C
100
AcDbEntity
  8
0
100
AcDbCircle
 62
9
  6
CONTINUOUS
 10
11.0448183383
 20
9.4222261619
 40
0.9721439021
100
AcDbArc
 50
209.3025914482
 51
255.0888907849
  0
ARC
  5
29D
100
AcDbEntity
  8
0
100
AcDbCircle
 62
9
  6
CONTINUOUS
 10
11.0448183383
 20
9.4222261619
 40
0.9721439021
100
AcDbArc
 50
284.9111092151
 51
330.6974085518
  0
ARC
  5
29E
100
AcDbEntity
  8
0
100
AcDbCircle
 62
9
  6
CONTINUOUS
 10
11.0448183383
 20
9.4222261619
 40
0.9628424392
100
AcDbArc
 50
29.6334645503
 51
150.3665354497
  0
ARC
  5
29F
100
AcDbEntity
  8
0
100
AcDbCircle
 62
9
  6
CONTINUOUS
 10
11.0448183383
 20
9.4222261619
 40
0.9628424392
100
AcDbArc
 50
209.6334645503
 51
254.9422508225
  0
ARC
  5
2A0
100
AcDbEntity
  8
0
100
AcDbCircle
 62
9
  6
CONTINUOUS
 10
11.0448183383
 20
9.4222261619
 40
0.9628424392
100
AcDbArc
 50
285.0577491775
 51
330.3665354497
  0
ARC
  5
2A1
100
AcDbEntity
  8
0
100
AcDbCircle
 62
9
  6
CONTINUOUS
 10
11.0448183383
 20
9.4222261619
 40
0.9378104029
100
AcDbArc
 50
30.4593120782
 51
149.5406879219
  0
ARC
  5
2A2
100
AcDbEntity
  8
0
100
AcDbCircle
 62
9
  6
CONTINUOUS
 10
11.0448183383
 20
9.4222261619
 40
0.9378104029
100
AcDbArc
 50
285.471841702
 51
329.5406879219
  0
ARC
  5
2A3
100
AcDbEntity
  8
0
100
AcDbCircle
 62
9
  6
CONTINUOUS
 10
11.0448183383
 20
9.4222261619
 40
0.9378104029
100
AcDbArc
 50
210.4593120782
 51
254.5281582979
  0
ARC
  5
2A4
100
AcDbEntity
  8
0
100
AcDbCircle
 62
9
  6
CONTINUOUS
 10
11.0448183383
 20
9.4222261619
 40
0.9259690259
100
AcDbArc
 50
30.8914378735
 51
149.1085621265
  0
ARC
  5
2A5
100
AcDbEntity
  8
0
100
AcDbCircle
 62
9
  6
CONTINUOUS
 10
11.0448183383
 20
9.4222261619
 40
0.9259690259
100
AcDbArc
 50
285.675695015
 51
329.1085621265
  0
ARC
  5
2A6
100
AcDbEntity
  8
0
100
AcDbCircle
 62
9
  6
CONTINUOUS
 10
11.0448183383
 20
9.4222261619
 40
0.9259690259
100
AcDbArc
 50
210.8914378735
 51
254.324304985
  0
ARC
  5
2A7
100
AcDbEntity
  8
0
100
AcDbCircle
 62
9
  6
CONTINUOUS
 10
11.0448183383
 20
9.4222261619
 40
0.8984691101
100
AcDbArc
 50
31.9389311554
 51
148.0610688428
  0
ARC
  5
2A8
100
AcDbEntity
  8
0
100
AcDbCircle
 62
9
  6
CONTINUOUS
 10
11.0448183383
 20
9.4222261619
 40
0.8984691101
100
AcDbArc
 50
286.169845043
 51
328.0610688427
  0
ARC
  5
2A9
100
AcDbEntity
  8
0
100
AcDbCircle
 62
9
  6
CONTINUOUS
 10
11.0448183383
 20
9.4222261619
 40
0.8984691101
100
AcDbArc
 50
211.9389311554
 51
253.830154957
  0
ARC
  5
2AA
100
AcDbEntity
  8
0
100
AcDbCircle
 62
9
  6
CONTINUOUS
 10
11.0448183383
 20
9.4222261619
 40
0.8605517992
100
AcDbArc
 50
33.5153798465
 51
146.4846201525
  0
ARC
  5
2AB
100
AcDbEntity
  8
0
100
AcDbCircle
 62
9
  6
CONTINUOUS
 10
11.0448183383
 20
9.4222261619
 40
0.8605517992
100
AcDbArc
 50
286.8901309959
 51
326.4846201525
  0
ARC
  5
2AC
100
AcDbEntity
  8
0
100
AcDbCircle
 62
9
  6
CONTINUOUS
 10
11.0448183383
 20
9.4222261619
 40
0.8605517992
100
AcDbArc
 50
213.5153798465
 51
253.109869004
  0
ARC
  5
2AD
100
AcDbEntity
  8
0
100
AcDbCircle
 62
9
  6
CONTINUOUS
 10
11.0448183383
 20
9.4222261619
 40
0.8215
100
AcDbArc
 50
35.3535868159
 51
144.6464131841
  0
ARC
  5
2AE
100
AcDbEntity
  8
0
100
AcDbCircle
 62
9
  6
CONTINUOUS
 10
11.0448183383
 20
9.4222261619
 40
0.8215
100
AcDbArc
 50
215.3535868159
 51
252.2745661229
  0
ARC
  5
2AF
100
AcDbEntity
  8
0
100
AcDbCircle
 62
9
  6
CONTINUOUS
 10
11.0448183383
 20
9.4222261619
 40
0.8215
100
AcDbArc
 50
287.7254338771
 51
324.6464131841
  0
ARC
  5
2B0
100
AcDbEntity
  8
0
100
AcDbCircle
 62
7
  6
CONTINUOUS
 10
11.0448183383
 20
9.4222261619
 40
0.805
100
AcDbArc
 50
141.8494976587
 51
143.820671725
  0
ARC
  5
2B1
100
AcDbEntity
  8
0
100
AcDbCircle
 62
7
  6
CONTINUOUS
 10
11.0448183383
 20
9.4222261619
 40
0.805
100
AcDbArc
 50
36.179328275
 51
38.1505020697
  0
ARC
  5
2B2
100
AcDbEntity
  8
0
100
AcDbCircle
 62
7
  6
CONTINUOUS
 10
11.0448183383
 20
9.4222261619
 40
0.805
100
AcDbArc
 50
216.179328275
 51
218.1505020305
  0
ARC
  5
2B3
100
AcDbEntity
  8
0
100
AcDbCircle
 62
7
  6
CONTINUOUS
 10
11.0448183383
 20
9.4222261619
 40
0.805
100
AcDbArc
 50
321.8494980231
 51
323.820671725
  0
ARC
  5
2B4
100
AcDbEntity
  8
0
100
AcDbCircle
 62
7
  6
CONTINUOUS
 10
11.0448183383
 20
9.4222261619
 40
0.805
100
AcDbArc
 50
38.3978237067
 51
141.6021762933
  0
ARC
  5
2B5
100
AcDbEntity
  8
0
100
AcDbCircle
 62
7
  6
CONTINUOUS
 10
11.0448183383
 20
9.4222261619
 40
0.805
100
AcDbArc
 50
288.1314503878
 51
321.6021762933
  0
ARC
  5
2B6
100
AcDbEntity
  8
0
100
AcDbCircle
 62
7
  6
CONTINUOUS
 10
11.0448183383
 20
9.4222261619
 40
0.805
100
AcDbArc
 50
218.3978237067
 51
251.8685496122
  0
ARC
  5
2B7
100
AcDbEntity
  8
0
100
AcDbCircle
 62
7
  6
CONTINUOUS
 10
11.0448183383
 20
9.4222261619
 40
0.7451862016
100
AcDbArc
 50
289.6119589534
 51
250.3880410466
  0
ARC
  5
2B8
100
AcDbEntity
  8
0
100
AcDbCircle
 62
7
  6
CONTINUOUS
 10
11.0448183383
 20
9.4222261619
 40
0.71
100
AcDbArc
 50
290.6186600682
 51
249.3813399318
  0
ARC
  5
2B9
100
AcDbEntity
  8
0
100
AcDbCircle
 62
7
  6
CONTINUOUS
 10
11.0448183383
 20
9.4222261619
 40
0.3881336367
100
AcDbArc
 50
310.1250267006
 51
229.8749732994
  0
ARC
  5
2BA
100
AcDbEntity
  8
0
100
AcDbCircle
 62
9
  6
CONTINUOUS
 10
11.0448183383
 20
9.4222261619
 40
0.3797240572
100
AcDbArc
 50
311.1872372346
 51
228.8127627654
  0
ARC
  5
2BB
100
AcDbEntity
  8
0
100
AcDbCircle
 62
9
  6
CONTINUOUS
 10
11.0448183383
 20
9.4222261619
 40
0.3510834663
100
AcDbArc
 50
315.4407832912
 51
224.5592167088
  0
ARC
  5
2BC
100
AcDbEntity
  8
0
100
AcDbCircle
 62
9
  6
CONTINUOUS
 10
11.0448183383
 20
9.4222261619
 40
0.335917742
100
AcDbArc
 50
318.168519677
 51
221.831480323
  0
ARC
  5
2BD
100
AcDbEntity
  8
0
100
AcDbCircle
 62
9
  6
CONTINUOUS
 10
11.0448183383
 20
9.4222261619
 40
0.302
100
AcDbArc
 50
325.9010796331
 51
214.0989203669
  0
ARC
  5
2BE
100
AcDbEntity
  8
0
100
AcDbCircle
 62
7
  6
CONTINUOUS
 10
11.0448183383
 20
9.4222261619
 40
0.25
100
AcDbArc
 50
0.0
 51
180.0
  0
ARC
  5
2BF
100
AcDbEntity
  8
0
100
AcDbCircle
 62
7
  6
CONTINUOUS
 10
10.1709838165
 20
11.3467070955
 40
1.45
100
AcDbArc
 50
257.2016188941
 51
271.5331267948
  0
ARC
  5
2C0
100
AcDbEntity
  8
0
100
AcDbCircle
 62
7
  6
CONTINUOUS
 10
9.9073738923
 20
10.1862719151
 40
0.26
100
AcDbArc
 50
242.8901449367
 51
257.2016188941
  0
ARC
  5
2C1
100
AcDbEntity
  8
0
100
AcDbCircle
 62
7
  6
CONTINUOUS
 10
11.9186528601
 20
7.4977452284
 40
1.45
100
AcDbArc
 50
77.2016188941
 51
91.5331267948
  0
ARC
  5
2C2
100
AcDbEntity
  8
0
100
AcDbCircle
 62
7
  6
CONTINUOUS
 10
11.0619021796
 20
4.8026507039
 40
0.3312899912
100
AcDbArc
 50
33.8023230286
 51
45.2383425083
  0
ARC
  5
2C3
100
AcDbEntity
  8
0
100
AcDbCircle
 62
7
  6
CONTINUOUS
 10
11.0683410144
 20
4.8071884678
 40
0.3234151287
100
AcDbArc
 50
32.4053651617
 51
33.7689115323
  0
ARC
  5
2C4
100
AcDbEntity
  8
0
100
AcDbCircle
 62
7
  6
CONTINUOUS
 10
11.0693509402
 20
4.8074989744
 40
0.3223874453
100
AcDbArc
 50
32.4463725525
 51
33.821243189
  0
ARC
  5
2C5
100
AcDbEntity
  8
0
100
AcDbCircle
 62
9
  6
CONTINUOUS
 10
11.0702721062
 20
4.8084332899
 40
0.3211153054
100
AcDbArc
 50
31.1630949815
 51
32.3800330276
  0
ARC
  5
2C6
100
AcDbEntity
  8
0
100
AcDbCircle
 62
7
  6
CONTINUOUS
 10
11.070508115
 20
4.8082332921
 40
0.3210169437
100
AcDbArc
 50
30.1402178009
 51
32.4465777213
  0
ARC
  5
2C7
100
AcDbEntity
  8
0
100
AcDbCircle
 62
9
  6
CONTINUOUS
 10
11.0711673206
 20
4.8089751275
 40
0.3200688845
100
AcDbArc
 50
30.0817032882
 51
31.1630238714
  0
ARC
  5
2C8
100
AcDbEntity
  8
0
100
AcDbCircle
 62
9
  6
CONTINUOUS
 10
11.0717676614
 20
4.8093246451
 40
0.3193742124
100
AcDbArc
 50
29.7528851838
 51
30.0814287655
  0
ARC
  5
2C9
100
AcDbEntity
  8
0
100
AcDbCircle
 62
9
  6
CONTINUOUS
 10
11.065793949
 20
4.8117923134
 40
0.3187025277
100
AcDbArc
 50
31.4110166461
 51
43.743603687
  0
ARC
  5
2CA
100
AcDbEntity
  8
0
100
AcDbCircle
 62
9
  6
CONTINUOUS
 10
11.073473887
 20
4.810285825
 40
0.3174159169
100
AcDbArc
 50
25.8228664196
 51
29.7550983366
  0
ARC
  5
2CB
100
AcDbEntity
  8
0
100
AcDbCircle
 62
9
  6
CONTINUOUS
 10
11.0762560043
 20
4.8116754007
 40
0.3143063245
100
AcDbArc
 50
25.2713039539
 51
25.8157649998
  0
ARC
  5
2CC
100
AcDbEntity
  8
0
100
AcDbCircle
 62
9
  6
CONTINUOUS
 10
11.071066929
 20
4.8152037742
 40
0.3124243787
100
AcDbArc
 50
29.0069260372
 51
31.3810552463
  0
ARC
  5
2CD
100
AcDbEntity
  8
0
100
AcDbCircle
 62
7
  6
CONTINUOUS
 10
11.0789632068
 20
4.8102505463
 40
0.3122825919
100
AcDbArc
 50
0.6895787771
 51
1.9731579454
  0
ARC
  5
2CE
100
AcDbEntity
  8
0
100
AcDbCircle
 62
7
  6
CONTINUOUS
 10
11.0798295936
 20
4.8102624215
 40
0.3114161249
100
AcDbArc
 50
0.0001214828
 51
0.6893125197
  0
ARC
  5
2CF
100
AcDbEntity
  8
0
100
AcDbCircle
 62
9
  6
CONTINUOUS
 10
11.0726986262
 20
4.8161248445
 40
0.3105507191
100
AcDbArc
 50
28.6696689389
 51
29.0042882316
  0
ARC
  5
2D0
100
AcDbEntity
  8
0
100
AcDbCircle
 62
9
  6
CONTINUOUS
 10
11.073752524
 20
4.8166964189
 40
0.3093518109
100
AcDbArc
 50
27.1390070477
 51
28.6704315492
  0
ARC
  5
2D1
100
AcDbEntity
  8
0
100
AcDbCircle
 62
7
  6
CONTINUOUS
 10
11.0869618795
 20
4.813951104
 40
0.3033564565
100
AcDbArc
 50
359.9991459007
 51
1.3197155996
  0
ARC
  5
2D2
100
AcDbEntity
  8
0
100
AcDbCircle
 62
9
  6
CONTINUOUS
 10
11.0872200166
 20
4.8139402459
 40
0.3030983195
100
AcDbArc
 50
359.3320892915
 51
0.0011977238
  0
ARC
  5
2D3
100
AcDbEntity
  8
0
100
AcDbCircle
 62
9
  6
CONTINUOUS
 10
11.0870900379
 20
4.8142848623
 40
0.3030506789
100
AcDbArc
 50
359.2712185323
 51
359.999861244
  0
ARC
  5
2D4
100
AcDbEntity
  8
0
100
AcDbCircle
 62
9
  6
CONTINUOUS
 10
11.085545265
 20
4.8201491747
 40
0.2969398115
100
AcDbArc
 50
358.3144228912
 51
358.9970051415
  0
ARC
  5
2D5
100
AcDbEntity
  8
0
100
AcDbCircle
 62
9
  6
CONTINUOUS
 10
11.0863163241
 20
4.8201364186
 40
0.2961686472
100
AcDbArc
 50
358.9968614147
 51
359.9997196278
  0
ARC
  5
2D6
100
AcDbEntity
  8
0
100
AcDbCircle
 62
7
  6
CONTINUOUS
 10
12.4348582298
 20
9.8484345775
 40
0.94
100
AcDbArc
 50
273.2758289598
 51
289.8783240235
  0
ARC
  5
2D7
100
AcDbEntity
  8
0
100
AcDbCircle
 62
7
  6
CONTINUOUS
 10
12.4348582298
 20
8.9960177464
 40
0.94
100
AcDbArc
 50
70.1216759765
 51
86.7241710402
  0
ARC
  5
2D8
100
AcDbEntity
  8
0
100
AcDbCircle
 62
7
  6
CONTINUOUS
 10
12.1822627842
 20
8.6581804088
 40
0.26
100
AcDbArc
 50
62.8901449367
 51
77.2016188941
  0
ARC
  5
2D9
100
AcDbEntity
  8
0
100
AcDbCircle
 62
7
  6
CONTINUOUS
 10
12.4948582298
 20
8.8001502649
 40
0.11
100
AcDbArc
 50
93.2758289598
 51
128.2249102016
  0
ARC
  5
2DA
100
AcDbEntity
  8
0
100
AcDbCircle
 62
7
  6
CONTINUOUS
 10
12.3958582298
 20
8.925844338
 40
0.05
100
AcDbArc
 50
214.9152062474
 51
308.2249102016
  0
ARC
  5
2DB
100
AcDbEntity
  8
0
100
AcDbCircle
 62
7
  6
CONTINUOUS
 10
12.3958582298
 20
9.9186079859
 40
0.05
100
AcDbArc
 50
51.7750897984
 51
145.0847937526
  0
ARC
  5
2DC
100
AcDbEntity
  8
0
100
AcDbCircle
 62
7
  6
CONTINUOUS
 10
12.3098582298
 20
9.9370342729
 40
0.02
100
AcDbArc
 50
0.0
 51
117.1098550633
  0
ARC
  5
2DD
100
AcDbEntity
  8
0
100
AcDbCircle
 62
7
  6
CONTINUOUS
 10
12.3098582298
 20
8.9074180509
 40
0.02
100
AcDbArc
 50
242.8901449367
 51
360.0
  0
ARC
  5
2DE
100
AcDbEntity
  8
0
100
AcDbCircle
 62
7
  6
CONTINUOUS
 10
11.9186528601
 20
11.3467070955
 40
1.45
100
AcDbArc
 50
268.4668732052
 51
282.7983811059
  0
ARC
  5
2DF
100
AcDbEntity
  8
0
100
AcDbCircle
 62
7
  6
CONTINUOUS
 10
12.1822627842
 20
10.1862719151
 40
0.26
100
AcDbArc
 50
282.7983811059
 51
297.1098550633
  0
ARC
  5
2E0
100
AcDbEntity
  8
0
100
AcDbCircle
 62
7
  6
CONTINUOUS
 10
12.4948582298
 20
10.0443020589
 40
0.11
100
AcDbArc
 50
231.7750897984
 51
266.7241710402
  0
ARC
  5
2E1
100
AcDbEntity
  8
0
100
AcDbCircle
 62
7
  6
CONTINUOUS
 10
13.3163582298
 20
9.4222261619
 40
0.45
100
AcDbArc
 50
238.75827275
 51
293.2702952784
  0
ARC
  5
2E2
100
AcDbEntity
  8
0
100
AcDbCircle
 62
7
  6
CONTINUOUS
 10
13.3163582298
 20
9.4222261619
 40
0.45
100
AcDbArc
 50
66.7297047216
 51
121.2417272574
  0
ARC
  5
2E3
100
AcDbEntity
  8
0
100
AcDbCircle
 62
7
  6
CONTINUOUS
 10
13.0525728923
 20
8.6803407396
 40
0.41
100
AcDbArc
 50
96.253440829
 51
116.2863824163
  0
CIRCLE
  5
2E4
100
AcDbEntity
  8
0
100
AcDbCircle
 62
7
  6
CONTINUOUS
 10
13.3163582298
 20
9.4222261619
 40
0.3925
  0
CIRCLE
  5
2E5
100
AcDbEntity
  8
0
100
AcDbCircle
 62
9
  6
CONTINUOUS
 10
13.3163582298
 20
9.4222261619
 40
0.3647321392
  0
ARC
  5
2E6
100
AcDbEntity
  8
0
100
AcDbCircle
 62
7
  6
CONTINUOUS
 10
13.1934382237
 20
9.6248580254
 40
0.213
100
AcDbArc
 50
121.2417272574
 51
138.213642052
  0
ARC
  5
2E7
100
AcDbEntity
  8
0
100
AcDbCircle
 62
7
  6
CONTINUOUS
 10
13.1934382237
 20
9.2195942985
 40
0.213
100
AcDbArc
 50
221.7863579427
 51
238.75827275
  0
ARC
  5
2E8
100
AcDbEntity
  8
0
100
AcDbCircle
 62
7
  6
CONTINUOUS
 10
13.4151255512
 20
9.6518889936
 40
0.2
100
AcDbArc
 50
7.1809146994
 51
66.7297047216
  0
ARC
  5
2E9
100
AcDbEntity
  8
0
100
AcDbCircle
 62
7
  6
CONTINUOUS
 10
13.4151255512
 20
9.1925633303
 40
0.2
100
AcDbArc
 50
293.2702952784
 51
352.8190853008
  0
ARC
  5
2EA
100
AcDbEntity
  8
0
100
AcDbCircle
 62
7
  6
CONTINUOUS
 10
12.8278582298
 20
8.8864169439
 40
0.1
100
AcDbArc
 50
93.2758289598
 51
114.389713624
  0
ARC
  5
2EB
100
AcDbEntity
  8
0
100
AcDbCircle
 62
7
  6
CONTINUOUS
 10
12.8278582298
 20
9.95803538
 40
0.1
100
AcDbArc
 50
245.610286376
 51
266.7241710402
  0
ARC
  5
2EC
100
AcDbEntity
  8
0
100
AcDbCircle
 62
7
  6
CONTINUOUS
 10
13.6348582298
 20
9.6022261619
 40
0.06
100
AcDbArc
 50
0.0
 51
90.0
  0
ARC
  5
2ED
100
AcDbEntity
  8
0
100
AcDbCircle
 62
7
  6
CONTINUOUS
 10
13.6348582298
 20
9.2422261619
 40
0.06
100
AcDbArc
 50
270.0
 51
360.0
  0
ARC
  5
2EE
100
AcDbEntity
  8
0
100
AcDbCircle
 62
7
  6
CONTINUOUS
 10
12.8198582298
 20
9.0261881855
 40
0.04
100
AcDbArc
 50
273.2758289598
 51
360.0
  0
ARC
  5
2EF
100
AcDbEntity
  8
0
100
AcDbCircle
 62
7
  6
CONTINUOUS
 10
12.8198582298
 20
9.8182641383
 40
0.04
100
AcDbArc
 50
0.0
 51
86.7241710402
  0
ARC
  5
2F0
100
AcDbEntity
  8
0
100
AcDbCircle
 62
7
  6
CONTINUOUS
 10
13.0113169533
 20
9.787615223
 40
0.03125
100
AcDbArc
 50
263.7465591694
 51
318.213642052
  0
ARC
  5
2F1
100
AcDbEntity
  8
0
100
AcDbCircle
 62
7
  6
CONTINUOUS
 10
13.0113169533
 20
9.0568371008
 40
0.03125
100
AcDbArc
 50
41.7863579427
 51
96.253440829
  0
ARC
  5
2F2
100
AcDbEntity
  8
0
100
AcDbCircle
 62
7
  6
CONTINUOUS
 10
12.8798582298
 20
9.8144408171
 40
0.02
100
AcDbArc
 50
180.0
 51
243.7136175837
  0
ARC
  5
2F3
100
AcDbEntity
  8
0
100
AcDbCircle
 62
7
  6
CONTINUOUS
 10
12.8798582298
 20
9.0300115067
 40
0.02
100
AcDbArc
 50
116.2863824163
 51
180.0
  0
ARC
  5
2F4
100
AcDbEntity
  8
0
100
AcDbCircle
 62
7
  6
CONTINUOUS
 10
13.0525728923
 20
10.1641115842
 40
0.41
100
AcDbArc
 50
243.7136175837
 51
263.7465591694
  0
LINE
  5
2F5
100
AcDbEntity
  8
0
100
AcDbLine
 62
7
  6
CONTINUOUS
 10
10.4129582301
 20
9.9205530123
 11
10.4139261129
 21
9.9222261619
  0
SPLINE
  5
2F6
100
AcDbEntity
  8
0
100
AcDbSpline
 62
7
  6
CONTINUOUS
 70
0
 71
3
 72
43
 73
39
 74
0
 42
0.0000001
 43
0.0000001
 44
0.0000000001
 40
0.0
 40
0.0
 40
0.0
 40
0.0
 40
0.0952938602
 40
0.1896442525
 40
0.282155868
 40
0.3719986726
 40
0.4584304397
 40
0.5407869231
 40
0.6184616597
 40
0.6908745913
 40
0.7574373173
 40
0.7883315459
 40
0.8175220249
 40
0.8449198619
 40
0.8704307874
 40
0.8939565808
 40
0.9153948628
 40
0.9346415155
 40
0.9515916502
 40
0.959173746
 40
0.9661439737
 40
0.9724901965
 40
0.9782017419
 40
0.9832683218
 40
0.9876797332
 40
0.9914276269
 40
0.9945051178
 40
0.9957903192
 40
0.9969053626
 40
0.9978496927
 40
0.998623001
 40
0.9992249868
 40
0.9994616397
 40
0.9996553492
 40
0.9998060776
 40
0.9999137873
 40
0.9999784406
 40
1.0
 40
1.0
 40
1.0
 40
1.0
 10
11.807858251
 20
9.4222261619
 30
0.0
 10
11.807858251
 20
9.4388418756
 30
0.0
 10
11.8070565508
 20
9.4719144341
 30
0.0
 10
11.803490856
 20
9.5210006362
 30
0.0
 10
11.7977040162
 20
9.5689177666
 30
0.0
 10
11.7899156252
 20
9.61514924
 30
0.0
 10
11.7804107508
 20
9.6592472113
 30
0.0
 10
11.7695236866
 20
9.7008328712
 30
0.0
 10
11.7576256602
 20
9.7395885661
 30
0.0
 10
11.7451165028
 20
9.7752427072
 30
0.0
 10
11.7342817023
 20
9.802816147
 30
0.0
 10
11.7256697639
 20
9.8231511622
 30
0.0
 10
11.7194939921
 20
9.8370994938
 30
0.0
 10
11.7134978546
 20
9.8500988118
 30
0.0
 10
11.7077415573
 20
9.8621194147
 30
0.0
 10
11.7022856268
 20
9.8731303949
 30
0.0
 10
11.6971910533
 20
9.8831003955
 30
0.0
 10
11.692517783
 20
9.8919973105
 30
0.0
 10
11.688900542
 20
9.8987193946
 30
0.0
 10
11.6862646235
 20
9.9035384808
 30
0.0
 10
11.6845029427
 20
9.9067282746
 30
0.0
 10
11.6828883386
 20
9.9096266774
 30
0.0
 10
11.6814264378
 20
9.9122301718
 30
0.0
 10
11.6801225965
 20
9.9145354975
 30
0.0
 10
11.6789821177
 20
9.9165398497
 30
0.0
 10
11.6780093528
 20
9.9182405923
 30
0.0
 10
11.6773047387
 20
9.9194667329
 30
0.0
 10
11.6768277957
 20
9.9202942536
 30
0.0
 10
11.6765363178
 20
9.9207993234
 30
0.0
 10
11.6762891839
 20
9.9212270575
 30
0.0
 10
11.6760868438
 20
9.9215770034
 30
0.0
 10
11.675945659
 20
9.9218206278
 30
0.0
 10
11.6758559475
 20
9.9219757764
 30
0.0
 10
11.6758039911
 20
9.9220646749
 30
0.0
 10
11.67576736
 20
9.9221296507
 30
0.0
 10
11.6757324492
 20
9.9221856559
 30
0.0
 10
11.6757271025
 20
9.9222021178
 30
0.0
 10
11.6757075044
 20
9.9222283466
 30
0.0
 10
11.6757105636
 20
9.9222261619
 30
0.0
  0
LINE
  5
2F7
100
AcDbEntity
  8
0
100
AcDbLine
 62
7
  6
CONTINUOUS
 10
11.6766783802
 20
8.9238991967
 11
11.6757105636
 21
8.9222261619
  0
SPLINE
  5
2F8
100
AcDbEntity
  8
0
100
AcDbSpline
 62
7
  6
CONTINUOUS
 70
0
 71
3
 72
41
 73
37
 74
0
 42
0.0000001
 43
0.0000001
 44
0.0000000001
 40
0.0
 40
0.0
 40
0.0
 40
0.0
 40
0.1895994709
 40
0.2821162014
 40
0.3719639736
 40
0.4584005197
 40
0.5407615569
 40
0.6184405886
 40
0.6908575263
 40
0.7574239347
 40
0.7883198733
 40
0.8175119671
 40
0.8449113186
 40
0.8704236538
 40
0.8939507479
 40
0.915390215
 40
0.9346379315
 40
0.9515890031
 40
0.9661421013
 40
0.9724886751
 40
0.9782005362
 40
0.9832673965
 40
0.9876790523
 40
0.991427153
 40
0.9945048137
 40
0.9957900861
 40
0.9969051912
 40
0.9978495735
 40
0.9986229244
 40
0.9992249433
 40
0.9994616093
 40
0.9996553295
 40
0.9998060662
 40
0.999913782
 40
0.9999784391
 40
1.0
 40
1.0
 40
1.0
 40
1.0
 10
10.2817784467
 20
9.4222261619
 30
0.0
 10
10.2817784467
 20
9.3891688767
 30
0.0
 10
10.2841541786
 20
9.3399368587
 30
0.0
 10
10.2919326384
 20
9.2755358775
 30
0.0
 10
10.2997210571
 20
9.229302748
 30
0.0
 10
10.3092259244
 20
9.1852051965
 30
0.0
 10
10.3201129902
 20
9.1436194324
 30
0.0
 10
10.3320110162
 20
9.1048637631
 30
0.0
 10
10.3445201739
 20
9.0692096153
 30
0.0
 10
10.3553549746
 20
9.0416361761
 30
0.0
 10
10.3639669133
 20
9.0213011603
 30
0.0
 10
10.3701426851
 20
9.0073528285
 30
0.0
 10
10.3761388227
 20
8.9943535108
 30
0.0
 10
10.3818951193
 20
8.982332908
 30
0.0
 10
10.3873510515
 20
8.9713219286
 30
0.0
 10
10.3924456191
 20
8.9613519265
 30
0.0
 10
10.3971189074
 20
8.9524550174
 30
0.0
 10
10.4013120067
 20
8.9446626683
 30
0.0
 10
10.404490349
 20
8.9388789626
 30
0.0
 10
10.4067483403
 20
8.9348256482
 30
0.0
 10
10.4082102382
 20
8.9322221516
 30
0.0
 10
10.4095140799
 20
8.9299168265
 30
0.0
 10
10.4106545597
 20
8.9279124737
 30
0.0
 10
10.4116273219
 20
8.9262117329
 30
0.0
 10
10.4123319421
 20
8.924985588
 30
0.0
 10
10.4128088749
 20
8.9241580744
 30
0.0
 10
10.4131003766
 20
8.9236529882
 30
0.0
 10
10.413347441
 20
8.9232253025
 30
0.0
 10
10.4135499735
 20
8.9228752225
 30
0.0
 10
10.4136907169
 20
8.9226319055
 30
0.0
 10
10.4137811024
 20
8.9224762874
 30
0.0
 10
10.4138316447
 20
8.922388374
 30
0.0
 10
10.4138719279
 20
8.9223208539
 30
0.0
 10
10.413898573
 20
8.9222706074
 30
0.0
 10
10.4139184226
 20
8.9222440413
 30
0.0
 10
10.4139230037
 20
8.9222282748
 30
0.0
 10
10.4139261129
 20
8.9222261619
 30
0.0
  0
LINE
  5
2F9
100
AcDbEntity
  8
0
100
AcDbLine
 62
7
  6
CONTINUOUS
 10
10.4139261129
 20
8.9222261619
 11
10.4129583202
 21
8.9238991555
  0
SPLINE
  5
2FA
100
AcDbEntity
  8
0
100
AcDbSpline
 62
7
  6
CONTINUOUS
 70
0
 71
3
 72
39
 73
35
 74
0
 42
0.0000001
 43
0.0000001
 44
0.0000000001
 40
0.0
 40
0.0
 40
0.0
 40
0.0
 40
0.000021561
 40
0.0000862183
 40
0.0001939344
 40
0.0003446716
 40
0.0007750589
 40
0.0013770791
 40
0.0021504315
 40
0.0030948154
 40
0.0042099223
 40
0.0054951968
 40
0.0085728631
 40
0.0123209711
 40
0.0167326358
 40
0.0217995062
 40
0.0275113787
 40
0.033857965
 40
0.048411092
 40
0.0653621971
 40
0.0846099517
 40
0.1060494618
 40
0.1295766029
 40
0.1550889881
 40
0.1824883931
 40
0.2425745737
 40
0.3091411154
 40
0.3815581994
 40
0.4592373854
 40
0.5415985837
 40
0.6280353014
 40
0.7178832495
 40
0.8104001616
 40
1.0
 40
1.0
 40
1.0
 40
1.0
 10
10.4139261129
 20
9.9222261619
 30
0.0
 10
10.4139232698
 20
9.9222237026
 30
0.0
 10
10.4139180408
 20
9.9222087796
 30
0.0
 10
10.413898818
 20
9.9221813979
 30
0.0
 10
10.4138718067
 20
9.9221316235
 30
0.0
 10
10.4138107685
 20
9.9220283772
 30
0.0
 10
10.4137078978
 20
9.9218494286
 30
0.0
 10
10.4135498664
 20
9.9215771925
 30
0.0
 10
10.4133474798
 20
9.9212269876
 30
0.0
 10
10.4131003629
 20
9.9207993471
 30
0.0
 10
10.4128088794
 20
9.9202942456
 30
0.0
 10
10.4123319391
 20
9.9194667387
 30
0.0
 10
10.4116273237
 20
9.91824059
 30
0.0
 10
10.4106545594
 20
9.9165398509
 30
0.0
 10
10.4095140802
 20
9.9145354976
 30
0.0
 10
10.4082102383
 20
9.9122301726
 30
0.0
 10
10.4067483404
 20
9.909626676
 30
0.0
 10
10.4044903491
 20
9.9055733615
 30
0.0
 10
10.4013120068
 20
9.8997896558
 30
0.0
 10
10.3971189075
 20
9.8919973067
 30
0.0
 10
10.3924456193
 20
9.8831003976
 30
0.0
 10
10.3873510508
 20
9.8731303942
 30
0.0
 10
10.3818951218
 20
9.8621194192
 30
0.0
 10
10.3761388117
 20
9.8500987979
 30
0.0
 10
10.367886528
 20
9.8322082102
 30
0.0
 10
10.3572165246
 20
9.8075535039
 30
0.0
 10
10.3445202272
 20
9.7752428731
 30
0.0
 10
10.3320109985
 20
9.7395885065
 30
0.0
 10
10.3201129936
 20
9.7008329016
 30
0.0
 10
10.3092259219
 20
9.6592471184
 30
0.0
 10
10.2997210566
 20
9.6151495726
 30
0.0
 10
10.2919326377
 20
9.5689164419
 30
0.0
 10
10.2841541786
 20
9.5045154628
 30
0.0
 10
10.2817784467
 20
9.4552834459
 30
0.0
 10
10.2817784467
 20
9.4222261619
 30
0.0
  0
LINE
  5
2FB
100
AcDbEntity
  8
0
100
AcDbLine
 62
7
  6
CONTINUOUS
 10
11.6757105636
 20
9.9222261619
 11
11.676678608
 21
9.9205527324
  0
SPLINE
  5
2FC
100
AcDbEntity
  8
0
100
AcDbSpline
 62
7
  6
CONTINUOUS
 70
0
 71
3
 72
35
 73
31
 74
0
 42
0.0000001
 43
0.0000001
 44
0.0000000001
 40
0.0
 40
0.0
 40
0.0
 40
0.0
 40
0.0305558081
 40
0.0611581357
 40
0.0918106674
 40
0.1225421036
 40
0.184259803
 40
0.2153370092
 40
0.2465439553
 40
0.2778811849
 40
0.3093457241
 40
0.3409290071
 40
0.3726181028
 40
0.4043973498
 40
0.436246383
 40
0.5000035685
 40
0.5637604907
 40
0.5956092192
 40
0.6273880517
 40
0.6590766663
 40
0.6906593643
 40
0.7221232966
 40
0.7534598609
 40
0.7846661325
 40
0.8157426765
 40
0.8774592297
 40
0.9081901724
 40
0.9388422878
 40
0.9694443507
 40
1.0
 40
1.0
 40
1.0
 40
1.0
 10
11.3590254502
 20
4.6697197796
 30
0.0
 10
11.3583239145
 20
4.6603617828
 30
0.0
 10
11.3559914615
 20
4.6416877807
 30
0.0
 10
11.3497421595
 20
4.614147951
 30
0.0
 10
11.3407848372
 20
4.5873034334
 30
0.0
 10
11.3253624909
 20
4.5527349844
 30
0.0
 10
11.3048730158
 20
4.5204732123
 30
0.0
 10
11.2800646602
 20
4.4915237678
 30
0.0
 10
11.2593521573
 20
4.4715159817
 30
0.0
 10
11.2367794058
 20
4.4534492114
 30
0.0
 10
11.2125372804
 20
4.4374817517
 30
0.0
 10
11.1868493842
 20
4.423733477
 30
0.0
 10
11.1599323134
 20
4.4123340601
 30
0.0
 10
11.1320234589
 20
4.4033658564
 30
0.0
 10
11.0938159238
 20
4.3947548657
 30
0.0
 10
11.0447915484
 20
4.3904054071
 30
0.0
 10
10.9957680441
 20
4.3947629558
 30
0.0
 10
10.9575620825
 20
4.403379607
 30
0.0
 10
10.9296551238
 20
4.4123525112
 30
0.0
 10
10.9027402329
 20
4.4237558817
 30
0.0
 10
10.8770550284
 20
4.4375081239
 30
0.0
 10
10.852816058
 20
4.4534793155
 30
0.0
 10
10.8302465696
 20
4.4715492111
 30
0.0
 10
10.8095379171
 20
4.4915600982
 30
0.0
 10
10.7847346329
 20
4.5205128785
 30
0.0
 10
10.7642509915
 20
4.552777527
 30
0.0
 10
10.7488345223
 20
4.5873478988
 30
0.0
 10
10.7398817707
 20
4.6141935638
 30
0.0
 10
10.7336370791
 20
4.6417341725
 30
0.0
 10
10.7313077161
 20
4.6604084292
 30
0.0
 10
10.7306077275
 20
4.6697664929
 30
0.0
  0
SPLINE
  5
2FD
100
AcDbEntity
  8
0
100
AcDbSpline
 62
7
  6
CONTINUOUS
 70
0
 71
3
 72
41
 73
37
 74
0
 42
0.0000001
 43
0.0000001
 44
0.0000000001
 40
0.0
 40
0.0
 40
0.0
 40
0.0
 40
0.0000215609
 40
0.000086218
 40
0.0001939338
 40
0.0003446706
 40
0.0005383908
 40
0.0007750567
 40
0.0013770757
 40
0.0021504266
 40
0.0030948089
 40
0.004209914
 40
0.0054951863
 40
0.008572847
 40
0.0123209478
 40
0.0167326036
 40
0.0217994638
 40
0.027511325
 40
0.0338578988
 40
0.0484109969
 40
0.0653620686
 40
0.0846097852
 40
0.1060492525
 40
0.1295763467
 40
0.155088682
 40
0.1824880336
 40
0.2116801275
 40
0.2425760661
 40
0.3091424745
 40
0.3815594119
 40
0.4592384433
 40
0.5415994802
 40
0.6280360258
 40
0.7178837975
 40
0.8104005277
 40
1.0
 40
1.0
 40
1.0
 40
1.0
 10
11.6757105636
 20
8.9222261619
 30
0.0
 10
11.6757136661
 20
8.9222282847
 30
0.0
 10
11.6757182637
 20
8.922244027
 30
0.0
 10
11.6757380974
 20
8.9222706165
 30
0.0
 10
11.6757647516
 20
8.9223208497
 30
0.0
 10
11.6758050307
 20
8.9223883757
 30
0.0
 10
11.6758555746
 20
8.9224762868
 30
0.0
 10
11.6759459594
 20
8.922631906
 30
0.0
 10
11.6760867032
 20
8.9228752222
 30
0.0
 10
11.6762892356
 20
8.9232253026
 30
0.0
 10
11.6765363
 20
8.9236529882
 30
0.0
 10
11.6768278016
 20
8.9241580745
 30
0.0
 10
11.6773047344
 20
8.924985588
 30
0.0
 10
11.6780093546
 20
8.926211733
 30
0.0
 10
11.6789821169
 20
8.9279124738
 30
0.0
 10
11.6801225967
 20
8.9299168265
 30
0.0
 10
11.6814264384
 20
8.9322221517
 30
0.0
 10
11.6828883363
 20
8.9348256482
 30
0.0
 10
11.6851463277
 20
8.9388789626
 30
0.0
 10
11.6883246699
 20
8.9446626684
 30
0.0
 10
11.6925177692
 20
8.9524550175
 30
0.0
 10
11.6971910575
 20
8.9613519267
 30
0.0
 10
11.7022856252
 20
8.9713219289
 30
0.0
 10
11.7077415574
 20
8.9823329084
 30
0.0
 10
11.713497854
 20
8.9943535112
 30
0.0
 10
11.7194939917
 20
9.007352829
 30
0.0
 10
11.7256697635
 20
9.0213011609
 30
0.0
 10
11.7342817022
 20
9.0416361768
 30
0.0
 10
11.7451165029
 20
9.069209616
 30
0.0
 10
11.7576256606
 20
9.1048637637
 30
0.0
 10
11.7695236865
 20
9.1436194329
 30
0.0
 10
11.7804107523
 20
9.185205197
 30
0.0
 10
11.7899156195
 20
9.2293027484
 30
0.0
 10
11.7977040384
 20
9.2755358777
 30
0.0
 10
11.8054824952
 20
9.3399368592
 30
0.0
 10
11.8078582513
 20
9.3891688764
 30
0.0
 10
11.8078582513
 20
9.4222261619
 30
0.0
  0
SPLINE
  5
2FE
100
AcDbEntity
  8
0
100
AcDbSpline
 62
7
  6
CONTINUOUS
 70
0
 71
3
 72
35
 73
31
 74
0
 42
0.0000001
 43
0.0000001
 44
0.0000000001
 40
0.0
 40
0.0
 40
0.0
 40
0.0
 40
0.0612047395
 40
0.1225992524
 40
0.153454423
 40
0.1844148524
 40
0.2154885825
 40
0.2466835308
 40
0.2780026128
 40
0.3094448186
 40
0.3410025227
 40
0.3726649091
 40
0.4044162233
 40
0.4362379621
 40
0.468107976
 40
0.5000026477
 40
0.531897293
 40
0.5637671374
 40
0.5955886585
 40
0.6273396336
 40
0.6590016279
 40
0.6905588666
 40
0.7220005905
 40
0.7533191667
 40
0.7845135891
 40
0.8155868056
 40
0.846546779
 40
0.8774015743
 40
0.9387954274
 40
1.0
 40
1.0
 40
1.0
 40
1.0
 10
11.3912457185
 20
4.8102630817
 30
0.0
 10
11.3912457185
 20
4.7886186852
 30
0.0
 10
11.3867186092
 20
4.7451373438
 30
0.0
 10
11.3699879788
 20
4.6930945546
 30
0.0
 10
11.3504597464
 20
4.6540731589
 30
0.0
 10
11.3328449797
 20
4.6262775418
 30
0.0
 10
11.3124622715
 20
4.6002947985
 30
0.0
 10
11.2895225124
 20
4.5763638185
 30
0.0
 10
11.2642517518
 20
4.5547096537
 30
0.0
 10
11.2368984393
 20
4.5355316405
 30
0.0
 10
11.2077296241
 20
4.5190010316
 30
0.0
 10
11.1770223349
 20
4.5052741928
 30
0.0
 10
11.1450730338
 20
4.4944638914
 30
0.0
 10
11.1121801419
 20
4.4866794115
 30
0.0
 10
11.0786567915
 20
4.4819743258
 30
0.0
 10
11.0448155209
 20
4.4804075186
 30
0.0
 10
11.0109743518
 20
4.4819749286
 30
0.0
 10
10.9774511755
 20
4.4866802813
 30
0.0
 10
10.944558737
 20
4.4944655186
 30
0.0
 10
10.9126097652
 20
4.505275758
 30
0.0
 10
10.8819032264
 20
4.5190032293
 30
0.0
 10
10.8527347978
 20
4.5355335537
 30
0.0
 10
10.8253823467
 20
4.5547119036
 30
0.0
 10
10.8001119723
 20
4.5763656834
 30
0.0
 10
10.7771729648
 20
4.600296632
 30
0.0
 10
10.756790583
 20
4.6262789477
 30
0.0
 10
10.7391763127
 20
4.6540743222
 30
0.0
 10
10.7196484176
 20
4.6930952867
 30
0.0
 10
10.7029180181
 20
4.7451376979
 30
0.0
 10
10.698390958
 20
4.7886187442
 30
0.0
 10
10.698390958
 20
4.8102630817
 30
0.0
  0
SPLINE
  5
2FF
100
AcDbEntity
  8
0
100
AcDbSpline
 62
7
  6
CONTINUOUS
 70
0
 71
3
 72
11
 73
7
 74
0
 42
0.0000001
 43
0.0000001
 44
0.0000000001
 40
0.0
 40
0.0
 40
0.0
 40
0.0
 40
0.2514678746
 40
0.5017480545
 40
0.7512130603
 40
1.0
 40
1.0
 40
1.0
 40
1.0
 10
11.3490451991
 20
4.9678231323
 30
0.0
 10
11.3554636113
 20
4.9566193473
 30
0.0
 10
11.3669227495
 20
4.9334600952
 30
0.0
 10
11.3796693762
 20
4.8969529463
 30
0.0
 10
11.3877420144
 20
4.8592767636
 30
0.0
 10
11.3899437507
 20
4.8337087963
 30
0.0
 10
11.3902378687
 20
4.8209378114
 30
0.0
  0
SPLINE
  5
300
100
AcDbEntity
  8
0
100
AcDbSpline
 62
7
  6
CONTINUOUS
 70
0
 71
3
 72
11
 73
7
 74
0
 42
0.0000001
 43
0.0000001
 44
0.0000000001
 40
0.0
 40
0.0
 40
0.0
 40
0.0
 40
0.2509550207
 40
0.5010994809
 40
0.7507571978
 40
1.0
 40
1.0
 40
1.0
 40
1.0
 10
11.3490451918
 20
4.9678231281
 30
0.0
 10
11.355454942
 20
4.9566355726
 30
0.0
 10
11.36693343
 20
4.9335088909
 30
0.0
 10
11.3798211916
 20
4.8970556297
 30
0.0
 10
11.388164212
 20
4.8593915301
 30
0.0
 10
11.3906197961
 20
4.8338009328
 30
0.0
 10
11.3910606361
 20
4.8210028407
 30
0.0
  0
SPLINE
  5
301
100
AcDbEntity
  8
0
100
AcDbSpline
 62
7
  6
CONTINUOUS
 70
0
 71
3
 72
11
 73
7
 74
0
 42
0.0000001
 43
0.0000001
 44
0.0000000001
 40
0.0
 40
0.0
 40
0.0
 40
0.0
 40
0.2492412112
 40
0.4988986727
 40
0.7490439941
 40
1.0
 40
1.0
 40
1.0
 40
1.0
 10
10.6985760641
 20
4.8210035344
 30
0.0
 10
10.6990169332
 20
4.8338016498
 30
0.0
 10
10.7014725971
 20
4.8593923576
 30
0.0
 10
10.7098157813
 20
4.897056699
 30
0.0
 10
10.7227038431
 20
4.9335102791
 30
0.0
 10
10.7341825501
 20
4.9566372023
 30
0.0
 10
10.7405924782
 20
4.9678248374
 30
0.0
  0
SPLINE
  5
302
100
AcDbEntity
  8
0
100
AcDbSpline
 62
7
  6
CONTINUOUS
 70
0
 71
3
 72
22
 73
18
 74
0
 42
0.0000001
 43
0.0000001
 44
0.0000000001
 40
0.0
 40
0.0
 40
0.0
 40
0.0
 40
0.1286225793
 40
0.1928726613
 40
0.2568789118
 40
0.3206099161
 40
0.3840388041
 40
0.4471270348
 40
0.5098418243
 40
0.5721752428
 40
0.634131771
 40
0.6957328264
 40
0.7570127579
 40
0.818016002
 40
0.8788034579
 40
0.9394396897
 40
1.0
 40
1.0
 40
1.0
 40
1.0
 10
11.0448183383
 20
4.5921310132
 30
0.0
 10
11.0284942943
 20
4.5921310132
 30
0.0
 10
11.0039372091
 20
4.5944042054
 30
0.0
 10
10.9721699457
 20
4.6018727208
 30
0.0
 10
10.949037419
 20
4.6096485582
 30
0.0
 10
10.9268318216
 20
4.6195102624
 30
0.0
 10
10.9057619863
 20
4.6313771504
 30
0.0
 10
10.8860218316
 20
4.645120454
 30
0.0
 10
10.8678109617
 20
4.6606221597
 30
0.0
 10
10.8513041148
 20
4.6777284092
 30
0.0
 10
10.8366549919
 20
4.6962717223
 30
0.0
 10
10.8240173787
 20
4.7160824186
 30
0.0
 10
10.8134975477
 20
4.7369597574
 30
0.0
 10
10.8052127881
 20
4.758710839
 30
0.0
 10
10.7992357521
 20
4.7811218967
 30
0.0
 10
10.7956222006
 20
4.8039743243
 30
0.0
 10
10.7948206084
 20
4.8193681993
 30
0.0
 10
10.7948206084
 20
4.8270541684
 30
0.0
  0
SPLINE
  5
303
100
AcDbEntity
  8
0
100
AcDbSpline
 62
9
  6
CONTINUOUS
 70
0
 71
3
 72
22
 73
18
 74
0
 42
0.0000001
 43
0.0000001
 44
0.0000000001
 40
0.0
 40
0.0
 40
0.0
 40
0.0
 40
0.1286225793
 40
0.1928726613
 40
0.2568789118
 40
0.3206099161
 40
0.3840388041
 40
0.4471270348
 40
0.5098418243
 40
0.5721752428
 40
0.634131771
 40
0.6957328264
 40
0.7570127579
 40
0.818016002
 40
0.8788034579
 40
0.9394396897
 40
1.0
 40
1.0
 40
1.0
 40
1.0
 10
11.0448183383
 20
4.82299461
 30
0.0
 10
11.0284942943
 20
4.82299461
 30
0.0
 10
11.0039372091
 20
4.8252678021
 30
0.0
 10
10.9721699457
 20
4.8327363175
 30
0.0
 10
10.949037419
 20
4.8405121549
 30
0.0
 10
10.9268318216
 20
4.8503738591
 30
0.0
 10
10.9057619863
 20
4.8622407471
 30
0.0
 10
10.8860218316
 20
4.8759840507
 30
0.0
 10
10.8678109617
 20
4.8914857565
 30
0.0
 10
10.8513041148
 20
4.908592006
 30
0.0
 10
10.8366549919
 20
4.927135319
 30
0.0
 10
10.8240173787
 20
4.9469460154
 30
0.0
 10
10.8134975477
 20
4.9678233542
 30
0.0
 10
10.8052127881
 20
4.9895744357
 30
0.0
 10
10.7992357521
 20
5.0119854934
 30
0.0
 10
10.7956222006
 20
5.034837921
 30
0.0
 10
10.7948206084
 20
5.0502317961
 30
0.0
 10
10.7948206084
 20
5.0579177652
 30
0.0
  0
SPLINE
  5
304
100
AcDbEntity
  8
0
100
AcDbSpline
 62
9
  6
CONTINUOUS
 70
0
 71
3
 72
11
 73
7
 74
0
 42
0.0000001
 43
0.0000001
 44
0.0000000001
 40
0.0
 40
0.0
 40
0.0
 40
0.0
 40
0.2489908738
 40
0.4986229684
 40
0.7488476707
 40
1.0
 40
1.0
 40
1.0
 40
1.0
 10
10.6994959598
 20
4.8142841284
 30
0.0
 10
10.6994959598
 20
4.8255693692
 30
0.0
 10
10.7007607687
 20
4.8481881851
 30
0.0
 10
10.7063916688
 20
4.8817263807
 30
0.0
 10
10.7157266811
 20
4.9145295761
 30
0.0
 10
10.7243218781
 20
4.9356231545
 30
0.0
 10
10.7291836396
 20
4.9459159026
 30
0.0
  0
SPLINE
  5
305
100
AcDbEntity
  8
0
100
AcDbSpline
 62
9
  6
CONTINUOUS
 70
0
 71
3
 72
12
 73
8
 74
0
 42
0.0000001
 43
0.0000001
 44
0.0000000001
 40
0.0
 40
0.0
 40
0.0
 40
0.0
 40
0.2483603075
 40
0.3729637723
 40
0.4977596592
 40
0.7480385405
 40
1.0
 40
1.0
 40
1.0
 40
1.0
 10
10.7483183368
 20
4.8270541684
 30
0.0
 10
10.7483183368
 20
4.8399897732
 30
0.0
 10
10.7497737101
 20
4.8594542729
 30
0.0
 10
10.7545452466
 20
4.8849534961
 30
0.0
 10
10.7612160486
 20
4.9101322815
 30
0.0
 10
10.7730481066
 20
4.9407018254
 30
0.0
 10
10.7859817763
 20
4.963559689
 30
0.0
 10
10.7932386497
 20
4.974493824
 30
0.0
  0
SPLINE
  5
306
100
AcDbEntity
  8
0
100
AcDbSpline
 62
9
  6
CONTINUOUS
 70
0
 71
3
 72
12
 73
8
 74
0
 42
0.0000001
 43
0.0000001
 44
0.0000000001
 40
0.0
 40
0.0
 40
0.0
 40
0.0
 40
0.2519614595
 40
0.5022403408
 40
0.6270362277
 40
0.7516396925
 40
1.0
 40
1.0
 40
1.0
 40
1.0
 10
11.2963980269
 20
4.974493824
 30
0.0
 10
11.3036549002
 20
4.963559689
 30
0.0
 10
11.3165885699
 20
4.9407018254
 30
0.0
 10
11.328420628
 20
4.9101322815
 30
0.0
 10
11.3350914299
 20
4.8849534961
 30
0.0
 10
11.3398629665
 20
4.8594542728
 30
0.0
 10
11.3413183397
 20
4.8399897732
 30
0.0
 10
11.3413183397
 20
4.8270541684
 30
0.0
  0
SPLINE
  5
307
100
AcDbEntity
  8
0
100
AcDbSpline
 62
9
  6
CONTINUOUS
 70
0
 71
3
 72
11
 73
7
 74
0
 42
0.0000001
 43
0.0000001
 44
0.0000000001
 40
0.0
 40
0.0
 40
0.0
 40
0.0
 40
0.2488435286
 40
0.4984230079
 40
0.7486819572
 40
1.0
 40
1.0
 40
1.0
 40
1.0
 10
10.7071517052
 20
4.8201349693
 30
0.0
 10
10.7071517052
 20
4.8319904591
 30
0.0
 10
10.7085811768
 20
4.855759761
 30
0.0
 10
10.7149350281
 20
4.8909406596
 30
0.0
 10
10.7254595674
 20
4.9252298059
 30
0.0
 10
10.7351297076
 20
4.9471522888
 30
0.0
 10
10.7405912142
 20
4.9578075134
 30
0.0
  0
SPLINE
  5
308
100
AcDbEntity
  8
0
100
AcDbSpline
 62
9
  6
CONTINUOUS
 70
0
 71
3
 72
11
 73
7
 74
0
 42
0.0000001
 43
0.0000001
 44
0.0000000001
 40
0.0
 40
0.0
 40
0.0
 40
0.0
 40
0.2513180428
 40
0.5015769921
 40
0.7511564714
 40
1.0
 40
1.0
 40
1.0
 40
1.0
 10
11.3490454623
 20
4.9578075134
 30
0.0
 10
11.354506969
 20
4.9471522888
 30
0.0
 10
11.3641771091
 20
4.9252298059
 30
0.0
 10
11.3747016484
 20
4.8909406596
 30
0.0
 10
11.3810554997
 20
4.855759761
 30
0.0
 10
11.3824849713
 20
4.8319904591
 30
0.0
 10
11.3824849713
 20
4.8201349693
 30
0.0
  0
SPLINE
  5
309
100
AcDbEntity
  8
0
100
AcDbSpline
 62
9
  6
CONTINUOUS
 70
0
 71
3
 72
33
 73
29
 74
0
 42
0.0000001
 43
0.0000001
 44
0.0000000001
 40
0.0
 40
0.0
 40
0.0
 40
0.0
 40
0.0302775306
 40
0.060619143
 40
0.0910414778
 40
0.121581976
 40
0.1830572849
 40
0.2452240451
 40
0.2766077843
 40
0.3081634436
 40
0.3398774414
 40
0.371732111
 40
0.4037054468
 40
0.435770461
 40
0.4999987654
 40
0.5642271514
 40
0.5962922655
 40
0.6282657365
 40
0.6601205738
 40
0.6918347635
 40
0.723390636
 40
0.7547746002
 40
0.8169418186
 40
0.8784175497
 40
0.9089582221
 40
0.939380685
 40
0.96972238
 40
1.0
 40
1.0
 40
1.0
 40
1.0
 10
10.7318037288
 20
4.6674329457
 30
0.0
 10
10.7326667691
 20
4.6583449996
 30
0.0
 10
10.7352888206
 20
4.6402219149
 30
0.0
 10
10.7418753769
 20
4.6135315416
 30
0.0
 10
10.7510668209
 20
4.5875339803
 30
0.0
 10
10.7666975167
 20
4.554037388
 30
0.0
 10
10.7923783304
 20
4.5149261593
 30
0.0
 10
10.8251004291
 20
4.481150999
 30
0.0
 10
10.8548399443
 20
4.4578779728
 30
0.0
 10
10.8788549913
 20
4.4423845394
 30
0.0
 10
10.9042837456
 20
4.4290382329
 30
0.0
 10
10.9309183017
 20
4.4179666813
 30
0.0
 10
10.9585263562
 20
4.4092513326
 30
0.0
 10
10.9963246375
 20
4.4008781927
 30
0.0
 10
11.0447996229
 20
4.3966459186
 30
0.0
 10
11.0932751047
 20
4.4008728041
 30
0.0
 10
11.1310744218
 20
4.4092417086
 30
0.0
 10
11.1586835705
 20
4.4179539927
 30
0.0
 10
11.1853195256
 20
4.4290225644
 30
0.0
 10
11.2107499615
 20
4.4423660377
 30
0.0
 10
11.2347669582
 20
4.4578567969
 30
0.0
 10
11.2645094177
 20
4.4811264969
 30
0.0
 10
11.2972357695
 20
4.5148979938
 30
0.0
 10
11.3229215095
 20
4.5540063589
 30
0.0
 10
11.3385564512
 20
4.5875012103
 30
0.0
 10
11.3477511666
 20
4.6134977366
 30
0.0
 10
11.3543411155
 20
4.6401873653
 30
0.0
 10
11.3569654449
 20
4.6583101732
 30
0.0
 10
11.3578296305
 20
4.6673980376
 30
0.0
  0
SPLINE
  5
30A
100
AcDbEntity
  8
0
100
AcDbSpline
 62
9
  6
CONTINUOUS
 70
0
 71
3
 72
35
 73
31
 74
0
 42
0.0000001
 43
0.0000001
 44
0.0000000001
 40
0.0
 40
0.0
 40
0.0
 40
0.0
 40
0.0302710169
 40
0.0606153963
 40
0.0910662117
 40
0.1216527147
 40
0.1523907215
 40
0.1832882343
 40
0.2455238454
 40
0.2769182595
 40
0.3084687763
 40
0.34016128
 40
0.3719796007
 40
0.4039027245
 40
0.4359067185
 40
0.5000011168
 40
0.564095448
 40
0.5960993587
 40
0.6280223704
 40
0.6598405507
 40
0.6915328923
 40
0.7230832285
 40
0.7544774477
 40
0.8167126554
 40
0.8476099713
 40
0.8783477898
 40
0.9089341163
 40
0.9393847842
 40
0.9697290547
 40
1.0
 40
1.0
 40
1.0
 40
1.0
 10
10.7438804275
 20
4.6485698691
 30
0.0
 10
10.7454840317
 20
4.6403770838
 30
0.0
 10
10.7494552069
 20
4.6241100763
 30
0.0
 10
10.7576336302
 20
4.6003294739
 30
0.0
 10
10.767969841
 20
4.5773065821
 30
0.0
 10
10.7803960031
 20
4.5552184364
 30
0.0
 10
10.79480917
 20
4.5342204853
 30
0.0
 10
10.8165744587
 20
4.5078458641
 30
0.0
 10
10.841874372
 20
4.4843185435
 30
0.0
 10
10.8699798938
 20
4.4642186276
 30
0.0
 10
10.8924448563
 20
4.4508682041
 30
0.0
 10
10.9160517097
 20
4.4393966352
 30
0.0
 10
10.9406291118
 20
4.4298978105
 30
0.0
 10
10.9659881851
 20
4.4224289801
 30
0.0
 10
11.0005941167
 20
4.4152660284
 30
0.0
 10
11.0448344205
 20
4.4116495354
 30
0.0
 10
11.0890743486
 20
4.415270371
 30
0.0
 10
11.123679498
 20
4.4224367451
 30
0.0
 10
11.1490377414
 20
4.4299080648
 30
0.0
 10
11.1736140873
 20
4.4394093075
 30
0.0
 10
11.197219659
 20
4.4508832089
 30
0.0
 10
11.2196831413
 20
4.4642358341
 30
0.0
 10
11.2477864131
 20
4.4843385275
 30
0.0
 10
11.2730837219
 20
4.5078683326
 30
0.0
 10
11.2948460575
 20
4.5342451095
 30
0.0
 10
11.3092568936
 20
4.5552444728
 30
0.0
 10
11.3216805898
 20
4.5773338448
 30
0.0
 10
11.332014232
 20
4.6003577588
 30
0.0
 10
11.3401900119
 20
4.6241391755
 30
0.0
 10
11.3441593603
 20
4.6404065779
 30
0.0
 10
11.3457620514
 20
4.6485995217
 30
0.0
  0
SPLINE
  5
30B
100
AcDbEntity
  8
0
100
AcDbSpline
 62
9
  6
CONTINUOUS
 70
0
 71
3
 72
19
 73
15
 74
0
 42
0.0000001
 43
0.0000001
 44
0.0000000001
 40
0.0
 40
0.0
 40
0.0
 40
0.0
 40
0.0612850046
 40
0.1230012134
 40
0.1851382298
 40
0.2476621272
 40
0.3734616545
 40
0.4999940953
 40
0.6265274855
 40
0.752329684
 40
0.814855399
 40
0.8769944706
 40
0.9387128301
 40
1.0
 40
1.0
 40
1.0
 40
1.0
 10
10.8211304502
 20
4.5596667067
 30
0.0
 10
10.827758492
 20
4.5516993837
 30
0.0
 10
10.8420003877
 20
4.5364657171
 30
0.0
 10
10.8658703856
 20
4.5161105101
 30
0.0
 10
10.8920449893
 20
4.4984303205
 30
0.0
 10
10.9295923538
 20
4.4786791389
 30
0.0
 10
10.9805561018
 20
4.46176282
 30
0.0
 10
11.0447370361
 20
4.4549065272
 30
0.0
 10
11.108922063
 20
4.4617285705
 30
0.0
 10
11.1598957988
 20
4.4786175917
 30
0.0
 10
11.1974549929
 20
4.4983486309
 30
0.0
 10
11.2236402893
 20
4.5160147893
 30
0.0
 10
11.2475225935
 20
4.5363572099
 30
0.0
 10
11.2617737035
 20
4.5515832458
 30
0.0
 10
11.2684065922
 20
4.5595470107
 30
0.0
  0
SPLINE
  5
30C
100
AcDbEntity
  8
0
100
AcDbSpline
 62
9
  6
CONTINUOUS
 70
0
 71
3
 72
15
 73
11
 74
0
 42
0.0000001
 43
0.0000001
 44
0.0000000001
 40
0.0
 40
0.0
 40
0.0
 40
0.0
 40
0.1235403279
 40
0.2482805572
 40
0.3739116468
 40
0.5000161362
 40
0.6261182912
 40
0.7517426202
 40
0.8764724473
 40
1.0
 40
1.0
 40
1.0
 40
1.0
 10
10.8567302726
 20
4.5337318773
 30
0.0
 10
10.8696184335
 20
4.5229863759
 30
0.0
 10
10.8975401589
 20
4.5037006944
 30
0.0
 10
10.9439606903
 20
4.4825017397
 30
0.0
 10
10.9936838803
 20
4.4695146975
 30
0.0
 10
11.0450697801
 20
4.4651684637
 30
0.0
 10
11.0964475035
 20
4.4695998455
 30
0.0
 10
11.1461463774
 20
4.4826694075
 30
0.0
 10
11.1925272054
 20
4.5039454919
 30
0.0
 10
11.2204129454
 20
4.5232777595
 30
0.0
 10
11.2332809377
 20
4.5340447011
 30
0.0
  0
SPLINE
  5
30D
100
AcDbEntity
  8
0
100
AcDbSpline
 62
9
  6
CONTINUOUS
 70
0
 71
3
 72
35
 73
31
 74
0
 42
0.0000001
 43
0.0000001
 44
0.0000000001
 40
0.0
 40
0.0
 40
0.0
 40
0.0
 40
0.0302681792
 40
0.0606077246
 40
0.0910135592
 40
0.1215205157
 40
0.1829028468
 40
0.2449928869
 40
0.2763572999
 40
0.307906184
 40
0.3396266295
 40
0.3715012728
 40
0.4035056126
 40
0.4356120768
 40
0.4677881947
 40
0.5
 40
0.5322118053
 40
0.5643879232
 40
0.5964943874
 40
0.6284987272
 40
0.6603733705
 40
0.692093816
 40
0.7236427001
 40
0.7550071131
 40
0.8170971532
 40
0.8784794843
 40
0.9089864408
 40
0.9393922754
 40
0.9697318208
 40
1.0
 40
1.0
 40
1.0
 40
1.0
 10
10.6993389345
 20
4.8104070357
 30
0.0
 10
10.6994618336
 20
4.7998630286
 30
0.0
 10
10.700809744
 20
4.7787470001
 30
0.0
 10
10.7060855566
 20
4.7474280474
 30
0.0
 10
10.714595915
 20
4.7167365966
 30
0.0
 10
10.73013919
 20
4.6770012242
 30
0.0
 10
10.7572604787
 20
4.6302672726
 30
0.0
 10
10.7932955427
 20
4.5896327856
 30
0.0
 10
10.8266446391
 20
4.5615412973
 30
0.0
 10
10.8538222374
 20
4.5427864455
 30
0.0
 10
10.8828072087
 20
4.5266074295
 30
0.0
 10
10.9133295431
 20
4.5131600984
 30
0.0
 10
10.9450954783
 20
4.5025623346
 30
0.0
 10
10.9778077634
 20
4.4949266121
 30
0.0
 10
11.0111532742
 20
4.4903093772
 30
0.0
 10
11.0448183383
 20
4.4887716612
 30
0.0
 10
11.0784834023
 20
4.4903093772
 30
0.0
 10
11.1118289131
 20
4.4949266121
 30
0.0
 10
11.1445411982
 20
4.5025623346
 30
0.0
 10
11.1763071334
 20
4.5131600984
 30
0.0
 10
11.2068294679
 20
4.5266074295
 30
0.0
 10
11.2358144391
 20
4.5427864455
 30
0.0
 10
11.2629920374
 20
4.5615412973
 30
0.0
 10
11.2963411338
 20
4.5896327856
 30
0.0
 10
11.3323761978
 20
4.6302672726
 30
0.0
 10
11.3594974865
 20
4.6770012242
 30
0.0
 10
11.3750407615
 20
4.7167365966
 30
0.0
 10
11.38355112
 20
4.7474280474
 30
0.0
 10
11.3888269325
 20
4.7787470001
 30
0.0
 10
11.3901748429
 20
4.7998630286
 30
0.0
 10
11.3902977421
 20
4.8104070357
 30
0.0
  0
SPLINE
  5
30E
100
AcDbEntity
  8
0
100
AcDbSpline
 62
9
  6
CONTINUOUS
 70
0
 71
3
 72
11
 73
7
 74
0
 42
0.0000001
 43
0.0000001
 44
0.0000000001
 40
0.0
 40
0.0
 40
0.0
 40
0.0
 40
0.251151225
 40
0.5013758829
 40
0.7510084325
 40
1.0
 40
1.0
 40
1.0
 40
1.0
 10
11.3604821054
 20
4.9458543449
 30
0.0
 10
11.3653391848
 20
4.9355657343
 30
0.0
 10
11.373926039
 20
4.9144811645
 30
0.0
 10
11.3832518521
 20
4.8816931784
 30
0.0
 10
11.3888771643
 20
4.8481713004
 30
0.0
 10
11.3901407168
 20
4.825563759
 30
0.0
 10
11.3901407168
 20
4.8142841284
 30
0.0
  0
SPLINE
  5
30F
100
AcDbEntity
  8
0
100
AcDbSpline
 62
9
  6
CONTINUOUS
 70
0
 71
3
 72
35
 73
31
 74
0
 42
0.0000001
 43
0.0000001
 44
0.0000000001
 40
0.0
 40
0.0
 40
0.0
 40
0.0
 40
0.0302680097
 40
0.060607885
 40
0.0910138565
 40
0.1215210356
 40
0.1829043959
 40
0.2449953106
 40
0.2763599351
 40
0.3079088736
 40
0.3396292057
 40
0.3715035709
 40
0.403507482
 40
0.4356133965
 40
0.4677888766
 40
0.5
 40
0.5322111234
 40
0.5643866035
 40
0.596492518
 40
0.6284964291
 40
0.6603707943
 40
0.6920911264
 40
0.7236400649
 40
0.7550046894
 40
0.8170956041
 40
0.8784789644
 40
0.9089861435
 40
0.939392115
 40
0.9697319903
 40
1.0
 40
1.0
 40
1.0
 40
1.0
 10
10.6995204746
 20
4.8104302719
 30
0.0
 10
10.6996544212
 20
4.7998982458
 30
0.0
 10
10.7010220381
 20
4.7788072163
 30
0.0
 10
10.7063208403
 20
4.7475281093
 30
0.0
 10
10.7148483628
 20
4.7168781925
 30
0.0
 10
10.7304062978
 20
4.6771993568
 30
0.0
 10
10.7575296505
 20
4.630536238
 30
0.0
 10
10.7935469961
 20
4.5899668668
 30
0.0
 10
10.8268718172
 20
4.5619217234
 30
0.0
 10
10.8540262632
 20
4.5431983412
 30
0.0
 10
10.8829839453
 20
4.5270469382
 30
0.0
 10
10.9134753643
 20
4.5136227753
 30
0.0
 10
10.945207475
 20
4.5030434775
 30
0.0
 10
10.9778836835
 20
4.4954211285
 30
0.0
 10
11.0111916156
 20
4.4908120222
 30
0.0
 10
11.0448183383
 20
4.489277022
 30
0.0
 10
11.0784450609
 20
4.4908120222
 30
0.0
 10
11.111752993
 20
4.4954211285
 30
0.0
 10
11.1444292016
 20
4.5030434775
 30
0.0
 10
11.1761613123
 20
4.5136227753
 30
0.0
 10
11.2066527312
 20
4.5270469382
 30
0.0
 10
11.2356104134
 20
4.5431983412
 30
0.0
 10
11.2627648594
 20
4.5619217234
 30
0.0
 10
11.2960896804
 20
4.5899668668
 30
0.0
 10
11.332107026
 20
4.630536238
 30
0.0
 10
11.3592303788
 20
4.6771993568
 30
0.0
 10
11.3747883138
 20
4.7168781925
 30
0.0
 10
11.3833158362
 20
4.7475281093
 30
0.0
 10
11.3886146384
 20
4.7788072163
 30
0.0
 10
11.3899822553
 20
4.7998982458
 30
0.0
 10
11.3901162019
 20
4.8104302719
 30
0.0
  0
SPLINE
  5
310
100
AcDbEntity
  8
0
100
AcDbSpline
 62
9
  6
CONTINUOUS
 70
0
 71
3
 72
35
 73
31
 74
0
 42
0.0000001
 43
0.0000001
 44
0.0000000001
 40
0.0
 40
0.0
 40
0.0
 40
0.0
 40
0.0302600162
 40
0.0606006497
 40
0.0910095456
 40
0.1215131222
 40
0.1521527057
 40
0.1829580624
 40
0.2139419837
 40
0.2451132634
 40
0.2764742228
 40
0.3080209609
 40
0.339741896
 40
0.3716180424
 40
0.4356679823
 40
0.5
 40
0.5643320177
 40
0.6283819576
 40
0.660258104
 40
0.6919790391
 40
0.7235257772
 40
0.7548867366
 40
0.7860580163
 40
0.8170419376
 40
0.8478472943
 40
0.8784868778
 40
0.9089904544
 40
0.9393993503
 40
0.9697399838
 40
1.0
 40
1.0
 40
1.0
 40
1.0
 10
10.7483183368
 20
4.8270541684
 30
0.0
 10
10.7483183368
 20
4.8179459302
 30
0.0
 10
10.7492791868
 20
4.7996913398
 30
0.0
 10
10.7535531188
 20
4.7725854497
 30
0.0
 10
10.7606438331
 20
4.7459973972
 30
0.0
 10
10.7704731908
 20
4.7202010147
 30
0.0
 10
10.7829452563
 20
4.6954400973
 30
0.0
 10
10.7979403027
 20
4.6719501487
 30
0.0
 10
10.8153066748
 20
4.6499510959
 30
0.0
 10
10.834889127
 20
4.6296675384
 30
0.0
 10
10.856484102
 20
4.6112802582
 30
0.0
 10
10.8798948242
 20
4.5949795631
 30
0.0
 10
10.904888961
 20
4.5809075984
 30
0.0
 10
10.9400455793
 20
4.5652909592
 30
0.0
 10
10.9867345824
 20
4.5520054557
 30
0.0
 10
11.0448183383
 20
4.5466463075
 30
0.0
 10
11.1029020941
 20
4.5520054557
 30
0.0
 10
11.1495910972
 20
4.5652909592
 30
0.0
 10
11.1847477155
 20
4.5809075984
 30
0.0
 10
11.2097418523
 20
4.5949795631
 30
0.0
 10
11.2331525745
 20
4.6112802582
 30
0.0
 10
11.2547475496
 20
4.6296675384
 30
0.0
 10
11.2743300018
 20
4.6499510959
 30
0.0
 10
11.2916963738
 20
4.6719501487
 30
0.0
 10
11.3066914202
 20
4.6954400973
 30
0.0
 10
11.3191634857
 20
4.7202010147
 30
0.0
 10
11.3289928434
 20
4.7459973972
 30
0.0
 10
11.3360835578
 20
4.7725854497
 30
0.0
 10
11.3403574898
 20
4.7996913398
 30
0.0
 10
11.3413183397
 20
4.8179459302
 30
0.0
 10
11.3413183397
 20
4.8270541684
 30
0.0
  0
SPLINE
  5
311
100
AcDbEntity
  8
0
100
AcDbSpline
 62
9
  6
CONTINUOUS
 70
0
 71
3
 72
22
 73
18
 74
0
 42
0.0000001
 43
0.0000001
 44
0.0000000001
 40
0.0
 40
0.0
 40
0.0
 40
0.0
 40
0.0605603103
 40
0.1211965421
 40
0.181983998
 40
0.2429872421
 40
0.3042671736
 40
0.365868229
 40
0.4278247572
 40
0.4901581757
 40
0.5528729652
 40
0.6159611959
 40
0.6793900839
 40
0.7431210882
 40
0.8071273387
 40
0.8713774207
 40
1.0
 40
1.0
 40
1.0
 40
1.0
 10
11.2948160682
 20
5.0579177652
 30
0.0
 10
11.2948160682
 20
5.0502317961
 30
0.0
 10
11.294014476
 20
5.034837921
 30
0.0
 10
11.2904009245
 20
5.0119854934
 30
0.0
 10
11.2844238884
 20
4.9895744357
 30
0.0
 10
11.2761391289
 20
4.9678233542
 30
0.0
 10
11.2656192978
 20
4.9469460154
 30
0.0
 10
11.2529816846
 20
4.927135319
 30
0.0
 10
11.2383325617
 20
4.908592006
 30
0.0
 10
11.2218257148
 20
4.8914857565
 30
0.0
 10
11.2036148449
 20
4.8759840507
 30
0.0
 10
11.1838746903
 20
4.8622407471
 30
0.0
 10
11.162804855
 20
4.8503738591
 30
0.0
 10
11.1405992576
 20
4.8405121549
 30
0.0
 10
11.1174667309
 20
4.8327363175
 30
0.0
 10
11.0856994675
 20
4.8252678021
 30
0.0
 10
11.0611423823
 20
4.82299461
 30
0.0
 10
11.0448183383
 20
4.82299461
 30
0.0
  0
SPLINE
  5
312
100
AcDbEntity
  8
0
100
AcDbSpline
 62
9
  6
CONTINUOUS
 70
0
 71
3
 72
35
 73
31
 74
0
 42
0.0000001
 43
0.0000001
 44
0.0000000001
 40
0.0
 40
0.0
 40
0.0
 40
0.0
 40
0.0302657826
 40
0.0606064025
 40
0.0910157099
 40
0.121527362
 40
0.1521802289
 40
0.1829992308
 40
0.2139952216
 40
0.2451761439
 40
0.2765430154
 40
0.3080914853
 40
0.3398092368
 40
0.3716776374
 40
0.4357025893
 40
0.5
 40
0.5642974107
 40
0.6283223626
 40
0.6601907632
 40
0.6919085147
 40
0.7234569846
 40
0.7548238561
 40
0.7860047784
 40
0.8170007692
 40
0.8478197711
 40
0.878472638
 40
0.9089842901
 40
0.9393935975
 40
0.9697342174
 40
1.0
 40
1.0
 40
1.0
 40
1.0
 10
10.7072800871
 20
4.8114148009
 30
0.0
 10
10.7075800734
 20
4.8012199962
 30
0.0
 10
10.7092328301
 20
4.7808211358
 30
0.0
 10
10.7148171923
 20
4.7506107675
 30
0.0
 10
10.723487054
 20
4.7210477002
 30
0.0
 10
10.7351396209
 20
4.6924165726
 30
0.0
 10
10.7496761296
 20
4.6649803184
 30
0.0
 10
10.7669527177
 20
4.6389868603
 30
0.0
 10
10.7868093813
 20
4.6146769802
 30
0.0
 10
10.8090683696
 20
4.592286338
 30
0.0
 10
10.8335095695
 20
4.5720086786
 30
0.0
 10
10.8599176965
 20
4.5540477261
 30
0.0
 10
10.8880386121
 20
4.5385517158
 30
0.0
 10
10.9275151335
 20
4.5213673377
 30
0.0
 10
10.9798244815
 20
4.5067570178
 30
0.0
 10
11.0448183383
 20
4.5008655133
 30
0.0
 10
11.109812195
 20
4.5067570178
 30
0.0
 10
11.162121543
 20
4.5213673377
 30
0.0
 10
11.2015980644
 20
4.5385517158
 30
0.0
 10
11.22971898
 20
4.5540477261
 30
0.0
 10
11.256127107
 20
4.5720086786
 30
0.0
 10
11.280568307
 20
4.592286338
 30
0.0
 10
11.3028272952
 20
4.6146769802
 30
0.0
 10
11.3226839588
 20
4.6389868603
 30
0.0
 10
11.339960547
 20
4.6649803184
 30
0.0
 10
11.3544970556
 20
4.6924165726
 30
0.0
 10
11.3661496225
 20
4.7210477002
 30
0.0
 10
11.3748194842
 20
4.7506107675
 30
0.0
 10
11.3804038464
 20
4.7808211358
 30
0.0
 10
11.3820566031
 20
4.8012199962
 30
0.0
 10
11.3823565895
 20
4.8114148009
 30
0.0
  0
SPLINE
  5
313
100
AcDbEntity
  8
0
100
AcDbSpline
 62
7
  6
CONTINUOUS
 70
0
 71
3
 72
22
 73
18
 74
0
 42
0.0000001
 43
0.0000001
 44
0.0000000001
 40
0.0
 40
0.0
 40
0.0
 40
0.0
 40
0.0605603103
 40
0.1211965421
 40
0.181983998
 40
0.2429872421
 40
0.3042671736
 40
0.365868229
 40
0.4278247572
 40
0.4901581757
 40
0.5528729652
 40
0.6159611959
 40
0.6793900839
 40
0.7431210882
 40
0.8071273387
 40
0.8713774207
 40
1.0
 40
1.0
 40
1.0
 40
1.0
 10
11.2948160682
 20
4.8270541684
 30
0.0
 10
11.2948160682
 20
4.8193681993
 30
0.0
 10
11.294014476
 20
4.8039743243
 30
0.0
 10
11.2904009245
 20
4.7811218967
 30
0.0
 10
11.2844238884
 20
4.758710839
 30
0.0
 10
11.2761391289
 20
4.7369597574
 30
0.0
 10
11.2656192978
 20
4.7160824186
 30
0.0
 10
11.2529816846
 20
4.6962717223
 30
0.0
 10
11.2383325617
 20
4.6777284092
 30
0.0
 10
11.2218257148
 20
4.6606221597
 30
0.0
 10
11.2036148449
 20
4.645120454
 30
0.0
 10
11.1838746903
 20
4.6313771504
 30
0.0
 10
11.162804855
 20
4.6195102624
 30
0.0
 10
11.1405992576
 20
4.6096485582
 30
0.0
 10
11.1174667309
 20
4.6018727208
 30
0.0
 10
11.0856994675
 20
4.5944042054
 30
0.0
 10
11.0611423823
 20
4.5921310132
 30
0.0
 10
11.0448183383
 20
4.5921310132
 30
0.0
  0
SPLINE
  5
314
100
AcDbEntity
  8
0
100
AcDbSpline
 62
7
  6
CONTINUOUS
 70
0
 71
3
 72
11
 73
7
 74
0
 42
0.0000001
 43
0.0000001
 44
0.0000000001
 40
0.0
 40
0.0
 40
0.0
 40
0.0
 40
0.2487868626
 40
0.4982517983
 40
0.7485319298
 40
1.0
 40
1.0
 40
1.0
 40
1.0
 10
10.6993988078
 20
4.8209378114
 30
0.0
 10
10.6996929295
 20
4.8337089559
 30
0.0
 10
10.7018947134
 20
4.8592772435
 30
0.0
 10
10.7099675424
 20
4.8969538823
 30
0.0
 10
10.722714476
 20
4.9334614554
 30
0.0
 10
10.7341738915
 20
4.9566209502
 30
0.0
 10
10.7405924602
 20
4.9678248477
 30
0.0
  0
ENDSEC
  0
SECTION
  2
OBJECTS
  0
DICTIONARY
  5
C
100
AcDbDictionary
280
0
281
1
  3
ACAD_GROUP
350
D
  3
ACAD_MLINESTYLE
350
17
  3
ACAD_LAYOUT
350
1A
  3
ACAD_PLOTSETTINGS
350
19
  3
ACAD_PLOTSTYLENAME
350
E
  0
DICTIONARY
  5
D
102
{ACAD_REACTORS
330
C
102
}
100
AcDbDictionary
280
0
281
1
  0
ACDBDICTIONARYWDFLT
  5
E
102
{ACAD_REACTORS
330
C
102
}
100
AcDbDictionary
281
1
  3
Normal
350
F
100
AcDbDictionaryWithDefault
340
F
  0
DICTIONARY
  5
17
102
{ACAD_REACTORS
330
C
102
}
100
AcDbDictionary
280
0
281
1
  3
Standard
350
18
  0
DICTIONARY
  5
19
102
{ACAD_REACTORS
330
C
102
}
100
AcDbDictionary
281
1
  0
DICTIONARY
  5
1A
102
{ACAD_REACTORS
330
C
102
}
100
AcDbDictionary
281
1
  3
Model
350
315
  3
Layout1
350
316
  0
ACDBPLACEHOLDER
  5
F
102
{ACAD_REACTORS
330
E
102
}
  0
MLINESTYLE
  5
18
102
{ACAD_REACTORS
330
17
102
}
100
AcDbMlineStyle
  2
STANDARD
 70
0
  3

 62
256
 51
90.0
 52
90.0
 71
2
 49
0.5
 62
256
  6
BYLAYER
 49
-0.5
 62
256
  6
BYLAYER
  0
LAYOUT
  5
315
102
{ACAD_REACTORS
330
1A
102
}
100
AcDbPlotSettings
  1

  2
none_device
  4
ANSI_C_(22.00_x_17.00_Inches)
  6

 40
0.0
 41
0.0
 42
0.0
 43
0.0
 44
558.8
 45
431.8
 46
0.0
 47
0.0
 48
0.0
 49
0.0
140
0.0
141
0.0
142
1.0
143
1.0
 70
1024
 72
0
 73
0
 74
0
  7

 75
0
147
1.0
148
0.0
149
0.0
100
AcDbLayout
  1
Model
 70
0
 71
0
 10
0.0
 20
0.0
 11
22.0
 21
17.0
 12
0.0
 22
0.0
 32
0.0
 14
0.0
 24
0.0
 34
0.0
 15
0.0
 25
0.0
 35
0.0
146
0.0
 13
0.0
 23
0.0
 33
0.0
 16
1.0
 26
0.0
 36
0.0
 17
0.0
 27
1.0
 37
0.0
 76
0
330
205
345
0
346
0
  0
LAYOUT
  5
316
102
{ACAD_REACTORS
330
1A
102
}
100
AcDbPlotSettings
  1

  2
none_device
  4
ANSI_C_(22.00_x_17.00_Inches)
  6

 40
0.0
 41
0.0
 42
0.0
 43
0.0
 44
558.8
 45
431.8
 46
0.0
 47
0.0
 48
0.0
 49
0.0
140
0.0
141
0.0
142
1.0
143
1.0
 70
0
 72
0
 73
0
 74
0
  7

 75
0
147
1.0
148
0.0
149
0.0
100
AcDbLayout
  1
Layout1
 70
0
 71
1
 10
0.0
 20
0.0
 11
22.0
 21
17.0
 12
0.0
 22
0.0
 32
0.0
 14
0.0
 24
0.0
 34
0.0
 15
0.0
 25
0.0
 35
0.0
146
0.0
 13
0.0
 23
0.0
 33
0.0
 16
1.0
 26
0.0
 36
0.0
 17
0.0
 27
1.0
 37
0.0
 76
0
330
206
345
0
346
0
  0
ENDSEC
  0
EOF
