999
DXF file: E:\BT Custom\CADOUTPUT\_FRONT.dxf
999
Pro/ENGINEER 2018400 by Parametric Technology Corporation
  0
SECTION
  2
HEADER
  9
$ACADVER
  1
AC1018
  9
$DWGCODEPAGE
  3
ANSI_1252
  9
$EXTMAX
 10
22.0
 20
17.0
 30
0.0
  9
$EXTMIN
 10
0.0
 20
0.0
 30
0.0
  9
$LIMMIN
 10
0.0
 20
0.0
  9
$LIMMAX
 10
22.0
 20
17.0
  9
$VIEWCTR
 10
11.0
 20
8.5
  9
$VIEWSIZE
 40
17.0
  9
$CLAYER
  8
0
  9
$LTSCALE
 40
1.21
  9
$CELTYPE
  6
BYLAYER
  9
$DIMSCALE
 40
1.0
  9
$DIMASZ
 40
0.1
  9
$DIMEXO
 40
0.0625
  9
$DIMDLI
 40
0.836
  9
$DIMEXE
 40
0.125
  9
$DIMCEN
 40
0.198
  9
$DIMLFAC
 40
1.0
  9
$DIMBLK
  1
_FILLED
  9
$DIMALT
 70
1
  9
$DIMALTD
 70
2
  9
$DIMALTTD
 70
2
  9
$DIMALTF
 40
25.4
  9
$DIMTXT
 40
0.08
  9
$DIMTOL
 70
1
  9
$DIMLIM
 70
0
  9
$DIMTFAC
 40
1.0
  9
$DIMTP
 40
0.001
  9
$DIMTM
 40
0.001
  9
$DIMGAP
 40
0.09
  9
$DIMDSEP
 70
46
  9
$AUNITS
 70
0
  9
$PDMODE
 70
3
  9
$PDSIZE
 40
0.06
  9
$HANDSEED
  5
33E
  9
$TILEMODE
 70
1
  9
$MEASUREMENT
 70
0
  9
$INSUNITS
 70
1
  0
ENDSEC
  0
SECTION
  2
CLASSES
  0
CLASS
  1
ACDBDICTIONARYWDFLT
  2
AcDbDictionaryWithDefault
  3
AutoCAD 2000
 90
0
 91
1
280
0
281
0
  0
CLASS
  1
ACDBPLACEHOLDER
  2
AcDbPlaceHolder
  3
AutoCAD 2000
 90
0
 91
1
280
0
281
0
  0
CLASS
  1
LAYOUT
  2
AcDbLayout
  3
AutoCAD 2000
 90
0
 91
0
280
0
281
0
  0
ENDSEC
  0
SECTION
  2
TABLES
  0
TABLE
  2
VPORT
  5
8
100
AcDbSymbolTable
 70
2
  0
VPORT
  5
1F4
100
AcDbSymbolTableRecord
100
AcDbViewportTableRecord
  2
*ACTIVE
 70
0
 10
0.0
 20
0.0
 11
1.0
 21
1.0
 12
11.0
 22
8.5
 13
0.0
 23
0.0
 14
1.0
 24
1.0
 15
0.0
 25
0.0
 16
0.0
 26
0.0
 36
1.0
 17
0.0
 27
0.0
 37
0.0
 40
17.0
 41
1.2941176471
 42
50.0
 43
0.0
 44
0.0
 50
0.0
 51
0.0
 71
0
 72
100
 73
1
 74
1
 75
0
 76
0
 77
0
 78
0
  0
ENDTAB
  0
TABLE
  2
LTYPE
  5
5
100
AcDbSymbolTable
 70
6
  0
LTYPE
  5
14
100
AcDbSymbolTableRecord
100
AcDbLinetypeTableRecord
  2
BYBLOCK
 70
0
  3

 72
65
 73
0
 40
0.0
  0
LTYPE
  5
15
100
AcDbSymbolTableRecord
100
AcDbLinetypeTableRecord
  2
BYLAYER
 70
0
  3

 72
65
 73
0
 40
0.0
  0
LTYPE
  5
16
100
AcDbSymbolTableRecord
100
AcDbLinetypeTableRecord
  2
CONTINUOUS
 70
64
  3
Solid line
 72
65
 73
0
 40
0.0
  0
LTYPE
  5
1F5
100
AcDbSymbolTableRecord
100
AcDbLinetypeTableRecord
  2
CENTER
 70
64
  3
____ _ ____ _ ____ _ ____ _ ____ _ ____ _ ____
 72
65
 73
4
 40
0.6
 49
0.375
 74
0
 49
-0.075
 74
0
 49
0.075
 74
0
 49
-0.075
 74
0
  0
LTYPE
  5
1F6
100
AcDbSymbolTableRecord
100
AcDbLinetypeTableRecord
  2
HIDDEN
 70
64
  3
- - - - - - - - - - - - - - - - - - - -
 72
65
 73
2
 40
0.2
 49
0.1
 74
0
 49
-0.1
 74
0
  0
LTYPE
  5
1F7
100
AcDbSymbolTableRecord
100
AcDbLinetypeTableRecord
  2
PHANTOM
 70
64
  3
_____ _ _ _____ _ _ _____ _ _ _____
 72
65
 73
6
 40
0.8
 49
0.45
 74
0
 49
-0.05
 74
0
 49
0.1
 74
0
 49
-0.05
 74
0
 49
0.1
 74
0
 49
-0.05
 74
0
  0
LTYPE
  5
1F8
100
AcDbSymbolTableRecord
100
AcDbLinetypeTableRecord
  2
DOT
 70
64
  3
. . . . . . . . . . . . . . . . . . . .
 72
65
 73
2
 40
0.2
 49
0.1
 74
0
 49
-0.1
 74
0
  0
LTYPE
  5
1F9
100
AcDbSymbolTableRecord
100
AcDbLinetypeTableRecord
  2
DASHED
 70
64
  3
- - - - - - - - - - - - - - - - - - - -
 72
65
 73
2
 40
0.2
 49
0.1
 74
0
 49
-0.1
 74
0
  0
ENDTAB
  0
TABLE
  2
LAYER
  5
2
100
AcDbSymbolTable
 70
36
  0
LAYER
  5
10
100
AcDbSymbolTableRecord
100
AcDbLayerTableRecord
  2
0
 70
0
 62
7
  6
CONTINUOUS
370
-3
390
F
  0
LAYER
  5
1FA
100
AcDbSymbolTableRecord
100
AcDbLayerTableRecord
  2
DEFAULT_1
 70
0
 62
7
  6
CENTER
370
-3
390
F
  0
LAYER
  5
1FB
100
AcDbSymbolTableRecord
100
AcDbLayerTableRecord
  2
DEFAULT_2
 70
0
 62
8
  6
HIDDEN
370
-3
390
F
  0
LAYER
  5
1FC
100
AcDbSymbolTableRecord
100
AcDbLayerTableRecord
  2
DEFAULT_3
 70
0
 62
7
  6
PHANTOM
370
-3
390
F
  0
LAYER
  5
1FD
100
AcDbSymbolTableRecord
100
AcDbLayerTableRecord
  2
ALL_FEATURES
 70
0
 62
7
  6
CONTINUOUS
370
-3
390
F
  0
LAYER
  5
1FE
100
AcDbSymbolTableRecord
100
AcDbLayerTableRecord
  2
AXES_FEATURES
 70
0
 62
7
  6
CONTINUOUS
370
-3
390
F
  0
LAYER
  5
1FF
100
AcDbSymbolTableRecord
100
AcDbLayerTableRecord
  2
DIMENSIONS
 70
0
 62
7
  6
CONTINUOUS
370
-3
390
F
  0
ENDTAB
  0
TABLE
  2
STYLE
  5
3
100
AcDbSymbolTable
 70
1
  0
STYLE
  5
11
100
AcDbSymbolTableRecord
100
AcDbTextStyleTableRecord
  2
STANDARD
 70
0
 40
0.0
 41
0.8
 50
0.0
 71
0
 42
0.2
  3
txt
  4

  0
STYLE
  5
200
100
AcDbSymbolTableRecord
100
AcDbTextStyleTableRecord
  2
TEXTSTYLE_1
 70
0
 40
0.0
 41
0.8
 50
0.0
 71
0
 42
0.2
  3
gdt
  4

  0
ENDTAB
  0
TABLE
  2
VIEW
  5
6
100
AcDbSymbolTable
 70
0
  0
ENDTAB
  0
TABLE
  2
UCS
  5
7
100
AcDbSymbolTable
 70
0
  0
ENDTAB
  0
TABLE
  2
APPID
  5
9
100
AcDbSymbolTable
 70
1
  0
APPID
  5
201
100
AcDbSymbolTableRecord
100
AcDbRegAppTableRecord
  2
ACAD
 70
0
  0
ENDTAB
  0
TABLE
  2
BLOCK_RECORD
  5
1
100
AcDbSymbolTable
 70
0
  0
BLOCK_RECORD
  5
202
100
AcDbSymbolTableRecord
100
AcDbBlockTableRecord
  2
*Model_Space
  0
BLOCK_RECORD
  5
203
100
AcDbSymbolTableRecord
100
AcDbBlockTableRecord
  2
*Paper_Space
  0
BLOCK_RECORD
  5
204
100
AcDbSymbolTableRecord
100
AcDbBlockTableRecord
  2
_FILLED
  0
ENDTAB
  0
TABLE
  2
DIMSTYLE
  5
A
100
AcDbSymbolTable
 70
1
100
AcDbDimStyleTable
 71
0
  0
DIMSTYLE
105
205
100
AcDbSymbolTableRecord
100
AcDbDimStyleTableRecord
  2
STANDARD
 70
0
  3

  4

 40
1.0
 41
0.1
 42
0.0625
 43
0.38
 44
0.125
 45
0.0
 46
0.0
 47
0.001
 48
0.001
140
0.08
141
0.09
142
0.0
143
25.4
144
1.0
145
0.0
146
1.0
147
0.09
 71
1.0
 72
0.0
 73
1
 74
1
 75
0
 76
0
 77
0
 78
4
 79
1
170
1
171
2
172
0
173
0
174
0
175
0
176
0
177
0
178
0
270
2
179
3
271
3
272
3
273
2
274
2
275
0
280
0
281
0
282
0
283
1
284
4
285
0
286
0
287
3
288
0
340
11
278
46
341
204
342
204
343
204
344
204
  0
ENDTAB
  0
ENDSEC
  0
SECTION
  2
BLOCKS
  0
BLOCK
  5
20
100
AcDbEntity
  8
0
100
AcDbBlockBegin
  2
*Model_Space
 70
0
 10
0.0
 20
0.0
 30
0.0
  3
*Model_Space
  1

  0
ENDBLK
  5
21
100
AcDbEntity
  8
0
100
AcDbBlockEnd
  0
BLOCK
  5
1C
100
AcDbEntity
  8
0
100
AcDbBlockBegin
  2
*Paper_Space
 70
0
 10
0.0
 20
0.0
 30
0.0
  3
*Paper_Space
  1

  0
ENDBLK
  5
1D
100
AcDbEntity
  8
0
100
AcDbBlockEnd
  0
BLOCK
  5
206
100
AcDbEntity
  8
0
100
AcDbBlockBegin
  2
_FILLED
 70
64
 10
0.0
 20
0.0
  3
_FILLED
  1

  0
SOLID
  5
207
100
AcDbEntity
  8
0
  6
BYBLOCK
 62
0
100
AcDbTrace
 10
0.0
 20
0.0
 11
-1.0
 21
0.2
 12
-1.0
 22
-0.2
 13
-1.0
 23
-0.2
  0
ENDBLK
  5
208
100
AcDbEntity
  8
0
  6
BYBLOCK
 62
0
100
AcDbBlockEnd
  0
ENDSEC
  0
SECTION
  2
ENTITIES
  0
LINE
  5
209
100
AcDbEntity
  8
0
100
AcDbLine
 62
7
  6
CONTINUOUS
 10
10.5692766449
 20
4.5319045391
 11
12.8298467509
 21
4.5319045391
  0
LINE
  5
20A
100
AcDbEntity
  8
0
100
AcDbLine
 62
9
  6
CONTINUOUS
 10
12.8439583362
 20
4.5660878569
 11
10.5551758118
 21
4.5660878569
  0
LINE
  5
20B
100
AcDbEntity
  8
0
100
AcDbLine
 62
9
  6
CONTINUOUS
 10
12.8031596524
 20
4.6083758044
 11
10.5959744956
 21
4.6083758044
  0
LINE
  5
20C
100
AcDbEntity
  8
0
100
AcDbLine
 62
9
  6
CONTINUOUS
 10
10.7207909876
 20
4.7512039834
 11
12.6783553865
 21
4.7512039834
  0
LINE
  5
20D
100
AcDbEntity
  8
0
100
AcDbLine
 62
9
  6
CONTINUOUS
 10
10.7240366186
 20
4.7710568568
 11
12.6750975294
 21
4.7710568568
  0
LINE
  5
20E
100
AcDbEntity
  8
0
100
AcDbLine
 62
9
  6
CONTINUOUS
 10
12.6717109761
 20
4.798855511
 11
10.7274231719
 21
4.798855511
  0
LINE
  5
20F
100
AcDbEntity
  8
0
100
AcDbLine
 62
9
  6
CONTINUOUS
 10
12.6624095131
 20
4.8085045391
 11
10.7367246348
 21
4.8085045391
  0
LINE
  5
210
100
AcDbEntity
  8
0
100
AcDbLine
 62
7
  6
CONTINUOUS
 10
12.6402095131
 20
4.8159045391
 11
10.7589246348
 21
4.8159045391
  0
LINE
  5
211
100
AcDbEntity
  8
0
100
AcDbLine
 62
9
  6
CONTINUOUS
 10
12.6255360999
 20
4.8185998608
 11
10.7736118461
 21
4.8185998608
  0
LINE
  5
212
100
AcDbEntity
  8
0
100
AcDbLine
 62
9
  6
CONTINUOUS
 10
10.8010979639
 20
4.8349920475
 11
12.5980361841
 21
4.8349920475
  0
LINE
  5
213
100
AcDbEntity
  8
0
100
AcDbLine
 62
9
  6
CONTINUOUS
 10
10.8390152748
 20
4.8793627724
 11
12.5601188732
 21
4.8793627724
  0
LINE
  5
214
100
AcDbEntity
  8
0
100
AcDbLine
 62
7
  6
CONTINUOUS
 10
12.521067074
 20
4.9059045391
 11
10.878067074
 21
4.9059045391
  0
LINE
  5
215
100
AcDbEntity
  8
0
100
AcDbLine
 62
7
  6
CONTINUOUS
 10
10.894567074
 20
4.9219045391
 11
12.504567074
 21
4.9219045391
  0
LINE
  5
216
100
AcDbEntity
  8
0
100
AcDbLine
 62
9
  6
CONTINUOUS
 10
12.504567074
 20
5.0000097756
 11
10.894567074
 21
5.0000097756
  0
LINE
  5
217
100
AcDbEntity
  8
0
100
AcDbLine
 62
9
  6
CONTINUOUS
 10
12.4679507949
 20
5.1114860917
 11
10.9311833531
 21
5.1114860917
  0
LINE
  5
218
100
AcDbEntity
  8
0
100
AcDbLine
 62
9
  6
CONTINUOUS
 10
12.3897099311
 20
5.54499269
 11
11.0094242168
 21
5.54499269
  0
LINE
  5
219
100
AcDbEntity
  8
0
100
AcDbLine
 62
7
  6
CONTINUOUS
 10
10.8645271824
 20
5.8921548966
 11
10.9483785146
 21
5.8921548966
  0
LINE
  5
21A
100
AcDbEntity
  8
0
100
AcDbLine
 62
7
  6
CONTINUOUS
 10
10.3945271824
 20
6.1171548966
 11
10.4145271824
 21
6.1171548966
  0
LINE
  5
21B
100
AcDbEntity
  8
0
100
AcDbLine
 62
7
  6
CONTINUOUS
 10
9.1145271824
 20
6.1271548966
 11
9.1345271824
 21
6.1271548966
  0
LINE
  5
21C
100
AcDbEntity
  8
0
100
AcDbLine
 62
7
  6
CONTINUOUS
 10
9.1145271824
 20
6.6071548966
 11
9.1345271824
 21
6.6071548966
  0
LINE
  5
21D
100
AcDbEntity
  8
0
100
AcDbLine
 62
7
  6
CONTINUOUS
 10
10.3945271824
 20
6.6171548966
 11
10.4145271824
 21
6.6171548966
  0
LINE
  5
21E
100
AcDbEntity
  8
0
100
AcDbLine
 62
7
  6
CONTINUOUS
 10
9.2655271824
 20
6.7867901549
 11
9.6005271824
 21
6.7867901549
  0
LINE
  5
21F
100
AcDbEntity
  8
0
100
AcDbLine
 62
7
  6
CONTINUOUS
 10
9.6005271824
 20
6.8187901549
 11
9.2655271824
 21
6.8187901549
  0
LINE
  5
220
100
AcDbEntity
  8
0
100
AcDbLine
 62
7
  6
CONTINUOUS
 10
10.8645271824
 20
6.8421548966
 11
10.9483635219
 21
6.8421548966
  0
LINE
  5
221
100
AcDbEntity
  8
0
100
AcDbLine
 62
9
  6
CONTINUOUS
 10
9.5980271824
 20
6.8687901549
 11
9.268123481
 21
6.8687901549
  0
LINE
  5
222
100
AcDbEntity
  8
0
100
AcDbLine
 62
7
  6
CONTINUOUS
 10
9.2207249823
 20
6.8987901549
 11
9.6452962153
 21
6.8987901549
  0
LINE
  5
223
100
AcDbEntity
  8
0
100
AcDbLine
 62
9
  6
CONTINUOUS
 10
9.6748293475
 20
6.9342447003
 11
9.1912250173
 21
6.9342447003
  0
LINE
  5
224
100
AcDbEntity
  8
0
100
AcDbLine
 62
9
  6
CONTINUOUS
 10
9.6937448125
 20
7.1517984827
 11
9.1723095523
 21
7.1517984827
  0
LINE
  5
225
100
AcDbEntity
  8
0
100
AcDbLine
 62
7
  6
CONTINUOUS
 10
10.9995671465
 20
7.1539048059
 11
12.3995670015
 21
7.1539048059
  0
LINE
  5
226
100
AcDbEntity
  8
0
100
AcDbLine
 62
9
  6
CONTINUOUS
 10
12.4340619081
 20
7.1739045391
 11
10.9650722399
 21
7.1739045391
  0
LINE
  5
227
100
AcDbEntity
  8
0
100
AcDbLine
 62
9
  6
CONTINUOUS
 10
12.444567074
 20
7.2080733296
 11
10.954567074
 21
7.2080733296
  0
LINE
  5
228
100
AcDbEntity
  8
0
100
AcDbLine
 62
9
  6
CONTINUOUS
 10
9.1894388559
 20
7.2094392061
 11
9.6765827879
 21
7.2094392061
  0
LINE
  5
229
100
AcDbEntity
  8
0
100
AcDbLine
 62
9
  6
CONTINUOUS
 10
9.2095369903
 20
7.2537754822
 11
9.6565173745
 21
7.2537754822
  0
LINE
  5
22A
100
AcDbEntity
  8
0
100
AcDbLine
 62
7
  6
CONTINUOUS
 10
9.073266961
 20
8.8956574331
 11
9.2095369903
 21
7.2537754822
  0
LINE
  5
22B
100
AcDbEntity
  8
0
100
AcDbLine
 62
7
  6
CONTINUOUS
 10
9.0255271824
 20
6.3721548966
 11
9.0255271824
 21
6.3621548966
  0
LINE
  5
22C
100
AcDbEntity
  8
0
100
AcDbLine
 62
7
  6
CONTINUOUS
 10
9.0405271824
 20
8.9904721677
 11
9.0405271824
 21
9.018455971
  0
LINE
  5
22D
100
AcDbEntity
  8
0
100
AcDbLine
 62
7
  6
CONTINUOUS
 10
9.0545271824
 20
6.5471548966
 11
9.0545271824
 21
6.1871548966
  0
LINE
  5
22E
100
AcDbEntity
  8
0
100
AcDbLine
 62
9
  6
CONTINUOUS
 10
9.1145271824
 20
6.6071548966
 11
9.1145271824
 21
6.1271548966
  0
LINE
  5
22F
100
AcDbEntity
  8
0
100
AcDbLine
 62
7
  6
CONTINUOUS
 10
9.1345271824
 20
6.1271548966
 11
9.1345271824
 21
6.6071548966
  0
LINE
  5
230
100
AcDbEntity
  8
0
100
AcDbLine
 62
9
  6
CONTINUOUS
 10
9.255246004
 20
6.7805479935
 11
9.255246004
 21
5.9537617996
  0
LINE
  5
231
100
AcDbEntity
  8
0
100
AcDbLine
 62
7
  6
CONTINUOUS
 10
9.2655271824
 20
6.8187901549
 11
9.2655271824
 21
6.7867901549
  0
LINE
  5
232
100
AcDbEntity
  8
0
100
AcDbLine
 62
7
  6
CONTINUOUS
 10
9.2680271824
 20
6.8187901549
 11
9.2680271824
 21
6.8687901549
  0
LINE
  5
233
100
AcDbEntity
  8
0
100
AcDbLine
 62
7
  6
CONTINUOUS
 10
12.409567074
 20
7.2739045391
 11
10.989567074
 21
7.2739045391
  0
LINE
  5
234
100
AcDbEntity
  8
0
100
AcDbLine
 62
7
  6
CONTINUOUS
 10
9.5980271824
 20
6.8187901549
 11
9.5980271824
 21
6.8687901549
  0
LINE
  5
235
100
AcDbEntity
  8
0
100
AcDbLine
 62
7
  6
CONTINUOUS
 10
9.6005271824
 20
6.8187901549
 11
9.6005271824
 21
6.7867901549
  0
LINE
  5
236
100
AcDbEntity
  8
0
100
AcDbLine
 62
9
  6
CONTINUOUS
 10
11.3256014653
 20
7.6857105012
 11
12.0735326827
 21
7.6857105012
  0
LINE
  5
237
100
AcDbEntity
  8
0
100
AcDbLine
 62
9
  6
CONTINUOUS
 10
11.3177077423
 20
7.731394656
 11
12.0814264057
 21
7.731394656
  0
LINE
  5
238
100
AcDbEntity
  8
0
100
AcDbLine
 62
9
  6
CONTINUOUS
 10
12.0877007107
 20
7.7532447234
 11
11.3114334373
 21
7.7532447234
  0
LINE
  5
239
100
AcDbEntity
  8
0
100
AcDbLine
 62
9
  6
CONTINUOUS
 10
12.0792911312
 20
7.7805753451
 11
11.3198430168
 21
7.7805753451
  0
LINE
  5
23A
100
AcDbEntity
  8
0
100
AcDbLine
 62
9
  6
CONTINUOUS
 10
12.035484816
 20
7.8102681754
 11
11.363649332
 21
7.8102681754
  0
LINE
  5
23B
100
AcDbEntity
  8
0
100
AcDbLine
 62
7
  6
CONTINUOUS
 10
12.001567074
 20
7.8139045391
 11
11.397567074
 21
7.8139045391
  0
LINE
  5
23C
100
AcDbEntity
  8
0
100
AcDbLine
 62
9
  6
CONTINUOUS
 10
9.6664195968
 20
5.9824108506
 11
9.6664195992
 21
6.7518989411
  0
LINE
  5
23D
100
AcDbEntity
  8
0
100
AcDbLine
 62
9
  6
CONTINUOUS
 10
9.7147673752
 20
6.7117203653
 11
9.7147673752
 21
6.0225894278
  0
LINE
  5
23E
100
AcDbEntity
  8
0
100
AcDbLine
 62
9
  6
CONTINUOUS
 10
9.7414724143
 20
6.7014799015
 11
9.7414724143
 21
6.0328298917
  0
LINE
  5
23F
100
AcDbEntity
  8
0
100
AcDbLine
 62
7
  6
CONTINUOUS
 10
9.8255271824
 20
8.9904721678
 11
9.8255271824
 21
9.018455971
  0
LINE
  5
240
100
AcDbEntity
  8
0
100
AcDbLine
 62
9
  6
CONTINUOUS
 10
9.8783843446
 20
5.9928720756
 11
9.8783843446
 21
6.7414377175
  0
LINE
  5
241
100
AcDbEntity
  8
0
100
AcDbLine
 62
7
  6
CONTINUOUS
 10
9.8895271824
 20
6.763192873
 11
9.8895271824
 21
5.9711169202
  0
LINE
  5
242
100
AcDbEntity
  8
0
100
AcDbLine
 62
9
  6
CONTINUOUS
 10
9.9272414681
 20
6.8031275134
 11
9.9272414681
 21
5.9311822797
  0
LINE
  5
243
100
AcDbEntity
  8
0
100
AcDbLine
 62
7
  6
CONTINUOUS
 10
9.7927874039
 20
8.8956574331
 11
9.6565173745
 21
7.2537754822
  0
LINE
  5
244
100
AcDbEntity
  8
0
100
AcDbLine
 62
9
  6
CONTINUOUS
 10
11.3756103299
 20
11.6414449113
 11
11.3754946679
 21
11.641310051
  0
LINE
  5
245
100
AcDbEntity
  8
0
100
AcDbLine
 62
9
  6
CONTINUOUS
 10
9.9628212751
 20
5.9224214596
 11
9.9628212751
 21
6.8118883335
  0
LINE
  5
246
100
AcDbEntity
  8
0
100
AcDbLine
 62
9
  6
CONTINUOUS
 10
9.9949048116
 20
6.8249383023
 11
9.9949048116
 21
5.9093714909
  0
LINE
  5
247
100
AcDbEntity
  8
0
100
AcDbLine
 62
9
  6
CONTINUOUS
 10
10.2608128967
 20
6.8794105323
 11
10.2608128967
 21
5.8548992609
  0
LINE
  5
248
100
AcDbEntity
  8
0
100
AcDbLine
 62
9
  6
CONTINUOUS
 10
11.4026682788
 20
11.3059051789
 11
11.4026344374
 21
11.3058587423
  0
LINE
  5
249
100
AcDbEntity
  8
0
100
AcDbLine
 62
7
  6
CONTINUOUS
 10
12.0138727634
 20
11.5074012051
 11
12.0106199162
 21
11.5037330513
  0
LINE
  5
24A
100
AcDbEntity
  8
0
100
AcDbLine
 62
9
  6
CONTINUOUS
 10
12.0174804045
 20
11.5113087509
 11
12.0174714699
 21
11.5112987786
  0
LINE
  5
24B
100
AcDbEntity
  8
0
100
AcDbLine
 62
7
  6
CONTINUOUS
 10
12.0139035472
 20
11.5074335868
 11
12.0174714699
 21
11.5112987786
  0
LINE
  5
24C
100
AcDbEntity
  8
0
100
AcDbLine
 62
9
  6
CONTINUOUS
 10
12.0139035469
 20
11.507433587
 11
12.0138727634
 21
11.5074012051
  0
LINE
  5
24D
100
AcDbEntity
  8
0
100
AcDbLine
 62
9
  6
CONTINUOUS
 10
10.3225896824
 20
6.9028161184
 11
10.3225896824
 21
5.8314936748
  0
LINE
  5
24E
100
AcDbEntity
  8
0
100
AcDbLine
 62
7
  6
CONTINUOUS
 10
10.3945271824
 20
5.8421548966
 11
10.3945271824
 21
6.8921548966
  0
LINE
  5
24F
100
AcDbEntity
  8
0
100
AcDbLine
 62
7
  6
CONTINUOUS
 10
10.4145271824
 20
6.8819241746
 11
10.4145271824
 21
5.8523856185
  0
LINE
  5
250
100
AcDbEntity
  8
0
100
AcDbLine
 62
9
  6
CONTINUOUS
 10
10.4436411428
 20
6.8997656963
 11
10.4436411428
 21
5.8345440968
  0
LINE
  5
251
100
AcDbEntity
  8
0
100
AcDbLine
 62
9
  6
CONTINUOUS
 10
10.5045271824
 20
5.856649603
 11
10.5045271824
 21
6.8776601901
  0
LINE
  5
252
100
AcDbEntity
  8
0
100
AcDbLine
 62
9
  6
CONTINUOUS
 10
9.7927874039
 20
8.8956574331
 11
9.073266961
 21
8.8956574331
  0
LINE
  5
253
100
AcDbEntity
  8
0
100
AcDbLine
 62
9
  6
CONTINUOUS
 10
9.8199791795
 20
8.9724640625
 11
9.0460751854
 21
8.9724640625
  0
LINE
  5
254
100
AcDbEntity
  8
0
100
AcDbLine
 62
7
  6
CONTINUOUS
 10
10.8645271824
 20
6.8421548966
 11
10.8645271824
 21
5.8921548966
  0
LINE
  5
255
100
AcDbEntity
  8
0
100
AcDbLine
 62
7
  6
CONTINUOUS
 10
10.894567074
 20
5.0000097756
 11
10.894567074
 21
4.9219045391
  0
LINE
  5
256
100
AcDbEntity
  8
0
100
AcDbLine
 62
7
  6
CONTINUOUS
 10
10.959567074
 20
4.9219045391
 11
10.959567074
 21
4.9059045391
  0
LINE
  5
257
100
AcDbEntity
  8
0
100
AcDbLine
 62
9
  6
CONTINUOUS
 10
9.0405271824
 20
8.9904721677
 11
9.8255271824
 21
8.9904721677
  0
LINE
  5
258
100
AcDbEntity
  8
0
100
AcDbLine
 62
9
  6
CONTINUOUS
 10
9.8255271824
 20
9.018455971
 11
9.0405271824
 21
9.018455971
  0
LINE
  5
259
100
AcDbEntity
  8
0
100
AcDbLine
 62
9
  6
CONTINUOUS
 10
9.7977593217
 20
9.0632413703
 11
9.0682950432
 21
9.0632413703
  0
LINE
  5
25A
100
AcDbEntity
  8
0
100
AcDbLine
 62
7
  6
CONTINUOUS
 10
11.3547018187
 20
11.5990278899
 11
11.3531396937
 21
11.5817478996
  0
LINE
  5
25B
100
AcDbEntity
  8
0
100
AcDbLine
 62
7
  6
CONTINUOUS
 10
11.3859410577
 20
11.2681629034
 11
11.3845670587
 21
11.2537020357
  0
LINE
  5
25C
100
AcDbEntity
  8
0
100
AcDbLine
 62
7
  6
CONTINUOUS
 10
11.4161396852
 20
11.369380756
 11
11.4110484613
 21
11.4488327861
  0
LINE
  5
25D
100
AcDbEntity
  8
0
100
AcDbLine
 62
9
  6
CONTINUOUS
 10
11.4110484613
 20
11.4488327861
 11
11.4107745298
 21
11.453133867
  0
LINE
  5
25E
100
AcDbEntity
  8
0
100
AcDbLine
 62
7
  6
CONTINUOUS
 10
11.449567074
 20
13.7534814726
 11
11.449567074
 21
11.689308859
  0
LINE
  5
25F
100
AcDbEntity
  8
0
100
AcDbLine
 62
7
  6
CONTINUOUS
 10
11.449567074
 20
7.8139045391
 11
11.449567074
 21
11.1664798737
  0
LINE
  5
260
100
AcDbEntity
  8
0
100
AcDbLine
 62
7
  6
CONTINUOUS
 10
11.4156551738
 20
11.3461235087
 11
11.4161396833
 21
11.3693807551
  0
LINE
  5
261
100
AcDbEntity
  8
0
100
AcDbLine
 62
7
  6
CONTINUOUS
 10
11.949567074
 20
13.7534814726
 11
11.949567074
 21
11.689298968
  0
LINE
  5
262
100
AcDbEntity
  8
0
100
AcDbLine
 62
7
  6
CONTINUOUS
 10
11.949567074
 20
7.8139045391
 11
11.949567074
 21
11.1664482509
  0
LINE
  5
263
100
AcDbEntity
  8
0
100
AcDbLine
 62
9
  6
CONTINUOUS
 10
11.9883596181
 20
11.453133867
 11
11.9880834783
 21
11.4488154917
  0
LINE
  5
264
100
AcDbEntity
  8
0
100
AcDbLine
 62
7
  6
CONTINUOUS
 10
11.9880834783
 20
11.4488154917
 11
11.9829944627
 21
11.369380756
  0
LINE
  5
265
100
AcDbEntity
  8
0
100
AcDbLine
 62
9
  6
CONTINUOUS
 10
11.9880834783
 20
11.4488154917
 11
11.988080206
 21
11.4487899927
  0
LINE
  5
266
100
AcDbEntity
  8
0
100
AcDbLine
 62
9
  6
CONTINUOUS
 10
11.411053942
 20
11.4487899927
 11
11.4110484613
 21
11.4488327861
  0
LINE
  5
267
100
AcDbEntity
  8
0
100
AcDbLine
 62
7
  6
CONTINUOUS
 10
12.0145670892
 20
11.2537020357
 11
12.0132001287
 21
11.2681249328
  0
LINE
  5
268
100
AcDbEntity
  8
0
100
AcDbLine
 62
7
  6
CONTINUOUS
 10
12.0459944542
 20
11.5817478996
 11
12.04444147
 21
11.5989761987
  0
LINE
  5
269
100
AcDbEntity
  8
0
100
AcDbLine
 62
7
  6
CONTINUOUS
 10
11.9829944646
 20
11.3693807551
 11
11.9834794225
 21
11.3461125369
  0
LINE
  5
26A
100
AcDbEntity
  8
0
100
AcDbLine
 62
7
  6
CONTINUOUS
 10
12.439567074
 20
4.9219045391
 11
12.439567074
 21
4.9059045391
  0
LINE
  5
26B
100
AcDbEntity
  8
0
100
AcDbLine
 62
7
  6
CONTINUOUS
 10
12.504567074
 20
5.0000097756
 11
12.504567074
 21
4.9219045391
  0
LINE
  5
26C
100
AcDbEntity
  8
0
100
AcDbLine
 62
9
  6
CONTINUOUS
 10
11.385257207
 20
11.5074055976
 11
11.385232632
 21
11.5074314496
  0
LINE
  5
26D
100
AcDbEntity
  8
0
100
AcDbLine
 62
7
  6
CONTINUOUS
 10
11.3816626781
 20
11.5112987786
 11
11.3852326318
 21
11.5074314493
  0
LINE
  5
26E
100
AcDbEntity
  8
0
100
AcDbLine
 62
9
  6
CONTINUOUS
 10
11.3816626781
 20
11.5112987786
 11
11.381658148
 21
11.5113038343
  0
LINE
  5
26F
100
AcDbEntity
  8
0
100
AcDbLine
 62
7
  6
CONTINUOUS
 10
11.3885142317
 20
11.5037330513
 11
11.385257207
 21
11.5074055976
  0
LINE
  5
270
100
AcDbEntity
  8
0
100
AcDbLine
 62
9
  6
CONTINUOUS
 10
11.996477989
 20
11.3058885585
 11
11.9964662878
 21
11.3059046049
  0
LINE
  5
271
100
AcDbEntity
  8
0
100
AcDbLine
 62
9
  6
CONTINUOUS
 10
12.02363948
 20
11.641310051
 11
12.0235247322
 21
11.6414438479
  0
LINE
  5
272
100
AcDbEntity
  8
0
100
AcDbLine
 62
7
  6
CONTINUOUS
 10
10.5045271824
 20
5.856649603
 11
10.4436411428
 21
5.8345440968
  0
ARC
  5
273
100
AcDbEntity
  8
0
100
AcDbCircle
 62
7
  6
CONTINUOUS
 10
8.1518314361
 20
6.8700266847
 40
3.33
100
AcDbArc
 50
317.2208356049
 51
320.4847857946
  0
ARC
  5
274
100
AcDbEntity
  8
0
100
AcDbCircle
 62
7
  6
CONTINUOUS
 10
9.504567074
 20
6.3671548966
 40
3.0
100
AcDbArc
 50
344.0943492185
 51
15.2036093746
  0
ARC
  5
275
100
AcDbEntity
  8
0
100
AcDbCircle
 62
7
  6
CONTINUOUS
 10
9.561067074
 20
5.5660117627
 40
1.41
100
AcDbArc
 50
314.8329096352
 51
317.2208356048
  0
ARC
  5
276
100
AcDbEntity
  8
0
100
AcDbCircle
 62
7
  6
CONTINUOUS
 10
9.4330271824
 20
6.3671548966
 40
0.45
100
AcDbArc
 50
58.7582727426
 51
68.8315511542
  0
ARC
  5
277
100
AcDbEntity
  8
0
100
AcDbCircle
 62
7
  6
CONTINUOUS
 10
9.4330271824
 20
6.3671548966
 40
0.45
100
AcDbArc
 50
111.760698343
 51
113.2702952785
  0
ARC
  5
278
100
AcDbEntity
  8
0
100
AcDbCircle
 62
7
  6
CONTINUOUS
 10
9.4330271824
 20
6.3671548966
 40
0.45
100
AcDbArc
 50
246.729704735
 51
301.2417272501
  0
ARC
  5
279
100
AcDbEntity
  8
0
100
AcDbCircle
 62
7
  6
CONTINUOUS
 10
8.7880588293
 20
7.0087901549
 40
0.41
100
AcDbArc
 50
349.5243183037
 51
20.4139841938
  0
ARC
  5
27A
100
AcDbEntity
  8
0
100
AcDbCircle
 62
7
  6
CONTINUOUS
 10
9.5559471886
 20
6.56978676
 40
0.213
100
AcDbArc
 50
41.7863579425
 51
58.758273487
  0
ARC
  5
27B
100
AcDbEntity
  8
0
100
AcDbCircle
 62
7
  6
CONTINUOUS
 10
9.5559471886
 20
6.1645230331
 40
0.213
100
AcDbArc
 50
301.2417265049
 51
318.2136420514
  0
ARC
  5
27C
100
AcDbEntity
  8
0
100
AcDbCircle
 62
7
  6
CONTINUOUS
 10
9.3342598611
 20
6.5968177282
 40
0.2
100
AcDbArc
 50
113.2702952785
 51
177.0372992989
  0
ARC
  5
27D
100
AcDbEntity
  8
0
100
AcDbCircle
 62
7
  6
CONTINUOUS
 10
9.3342598611
 20
6.1374920649
 40
0.2
100
AcDbArc
 50
182.9627007011
 51
246.7297047215
  0
ARC
  5
27E
100
AcDbEntity
  8
0
100
AcDbCircle
 62
7
  6
CONTINUOUS
 10
9.1145271824
 20
6.5471548966
 40
0.06
100
AcDbArc
 50
90.0
 51
180.0
  0
ARC
  5
27F
100
AcDbEntity
  8
0
100
AcDbCircle
 62
7
  6
CONTINUOUS
 10
9.1145271824
 20
6.1871548966
 40
0.06
100
AcDbArc
 50
180.0
 51
270.0
  0
ARC
  5
280
100
AcDbEntity
  8
0
100
AcDbCircle
 62
7
  6
CONTINUOUS
 10
9.2191693966
 20
7.1692385227
 40
0.05
100
AcDbArc
 50
126.4848929408
 51
200.4139841936
  0
ARC
  5
281
100
AcDbEntity
  8
0
100
AcDbCircle
 62
7
  6
CONTINUOUS
 10
9.1597083151
 20
7.2496398895
 40
0.05
100
AcDbArc
 50
306.4848929408
 51
4.7444603616
  0
ARC
  5
282
100
AcDbEntity
  8
0
100
AcDbCircle
 62
7
  6
CONTINUOUS
 10
9.2207249823
 20
6.9287901549
 40
0.03
100
AcDbArc
 50
169.5243183027
 51
270.0
  0
ARC
  5
283
100
AcDbEntity
  8
0
100
AcDbCircle
 62
7
  6
CONTINUOUS
 10
9.2380271824
 20
6.8687901549
 40
0.03
100
AcDbArc
 50
0.0
 51
90.0
  0
ARC
  5
284
100
AcDbEntity
  8
0
100
AcDbCircle
 62
7
  6
CONTINUOUS
 10
10.6077621347
 20
1.4647984
 40
3.9140000017
100
AcDbArc
 50
58.9672911178
 51
59.4359471186
  0
ARC
  5
285
100
AcDbEntity
  8
0
100
AcDbCircle
 62
7
  6
CONTINUOUS
 10
9.69681252
 20
5.6252694743
 40
0.41
100
AcDbArc
 50
63.7136175836
 51
83.7465591709
  0
ARC
  5
286
100
AcDbEntity
  8
0
100
AcDbCircle
 62
7
  6
CONTINUOUS
 10
10.2545271824
 20
5.7450789996
 40
0.11
100
AcDbArc
 50
51.7750897985
 51
86.7241710401
  0
ARC
  5
287
100
AcDbEntity
  8
0
100
AcDbCircle
 62
7
  6
CONTINUOUS
 10
9.9215271824
 20
5.8313456785
 40
0.1
100
AcDbArc
 50
65.6102863761
 51
86.7241710404
  0
ARC
  5
288
100
AcDbEntity
  8
0
100
AcDbCircle
 62
7
  6
CONTINUOUS
 10
10.3145271824
 20
6.7933633121
 40
0.94
100
AcDbArc
 50
250.1216759766
 51
266.7241710401
  0
ARC
  5
289
100
AcDbEntity
  8
0
100
AcDbCircle
 62
7
  6
CONTINUOUS
 10
10.3145271824
 20
5.940946481
 40
0.94
100
AcDbArc
 50
93.2758289599
 51
109.8783240234
  0
ARC
  5
28A
100
AcDbEntity
  8
0
100
AcDbCircle
 62
7
  6
CONTINUOUS
 10
10.1445152831
 20
6.4111548965
 40
0.44
100
AcDbArc
 50
109.8783240228
 51
114.3897136229
  0
ARC
  5
28B
100
AcDbEntity
  8
0
100
AcDbCircle
 62
7
  6
CONTINUOUS
 10
10.1445152831
 20
6.3231548966
 40
0.44
100
AcDbArc
 50
245.6102863769
 51
250.1216759771
  0
ARC
  5
28C
100
AcDbEntity
  8
0
100
AcDbCircle
 62
7
  6
CONTINUOUS
 10
9.69681252
 20
7.1090403189
 40
0.41
100
AcDbArc
 50
276.2534408307
 51
296.2863824164
  0
ARC
  5
28D
100
AcDbEntity
  8
0
100
AcDbCircle
 62
7
  6
CONTINUOUS
 10
10.0779955356
 20
7.0087901549
 40
0.41
100
AcDbArc
 50
159.5860158062
 51
190.4756816963
  0
ARC
  5
28E
100
AcDbEntity
  8
0
100
AcDbCircle
 62
7
  6
CONTINUOUS
 10
10.2545271824
 20
6.9892307936
 40
0.11
100
AcDbArc
 50
273.2758289599
 51
308.2249102015
  0
ARC
  5
28F
100
AcDbEntity
  8
0
100
AcDbCircle
 62
7
  6
CONTINUOUS
 10
9.9215271824
 20
6.9029641146
 40
0.1
100
AcDbArc
 50
273.2758289596
 51
294.3897136239
  0
ARC
  5
290
100
AcDbEntity
  8
0
100
AcDbCircle
 62
7
  6
CONTINUOUS
 10
10.3535271824
 20
5.8707730726
 40
0.05
100
AcDbArc
 50
231.7750897984
 51
325.0847937526
  0
ARC
  5
291
100
AcDbEntity
  8
0
100
AcDbCircle
 62
7
  6
CONTINUOUS
 10
10.3535271824
 20
6.8635367205
 40
0.05
100
AcDbArc
 50
34.9152062474
 51
128.2249102016
  0
ARC
  5
292
100
AcDbEntity
  8
0
100
AcDbCircle
 62
7
  6
CONTINUOUS
 10
9.6468849683
 20
7.1692385227
 40
0.05
100
AcDbArc
 50
339.5860158064
 51
53.5151070592
  0
ARC
  5
293
100
AcDbEntity
  8
0
100
AcDbCircle
 62
7
  6
CONTINUOUS
 10
9.7063460497
 20
7.2496398895
 40
0.05
100
AcDbArc
 50
175.2555396384
 51
233.5151070592
  0
ARC
  5
294
100
AcDbEntity
  8
0
100
AcDbCircle
 62
7
  6
CONTINUOUS
 10
9.9295271824
 20
6.763192873
 40
0.04
100
AcDbArc
 50
93.2758289602
 51
180.0
  0
ARC
  5
295
100
AcDbEntity
  8
0
100
AcDbCircle
 62
7
  6
CONTINUOUS
 10
9.9295271824
 20
5.9711169202
 40
0.04
100
AcDbArc
 50
180.0
 51
266.7241710398
  0
ARC
  5
296
100
AcDbEntity
  8
0
100
AcDbCircle
 62
7
  6
CONTINUOUS
 10
9.7380684589
 20
6.7325439577
 40
0.03125
100
AcDbArc
 50
221.7863579484
 51
276.2534408313
  0
ARC
  5
297
100
AcDbEntity
  8
0
100
AcDbCircle
 62
7
  6
CONTINUOUS
 10
9.7380684589
 20
6.0017658355
 40
0.03125
100
AcDbArc
 50
83.7465591705
 51
138.2136420571
  0
ARC
  5
298
100
AcDbEntity
  8
0
100
AcDbCircle
 62
7
  6
CONTINUOUS
 10
9.6280271824
 20
6.8687901549
 40
0.03
100
AcDbArc
 50
90.0
 51
180.0
  0
ARC
  5
299
100
AcDbEntity
  8
0
100
AcDbCircle
 62
7
  6
CONTINUOUS
 10
9.6453293825
 20
6.9287901549
 40
0.03
100
AcDbArc
 50
270.0
 51
10.4756816973
  0
ARC
  5
29A
100
AcDbEntity
  8
0
100
AcDbCircle
 62
7
  6
CONTINUOUS
 10
9.8695271824
 20
5.9749402414
 40
0.02
100
AcDbArc
 50
0.0
 51
63.7136175828
  0
ARC
  5
29B
100
AcDbEntity
  8
0
100
AcDbCircle
 62
7
  6
CONTINUOUS
 10
9.8695271824
 20
6.7593695518
 40
0.02
100
AcDbArc
 50
296.2863824172
 51
360.0
  0
ARC
  5
29C
100
AcDbEntity
  8
0
100
AcDbCircle
 62
7
  6
CONTINUOUS
 10
10.8257325522
 20
4.442673963
 40
1.45
100
AcDbArc
 50
88.4668732055
 51
102.7983811059
  0
ARC
  5
29D
100
AcDbEntity
  8
0
100
AcDbCircle
 62
7
  6
CONTINUOUS
 10
10.528567074
 20
5.4079656556
 40
0.5
100
AcDbArc
 50
323.6327207052
 51
15.9056507815
  0
ARC
  5
29E
100
AcDbEntity
  8
0
100
AcDbCircle
 62
7
  6
CONTINUOUS
 10
11.082567074
 20
5.0000097756
 40
0.188
100
AcDbArc
 50
143.6327207052
 51
180.0
  0
ARC
  5
29F
100
AcDbEntity
  8
0
100
AcDbCircle
 62
7
  6
CONTINUOUS
 10
10.7553328478
 20
4.912487558
 40
0.09
100
AcDbArc
 50
300.5640528814
 51
338.4043985281
  0
ARC
  5
2A0
100
AcDbEntity
  8
0
100
AcDbCircle
 62
7
  6
CONTINUOUS
 10
10.878067074
 20
4.8639045391
 40
0.042
100
AcDbArc
 50
90.0
 51
158.404398528
  0
ARC
  5
2A1
100
AcDbEntity
  8
0
100
AcDbCircle
 62
7
  6
CONTINUOUS
 10
10.7619246348
 20
4.7749045391
 40
0.042
100
AcDbArc
 50
126.8698976458
 51
145.2315554513
  0
ARC
  5
2A2
100
AcDbEntity
  8
0
100
AcDbCircle
 62
7
  6
CONTINUOUS
 10
10.7589246348
 20
4.7789045391
 40
0.037
100
AcDbArc
 50
90.0
 51
126.8698976458
  0
ARC
  5
2A3
100
AcDbEntity
  8
0
100
AcDbCircle
 62
7
  6
CONTINUOUS
 10
10.752067074
 20
4.7817476739
 40
0.03
100
AcDbArc
 50
145.2315554513
 51
200.8768537569
  0
ARC
  5
2A4
100
AcDbEntity
  8
0
100
AcDbCircle
 62
7
  6
CONTINUOUS
 10
10.7632875015
 20
4.8357373236
 40
0.02
100
AcDbArc
 50
275.3240280217
 51
301.0327088822
  0
ARC
  5
2A5
100
AcDbEntity
  8
0
100
AcDbCircle
 62
7
  6
CONTINUOUS
 10
10.5692766449
 20
4.5519045391
 40
0.02
100
AcDbArc
 50
134.8329096351
 51
270.0
  0
ARC
  5
2A6
100
AcDbEntity
  8
0
100
AcDbCircle
 62
7
  6
CONTINUOUS
 10
10.7053496484
 20
4.7639296453
 40
0.02
100
AcDbArc
 50
320.4847857944
 51
20.876853757
  0
ARC
  5
2A7
100
AcDbEntity
  8
0
100
AcDbCircle
 62
7
  6
CONTINUOUS
 10
10.562122628
 20
7.1312006497
 40
0.26
100
AcDbArc
 50
242.8901449368
 51
257.2016188941
  0
ARC
  5
2A8
100
AcDbEntity
  8
0
100
AcDbCircle
 62
7
  6
CONTINUOUS
 10
11.0343542722
 20
7.2139045391
 40
0.08
100
AcDbArc
 50
184.1800031383
 51
210.0
  0
ARC
  5
2A9
100
AcDbEntity
  8
0
100
AcDbCircle
 62
7
  6
CONTINUOUS
 10
11.0243808724
 20
7.2131756379
 40
0.07
100
AcDbArc
 50
119.8241698132
 51
184.1800031381
  0
ARC
  5
2AA
100
AcDbEntity
  8
0
100
AcDbCircle
 62
7
  6
CONTINUOUS
 10
10.999713256
 20
7.1939045391
 40
0.04
100
AcDbArc
 50
210.0
 51
269.7907130594
  0
ARC
  5
2AB
100
AcDbEntity
  8
0
100
AcDbCircle
 62
7
  6
CONTINUOUS
 10
10.4345271824
 20
6.8819630076
 40
0.02
100
AcDbArc
 50
62.8901449367
 51
180.0
  0
ARC
  5
2AC
100
AcDbEntity
  8
0
100
AcDbCircle
 62
7
  6
CONTINUOUS
 10
10.4345271824
 20
5.8523467856
 40
0.02
100
AcDbArc
 50
180.0
 51
297.1098550633
  0
ARC
  5
2AD
100
AcDbEntity
  8
0
100
AcDbCircle
 62
7
  6
CONTINUOUS
 10
10.8257325522
 20
8.2916358301
 40
1.45
100
AcDbArc
 50
257.2016188941
 51
271.5331267945
  0
ARC
  5
2AE
100
AcDbEntity
  8
0
100
AcDbCircle
 62
9
  6
CONTINUOUS
 10
11.699567067
 20
11.9490549962
 40
0.8308324373
100
AcDbArc
 50
269.237135491
 51
270.7840474336
  0
ARC
  5
2AF
100
AcDbEntity
  8
0
100
AcDbCircle
 62
7
  6
CONTINUOUS
 10
9.4330271824
 20
8.3285089049
 40
0.82028125
100
AcDbArc
 50
63.599513499
 51
116.400486501
  0
ARC
  5
2B0
100
AcDbEntity
  8
0
100
AcDbCircle
 62
9
  6
CONTINUOUS
 10
11.6993146412
 20
11.9371774687
 40
0.8189526071
100
AcDbArc
 50
265.5094197183
 51
269.2437304674
  0
ARC
  5
2B1
100
AcDbEntity
  8
0
100
AcDbCircle
 62
9
  6
CONTINUOUS
 10
11.6951263719
 20
11.8783828207
 40
0.7600106449
100
AcDbArc
 50
263.9642543417
 51
265.4771591575
  0
ARC
  5
2B2
100
AcDbEntity
  8
0
100
AcDbCircle
 62
7
  6
CONTINUOUS
 10
10.7408005096
 20
7.8199038032
 40
0.6
100
AcDbArc
 50
294.4948179499
 51
347.0761704799
  0
ARC
  5
2B3
100
AcDbEntity
  8
0
100
AcDbCircle
 62
9
  6
CONTINUOUS
 10
11.6676685602
 20
11.6920137264
 40
0.5715520443
100
AcDbArc
 50
258.1109953616
 51
259.3633451484
  0
ARC
  5
2B4
100
AcDbEntity
  8
0
100
AcDbCircle
 62
9
  6
CONTINUOUS
 10
11.5203711442
 20
11.1581164397
 40
0.1824300462
100
AcDbArc
 50
120.1135690161
 51
120.6350684192
  0
ARC
  5
2B5
100
AcDbEntity
  8
0
100
AcDbCircle
 62
7
  6
CONTINUOUS
 10
8.9138152003
 20
8.8824235364
 40
0.16
100
AcDbArc
 50
4.7444603621
 51
34.2464206471
  0
ARC
  5
2B6
100
AcDbEntity
  8
0
100
AcDbCircle
 62
7
  6
CONTINUOUS
 10
9.9522391645
 20
8.8824235364
 40
0.16
100
AcDbArc
 50
145.7535793517
 51
175.2555396379
  0
ARC
  5
2B7
100
AcDbEntity
  8
0
100
AcDbCircle
 62
7
  6
CONTINUOUS
 10
11.397567074
 20
7.6539045391
 40
0.16
100
AcDbArc
 50
90.0
 51
102.2387557679
  0
ARC
  5
2B8
100
AcDbEntity
  8
0
100
AcDbCircle
 62
7
  6
CONTINUOUS
 10
11.2935948276
 20
11.4336681447
 40
0.118428516
100
AcDbArc
 50
7.3359853807
 51
9.5840717554
  0
ARC
  5
2B9
100
AcDbEntity
  8
0
100
AcDbCircle
 62
7
  6
CONTINUOUS
 10
11.4621686457
 20
11.5866996502
 40
0.1100480756
100
AcDbArc
 50
205.9076592987
 51
211.6554801258
  0
ARC
  5
2BA
100
AcDbEntity
  8
0
100
AcDbCircle
 62
7
  6
CONTINUOUS
 10
11.4580669114
 20
11.584673732
 40
0.1054734041
100
AcDbArc
 50
204.2700534179
 51
205.8912679823
  0
ARC
  5
2BB
100
AcDbEntity
  8
0
100
AcDbCircle
 62
7
  6
CONTINUOUS
 10
11.456509935
 20
11.5839686075
 40
0.1037642032
100
AcDbArc
 50
203.1598868833
 51
204.2684918828
  0
ARC
  5
2BC
100
AcDbEntity
  8
0
100
AcDbCircle
 62
7
  6
CONTINUOUS
 10
11.3789123159
 20
7.7399045391
 40
0.072
100
AcDbArc
 50
102.2387557678
 51
115.0001697536
  0
ARC
  5
2BD
100
AcDbEntity
  8
0
100
AcDbCircle
 62
7
  6
CONTINUOUS
 10
11.378067074
 20
7.7417171522
 40
0.07
100
AcDbArc
 50
115.0001697537
 51
146.2812232362
  0
ARC
  5
2BE
100
AcDbEntity
  8
0
100
AcDbCircle
 62
9
  6
CONTINUOUS
 10
11.4416543474
 20
11.5479073439
 40
0.0691036879
100
AcDbArc
 50
215.345717928
 51
219.7357304713
  0
ARC
  5
2BF
100
AcDbEntity
  8
0
100
AcDbCircle
 62
9
  6
CONTINUOUS
 10
11.4345360163
 20
11.555596323
 40
0.0688855454
100
AcDbArc
 50
215.7828974747
 51
218.0835159978
  0
ARC
  5
2C0
100
AcDbEntity
  8
0
100
AcDbCircle
 62
9
  6
CONTINUOUS
 10
11.430920206
 20
11.5529666909
 40
0.0644146774
100
AcDbArc
 50
214.2523016789
 51
215.7659634924
  0
ARC
  5
2C1
100
AcDbEntity
  8
0
100
AcDbCircle
 62
7
  6
CONTINUOUS
 10
11.2671213697
 20
7.6991298314
 40
0.06
100
AcDbArc
 50
347.0761704799
 51
32.5304038845
  0
ARC
  5
2C2
100
AcDbEntity
  8
0
100
AcDbCircle
 62
7
  6
CONTINUOUS
 10
9.0905271824
 20
9.018455971
 40
0.05
100
AcDbArc
 50
116.4004865008
 51
180.0
  0
ARC
  5
2C3
100
AcDbEntity
  8
0
100
AcDbCircle
 62
7
  6
CONTINUOUS
 10
9.7755271824
 20
9.018455971
 40
0.05
100
AcDbArc
 50
0.0
 51
63.5995134992
  0
ARC
  5
2C4
100
AcDbEntity
  8
0
100
AcDbCircle
 62
7
  6
CONTINUOUS
 10
11.3614316291
 20
7.752819493
 40
0.05
100
AcDbArc
 50
146.2812232359
 51
179.5127159936
  0
ARC
  5
2C5
100
AcDbEntity
  8
0
100
AcDbCircle
 62
7
  6
CONTINUOUS
 10
11.396754269
 20
11.5915308912
 40
0.0427056127
100
AcDbArc
 50
167.2182320637
 51
169.89085266
  0
ARC
  5
2C6
100
AcDbEntity
  8
0
100
AcDbCircle
 62
7
  6
CONTINUOUS
 10
11.3514319907
 20
7.7529045391
 40
0.04
100
AcDbArc
 50
179.5127159939
 51
212.5304038849
  0
ARC
  5
2C7
100
AcDbEntity
  8
0
100
AcDbCircle
 62
7
  6
CONTINUOUS
 10
9.0725271824
 20
8.9904721677
 40
0.032
100
AcDbArc
 50
180.0
 51
214.246420648
  0
ARC
  5
2C8
100
AcDbEntity
  8
0
100
AcDbCircle
 62
7
  6
CONTINUOUS
 10
9.7935271824
 20
8.9904721678
 40
0.032
100
AcDbArc
 50
325.7535793523
 51
360.0
  0
ARC
  5
2C9
100
AcDbEntity
  8
0
100
AcDbCircle
 62
7
  6
CONTINUOUS
 10
13.1955011124
 20
7.0100109206
 40
4.2200000005
100
AcDbArc
 50
188.8309935031
 51
191.1057188378
  0
ARC
  5
2CA
100
AcDbEntity
  8
0
100
AcDbCircle
 62
7
  6
CONTINUOUS
 10
13.1955011124
 20
5.7242988725
 40
4.2200000005
100
AcDbArc
 50
168.8942811622
 51
171.1690064969
  0
ARC
  5
2CB
100
AcDbEntity
  8
0
100
AcDbCircle
 62
7
  6
CONTINUOUS
 10
12.7913720133
 20
1.4647984
 40
3.9140000017
100
AcDbArc
 50
120.5640528814
 51
121.0327088822
  0
ARC
  5
2CC
100
AcDbEntity
  8
0
100
AcDbCircle
 62
7
  6
CONTINUOUS
 10
15.2473027119
 20
6.8700266847
 40
3.33
100
AcDbArc
 50
219.5152142054
 51
222.7791643951
  0
ARC
  5
2CD
100
AcDbEntity
  8
0
100
AcDbCircle
 62
7
  6
CONTINUOUS
 10
13.894567074
 20
6.3671548966
 40
3.0
100
AcDbArc
 50
164.7963906254
 51
170.4059317731
  0
ARC
  5
2CE
100
AcDbEntity
  8
0
100
AcDbCircle
 62
7
  6
CONTINUOUS
 10
13.894567074
 20
6.3671548966
 40
3.0
100
AcDbArc
 50
189.5940682269
 51
195.9056507815
  0
ARC
  5
2CF
100
AcDbEntity
  8
0
100
AcDbCircle
 62
7
  6
CONTINUOUS
 10
13.838067074
 20
5.5660117627
 40
1.41
100
AcDbArc
 50
222.7791643952
 51
225.1670903648
  0
ARC
  5
2D0
100
AcDbEntity
  8
0
100
AcDbCircle
 62
7
  6
CONTINUOUS
 10
12.870567074
 20
5.4079656556
 40
0.5
100
AcDbArc
 50
164.0943492185
 51
216.3672792948
  0
ARC
  5
2D1
100
AcDbEntity
  8
0
100
AcDbCircle
 62
7
  6
CONTINUOUS
 10
12.316567074
 20
5.0000097756
 40
0.188
100
AcDbArc
 50
0.0
 51
36.3672792948
  0
ARC
  5
2D2
100
AcDbEntity
  8
0
100
AcDbCircle
 62
7
  6
CONTINUOUS
 10
12.6438013001
 20
4.912487558
 40
0.09
100
AcDbArc
 50
201.5956014719
 51
239.4359471186
  0
ARC
  5
2D3
100
AcDbEntity
  8
0
100
AcDbCircle
 62
7
  6
CONTINUOUS
 10
12.3647798758
 20
7.2139045391
 40
0.08
100
AcDbArc
 50
330.0
 51
355.8199968617
  0
ARC
  5
2D4
100
AcDbEntity
  8
0
100
AcDbCircle
 62
7
  6
CONTINUOUS
 10
12.3747532756
 20
7.2131756379
 40
0.07
100
AcDbArc
 50
355.8199968619
 51
60.1758301868
  0
ARC
  5
2D5
100
AcDbEntity
  8
0
100
AcDbCircle
 62
7
  6
CONTINUOUS
 10
12.521067074
 20
4.8639045391
 40
0.042
100
AcDbArc
 50
21.595601472
 51
90.0
  0
ARC
  5
2D6
100
AcDbEntity
  8
0
100
AcDbCircle
 62
7
  6
CONTINUOUS
 10
12.6372095131
 20
4.7749045391
 40
0.042
100
AcDbArc
 50
34.7684445487
 51
53.1301023542
  0
ARC
  5
2D7
100
AcDbEntity
  8
0
100
AcDbCircle
 62
7
  6
CONTINUOUS
 10
12.3994208919
 20
7.1939045391
 40
0.04
100
AcDbArc
 50
270.2092869406
 51
330.0
  0
ARC
  5
2D8
100
AcDbEntity
  8
0
100
AcDbCircle
 62
7
  6
CONTINUOUS
 10
12.6402095131
 20
4.7789045391
 40
0.037
100
AcDbArc
 50
53.1301023542
 51
90.0
  0
ARC
  5
2D9
100
AcDbEntity
  8
0
100
AcDbCircle
 62
7
  6
CONTINUOUS
 10
12.647067074
 20
4.7817476739
 40
0.03
100
AcDbArc
 50
339.1231462431
 51
34.7684445487
  0
ARC
  5
2DA
100
AcDbEntity
  8
0
100
AcDbCircle
 62
7
  6
CONTINUOUS
 10
12.6358466464
 20
4.8357373236
 40
0.02
100
AcDbArc
 50
238.9672911178
 51
264.6759719783
  0
ARC
  5
2DB
100
AcDbEntity
  8
0
100
AcDbCircle
 62
7
  6
CONTINUOUS
 10
12.829857503
 20
4.5519045391
 40
0.02
100
AcDbArc
 50
270.0
 51
45.1670903649
  0
ARC
  5
2DC
100
AcDbEntity
  8
0
100
AcDbCircle
 62
7
  6
CONTINUOUS
 10
12.6937844996
 20
4.7639296453
 40
0.02
100
AcDbArc
 50
159.123146243
 51
219.5152142056
  0
ARC
  5
2DD
100
AcDbEntity
  8
0
100
AcDbCircle
 62
9
  6
CONTINUOUS
 10
11.7002577562
 20
11.9276339687
 40
0.8094040617
100
AcDbArc
 50
270.7559090806
 51
274.5378128701
  0
ARC
  5
2DE
100
AcDbEntity
  8
0
100
AcDbCircle
 62
9
  6
CONTINUOUS
 10
11.7046403419
 20
11.8715592595
 40
0.7531583939
100
AcDbArc
 50
274.5429566321
 51
276.0543667767
  0
ARC
  5
2DF
100
AcDbEntity
  8
0
100
AcDbCircle
 62
7
  6
CONTINUOUS
 10
12.6583336383
 20
7.8199038032
 40
0.6
100
AcDbArc
 50
192.9238295201
 51
245.5051820501
  0
ARC
  5
2E0
100
AcDbEntity
  8
0
100
AcDbCircle
 62
9
  6
CONTINUOUS
 10
11.7328518293
 20
11.6850698862
 40
0.5644715838
100
AcDbArc
 50
280.6622167031
 51
281.8841928307
  0
ARC
  5
2E1
100
AcDbEntity
  8
0
100
AcDbCircle
 62
7
  6
CONTINUOUS
 10
11.699567074
 20
13.7539045391
 40
0.25
100
AcDbArc
 50
0.0
 51
180.0
  0
ARC
  5
2E2
100
AcDbEntity
  8
0
100
AcDbCircle
 62
9
  6
CONTINUOUS
 10
11.8787630036
 20
11.1581164395
 40
0.1824300464
100
AcDbArc
 50
59.3649315812
 51
59.8864309836
  0
ARC
  5
2E3
100
AcDbEntity
  8
0
100
AcDbCircle
 62
7
  6
CONTINUOUS
 10
12.001567074
 20
7.6539045391
 40
0.16
100
AcDbArc
 50
77.7612442321
 51
90.0
  0
ARC
  5
2E4
100
AcDbEntity
  8
0
100
AcDbCircle
 62
7
  6
CONTINUOUS
 10
12.1065730362
 20
11.4335287317
 40
0.1194715717
100
AcDbArc
 50
170.4542666825
 51
172.6610032829
  0
ARC
  5
2E5
100
AcDbEntity
  8
0
100
AcDbCircle
 62
7
  6
CONTINUOUS
 10
11.93550051
 20
11.5874522391
 40
0.1116939626
100
AcDbArc
 50
328.414724385
 51
334.0866900661
  0
ARC
  5
2E6
100
AcDbEntity
  8
0
100
AcDbCircle
 62
7
  6
CONTINUOUS
 10
11.940940143
 20
11.5846977233
 40
0.1055975452
100
AcDbArc
 50
334.1411594508
 51
335.7640175372
  0
ARC
  5
2E7
100
AcDbEntity
  8
0
100
AcDbCircle
 62
7
  6
CONTINUOUS
 10
11.9428580404
 20
11.5838342862
 40
0.1034942492
100
AcDbArc
 50
335.7640436776
 51
337.4591419888
  0
ARC
  5
2E8
100
AcDbEntity
  8
0
100
AcDbCircle
 62
7
  6
CONTINUOUS
 10
12.0202218321
 20
7.7399045391
 40
0.072
100
AcDbArc
 50
64.9998302464
 51
77.7612442322
  0
ARC
  5
2E9
100
AcDbEntity
  8
0
100
AcDbCircle
 62
7
  6
CONTINUOUS
 10
12.021067074
 20
7.7417171522
 40
0.07
100
AcDbArc
 50
33.7187767638
 51
64.9998302463
  0
ARC
  5
2EA
100
AcDbEntity
  8
0
100
AcDbCircle
 62
9
  6
CONTINUOUS
 10
11.9652571749
 20
11.5551000163
 40
0.0680607081
100
AcDbArc
 50
321.8404978218
 51
324.2316411836
  0
ARC
  5
2EB
100
AcDbEntity
  8
0
100
AcDbCircle
 62
9
  6
CONTINUOUS
 10
11.9685301951
 20
11.5527449245
 40
0.0640284491
100
AcDbArc
 50
324.2296530136
 51
325.8887426721
  0
ARC
  5
2EC
100
AcDbEntity
  8
0
100
AcDbCircle
 62
7
  6
CONTINUOUS
 10
12.1320127783
 20
7.6991298314
 40
0.06
100
AcDbArc
 50
147.4695961155
 51
192.9238295201
  0
ARC
  5
2ED
100
AcDbEntity
  8
0
100
AcDbCircle
 62
7
  6
CONTINUOUS
 10
12.0377025189
 20
7.752819493
 40
0.05
100
AcDbArc
 50
0.4872840064
 51
33.7187767641
  0
ARC
  5
2EE
100
AcDbEntity
  8
0
100
AcDbCircle
 62
7
  6
CONTINUOUS
 10
12.0025201533
 20
11.5915581226
 40
0.0425627331
100
AcDbArc
 50
10.0355340042
 51
12.1981969965
  0
ARC
  5
2EF
100
AcDbEntity
  8
0
100
AcDbCircle
 62
7
  6
CONTINUOUS
 10
12.0477021573
 20
7.7529045391
 40
0.04
100
AcDbArc
 50
327.4695961151
 51
0.4872840061
  0
SPLINE
  5
2F0
100
AcDbEntity
  8
0
100
AcDbSpline
 62
7
  6
CONTINUOUS
 70
0
 71
3
 72
24
 73
20
 74
0
 42
0.0000001
 43
0.0000001
 44
0.0000000001
 40
0.0
 40
0.0
 40
0.0
 40
0.0
 40
0.0412814657
 40
0.1532236853
 40
0.2286256705
 40
0.2700049075
 40
0.3134011839
 40
0.3584802857
 40
0.4048922458
 40
0.4522113615
 40
0.5000125043
 40
0.5478115414
 40
0.5951229396
 40
0.6415206745
 40
0.6865850293
 40
0.7713222738
 40
0.8467270671
 40
0.9587037294
 40
1.0
 40
1.0
 40
1.0
 40
1.0
 10
10.9365271824
 20
5.8671548966
 30
0.0
 10
10.9428023646
 20
5.8800638121
 30
0.0
 10
10.965590957
 20
5.928240174
 30
0.0
 10
10.9964153161
 20
6.0016150224
 30
0.0
 10
11.0220596469
 20
6.0769659071
 30
0.0
 10
11.0372695328
 20
6.1305665371
 30
0.0
 10
11.0478426385
 20
6.1744849379
 30
0.0
 10
11.0567324752
 20
6.2205629184
 30
0.0
 10
11.0634743115
 20
6.2683853605
 30
0.0
 10
11.067724945
 20
6.3174480373
 30
0.0
 10
11.0691316289
 20
6.3671583054
 30
0.0
 10
11.0677233903
 20
6.4168657935
 30
0.0
 10
11.0634776161
 20
6.4659203066
 30
0.0
 10
11.0567369689
 20
6.5137307259
 30
0.0
 10
11.0451214618
 20
6.5739175959
 30
0.0
 10
11.0269328111
 20
6.6430163176
 30
0.0
 10
10.996432697
 20
6.7326546782
 30
0.0
 10
10.9656011166
 20
6.8060497771
 30
0.0
 10
10.9428046697
 20
6.8542417129
 30
0.0
 10
10.9365271824
 20
6.8671548966
 30
0.0
  0
SPLINE
  5
2F1
100
AcDbEntity
  8
0
100
AcDbSpline
 62
7
  6
CONTINUOUS
 70
0
 71
3
 72
27
 73
23
 74
0
 42
0.0000001
 43
0.0000001
 44
0.0000000001
 40
0.0
 40
0.0
 40
0.0
 40
0.0
 40
0.0455806607
 40
0.070306252
 40
0.0963006123
 40
0.1521314067
 40
0.1821056984
 40
0.2134908481
 40
0.2801249051
 40
0.3509642038
 40
0.4247252656
 40
0.5000048731
 40
0.5752846042
 40
0.6490445749
 40
0.7198824483
 40
0.7865159043
 40
0.8179020435
 40
0.8478753265
 40
0.9036996798
 40
0.9296917383
 40
0.9544174283
 40
1.0
 40
1.0
 40
1.0
 40
1.0
 10
11.4118911149
 20
11.1923847564
 30
0.0
 10
11.4183740184
 20
11.1858427218
 30
0.0
 10
11.429652905
 20
11.1769946629
 30
0.0
 10
11.4463289825
 20
11.1669614466
 30
0.0
 10
11.4655468736
 20
11.1572127343
 30
0.0
 10
11.4866219747
 20
11.1489325096
 30
0.0
 10
11.5092171198
 20
11.1418360101
 30
0.0
 10
11.5342033943
 20
11.135132334
 30
0.0
 10
11.5676401058
 20
11.1281865369
 30
0.0
 10
11.6099315194
 20
11.122235329
 30
0.0
 10
11.6542377953
 20
11.1186244853
 30
0.0
 10
11.6995700385
 20
11.1174174315
 30
0.0
 10
11.7449020564
 20
11.1186248456
 30
0.0
 10
11.7892078068
 20
11.1222360314
 30
0.0
 10
11.8314986417
 20
11.1281868608
 30
0.0
 10
11.864935021
 20
11.1351333586
 30
0.0
 10
11.8899209459
 20
11.1418378325
 30
0.0
 10
11.912514867
 20
11.1489338165
 30
0.0
 10
11.9335883541
 20
11.1572128058
 30
0.0
 10
11.952804531
 20
11.1669610554
 30
0.0
 10
11.9694804698
 20
11.1769943565
 30
0.0
 10
11.9807598577
 20
11.1858424475
 30
0.0
 10
11.987243033
 20
11.1923847564
 30
0.0
  0
SPLINE
  5
2F2
100
AcDbEntity
  8
0
100
AcDbSpline
 62
7
  6
CONTINUOUS
 70
0
 71
3
 72
9
 73
5
 74
0
 42
0.0000001
 43
0.0000001
 44
0.0000000001
 40
0.0
 40
0.0
 40
0.0
 40
0.0
 40
0.2508415604
 40
1.0
 40
1.0
 40
1.0
 40
1.0
 10
11.9872231435
 20
11.1923833289
 30
0.0
 10
11.988266139
 20
11.1934393661
 30
0.0
 10
11.9923470526
 20
11.1977241742
 30
0.0
 10
11.996101138
 20
11.202324976
 30
0.0
 10
11.9986674742
 20
11.2059394489
 30
0.0
  0
SPLINE
  5
2F3
100
AcDbEntity
  8
0
100
AcDbSpline
 62
7
  6
CONTINUOUS
 70
0
 71
3
 72
9
 73
5
 74
0
 42
0.0000001
 43
0.0000001
 44
0.0000000001
 40
0.0
 40
0.0
 40
0.0
 40
0.0
 40
0.7494242989
 40
1.0
 40
1.0
 40
1.0
 40
1.0
 10
11.9986674742
 20
11.2059394489
 30
0.0
 10
12.0008876697
 20
11.209066411
 30
0.0
 10
12.0036124666
 20
11.2134188745
 30
0.0
 10
12.0059435234
 20
11.2179753963
 30
0.0
 10
12.0065020025
 20
11.2191296441
 30
0.0
  0
SPLINE
  5
2F4
100
AcDbEntity
  8
0
100
AcDbSpline
 62
7
  6
CONTINUOUS
 70
0
 71
3
 72
10
 73
6
 74
0
 42
0.0000001
 43
0.0000001
 44
0.0000000001
 40
0.0
 40
0.0
 40
0.0
 40
0.0
 40
0.4898891094
 40
0.7413761603
 40
1.0
 40
1.0
 40
1.0
 40
1.0
 10
12.0065020025
 20
11.2191296441
 30
0.0
 10
12.0090455272
 20
11.2243865238
 30
0.0
 10
12.0120932592
 20
11.2327788411
 30
0.0
 10
12.014205317
 20
11.2445304416
 30
0.0
 10
12.0145670892
 20
11.2506190227
 30
0.0
 10
12.0145670892
 20
11.2537020357
 30
0.0
  0
SPLINE
  5
2F5
100
AcDbEntity
  8
0
100
AcDbSpline
 62
7
  6
CONTINUOUS
 70
0
 71
3
 72
10
 73
6
 74
0
 42
0.0000001
 43
0.0000001
 44
0.0000000001
 40
0.0
 40
0.0
 40
0.0
 40
0.0
 40
0.2592404959
 40
0.5107719053
 40
1.0
 40
1.0
 40
1.0
 40
1.0
 10
11.3845670587
 20
11.2537020357
 30
0.0
 10
11.3845670587
 20
11.2505446667
 30
0.0
 10
11.3849445386
 20
11.2443156338
 30
0.0
 10
11.3871498119
 20
11.2323167297
 30
0.0
 10
11.39032873
 20
11.2237708391
 30
0.0
 10
11.3929728181
 20
11.2184311742
 30
0.0
  0
SPLINE
  5
2F6
100
AcDbEntity
  8
0
100
AcDbSpline
 62
7
  6
CONTINUOUS
 70
0
 71
3
 72
9
 73
5
 74
0
 42
0.0000001
 43
0.0000001
 44
0.0000000001
 40
0.0
 40
0.0
 40
0.0
 40
0.0
 40
0.2505062314
 40
1.0
 40
1.0
 40
1.0
 40
1.0
 10
11.3929728181
 20
11.2184311742
 30
0.0
 10
11.3935151691
 20
11.2173359109
 30
0.0
 10
11.3957719772
 20
11.2130095012
 30
0.0
 10
11.3983830612
 20
11.2088700179
 30
0.0
 10
11.4005022121
 20
11.2058899898
 30
0.0
  0
SPLINE
  5
2F7
100
AcDbEntity
  8
0
100
AcDbSpline
 62
7
  6
CONTINUOUS
 70
0
 71
3
 72
9
 73
5
 74
0
 42
0.0000001
 43
0.0000001
 44
0.0000000001
 40
0.0
 40
0.0
 40
0.0
 40
0.0
 40
0.2492817196
 40
1.0
 40
1.0
 40
1.0
 40
1.0
 10
11.4005022121
 20
11.2058899898
 30
0.0
 10
11.4013563262
 20
11.2046889032
 30
0.0
 10
11.4048897176
 20
11.1999472197
 30
0.0
 10
11.4088253084
 20
11.1955097086
 30
0.0
 10
11.4119463533
 20
11.1923539747
 30
0.0
  0
SPLINE
  5
2F8
100
AcDbEntity
  8
0
100
AcDbSpline
 62
7
  6
CONTINUOUS
 70
0
 71
3
 72
10
 73
6
 74
0
 42
0.0000001
 43
0.0000001
 44
0.0000000001
 40
0.0
 40
0.0
 40
0.0
 40
0.0
 40
0.4896861389
 40
0.7411471255
 40
1.0
 40
1.0
 40
1.0
 40
1.0
 10
11.4026744339
 20
11.3059096655
 30
0.0
 10
11.3987113737
 20
11.3004743835
 30
0.0
 10
11.3934571663
 20
11.2916457134
 30
0.0
 10
11.3884593276
 20
11.2788266024
 30
0.0
 10
11.3866950691
 20
11.2720202538
 30
0.0
 10
11.3860112901
 20
11.2685308333
 30
0.0
  0
SPLINE
  5
2F9
100
AcDbEntity
  8
0
100
AcDbSpline
 62
7
  6
CONTINUOUS
 70
0
 71
3
 72
10
 73
6
 74
0
 42
0.0000001
 43
0.0000001
 44
0.0000000001
 40
0.0
 40
0.0
 40
0.0
 40
0.0
 40
0.2587823327
 40
0.5102442027
 40
1.0
 40
1.0
 40
1.0
 40
1.0
 10
12.0131228578
 20
11.2685308333
 30
0.0
 10
12.0124392801
 20
11.2720192269
 30
0.0
 10
12.010675113
 20
11.2788244522
 30
0.0
 10
12.0056774801
 20
11.2916432793
 30
0.0
 10
12.0004236494
 20
11.3004730459
 30
0.0
 10
11.9964602893
 20
11.3059091122
 30
0.0
  0
SPLINE
  5
2FA
100
AcDbEntity
  8
0
100
AcDbSpline
 62
7
  6
CONTINUOUS
 70
0
 71
3
 72
13
 73
9
 74
0
 42
0.0000001
 43
0.0000001
 44
0.0000000001
 40
0.0
 40
0.0
 40
0.0
 40
0.0
 40
0.1806701972
 40
0.2926883024
 40
0.416754734
 40
0.5511435801
 40
0.6941671618
 40
1.0
 40
1.0
 40
1.0
 40
1.0
 10
11.4026193674
 20
11.3058868606
 30
0.0
 10
11.4041287213
 20
11.3079815913
 30
0.0
 10
11.4063462688
 20
11.311544868
 30
0.0
 10
11.4089947592
 20
11.3168835947
 30
0.0
 10
11.4109729767
 20
11.3218003165
 30
0.0
 10
11.412722744
 20
11.3272699085
 30
0.0
 10
11.4146816568
 20
11.3353759588
 30
0.0
 10
11.4154741428
 20
11.3417773357
 30
0.0
 10
11.4156560176
 20
11.3461440561
 30
0.0
  0
SPLINE
  5
2FB
100
AcDbEntity
  8
0
100
AcDbSpline
 62
7
  6
CONTINUOUS
 70
0
 71
3
 72
11
 73
7
 74
0
 42
0.0000001
 43
0.0000001
 44
0.0000000001
 40
0.0
 40
0.0
 40
0.0
 40
0.0
 40
0.3070224086
 40
0.5849020106
 40
0.8203989956
 40
1.0
 40
1.0
 40
1.0
 40
1.0
 10
11.9834781304
 20
11.3461440561
 30
0.0
 10
11.9836604943
 20
11.3417655915
 30
0.0
 10
11.9847058617
 20
11.3334399411
 30
0.0
 10
11.9878572602
 20
11.3221247131
 30
0.0
 10
11.9918364479
 20
11.3130296058
 30
0.0
 10
11.9949915497
 20
11.3079903468
 30
0.0
 10
11.9964980642
 20
11.3059162074
 30
0.0
  0
SPLINE
  5
2FC
100
AcDbEntity
  8
0
100
AcDbSpline
 62
7
  6
CONTINUOUS
 70
0
 71
3
 72
13
 73
9
 74
0
 42
0.0000001
 43
0.0000001
 44
0.0000000001
 40
0.0
 40
0.0
 40
0.0
 40
0.0
 40
0.0846141687
 40
0.1845167017
 40
0.4216229519
 40
0.5553679839
 40
0.6972388063
 40
1.0
 40
1.0
 40
1.0
 40
1.0
 10
12.0106232532
 20
11.5037306133
 30
0.0
 10
12.0096285208
 20
11.5025215685
 30
0.0
 10
12.0075429547
 20
11.4998154058
 30
0.0
 10
12.0031354868
 20
11.4933747651
 30
0.0
 10
11.9989003705
 20
11.4857286794
 30
0.0
 10
11.9951630788
 20
11.4770017863
 30
0.0
 10
11.9916143933
 20
11.4668994032
 30
0.0
 10
11.9896846092
 20
11.4588658678
 30
0.0
 10
11.988755722
 20
11.4533412764
 30
0.0
  0
SPLINE
  5
2FD
100
AcDbEntity
  8
0
100
AcDbSpline
 62
7
  6
CONTINUOUS
 70
0
 71
3
 72
13
 73
9
 74
0
 42
0.0000001
 43
0.0000001
 44
0.0000000001
 40
0.0
 40
0.0
 40
0.0
 40
0.0
 40
0.3034263365
 40
0.4453418996
 40
0.5789412914
 40
0.7028101744
 40
0.8154671922
 40
1.0
 40
1.0
 40
1.0
 40
1.0
 10
11.4103703611
 20
11.453385857
 30
0.0
 10
11.409437065
 20
11.4589161821
 30
0.0
 10
11.4074973992
 20
11.4669522559
 30
0.0
 10
11.4039420008
 20
11.4770507036
 30
0.0
 10
11.4010348684
 20
11.4838428572
 30
0.0
 10
11.397912927
 20
11.4899371188
 30
0.0
 10
11.3938958335
 20
11.4966073461
 30
0.0
 10
11.3906685511
 20
11.5010713041
 30
0.0
 10
11.3885028168
 20
11.5037064184
 30
0.0
  0
SPLINE
  5
2FE
100
AcDbEntity
  8
0
100
AcDbSpline
 62
7
  6
CONTINUOUS
 70
0
 71
3
 72
9
 73
5
 74
0
 42
0.0000001
 43
0.0000001
 44
0.0000000001
 40
0.0
 40
0.0
 40
0.0
 40
0.0
 40
0.248694529
 40
1.0
 40
1.0
 40
1.0
 40
1.0
 10
12.0174862168
 20
11.5113234725
 30
0.0
 10
12.0186995578
 20
11.5126866719
 30
0.0
 10
12.023466278
 20
11.5182662159
 30
0.0
 10
12.0277622078
 20
11.5242531715
 30
0.0
 10
12.0306483037
 20
11.5289506269
 30
0.0
  0
SPLINE
  5
2FF
100
AcDbEntity
  8
0
100
AcDbSpline
 62
7
  6
CONTINUOUS
 70
0
 71
3
 72
9
 73
5
 74
0
 42
0.0000001
 43
0.0000001
 44
0.0000000001
 40
0.0
 40
0.0
 40
0.0
 40
0.0
 40
0.491469457
 40
1.0
 40
1.0
 40
1.0
 40
1.0
 10
12.0384459917
 20
11.5441605771
 30
0.0
 10
12.0408651377
 20
11.5499899733
 30
0.0
 10
12.0446956109
 20
11.562339045
 30
0.0
 10
12.0459944542
 20
11.5752173736
 30
0.0
 10
12.0459944542
 20
11.5817478996
 30
0.0
  0
SPLINE
  5
300
100
AcDbEntity
  8
0
100
AcDbSpline
 62
7
  6
CONTINUOUS
 70
0
 71
3
 72
9
 73
5
 74
0
 42
0.0000001
 43
0.0000001
 44
0.0000000001
 40
0.0
 40
0.0
 40
0.0
 40
0.0
 40
0.5094761577
 40
1.0
 40
1.0
 40
1.0
 40
1.0
 10
11.3531396937
 20
11.5817478996
 30
0.0
 10
11.3531396937
 20
11.5750213918
 30
0.0
 10
11.3545088083
 20
11.5617779698
 30
0.0
 10
11.3585610066
 20
11.5491127402
 30
0.0
 10
11.361107994
 20
11.5431583206
 30
0.0
  0
SPLINE
  5
301
100
AcDbEntity
  8
0
100
AcDbSpline
 62
7
  6
CONTINUOUS
 70
0
 71
3
 72
9
 73
5
 74
0
 42
0.0000001
 43
0.0000001
 44
0.0000000001
 40
0.0
 40
0.0
 40
0.0
 40
0.0
 40
0.2510997264
 40
1.0
 40
1.0
 40
1.0
 40
1.0
 10
11.3684936159
 20
11.528945276
 30
0.0
 10
11.3694580563
 20
11.527377489
 30
0.0
 10
11.3734479059
 20
11.521226065
 30
0.0
 10
11.3779981749
 20
11.5154431525
 30
0.0
 10
11.3816476376
 20
11.5113420253
 30
0.0
  0
SPLINE
  5
302
100
AcDbEntity
  8
0
100
AcDbSpline
 62
7
  6
CONTINUOUS
 70
0
 71
3
 72
11
 73
7
 74
0
 42
0.0000001
 43
0.0000001
 44
0.0000000001
 40
0.0
 40
0.0
 40
0.0
 40
0.0
 40
0.2474261046
 40
0.4946149121
 40
0.7441474343
 40
1.0
 40
1.0
 40
1.0
 40
1.0
 10
11.375609547
 20
11.6414506457
 30
0.0
 10
11.3730270761
 20
11.6384400692
 30
0.0
 10
11.3681811531
 20
11.6321398272
 30
0.0
 10
11.3620666891
 20
11.6218597966
 30
0.0
 10
11.3573541829
 20
11.6107101582
 30
0.0
 10
11.3553563913
 20
11.6028181146
 30
0.0
 10
11.3546641916
 20
11.598775413
 30
0.0
  0
SPLINE
  5
303
100
AcDbEntity
  8
0
100
AcDbSpline
 62
7
  6
CONTINUOUS
 70
0
 71
3
 72
11
 73
7
 74
0
 42
0.0000001
 43
0.0000001
 44
0.0000000001
 40
0.0
 40
0.0
 40
0.0
 40
0.0
 40
0.2558177764
 40
0.5053560492
 40
0.7525627309
 40
1.0
 40
1.0
 40
1.0
 40
1.0
 10
12.0444699563
 20
11.598775413
 30
0.0
 10
12.0437778716
 20
11.6028174428
 30
0.0
 10
12.0417801048
 20
11.6107087534
 30
0.0
 10
12.0370679993
 20
11.6218579386
 30
0.0
 10
12.0309539839
 20
11.6321384644
 30
0.0
 10
12.0261080742
 20
11.6384390187
 30
0.0
 10
12.0235255994
 20
11.6414496698
 30
0.0
  0
SPLINE
  5
304
100
AcDbEntity
  8
0
100
AcDbSpline
 62
7
  6
CONTINUOUS
 70
0
 71
3
 72
31
 73
27
 74
0
 42
0.0000001
 43
0.0000001
 44
0.0000000001
 40
0.0
 40
0.0
 40
0.0
 40
0.0
 40
0.0238791984
 40
0.0482948942
 40
0.0734665133
 40
0.0995301987
 40
0.1266614786
 40
0.1550267742
 40
0.1847538637
 40
0.2158479854
 40
0.2817823919
 40
0.3519750745
 40
0.4251983777
 40
0.5000033351
 40
0.5748079703
 40
0.6480307065
 40
0.718221808
 40
0.784154804
 40
0.815247902
 40
0.8449739449
 40
0.8733379408
 40
0.9004686433
 40
0.9265337969
 40
0.9517090452
 40
0.9761263881
 40
1.0
 40
1.0
 40
1.0
 40
1.0
 10
12.02363948
 20
11.641310051
 30
0.0
 10
12.0200701654
 20
11.6454812214
 30
0.0
 10
12.0122805134
 20
11.653441445
 30
0.0
 10
11.999129863
 20
11.6640869671
 30
0.0
 10
11.9845983739
 20
11.6736843575
 30
0.0
 10
11.9688129135
 20
11.6824017836
 30
0.0
 10
11.951794118
 20
11.690304847
 30
0.0
 10
11.9335475005
 20
11.6974701477
 30
0.0
 10
11.9140951028
 20
11.7039776753
 30
0.0
 10
11.8860631591
 20
11.711971422
 30
0.0
 10
11.848466613
 20
11.7201955604
 30
0.0
 10
11.8008189219
 20
11.727212545
 30
0.0
 10
11.7508013642
 20
11.7314728796
 30
0.0
 10
11.6995648839
 20
11.7329077067
 30
0.0
 10
11.648328544
 20
11.7314725897
 30
0.0
 10
11.5983115691
 20
11.7272121196
 30
0.0
 10
11.5506647118
 20
11.7201951006
 30
0.0
 10
11.5130690963
 20
11.7119710113
 30
0.0
 10
11.4850379921
 20
11.7039772357
 30
0.0
 10
11.4655863553
 20
11.6974698955
 30
0.0
 10
11.4473402451
 20
11.6903051509
 30
0.0
 10
11.4303214589
 20
11.6824022774
 30
0.0
 10
11.4145351938
 20
11.6736841226
 30
0.0
 10
11.4000028632
 20
11.6640851805
 30
0.0
 10
11.3868524432
 20
11.6534395442
 30
0.0
 10
11.3790631475
 20
11.6454802456
 30
0.0
 10
11.3754946679
 20
11.641310051
 30
0.0
  0
SPLINE
  5
305
100
AcDbEntity
  8
0
100
AcDbSpline
 62
9
  6
CONTINUOUS
 70
0
 71
3
 72
22
 73
18
 74
0
 42
0.0000001
 43
0.0000001
 44
0.0000000001
 40
0.0
 40
0.0
 40
0.0
 40
0.0
 40
0.0150501231
 40
0.0303708617
 40
0.0627409308
 40
0.0988367754
 40
0.1397525752
 40
0.1860632664
 40
0.2380228445
 40
0.295608729
 40
0.3586123513
 40
0.4267182036
 40
0.4994581974
 40
0.5762994403
 40
0.6566672904
 40
0.825449433
 40
1.0
 40
1.0
 40
1.0
 40
1.0
 10
11.949567074
 20
12.2734498616
 30
0.0
 10
11.949567074
 20
12.2748519639
 30
0.0
 10
11.949360578
 20
12.2776855806
 30
0.0
 10
11.9481128205
 20
12.2834128316
 30
0.0
 10
11.9448920098
 20
12.290621541
 30
0.0
 10
11.9387320923
 20
12.2988176774
 30
0.0
 10
11.9303152263
 20
12.3067028357
 30
0.0
 10
11.9197314747
 20
12.3142456342
 30
0.0
 10
11.9070636216
 20
12.3213857207
 30
0.0
 10
11.8924266635
 20
12.328069121
 30
0.0
 10
11.8759522948
 20
12.3342379027
 30
0.0
 10
11.8577913908
 20
12.3398244748
 30
0.0
 10
11.8381191452
 20
12.3447849669
 30
0.0
 10
11.8171219532
 20
12.3490675844
 30
0.0
 10
11.7871302751
 20
12.353893032
 30
0.0
 10
11.7478235899
 20
12.3578920534
 30
0.0
 10
11.7158285859
 20
12.3589548974
 30
0.0
 10
11.699567074
 20
12.3589548974
 30
0.0
  0
LINE
  5
306
100
AcDbEntity
  8
0
100
AcDbLine
 62
9
  6
CONTINUOUS
 10
11.385288111
 20
11.5079302621
 11
11.3823857096
 21
11.512445771
  0
SPLINE
  5
307
100
AcDbEntity
  8
0
100
AcDbSpline
 62
9
  6
CONTINUOUS
 70
0
 71
3
 72
10
 73
6
 74
0
 42
0.0000001
 43
0.0000001
 44
0.0000000001
 40
0.0
 40
0.0
 40
0.0
 40
0.0
 40
0.5163126193
 40
0.7604719567
 40
1.0
 40
1.0
 40
1.0
 40
1.0
 10
11.3823857096
 20
11.512445771
 30
0.0
 10
11.3804354352
 20
11.5158136896
 30
0.0
 10
11.3780728127
 20
11.5211219589
 30
0.0
 10
11.3764670242
 20
11.5285055806
 30
0.0
 10
11.3762005365
 20
11.5321572642
 30
0.0
 10
11.3762005365
 20
11.5339627704
 30
0.0
  0
SPLINE
  5
308
100
AcDbEntity
  8
0
100
AcDbSpline
 62
9
  6
CONTINUOUS
 70
0
 71
3
 72
11
 73
7
 74
0
 42
0.0000001
 43
0.0000001
 44
0.0000000001
 40
0.0
 40
0.0
 40
0.0
 40
0.0
 40
0.2322659396
 40
0.4728461201
 40
0.7272452531
 40
1.0
 40
1.0
 40
1.0
 40
1.0
 10
11.9834778266
 20
11.3461440544
 30
0.0
 10
11.983393131
 20
11.3481578265
 30
0.0
 10
11.9828405998
 20
11.352249967
 30
0.0
 10
11.9809144738
 20
11.3582889481
 30
0.0
 10
11.9779055099
 20
11.3642600255
 30
0.0
 10
11.9752908979
 20
11.3680317704
 30
0.0
 10
11.9738319137
 20
11.3698955316
 30
0.0
  0
SPLINE
  5
309
100
AcDbEntity
  8
0
100
AcDbSpline
 62
9
  6
CONTINUOUS
 70
0
 71
3
 72
33
 73
29
 74
0
 42
0.0000001
 43
0.0000001
 44
0.0000000001
 40
0.0
 40
0.0
 40
0.0
 40
0.0
 40
0.017704911
 40
0.0373671637
 40
0.0591231058
 40
0.0830353909
 40
0.1090875237
 40
0.1372140221
 40
0.16732482
 40
0.1992917981
 40
0.2681397418
 40
0.3423428223
 40
0.3809388542
 40
0.4202368835
 40
0.5
 40
0.5797631165
 40
0.6190611458
 40
0.6576571777
 40
0.7318602582
 40
0.8007082019
 40
0.83267518
 40
0.8627859779
 40
0.8909124763
 40
0.9169646091
 40
0.9408768942
 40
0.9626328363
 40
0.982295089
 40
1.0
 40
1.0
 40
1.0
 40
1.0
 10
11.9738319137
 20
11.3698955316
 30
0.0
 10
11.9717216171
 20
11.3725913038
 30
0.0
 10
11.9667884093
 20
11.3779116742
 30
0.0
 10
11.9579946932
 20
11.385251732
 30
0.0
 10
11.9474980862
 20
11.3923149926
 30
0.0
 10
11.9353616387
 20
11.3990540292
 30
0.0
 10
11.9216640763
 20
11.4054347186
 30
0.0
 10
11.9064938753
 20
11.4114171945
 30
0.0
 10
11.8899465771
 20
11.4169557926
 30
0.0
 10
11.8655856258
 20
11.4238729395
 30
0.0
 10
11.8324783918
 20
11.4310593399
 30
0.0
 10
11.7976998355
 20
11.4361454647
 30
0.0
 10
11.7684331815
 20
11.4390863593
 30
0.0
 10
11.738019483
 20
11.4412339908
 30
0.0
 10
11.699567074
 20
11.4423026787
 30
0.0
 10
11.6611146649
 20
11.4412339908
 30
0.0
 10
11.6307009664
 20
11.4390863593
 30
0.0
 10
11.6014343124
 20
11.4361454647
 30
0.0
 10
11.5666557561
 20
11.4310593399
 30
0.0
 10
11.5335485221
 20
11.4238729395
 30
0.0
 10
11.5091875708
 20
11.4169557926
 30
0.0
 10
11.4926402727
 20
11.4114171945
 30
0.0
 10
11.4774700716
 20
11.4054347186
 30
0.0
 10
11.4637725093
 20
11.3990540292
 30
0.0
 10
11.4516360617
 20
11.3923149926
 30
0.0
 10
11.4411394547
 20
11.385251732
 30
0.0
 10
11.4323457386
 20
11.3779116742
 30
0.0
 10
11.4274125308
 20
11.3725913038
 30
0.0
 10
11.4253022342
 20
11.3698955316
 30
0.0
  0
SPLINE
  5
30A
100
AcDbEntity
  8
0
100
AcDbSpline
 62
9
  6
CONTINUOUS
 70
0
 71
3
 72
11
 73
7
 74
0
 42
0.0000001
 43
0.0000001
 44
0.0000000001
 40
0.0
 40
0.0
 40
0.0
 40
0.0
 40
0.2727547469
 40
0.5271538799
 40
0.7677340604
 40
1.0
 40
1.0
 40
1.0
 40
1.0
 10
11.4253022342
 20
11.3698955316
 30
0.0
 10
11.4238432501
 20
11.3680317704
 30
0.0
 10
11.421228638
 20
11.3642600255
 30
0.0
 10
11.4182196741
 20
11.3582889481
 30
0.0
 10
11.4162935482
 20
11.352249967
 30
0.0
 10
11.4157410169
 20
11.3481578265
 30
0.0
 10
11.4156563214
 20
11.3461440544
 30
0.0
  0
LINE
  5
30B
100
AcDbEntity
  8
0
100
AcDbLine
 62
9
  6
CONTINUOUS
 10
11.3852321431
 20
11.5074313952
 11
11.3803153417
 21
11.5131070677
  0
SPLINE
  5
30C
100
AcDbEntity
  8
0
100
AcDbSpline
 62
9
  6
CONTINUOUS
 70
0
 71
3
 72
10
 73
6
 74
0
 42
0.0000001
 43
0.0000001
 44
0.0000000001
 40
0.0
 40
0.0
 40
0.0
 40
0.0
 40
0.521337063
 40
0.7637039001
 40
1.0
 40
1.0
 40
1.0
 40
1.0
 10
11.3776771504
 20
11.5167116542
 30
0.0
 10
11.374994955
 20
11.5206514722
 30
0.0
 10
11.3716895189
 20
11.5269367135
 30
0.0
 10
11.3694239859
 20
11.5358256391
 30
0.0
 10
11.3690491677
 20
11.5402107557
 30
0.0
 10
11.3690491677
 20
11.5423710211
 30
0.0
  0
SPLINE
  5
30D
100
AcDbEntity
  8
0
100
AcDbSpline
 62
9
  6
CONTINUOUS
 70
0
 71
3
 72
9
 73
5
 74
0
 42
0.0000001
 43
0.0000001
 44
0.0000000001
 40
0.0
 40
0.0
 40
0.0
 40
0.0
 40
0.4618650657
 40
1.0
 40
1.0
 40
1.0
 40
1.0
 10
11.9964650262
 20
11.3059044973
 30
0.0
 10
11.9932699248
 20
11.3102899305
 30
0.0
 10
11.9851118619
 20
11.3188857273
 30
0.0
 10
11.9756268609
 20
11.3258881606
 30
0.0
 10
11.9703252213
 20
11.3293319226
 30
0.0
  0
SPLINE
  5
30E
100
AcDbEntity
  8
0
100
AcDbSpline
 62
9
  6
CONTINUOUS
 70
0
 71
3
 72
27
 73
23
 74
0
 42
0.0000001
 43
0.0000001
 44
0.0000000001
 40
0.0
 40
0.0
 40
0.0
 40
0.0
 40
0.021465888
 40
0.0445932421
 40
0.0693517762
 40
0.0956943467
 40
0.1528627053
 40
0.2154067729
 40
0.2824553182
 40
0.3529851968
 40
0.4258920914
 40
0.5000000568
 40
0.5741080202
 40
0.6470149085
 40
0.7175447771
 40
0.7845933086
 40
0.8471373591
 40
0.9043056979
 40
0.9306482577
 40
0.9554067807
 40
0.9785341234
 40
1.0
 40
1.0
 40
1.0
 40
1.0
 10
11.9703252213
 20
11.3293319226
 30
0.0
 10
11.9669708076
 20
11.331510834
 30
0.0
 10
11.9598243746
 20
11.3357665921
 30
0.0
 10
11.9483142071
 20
11.3416572494
 30
0.0
 10
11.9356660552
 20
11.3472715205
 30
0.0
 10
11.9168432436
 20
11.3545514318
 30
0.0
 10
11.8908324502
 20
11.362667172
 30
0.0
 10
11.8569474578
 20
11.3706967869
 30
0.0
 10
11.820189252
 20
11.3770970796
 30
0.0
 10
11.7812289943
 20
11.3817641911
 30
0.0
 10
11.7407748629
 20
11.3845936928
 30
0.0
 10
11.6995670029
 20
11.3855480804
 30
0.0
 10
11.6583591443
 20
11.3845936863
 30
0.0
 10
11.6179050167
 20
11.3817641782
 30
0.0
 10
11.5789447654
 20
11.3770970605
 30
0.0
 10
11.5421865683
 20
11.370696762
 30
0.0
 10
11.5083015869
 20
11.3626671418
 30
0.0
 10
11.482290804
 20
11.3545513974
 30
0.0
 10
11.463468002
 20
11.3472714829
 30
0.0
 10
11.4508198577
 20
11.3416572098
 30
0.0
 10
11.4393096982
 20
11.3357665507
 30
0.0
 10
11.4321632709
 20
11.3315107914
 30
0.0
 10
11.4288088601
 20
11.3293318794
 30
0.0
  0
SPLINE
  5
30F
100
AcDbEntity
  8
0
100
AcDbSpline
 62
9
  6
CONTINUOUS
 70
0
 71
3
 72
9
 73
5
 74
0
 42
0.0000001
 43
0.0000001
 44
0.0000000001
 40
0.0
 40
0.0
 40
0.0
 40
0.0
 40
0.5381339464
 40
1.0
 40
1.0
 40
1.0
 40
1.0
 10
11.4288088601
 20
11.3293318794
 30
0.0
 10
11.4235073501
 20
11.3258881977
 30
0.0
 10
11.4140225573
 20
11.3188859282
 30
0.0
 10
11.4058646275
 20
11.3102903795
 30
0.0
 10
11.40266954
 20
11.3059050714
 30
0.0
  0
SPLINE
  5
310
100
AcDbEntity
  8
0
100
AcDbSpline
 62
9
  6
CONTINUOUS
 70
0
 71
3
 72
14
 73
10
 74
0
 42
0.0000001
 43
0.0000001
 44
0.0000000001
 40
0.0
 40
0.0
 40
0.0
 40
0.0
 40
0.0990033764
 40
0.2028542389
 40
0.3132462477
 40
0.4315515635
 40
0.5588007248
 40
0.6957013536
 40
1.0
 40
1.0
 40
1.0
 40
1.0
 10
12.0131181914
 20
11.2685307258
 30
0.0
 10
12.0127099882
 20
11.270604378
 30
0.0
 10
12.0115216985
 20
11.2747902776
 30
0.0
 10
12.0087483987
 20
11.2808980563
 30
0.0
 10
12.0049680504
 20
11.2869292721
 30
0.0
 10
12.0001934604
 20
11.2928596007
 30
0.0
 10
11.9944447587
 20
11.2986743925
 30
0.0
 10
11.9851835021
 20
11.3065330378
 30
0.0
 10
11.9773127626
 20
11.3117745233
 30
0.0
 10
11.971723544
 20
11.3150847795
 30
0.0
  0
SPLINE
  5
311
100
AcDbEntity
  8
0
100
AcDbSpline
 62
9
  6
CONTINUOUS
 70
0
 71
3
 72
23
 73
19
 74
0
 42
0.0000001
 43
0.0000001
 44
0.0000000001
 40
0.0
 40
0.0
 40
0.0
 40
0.0
 40
0.0460838033
 40
0.0982038437
 40
0.1559037333
 40
0.2184949222
 40
0.2851706672
 40
0.3549903628
 40
0.4269544833
 40
0.5
 40
0.5730455167
 40
0.6450096372
 40
0.7148293328
 40
0.7815050778
 40
0.8440962667
 40
0.9017961563
 40
0.9539161967
 40
1.0
 40
1.0
 40
1.0
 40
1.0
 10
11.9702910059
 20
11.3159243817
 30
0.0
 10
11.9628915271
 20
11.3202162896
 30
0.0
 10
11.9465013187
 20
11.3282984629
 30
0.0
 10
11.9194122967
 20
11.3385651965
 30
0.0
 10
11.8886699684
 20
11.3475588351
 30
0.0
 10
11.8547837862
 20
11.3551455751
 30
0.0
 10
11.8183072341
 20
11.3611781959
 30
0.0
 10
11.7798478138
 20
11.3655705672
 30
0.0
 10
11.7400459176
 20
11.3682297711
 30
0.0
 10
11.699567074
 20
11.3691267461
 30
0.0
 10
11.6590882304
 20
11.3682297711
 30
0.0
 10
11.6192863341
 20
11.3655705672
 30
0.0
 10
11.5808269139
 20
11.3611781959
 30
0.0
 10
11.5443503617
 20
11.3551455751
 30
0.0
 10
11.5104641795
 20
11.3475588351
 30
0.0
 10
11.4797218512
 20
11.3385651965
 30
0.0
 10
11.4526328293
 20
11.3282984629
 30
0.0
 10
11.4362426208
 20
11.3202162896
 30
0.0
 10
11.428843142
 20
11.3159243817
 30
0.0
  0
SPLINE
  5
312
100
AcDbEntity
  8
0
100
AcDbSpline
 62
9
  6
CONTINUOUS
 70
0
 71
3
 72
14
 73
10
 74
0
 42
0.0000001
 43
0.0000001
 44
0.0000000001
 40
0.0
 40
0.0
 40
0.0
 40
0.0
 40
0.3042986464
 40
0.4411992752
 40
0.5684484365
 40
0.6867537523
 40
0.7971457611
 40
0.9009966236
 40
1.0
 40
1.0
 40
1.0
 40
1.0
 10
11.4274106039
 20
11.3150847795
 30
0.0
 10
11.4218213853
 20
11.3117745233
 30
0.0
 10
11.4139506458
 20
11.3065330378
 30
0.0
 10
11.4046893892
 20
11.2986743925
 30
0.0
 10
11.3989406875
 20
11.2928596007
 30
0.0
 10
11.3941660975
 20
11.2869292721
 30
0.0
 10
11.3903857493
 20
11.2808980563
 30
0.0
 10
11.3876124494
 20
11.2747902776
 30
0.0
 10
11.3864241598
 20
11.270604378
 30
0.0
 10
11.3860159566
 20
11.2685307258
 30
0.0
  0
SPLINE
  5
313
100
AcDbEntity
  8
0
100
AcDbSpline
 62
9
  6
CONTINUOUS
 70
0
 71
3
 72
22
 73
18
 74
0
 42
0.0000001
 43
0.0000001
 44
0.0000000001
 40
0.0
 40
0.0
 40
0.0
 40
0.0
 40
0.174550567
 40
0.3433327096
 40
0.4237005597
 40
0.5005418026
 40
0.5732817964
 40
0.6413876487
 40
0.704391271
 40
0.7619771555
 40
0.8139367336
 40
0.8602474248
 40
0.9011632246
 40
0.9372590692
 40
0.9696291383
 40
0.9849498769
 40
1.0
 40
1.0
 40
1.0
 40
1.0
 10
11.699567074
 20
12.3589548974
 30
0.0
 10
11.6833055621
 20
12.3589548974
 30
0.0
 10
11.6513105581
 20
12.3578920534
 30
0.0
 10
11.6120038729
 20
12.353893032
 30
0.0
 10
11.5820121947
 20
12.3490675844
 30
0.0
 10
11.5610150028
 20
12.3447849669
 30
0.0
 10
11.5413427572
 20
12.3398244748
 30
0.0
 10
11.5231818532
 20
12.3342379027
 30
0.0
 10
11.5067074845
 20
12.328069121
 30
0.0
 10
11.4920705264
 20
12.3213857207
 30
0.0
 10
11.4794026733
 20
12.3142456342
 30
0.0
 10
11.4688189217
 20
12.3067028357
 30
0.0
 10
11.4604020557
 20
12.2988176774
 30
0.0
 10
11.4542421382
 20
12.290621541
 30
0.0
 10
11.4510213275
 20
12.2834128316
 30
0.0
 10
11.4497735699
 20
12.2776855806
 30
0.0
 10
11.449567074
 20
12.2748519639
 30
0.0
 10
11.449567074
 20
12.2734498616
 30
0.0
  0
SPLINE
  5
314
100
AcDbEntity
  8
0
100
AcDbSpline
 62
9
  6
CONTINUOUS
 70
0
 71
3
 72
9
 73
5
 74
0
 42
0.0000001
 43
0.0000001
 44
0.0000000001
 40
0.0
 40
0.0
 40
0.0
 40
0.0
 40
0.2566718183
 40
1.0
 40
1.0
 40
1.0
 40
1.0
 10
11.3816574422
 20
11.5113037604
 30
0.0
 10
11.3812094175
 20
11.5118037607
 30
0.0
 10
11.3794878811
 20
11.5137730263
 30
0.0
 10
11.3778651526
 20
11.5158294692
 30
0.0
 10
11.3767289198
 20
11.5174071899
 30
0.0
  0
SPLINE
  5
315
100
AcDbEntity
  8
0
100
AcDbSpline
 62
9
  6
CONTINUOUS
 70
0
 71
3
 72
10
 73
6
 74
0
 42
0.0000001
 43
0.0000001
 44
0.0000000001
 40
0.0
 40
0.0
 40
0.0
 40
0.0
 40
0.5233982792
 40
0.7650379885
 40
1.0
 40
1.0
 40
1.0
 40
1.0
 10
11.3767289198
 20
11.5174071899
 30
0.0
 10
11.3737421613
 20
11.5215544658
 30
0.0
 10
11.3700375947
 20
11.52819955
 30
0.0
 10
11.3674883794
 20
11.5376637554
 30
0.0
 10
11.3670670741
 20
11.542328237
 30
0.0
 10
11.3670670741
 20
11.5446225735
 30
0.0
  0
SPLINE
  5
316
100
AcDbEntity
  8
0
100
AcDbSpline
 62
9
  6
CONTINUOUS
 70
0
 71
3
 72
39
 73
35
 74
0
 42
0.0000001
 43
0.0000001
 44
0.0000000001
 40
0.0
 40
0.0
 40
0.0
 40
0.0
 40
0.0075126252
 40
0.0151699063
 40
0.031363087
 40
0.0494189868
 40
0.0698743186
 40
0.0930276314
 40
0.1190084998
 40
0.1477983872
 40
0.179302082
 40
0.2133496254
 40
0.2497165624
 40
0.2881464413
 40
0.3283368759
 40
0.3699691617
 40
0.4126998607
 40
0.5
 40
0.5873001393
 40
0.6300308383
 40
0.6716631241
 40
0.7118535587
 40
0.7502834376
 40
0.7866503746
 40
0.820697918
 40
0.8522016128
 40
0.8809915002
 40
0.9069723686
 40
0.9301256814
 40
0.9505810132
 40
0.968636913
 40
0.9848300937
 40
0.9924873748
 40
1.0
 40
1.0
 40
1.0
 40
1.0
 10
12.0320670741
 20
11.5446225733
 30
0.0
 10
12.0320670741
 20
11.5464843385
 30
0.0
 10
12.0317921176
 20
11.5502492736
 30
0.0
 10
12.0301326872
 20
11.5578647491
 30
0.0
 10
12.0258512436
 20
11.5674571005
 30
0.0
 10
12.0176578618
 20
11.5783623881
 30
0.0
 10
12.0064641961
 20
11.5888524296
 30
0.0
 10
11.9923856048
 20
11.5988809288
 30
0.0
 10
11.9755369159
 20
11.6083749491
 30
0.0
 10
11.9560711664
 20
11.617268453
 30
0.0
 10
11.9341595772
 20
11.6254684975
 30
0.0
 10
11.9100077777
 20
11.6329020973
 30
0.0
 10
11.8838427281
 20
11.6395004066
 30
0.0
 10
11.8559117629
 20
11.645191807
 30
0.0
 10
11.8264823312
 20
11.6499309045
 30
0.0
 10
11.7958347167
 20
11.6536626002
 30
0.0
 10
11.7534396877
 20
11.6572776489
 30
0.0
 10
11.699567074
 20
11.6590586542
 30
0.0
 10
11.6456944602
 20
11.6572776489
 30
0.0
 10
11.6032994313
 20
11.6536626002
 30
0.0
 10
11.5726518168
 20
11.6499309045
 30
0.0
 10
11.5432223851
 20
11.645191807
 30
0.0
 10
11.5152914198
 20
11.6395004066
 30
0.0
 10
11.4891263702
 20
11.6329020973
 30
0.0
 10
11.4649745707
 20
11.6254684975
 30
0.0
 10
11.4430629815
 20
11.617268453
 30
0.0
 10
11.423597232
 20
11.6083749491
 30
0.0
 10
11.4067485431
 20
11.5988809288
 30
0.0
 10
11.3926699518
 20
11.5888524296
 30
0.0
 10
11.3814762862
 20
11.5783623881
 30
0.0
 10
11.3732829044
 20
11.5674571005
 30
0.0
 10
11.3690014607
 20
11.5578647491
 30
0.0
 10
11.3673420303
 20
11.5502492736
 30
0.0
 10
11.3670670739
 20
11.5464843385
 30
0.0
 10
11.3670670739
 20
11.5446225733
 30
0.0
  0
SPLINE
  5
317
100
AcDbEntity
  8
0
100
AcDbSpline
 62
9
  6
CONTINUOUS
 70
0
 71
3
 72
10
 73
6
 74
0
 42
0.0000001
 43
0.0000001
 44
0.0000000001
 40
0.0
 40
0.0
 40
0.0
 40
0.0
 40
0.2349620115
 40
0.4766017208
 40
1.0
 40
1.0
 40
1.0
 40
1.0
 10
12.0320670738
 20
11.5446225735
 30
0.0
 10
12.0320670738
 20
11.542328237
 30
0.0
 10
12.0316457686
 20
11.5376637554
 30
0.0
 10
12.0290965532
 20
11.52819955
 30
0.0
 10
12.0253919866
 20
11.5215544658
 30
0.0
 10
12.0224052281
 20
11.5174071899
 30
0.0
  0
SPLINE
  5
318
100
AcDbEntity
  8
0
100
AcDbSpline
 62
9
  6
CONTINUOUS
 70
0
 71
3
 72
9
 73
5
 74
0
 42
0.0000001
 43
0.0000001
 44
0.0000000001
 40
0.0
 40
0.0
 40
0.0
 40
0.0
 40
0.2435465482
 40
1.0
 40
1.0
 40
1.0
 40
1.0
 10
12.0224052281
 20
11.5174071899
 30
0.0
 10
12.0220332583
 20
11.5168906897
 30
0.0
 10
12.0204754237
 20
11.5147920087
 30
0.0
 10
12.0188002969
 20
11.5127811404
 30
0.0
 10
12.0174811108
 20
11.5113086769
 30
0.0
  0
SPLINE
  5
319
100
AcDbEntity
  8
0
100
AcDbSpline
 62
9
  6
CONTINUOUS
 70
0
 71
3
 72
39
 73
35
 74
0
 42
0.0000001
 43
0.0000001
 44
0.0000000001
 40
0.0
 40
0.0
 40
0.0
 40
0.0
 40
0.0075126252
 40
0.0151699063
 40
0.031363087
 40
0.0494189868
 40
0.0698743186
 40
0.0930276314
 40
0.1190084998
 40
0.1477983872
 40
0.179302082
 40
0.2133496254
 40
0.2497165624
 40
0.2881464413
 40
0.3283368759
 40
0.3699691617
 40
0.4126998607
 40
0.5
 40
0.5873001393
 40
0.6300308383
 40
0.6716631241
 40
0.7118535587
 40
0.7502834376
 40
0.7866503746
 40
0.820697918
 40
0.8522016128
 40
0.8809915002
 40
0.9069723686
 40
0.9301256814
 40
0.9505810132
 40
0.968636913
 40
0.9848300937
 40
0.9924873748
 40
1.0
 40
1.0
 40
1.0
 40
1.0
 10
12.0300849805
 20
11.5423710209
 30
0.0
 10
12.0300849805
 20
11.5442216877
 30
0.0
 10
12.0298116632
 20
11.5479641794
 30
0.0
 10
12.0281621249
 20
11.5555342577
 30
0.0
 10
12.0239062037
 20
11.5650694273
 30
0.0
 10
12.0157616642
 20
11.5759097064
 30
0.0
 10
12.004634726
 20
11.5863372149
 30
0.0
 10
11.9906400598
 20
11.5963059324
 30
0.0
 10
11.973891809
 20
11.605743357
 30
0.0
 10
11.9545420985
 20
11.6145838452
 30
0.0
 10
11.9327611283
 20
11.6227350077
 30
0.0
 10
11.908753302
 20
11.6301242944
 30
0.0
 10
11.8827442271
 20
11.63668327
 30
0.0
 10
11.8549797635
 20
11.6423407429
 30
0.0
 10
11.825725766
 20
11.6470515898
 30
0.0
 10
11.7952608476
 20
11.6507610401
 30
0.0
 10
11.7531185432
 20
11.6543545389
 30
0.0
 10
11.699567074
 20
11.6561249273
 30
0.0
 10
11.6460156048
 20
11.6543545389
 30
0.0
 10
11.6038733003
 20
11.6507610401
 30
0.0
 10
11.5734083819
 20
11.6470515898
 30
0.0
 10
11.5441543845
 20
11.6423407429
 30
0.0
 10
11.5163899208
 20
11.63668327
 30
0.0
 10
11.4903808459
 20
11.6301242944
 30
0.0
 10
11.4663730197
 20
11.6227350077
 30
0.0
 10
11.4445920495
 20
11.6145838452
 30
0.0
 10
11.4252423389
 20
11.605743357
 30
0.0
 10
11.4084940881
 20
11.5963059324
 30
0.0
 10
11.3944994219
 20
11.5863372149
 30
0.0
 10
11.3833724837
 20
11.5759097064
 30
0.0
 10
11.3752279442
 20
11.5650694273
 30
0.0
 10
11.3709720231
 20
11.5555342577
 30
0.0
 10
11.3693224848
 20
11.5479641794
 30
0.0
 10
11.3690491674
 20
11.5442216877
 30
0.0
 10
11.3690491674
 20
11.5423710209
 30
0.0
  0
SPLINE
  5
31A
100
AcDbEntity
  8
0
100
AcDbSpline
 62
9
  6
CONTINUOUS
 70
0
 71
3
 72
37
 73
33
 74
0
 42
0.0000001
 43
0.0000001
 44
0.0000000001
 40
0.0
 40
0.0
 40
0.0
 40
0.0
 40
0.0075102455
 40
0.0151663736
 40
0.0313603493
 40
0.049418415
 40
0.0698774755
 40
0.0930308568
 40
0.1190101356
 40
0.1478037553
 40
0.1793050226
 40
0.213355284
 40
0.249724754
 40
0.288152435
 40
0.3283469213
 40
0.4126964581
 40
0.5
 40
0.5873035419
 40
0.6716530787
 40
0.711847565
 40
0.750275246
 40
0.786644716
 40
0.8206949774
 40
0.8521962447
 40
0.8809898644
 40
0.9069691432
 40
0.9301225245
 40
0.950581585
 40
0.9686396507
 40
0.9848336264
 40
0.9924897545
 40
1.0
 40
1.0
 40
1.0
 40
1.0
 10
12.0229336117
 20
11.5339627702
 30
0.0
 10
12.0229336117
 20
11.5357727655
 30
0.0
 10
12.022665919
 20
11.5394333134
 30
0.0
 10
12.0210510412
 20
11.5468384878
 30
0.0
 10
12.0168864474
 20
11.5561667485
 30
0.0
 10
12.0089216764
 20
11.5667766826
 30
0.0
 10
11.9980329619
 20
11.5769777581
 30
0.0
 10
11.9843418912
 20
11.586731526
 30
0.0
 10
11.9679560007
 20
11.5959650514
 30
0.0
 10
11.9490238841
 20
11.604609952
 30
0.0
 10
11.9277159035
 20
11.6125899264
 30
0.0
 10
11.9042266146
 20
11.619816667
 30
0.0
 10
11.8787803941
 20
11.6262330809
 30
0.0
 10
11.8516169379
 20
11.6317719181
 30
0.0
 10
11.8128294349
 20
11.6380101194
 30
0.0
 10
11.761987238
 20
11.6431890824
 30
0.0
 10
11.699567074
 20
11.6452582202
 30
0.0
 10
11.6371469099
 20
11.6431890824
 30
0.0
 10
11.586304713
 20
11.6380101194
 30
0.0
 10
11.54751721
 20
11.6317719181
 30
0.0
 10
11.5203537538
 20
11.6262330809
 30
0.0
 10
11.4949075334
 20
11.619816667
 30
0.0
 10
11.4714182444
 20
11.6125899264
 30
0.0
 10
11.4501102638
 20
11.604609952
 30
0.0
 10
11.4311781473
 20
11.5959650514
 30
0.0
 10
11.4147922567
 20
11.586731526
 30
0.0
 10
11.401101186
 20
11.5769777581
 30
0.0
 10
11.3902124715
 20
11.5667766826
 30
0.0
 10
11.3822477005
 20
11.5561667485
 30
0.0
 10
11.3780831068
 20
11.5468384878
 30
0.0
 10
11.3764682289
 20
11.5394333134
 30
0.0
 10
11.3762005363
 20
11.5357727655
 30
0.0
 10
11.3762005363
 20
11.5339627702
 30
0.0
  0
SPLINE
  5
31B
100
AcDbEntity
  8
0
100
AcDbSpline
 62
9
  6
CONTINUOUS
 70
0
 71
3
 72
10
 73
6
 74
0
 42
0.0000001
 43
0.0000001
 44
0.0000000001
 40
0.0
 40
0.0
 40
0.0
 40
0.0
 40
0.2364145608
 40
0.4788461536
 40
1.0
 40
1.0
 40
1.0
 40
1.0
 10
12.0300849803
 20
11.5423710211
 30
0.0
 10
12.0300849803
 20
11.5402216155
 30
0.0
 10
12.0297140019
 20
11.5358591382
 30
0.0
 10
12.0274718914
 20
11.5270168795
 30
0.0
 10
12.0241995037
 20
11.5207607803
 30
0.0
 10
12.0215425601
 20
11.5168376628
 30
0.0
  0
LINE
  5
31C
100
AcDbEntity
  8
0
100
AcDbLine
 62
9
  6
CONTINUOUS
 10
12.0187728878
 20
11.5130485184
 11
12.0139040361
 21
11.5074335327
  0
SPLINE
  5
31D
100
AcDbEntity
  8
0
100
AcDbSpline
 62
9
  6
CONTINUOUS
 70
0
 71
3
 72
10
 73
6
 74
0
 42
0.0000001
 43
0.0000001
 44
0.0000000001
 40
0.0
 40
0.0
 40
0.0
 40
0.0
 40
0.2395280433
 40
0.4836873807
 40
1.0
 40
1.0
 40
1.0
 40
1.0
 10
12.0229336114
 20
11.5339627704
 30
0.0
 10
12.0229336114
 20
11.5321572642
 30
0.0
 10
12.0226671237
 20
11.5285055806
 30
0.0
 10
12.0210613353
 20
11.5211219589
 30
0.0
 10
12.0186987127
 20
11.5158136896
 30
0.0
 10
12.0167484384
 20
11.512445771
 30
0.0
  0
LINE
  5
31E
100
AcDbEntity
  8
0
100
AcDbLine
 62
9
  6
CONTINUOUS
 10
12.0167484384
 20
11.512445771
 11
12.0138478012
 21
11.507932757
  0
LINE
  5
31F
100
AcDbEntity
  8
0
100
AcDbLine
 62
9
  6
CONTINUOUS
 10
12.0138478012
 20
11.507932757
 11
12.0106206098
 21
11.5037329841
  0
SPLINE
  5
320
100
AcDbEntity
  8
0
100
AcDbSpline
 62
9
  6
CONTINUOUS
 70
0
 71
3
 72
37
 73
33
 74
0
 42
0.0000001
 43
0.0000001
 44
0.0000000001
 40
0.0
 40
0.0
 40
0.0
 40
0.0
 40
0.0075102455
 40
0.0151663736
 40
0.0313603493
 40
0.049418415
 40
0.0698774755
 40
0.0930308568
 40
0.1190101356
 40
0.1478037553
 40
0.1793050226
 40
0.213355284
 40
0.249724754
 40
0.288152435
 40
0.3283469213
 40
0.4126964581
 40
0.5
 40
0.5873035419
 40
0.6716530787
 40
0.711847565
 40
0.750275246
 40
0.786644716
 40
0.8206949774
 40
0.8521962447
 40
0.8809898644
 40
0.9069691432
 40
0.9301225245
 40
0.950581585
 40
0.9686396507
 40
0.9848336264
 40
0.9924897545
 40
1.0
 40
1.0
 40
1.0
 40
1.0
 10
11.98835962
 20
11.4531338668
 30
0.0
 10
11.98835962
 20
11.4547503393
 30
0.0
 10
11.9881205487
 20
11.4580195055
 30
0.0
 10
11.9866783318
 20
11.4646329269
 30
0.0
 10
11.9829590118
 20
11.4729638202
 30
0.0
 10
11.9758458253
 20
11.482439352
 30
0.0
 10
11.96612132
 20
11.4915497398
 30
0.0
 10
11.9538940835
 20
11.5002606457
 30
0.0
 10
11.9392601542
 20
11.5085069327
 30
0.0
 10
11.9223522385
 20
11.5162275302
 30
0.0
 10
11.9033224836
 20
11.5233542946
 30
0.0
 10
11.8823446434
 20
11.52980836
 30
0.0
 10
11.8596191046
 20
11.535538738
 30
0.0
 10
11.8353599351
 20
11.540485369
 30
0.0
 10
11.8007195489
 20
11.5460565887
 30
0.0
 10
11.7553133433
 20
11.5506818227
 30
0.0
 10
11.699567074
 20
11.5525297306
 30
0.0
 10
11.6438208047
 20
11.5506818227
 30
0.0
 10
11.5984145991
 20
11.5460565887
 30
0.0
 10
11.5637742129
 20
11.540485369
 30
0.0
 10
11.5395150433
 20
11.535538738
 30
0.0
 10
11.5167895045
 20
11.52980836
 30
0.0
 10
11.4958116643
 20
11.5233542946
 30
0.0
 10
11.4767819094
 20
11.5162275302
 30
0.0
 10
11.4598739938
 20
11.5085069327
 30
0.0
 10
11.4452400645
 20
11.5002606457
 30
0.0
 10
11.4330128279
 20
11.4915497398
 30
0.0
 10
11.4232883227
 20
11.482439352
 30
0.0
 10
11.4161751361
 20
11.4729638202
 30
0.0
 10
11.4124558161
 20
11.4646329269
 30
0.0
 10
11.4110135992
 20
11.4580195055
 30
0.0
 10
11.410774528
 20
11.4547503393
 30
0.0
 10
11.410774528
 20
11.4531338668
 30
0.0
  0
SPLINE
  5
321
100
AcDbEntity
  8
0
100
AcDbSpline
 62
9
  6
CONTINUOUS
 70
0
 71
3
 72
37
 73
33
 74
0
 42
0.0000001
 43
0.0000001
 44
0.0000000001
 40
0.0
 40
0.0
 40
0.0
 40
0.0
 40
0.0075102455
 40
0.0151663736
 40
0.0313603493
 40
0.049418415
 40
0.0698774755
 40
0.0930308568
 40
0.1190101356
 40
0.1478037553
 40
0.1793050226
 40
0.213355284
 40
0.249724754
 40
0.288152435
 40
0.3283469213
 40
0.4126964581
 40
0.5
 40
0.5873035419
 40
0.6716530787
 40
0.711847565
 40
0.750275246
 40
0.786644716
 40
0.8206949774
 40
0.8521962447
 40
0.8809898644
 40
0.9069691432
 40
0.9301225245
 40
0.950581585
 40
0.9686396507
 40
0.9848336264
 40
0.9924897545
 40
1.0
 40
1.0
 40
1.0
 40
1.0
 10
11.9829944627
 20
11.369380755
 30
0.0
 10
11.9829944627
 20
11.3709671969
 30
0.0
 10
11.9827598329
 20
11.3741756289
 30
0.0
 10
11.9813444093
 20
11.3806661868
 30
0.0
 10
11.9776941865
 20
11.3888423097
 30
0.0
 10
11.970713148
 20
11.398141806
 30
0.0
 10
11.9611693036
 20
11.407082942
 30
0.0
 10
11.9491692233
 20
11.4156320176
 30
0.0
 10
11.9348071616
 20
11.423725106
 30
0.0
 10
11.9182133594
 20
11.4313022711
 30
0.0
 10
11.8995371372
 20
11.4382966352
 30
0.0
 10
11.8789490211
 20
11.4446307977
 30
0.0
 10
11.8566456749
 20
11.4502547173
 30
0.0
 10
11.8328371897
 20
11.4551094503
 30
0.0
 10
11.7988403489
 20
11.4605771685
 30
0.0
 10
11.754277695
 20
11.4651164754
 30
0.0
 10
11.699567074
 20
11.466930053
 30
0.0
 10
11.6448564529
 20
11.4651164754
 30
0.0
 10
11.600293799
 20
11.4605771685
 30
0.0
 10
11.5662969582
 20
11.4551094503
 30
0.0
 10
11.542488473
 20
11.4502547173
 30
0.0
 10
11.5201851268
 20
11.4446307977
 30
0.0
 10
11.4995970107
 20
11.4382966352
 30
0.0
 10
11.4809207885
 20
11.4313022711
 30
0.0
 10
11.4643269864
 20
11.423725106
 30
0.0
 10
11.4499649247
 20
11.4156320176
 30
0.0
 10
11.4379648444
 20
11.407082942
 30
0.0
 10
11.428421
 20
11.398141806
 30
0.0
 10
11.4214399615
 20
11.3888423097
 30
0.0
 10
11.4177897386
 20
11.3806661868
 30
0.0
 10
11.4163743151
 20
11.3741756289
 30
0.0
 10
11.4161396852
 20
11.3709671969
 30
0.0
 10
11.4161396852
 20
11.369380755
 30
0.0
  0
SPLINE
  5
322
100
AcDbEntity
  8
0
100
AcDbSpline
 62
7
  6
CONTINUOUS
 70
0
 71
3
 72
9
 73
5
 74
0
 42
0.0000001
 43
0.0000001
 44
0.0000000001
 40
0.0
 40
0.0
 40
0.0
 40
0.0
 40
0.4794320576
 40
1.0
 40
1.0
 40
1.0
 40
1.0
 10
12.0441219282
 20
11.6005513744
 30
0.0
 10
12.0433887168
 20
11.6039441875
 30
0.0
 10
12.0409880094
 20
11.6108486665
 30
0.0
 10
12.0372240125
 20
11.6170878361
 30
0.0
 10
12.03502144
 20
11.6201462273
 30
0.0
  0
SPLINE
  5
323
100
AcDbEntity
  8
0
100
AcDbSpline
 62
7
  6
CONTINUOUS
 70
0
 71
3
 72
10
 73
6
 74
0
 42
0.0000001
 43
0.0000001
 44
0.0000000001
 40
0.0
 40
0.0
 40
0.0
 40
0.0
 40
0.4613925108
 40
0.720595158
 40
1.0
 40
1.0
 40
1.0
 40
1.0
 10
12.03502144
 20
11.6201462273
 30
0.0
 10
12.0314306098
 20
11.6251322893
 30
0.0
 10
12.0247890241
 20
11.6321893849
 30
0.0
 10
12.0144923782
 20
11.6406373206
 30
0.0
 10
12.0086042165
 20
11.6447504692
 30
0.0
 10
12.00548663
 20
11.6467816936
 30
0.0
  0
SPLINE
  5
324
100
AcDbEntity
  8
0
100
AcDbSpline
 62
7
  6
CONTINUOUS
 70
0
 71
3
 72
25
 73
21
 74
0
 42
0.0000001
 43
0.0000001
 44
0.0000000001
 40
0.0
 40
0.0
 40
0.0
 40
0.0
 40
0.0214473077
 40
0.0445540374
 40
0.095611477
 40
0.1527654941
 40
0.2153111349
 40
0.2823704984
 40
0.3529243252
 40
0.4258590131
 40
0.5
 40
0.5741409869
 40
0.6470756748
 40
0.7176295016
 40
0.7846888651
 40
0.8472345059
 40
0.904388523
 40
0.9554459626
 40
0.9785526923
 40
1.0
 40
1.0
 40
1.0
 40
1.0
 10
12.00548663
 20
11.6467816936
 30
0.0
 10
12.0017029961
 20
11.6492468728
 30
0.0
 10
11.9936408851
 20
11.6540616079
 30
0.0
 10
11.9757211481
 20
11.6632582021
 30
0.0
 10
11.9500878131
 20
11.6737597978
 30
0.0
 10
11.9157428833
 20
11.6845027767
 30
0.0
 10
11.8774537816
 20
11.6935851042
 30
0.0
 10
11.8359147464
 20
11.7008336249
 30
0.0
 10
11.7918781856
 20
11.7061094573
 30
0.0
 10
11.7461499344
 20
11.7093187465
 30
0.0
 10
11.699567074
 20
11.7103916327
 30
0.0
 10
11.6529842135
 20
11.7093187465
 30
0.0
 10
11.6072559623
 20
11.7061094573
 30
0.0
 10
11.5632194016
 20
11.7008336249
 30
0.0
 10
11.5216803664
 20
11.6935851042
 30
0.0
 10
11.4833912647
 20
11.6845027767
 30
0.0
 10
11.4490463348
 20
11.6737597978
 30
0.0
 10
11.4234129998
 20
11.6632582021
 30
0.0
 10
11.4054932628
 20
11.6540616079
 30
0.0
 10
11.3974311518
 20
11.6492468728
 30
0.0
 10
11.393647518
 20
11.6467816936
 30
0.0
  0
SPLINE
  5
325
100
AcDbEntity
  8
0
100
AcDbSpline
 62
7
  6
CONTINUOUS
 70
0
 71
3
 72
10
 73
6
 74
0
 42
0.0000001
 43
0.0000001
 44
0.0000000001
 40
0.0
 40
0.0
 40
0.0
 40
0.0
 40
0.279404842
 40
0.5386074892
 40
1.0
 40
1.0
 40
1.0
 40
1.0
 10
11.393647518
 20
11.6467816936
 30
0.0
 10
11.3905299314
 20
11.6447504692
 30
0.0
 10
11.3846417697
 20
11.6406373206
 30
0.0
 10
11.3743451238
 20
11.6321893849
 30
0.0
 10
11.3677035381
 20
11.6251322893
 30
0.0
 10
11.364112708
 20
11.6201462273
 30
0.0
  0
SPLINE
  5
326
100
AcDbEntity
  8
0
100
AcDbSpline
 62
7
  6
CONTINUOUS
 70
0
 71
3
 72
9
 73
5
 74
0
 42
0.0000001
 43
0.0000001
 44
0.0000000001
 40
0.0
 40
0.0
 40
0.0
 40
0.0
 40
0.5202776236
 40
1.0
 40
1.0
 40
1.0
 40
1.0
 10
11.364112708
 20
11.6201462273
 30
0.0
 10
11.3619554896
 20
11.6171508129
 30
0.0
 10
11.3582580497
 20
11.6110445719
 30
0.0
 10
11.3558595862
 20
11.6042983531
 30
0.0
 10
11.3551069098
 20
11.6009790034
 30
0.0
  0
SPLINE
  5
327
100
AcDbEntity
  8
0
100
AcDbSpline
 62
9
  6
CONTINUOUS
 70
0
 71
3
 72
11
 73
7
 74
0
 42
0.0000001
 43
0.0000001
 44
0.0000000001
 40
0.0
 40
0.0
 40
0.0
 40
0.0
 40
0.2323683117
 40
0.4724609506
 40
0.7266065916
 40
1.0
 40
1.0
 40
1.0
 40
1.0
 10
12.0033170168
 20
11.2257322872
 30
0.0
 10
12.0033170168
 20
11.2280036264
 30
0.0
 10
12.0028629411
 20
11.2326329771
 30
0.0
 10
12.0008561696
 20
11.2394836368
 30
0.0
 10
11.9975491975
 20
11.2462536301
 30
0.0
 10
11.994614251
 20
11.2505163602
 30
0.0
 10
11.9929669885
 20
11.2526206352
 30
0.0
  0
SPLINE
  5
328
100
AcDbEntity
  8
0
100
AcDbSpline
 62
9
  6
CONTINUOUS
 70
0
 71
3
 72
33
 73
29
 74
0
 42
0.0000001
 43
0.0000001
 44
0.0000000001
 40
0.0
 40
0.0
 40
0.0
 40
0.0
 40
0.017704911
 40
0.0373671637
 40
0.0591231058
 40
0.0830353909
 40
0.1090875237
 40
0.1372140221
 40
0.16732482
 40
0.1992917981
 40
0.2681397418
 40
0.3423428223
 40
0.3809388542
 40
0.4202368835
 40
0.5
 40
0.5797631165
 40
0.6190611458
 40
0.6576571777
 40
0.7318602582
 40
0.8007082019
 40
0.83267518
 40
0.8627859779
 40
0.8909124763
 40
0.9169646091
 40
0.9408768942
 40
0.9626328363
 40
0.982295089
 40
1.0
 40
1.0
 40
1.0
 40
1.0
 10
11.9929669885
 20
11.2526206352
 30
0.0
 10
11.9907094594
 20
11.2555044877
 30
0.0
 10
11.9854320686
 20
11.2611960529
 30
0.0
 10
11.9760248272
 20
11.2690482163
 30
0.0
 10
11.9647958867
 20
11.2766042707
 30
0.0
 10
11.9518126961
 20
11.2838134804
 30
0.0
 10
11.937159474
 20
11.2906393417
 30
0.0
 10
11.9209308691
 20
11.2970392065
 30
0.0
 10
11.9032290891
 20
11.3029642249
 30
0.0
 10
11.8771685082
 20
11.3103639715
 30
0.0
 10
11.8417514288
 20
11.318051757
 30
0.0
 10
11.8045464212
 20
11.3234927335
 30
0.0
 10
11.7732378736
 20
11.3266388103
 30
0.0
 10
11.7407022539
 20
11.3289362791
 30
0.0
 10
11.699567074
 20
11.3300795279
 30
0.0
 10
11.6584318941
 20
11.3289362791
 30
0.0
 10
11.6258962743
 20
11.3266388103
 30
0.0
 10
11.5945877267
 20
11.3234927335
 30
0.0
 10
11.5573827191
 20
11.318051757
 30
0.0
 10
11.5219656397
 20
11.3103639715
 30
0.0
 10
11.4959050588
 20
11.3029642249
 30
0.0
 10
11.4782032788
 20
11.2970392065
 30
0.0
 10
11.461974674
 20
11.2906393417
 30
0.0
 10
11.4473214518
 20
11.2838134804
 30
0.0
 10
11.4343382613
 20
11.2766042707
 30
0.0
 10
11.4231093207
 20
11.2690482163
 30
0.0
 10
11.4137020793
 20
11.2611960529
 30
0.0
 10
11.4084246885
 20
11.2555044877
 30
0.0
 10
11.4061671595
 20
11.2526206352
 30
0.0
  0
SPLINE
  5
329
100
AcDbEntity
  8
0
100
AcDbSpline
 62
9
  6
CONTINUOUS
 70
0
 71
3
 72
11
 73
7
 74
0
 42
0.0000001
 43
0.0000001
 44
0.0000000001
 40
0.0
 40
0.0
 40
0.0
 40
0.0
 40
0.2733934084
 40
0.5275390494
 40
0.7676316883
 40
1.0
 40
1.0
 40
1.0
 40
1.0
 10
11.4061671595
 20
11.2526206352
 30
0.0
 10
11.404519897
 20
11.2505163602
 30
0.0
 10
11.4015849505
 20
11.2462536301
 30
0.0
 10
11.3982779783
 20
11.2394836368
 30
0.0
 10
11.3962712069
 20
11.2326329771
 30
0.0
 10
11.3958171312
 20
11.2280036264
 30
0.0
 10
11.3958171312
 20
11.2257322872
 30
0.0
  0
SPLINE
  5
32A
100
AcDbEntity
  8
0
100
AcDbSpline
 62
9
  6
CONTINUOUS
 70
0
 71
3
 72
10
 73
6
 74
0
 42
0.0000001
 43
0.0000001
 44
0.0000000001
 40
0.0
 40
0.0
 40
0.0
 40
0.0
 40
0.2360527602
 40
0.47830534
 40
1.0
 40
1.0
 40
1.0
 40
1.0
 10
12.0033170194
 20
11.2257322851
 30
0.0
 10
12.0033170194
 20
11.2237321763
 30
0.0
 10
12.0029666599
 20
11.2196709038
 30
0.0
 10
12.0008497791
 20
11.2114364161
 30
0.0
 10
11.9977648656
 20
11.2056190544
 30
0.0
 10
11.9952645983
 20
11.2019737092
 30
0.0
  0
SPLINE
  5
32B
100
AcDbEntity
  8
0
100
AcDbSpline
 62
9
  6
CONTINUOUS
 70
0
 71
3
 72
9
 73
5
 74
0
 42
0.0000001
 43
0.0000001
 44
0.0000000001
 40
0.0
 40
0.0
 40
0.0
 40
0.0
 40
0.2389118724
 40
1.0
 40
1.0
 40
1.0
 40
1.0
 10
11.9952645983
 20
11.2019737092
 30
0.0
 10
11.9947010441
 20
11.2011520573
 30
0.0
 10
11.9922542351
 20
11.1977734009
 30
0.0
 10
11.9894781609
 20
11.1946390143
 30
0.0
 10
11.9872438382
 20
11.1923846631
 30
0.0
  0
SPLINE
  5
32C
100
AcDbEntity
  8
0
100
AcDbSpline
 62
9
  6
CONTINUOUS
 70
0
 71
3
 72
37
 73
33
 74
0
 42
0.0000001
 43
0.0000001
 44
0.0000000001
 40
0.0
 40
0.0
 40
0.0
 40
0.0
 40
0.0075102455
 40
0.0151663736
 40
0.0313603493
 40
0.049418415
 40
0.0698774755
 40
0.0930308568
 40
0.1190101356
 40
0.1478037553
 40
0.1793050226
 40
0.213355284
 40
0.249724754
 40
0.288152435
 40
0.3283469213
 40
0.4126964581
 40
0.5
 40
0.5873035419
 40
0.6716530787
 40
0.711847565
 40
0.750275246
 40
0.786644716
 40
0.8206949774
 40
0.8521962447
 40
0.8809898644
 40
0.9069691432
 40
0.9301225245
 40
0.950581585
 40
0.9686396507
 40
0.9848336264
 40
0.9924897545
 40
1.0
 40
1.0
 40
1.0
 40
1.0
 10
11.9848862215
 20
11.2158074244
 30
0.0
 10
11.9848862215
 20
11.2174044551
 30
0.0
 10
11.9846500256
 20
11.220634302
 30
0.0
 10
11.9832251547
 20
11.2271681817
 30
0.0
 10
11.9795505682
 20
11.2353988768
 30
0.0
 10
11.9725229341
 20
11.2447604433
 30
0.0
 10
11.9629153886
 20
11.2537612577
 30
0.0
 10
11.9508352128
 20
11.2623673948
 30
0.0
 10
11.9363772904
 20
11.2705145011
 30
0.0
 10
11.9196727315
 20
11.2781422405
 30
0.0
 10
11.9008718534
 20
11.2851832891
 30
0.0
 10
11.8801463203
 20
11.2915597295
 30
0.0
 10
11.8576941087
 20
11.2972211865
 30
0.0
 10
11.8337267118
 20
11.3021083227
 30
0.0
 10
11.7995029564
 20
11.3076125356
 30
0.0
 10
11.7546428654
 20
11.3121821405
 30
0.0
 10
11.699567074
 20
11.314007823
 30
0.0
 10
11.6444912825
 20
11.3121821405
 30
0.0
 10
11.5996311916
 20
11.3076125356
 30
0.0
 10
11.5654074362
 20
11.3021083227
 30
0.0
 10
11.5414400393
 20
11.2972211865
 30
0.0
 10
11.5189878277
 20
11.2915597295
 30
0.0
 10
11.4982622945
 20
11.2851832891
 30
0.0
 10
11.4794614164
 20
11.2781422405
 30
0.0
 10
11.4627568576
 20
11.2705145011
 30
0.0
 10
11.4482989351
 20
11.2623673948
 30
0.0
 10
11.4362187593
 20
11.2537612577
 30
0.0
 10
11.4266112138
 20
11.2447604433
 30
0.0
 10
11.4195835798
 20
11.2353988768
 30
0.0
 10
11.4159089932
 20
11.2271681817
 30
0.0
 10
11.4144841223
 20
11.220634302
 30
0.0
 10
11.4142479264
 20
11.2174044551
 30
0.0
 10
11.4142479264
 20
11.2158074244
 30
0.0
  0
SPLINE
  5
32D
100
AcDbEntity
  8
0
100
AcDbSpline
 62
9
  6
CONTINUOUS
 70
0
 71
3
 72
37
 73
33
 74
0
 42
0.0000001
 43
0.0000001
 44
0.0000000001
 40
0.0
 40
0.0
 40
0.0
 40
0.0
 40
0.0075102505
 40
0.0151664375
 40
0.0313606944
 40
0.0494191717
 40
0.0698787687
 40
0.093032626
 40
0.1190121412
 40
0.1478058881
 40
0.1793065459
 40
0.2133551824
 40
0.2497227273
 40
0.2881488901
 40
0.3283421701
 40
0.4126894274
 40
0.4999896852
 40
0.5872901337
 40
0.6716381297
 40
0.7118324554
 40
0.7502599376
 40
0.7866302495
 40
0.8206813606
 40
0.8521845984
 40
0.8809812085
 40
0.9069626127
 40
0.9301183351
 40
0.9505795368
 40
0.9686388957
 40
0.9848335035
 40
0.9924897404
 40
1.0
 40
1.0
 40
1.0
 40
1.0
 10
11.4295670744
 20
11.2144162779
 30
0.0
 10
11.4295670744
 20
11.2159275609
 30
0.0
 10
11.4297906082
 20
11.218984002
 30
0.0
 10
11.4311390693
 20
11.2251671133
 30
0.0
 10
11.4346165438
 20
11.2329559577
 30
0.0
 10
11.4412669886
 20
11.2418150797
 30
0.0
 10
11.4503590441
 20
11.2503326643
 30
0.0
 10
11.4617909128
 20
11.2584767032
 30
0.0
 10
11.4754727562
 20
11.2661863565
 30
0.0
 10
11.4912804651
 20
11.2734042893
 30
0.0
 10
11.5090714884
 20
11.2800670923
 30
0.0
 10
11.5286833897
 20
11.2861009965
 30
0.0
 10
11.5499290979
 20
11.2914582236
 30
0.0
 10
11.5726087279
 20
11.2960826535
 30
0.0
 10
11.6049938898
 20
11.301291383
 30
0.0
 10
11.6474439598
 20
11.3056156449
 30
0.0
 10
11.6995608238
 20
11.3073435396
 30
0.0
 10
11.7516778924
 20
11.3056166567
 30
0.0
 10
11.7941283723
 20
11.3012926869
 30
0.0
 10
11.8265143198
 20
11.2960848609
 30
0.0
 10
11.8491949429
 20
11.2914601439
 30
0.0
 10
11.8704421393
 20
11.2861034451
 30
0.0
 10
11.8900556479
 20
11.2800693624
 30
0.0
 10
11.9078482148
 20
11.2734061783
 30
0.0
 10
11.9236576145
 20
11.2661883877
 30
0.0
 10
11.9373407088
 20
11.2584782112
 30
0.0
 10
11.9487735872
 20
11.250333751
 30
0.0
 10
11.9578665327
 20
11.2418158129
 30
0.0
 10
11.9645173348
 20
11.2329562352
 30
0.0
 10
11.9679950152
 20
11.2251672019
 30
0.0
 10
11.9693435325
 20
11.2189840158
 30
0.0
 10
11.9695670735
 20
11.2159275628
 30
0.0
 10
11.9695670735
 20
11.2144162779
 30
0.0
  0
SPLINE
  5
32E
100
AcDbEntity
  8
0
100
AcDbSpline
 62
9
  6
CONTINUOUS
 70
0
 71
3
 72
37
 73
33
 74
0
 42
0.0000001
 43
0.0000001
 44
0.0000000001
 40
0.0
 40
0.0
 40
0.0
 40
0.0
 40
0.0075102505
 40
0.0151664375
 40
0.0313606944
 40
0.0494191717
 40
0.0698787687
 40
0.093032626
 40
0.1190121412
 40
0.1478058881
 40
0.1793065459
 40
0.2133551824
 40
0.2497227273
 40
0.2881488901
 40
0.3283421701
 40
0.4126894274
 40
0.4999896852
 40
0.5872901337
 40
0.6716381297
 40
0.7118324554
 40
0.7502599376
 40
0.7866302495
 40
0.8206813606
 40
0.8521845984
 40
0.8809812085
 40
0.9069626127
 40
0.9301183351
 40
0.9505795368
 40
0.9686388957
 40
0.9848335035
 40
0.9924897404
 40
1.0
 40
1.0
 40
1.0
 40
1.0
 10
11.9695670735
 20
11.2144162779
 30
0.0
 10
11.9695670735
 20
11.2129049949
 30
0.0
 10
11.9693435397
 20
11.2098485538
 30
0.0
 10
11.9679950786
 20
11.2036654425
 30
0.0
 10
11.9645176041
 20
11.1958765982
 30
0.0
 10
11.9578671594
 20
11.1870174762
 30
0.0
 10
11.9487751038
 20
11.1784998915
 30
0.0
 10
11.9373432351
 20
11.1703558527
 30
0.0
 10
11.9236613917
 20
11.1626461994
 30
0.0
 10
11.9078536828
 20
11.1554282665
 30
0.0
 10
11.8900626596
 20
11.1487654636
 30
0.0
 10
11.8704507583
 20
11.1427315594
 30
0.0
 10
11.8492050501
 20
11.1373743322
 30
0.0
 10
11.82652542
 20
11.1327499024
 30
0.0
 10
11.7941402581
 20
11.1275411729
 30
0.0
 10
11.7516901881
 20
11.123216911
 30
0.0
 10
11.6995733242
 20
11.1214890163
 30
0.0
 10
11.6474562555
 20
11.1232158992
 30
0.0
 10
11.6050057756
 20
11.127539869
 30
0.0
 10
11.5726198281
 20
11.132747695
 30
0.0
 10
11.5499392051
 20
11.137372412
 30
0.0
 10
11.5286920087
 20
11.1427291108
 30
0.0
 10
11.5090785
 20
11.1487631935
 30
0.0
 10
11.4912859331
 20
11.1554263776
 30
0.0
 10
11.4754765334
 20
11.1626441682
 30
0.0
 10
11.4617934391
 20
11.1703543447
 30
0.0
 10
11.4503605608
 20
11.1784988049
 30
0.0
 10
11.4412676152
 20
11.187016743
 30
0.0
 10
11.4346168131
 20
11.1958763206
 30
0.0
 10
11.4311391327
 20
11.203665354
 30
0.0
 10
11.4297906155
 20
11.2098485401
 30
0.0
 10
11.4295670744
 20
11.2129049931
 30
0.0
 10
11.4295670744
 20
11.2144162779
 30
0.0
  0
SPLINE
  5
32F
100
AcDbEntity
  8
0
100
AcDbSpline
 62
9
  6
CONTINUOUS
 70
0
 71
3
 72
10
 73
6
 74
0
 42
0.0000001
 43
0.0000001
 44
0.0000000001
 40
0.0
 40
0.0
 40
0.0
 40
0.0
 40
0.2387534603
 40
0.4824855789
 40
1.0
 40
1.0
 40
1.0
 40
1.0
 10
11.9848862219
 20
11.2158074222
 30
0.0
 10
11.9848862219
 20
11.2141482178
 30
0.0
 10
11.9846308047
 20
11.2107895211
 30
0.0
 10
11.9830908003
 20
11.203993876
 30
0.0
 10
11.9808295127
 20
11.1991267735
 30
0.0
 10
11.9789709152
 20
11.1960478147
 30
0.0
  0
SPLINE
  5
330
100
AcDbEntity
  8
0
100
AcDbSpline
 62
9
  6
CONTINUOUS
 70
0
 71
3
 72
9
 73
5
 74
0
 42
0.0000001
 43
0.0000001
 44
0.0000000001
 40
0.0
 40
0.0
 40
0.0
 40
0.0
 40
0.2436101974
 40
1.0
 40
1.0
 40
1.0
 40
1.0
 10
11.9789709152
 20
11.1960478147
 30
0.0
 10
11.9786902148
 20
11.1955828054
 30
0.0
 10
11.9775069496
 20
11.1936927857
 30
0.0
 10
11.9762037695
 20
11.1918785679
 30
0.0
 10
11.9751642077
 20
11.1905505926
 30
0.0
  0
SPLINE
  5
331
100
AcDbEntity
  8
0
100
AcDbSpline
 62
9
  6
CONTINUOUS
 70
0
 71
3
 72
15
 73
11
 74
0
 42
0.0000001
 43
0.0000001
 44
0.0000000001
 40
0.0
 40
0.0
 40
0.0
 40
0.0
 40
0.0854031812
 40
0.1817867327
 40
0.2899072986
 40
0.4099666402
 40
0.5416613967
 40
0.6844579809
 40
0.8375741642
 40
1.0
 40
1.0
 40
1.0
 40
1.0
 10
11.9751642077
 20
11.1905505926
 30
0.0
 10
11.9726902907
 20
11.187390318
 30
0.0
 10
11.9667655874
 20
11.1811721251
 30
0.0
 10
11.9560400752
 20
11.1727208924
 30
0.0
 10
11.9430582005
 20
11.1646635
 30
0.0
 10
11.9279277623
 20
11.1570679063
 30
0.0
 10
11.9107774583
 20
11.1499844757
 30
0.0
 10
11.8917508157
 20
11.143484766
 30
0.0
 10
11.8710147451
 20
11.1376261692
 30
0.0
 10
11.8565651628
 20
11.1342696343
 30
0.0
 10
11.8490958443
 20
11.1326972783
 30
0.0
  0
SPLINE
  5
332
100
AcDbEntity
  8
0
100
AcDbSpline
 62
9
  6
CONTINUOUS
 70
0
 71
3
 72
9
 73
5
 74
0
 42
0.0000001
 43
0.0000001
 44
0.0000000001
 40
0.0
 40
0.0
 40
0.0
 40
0.0
 40
0.2427596915
 40
1.0
 40
1.0
 40
1.0
 40
1.0
 10
11.8372895703
 20
11.1303438933
 30
0.0
 10
11.8330129379
 20
11.1295379086
 30
0.0
 10
11.8153596175
 20
11.1264134693
 30
0.0
 10
11.797576684
 20
11.1240342787
 30
0.0
 10
11.7840775372
 20
11.1226017853
 30
0.0
  0
SPLINE
  5
333
100
AcDbEntity
  8
0
100
AcDbSpline
 62
9
  6
CONTINUOUS
 70
0
 71
3
 72
9
 73
5
 74
0
 42
0.0000001
 43
0.0000001
 44
0.0000000001
 40
0.0
 40
0.0
 40
0.0
 40
0.0
 40
0.256701106
 40
1.0
 40
1.0
 40
1.0
 40
1.0
 10
11.615212085
 20
11.1225853034
 30
0.0
 10
11.6106508453
 20
11.1230683531
 30
0.0
 10
11.5929004684
 20
11.1251160521
 30
0.0
 10
11.5752243247
 20
11.1278300358
 30
0.0
 10
11.5621714017
 20
11.1302823948
 30
0.0
  0
SPLINE
  5
334
100
AcDbEntity
  8
0
100
AcDbSpline
 62
9
  6
CONTINUOUS
 70
0
 71
3
 72
15
 73
11
 74
0
 42
0.0000001
 43
0.0000001
 44
0.0000000001
 40
0.0
 40
0.0
 40
0.0
 40
0.0
 40
0.1624183346
 40
0.3155262611
 40
0.4583153896
 40
0.5900054232
 40
0.7100638954
 40
0.8181885006
 40
0.9145817457
 40
1.0
 40
1.0
 40
1.0
 40
1.0
 10
11.5499194653
 20
11.1327223086
 30
0.0
 10
11.5424572703
 20
11.134294891
 30
0.0
 10
11.5280215812
 20
11.1376515087
 30
0.0
 10
11.5073056554
 20
11.143509158
 30
0.0
 10
11.4882976617
 20
11.1500069319
 30
0.0
 10
11.4711641055
 20
11.157087444
 30
0.0
 10
11.4560481914
 20
11.1646793058
 30
0.0
 10
11.4430783531
 20
11.1727322635
 30
0.0
 10
11.4323621343
 20
11.1811784504
 30
0.0
 10
11.4264421636
 20
11.1873924815
 30
0.0
 10
11.4239699402
 20
11.1905505926
 30
0.0
  0
LINE
  5
335
100
AcDbEntity
  8
0
100
AcDbLine
 62
9
  6
CONTINUOUS
 10
11.4239699402
 20
11.1905505926
 11
11.4201883213
 21
11.1960062983
  0
SPLINE
  5
336
100
AcDbEntity
  8
0
100
AcDbSpline
 62
9
  6
CONTINUOUS
 70
0
 71
3
 72
10
 73
6
 74
0
 42
0.0000001
 43
0.0000001
 44
0.0000000001
 40
0.0
 40
0.0
 40
0.0
 40
0.0
 40
0.5175797385
 40
0.7612886612
 40
1.0
 40
1.0
 40
1.0
 40
1.0
 10
11.4201883213
 20
11.1960062983
 30
0.0
 10
11.4183221965
 20
11.1990909743
 30
0.0
 10
11.4160512272
 20
11.2039678789
 30
0.0
 10
11.414504457
 20
11.2107786249
 30
0.0
 10
11.414247926
 20
11.2141446676
 30
0.0
 10
11.414247926
 20
11.2158074222
 30
0.0
  0
SPLINE
  5
337
100
AcDbEntity
  8
0
100
AcDbSpline
 62
9
  6
CONTINUOUS
 70
0
 71
3
 72
9
 73
5
 74
0
 42
0.0000001
 43
0.0000001
 44
0.0000000001
 40
0.0
 40
0.0
 40
0.0
 40
0.0
 40
0.2615016196
 40
1.0
 40
1.0
 40
1.0
 40
1.0
 10
11.4118903097
 20
11.1923846631
 30
0.0
 10
11.4111343023
 20
11.1931474473
 30
0.0
 10
11.4082996895
 20
11.1961189715
 30
0.0
 10
11.4057009743
 20
11.1993214885
 30
0.0
 10
11.4039773691
 20
11.2018170569
 30
0.0
  0
SPLINE
  5
338
100
AcDbEntity
  8
0
100
AcDbSpline
 62
9
  6
CONTINUOUS
 70
0
 71
3
 72
10
 73
6
 74
0
 42
0.0000001
 43
0.0000001
 44
0.0000000001
 40
0.0
 40
0.0
 40
0.0
 40
0.0
 40
0.5219443774
 40
0.7641088998
 40
1.0
 40
1.0
 40
1.0
 40
1.0
 10
11.4039773691
 20
11.2018170569
 30
0.0
 10
11.4014453643
 20
11.2054830886
 30
0.0
 10
11.3983188193
 20
11.21133658
 30
0.0
 10
11.3961723423
 20
11.2196292032
 30
0.0
 10
11.3958171285
 20
11.2237186687
 30
0.0
 10
11.3958171285
 20
11.2257322851
 30
0.0
  0
SPLINE
  5
339
100
AcDbEntity
  8
0
100
AcDbSpline
 62
9
  6
CONTINUOUS
 70
0
 71
3
 72
9
 73
5
 74
0
 42
0.0000001
 43
0.0000001
 44
0.0000000001
 40
0.0
 40
0.0
 40
0.0
 40
0.0
 40
0.4672528833
 40
1.0
 40
1.0
 40
1.0
 40
1.0
 10
12.0235255379
 20
11.6414439289
 30
0.0
 10
12.0200030187
 20
11.6455418476
 30
0.0
 10
12.0115824687
 20
11.6535609879
 30
0.0
 10
12.0021329229
 20
11.6602804233
 30
0.0
 10
11.9969330721
 20
11.663585345
 30
0.0
  0
SPLINE
  5
33A
100
AcDbEntity
  8
0
100
AcDbSpline
 62
9
  6
CONTINUOUS
 70
0
 71
3
 72
25
 73
21
 74
0
 42
0.0000001
 43
0.0000001
 44
0.0000000001
 40
0.0
 40
0.0
 40
0.0
 40
0.0
 40
0.0216209352
 40
0.04487789
 40
0.0961597827
 40
0.1534279581
 40
0.2159832598
 40
0.2829593519
 40
0.3533565143
 40
0.4260832181
 40
0.4999902806
 40
0.5738976984
 40
0.6466254533
 40
0.7170243447
 40
0.7840027864
 40
0.846561009
 40
0.9038325682
 40
0.9551182028
 40
0.9783771
 40
1.0
 40
1.0
 40
1.0
 40
1.0
 10
11.9969330721
 20
11.663585345
 30
0.0
 10
11.9932015946
 20
11.6659569977
 30
0.0
 10
11.9852687415
 20
11.6705883113
 30
0.0
 10
11.9676942783
 20
11.6794310677
 30
0.0
 10
11.9426501079
 20
11.6895241836
 30
0.0
 10
11.9091865358
 20
11.6998494785
 30
0.0
 10
11.8719687324
 20
11.7085722507
 30
0.0
 10
11.8316596528
 20
11.7155312587
 30
0.0
 10
11.7889760041
 20
11.720594089
 30
0.0
 10
11.744684427
 20
11.7236736355
 30
0.0
 10
11.699580593
 20
11.7247032706
 30
0.0
 10
11.6544765161
 20
11.7236748684
 30
0.0
 10
11.6101842132
 20
11.7205965271
 30
0.0
 10
11.5674993708
 20
11.7155348654
 30
0.0
 10
11.5271886527
 20
11.7085769473
 30
0.0
 10
11.489968797
 20
11.6998551919
 30
0.0
 10
11.4565028031
 20
11.6895307946
 30
0.0
 10
11.4314563559
 20
11.6794383959
 30
0.0
 10
11.4138798875
 20
11.6705961498
 30
0.0
 10
11.4059459759
 20
11.6659650695
 30
0.0
 10
11.4022139518
 20
11.6635935278
 30
0.0
  0
SPLINE
  5
33B
100
AcDbEntity
  8
0
100
AcDbSpline
 62
9
  6
CONTINUOUS
 70
0
 71
3
 72
9
 73
5
 74
0
 42
0.0000001
 43
0.0000001
 44
0.0000000001
 40
0.0
 40
0.0
 40
0.0
 40
0.0
 40
0.5327575564
 40
1.0
 40
1.0
 40
1.0
 40
1.0
 10
11.4022139518
 20
11.6635935278
 30
0.0
 10
11.3970116374
 20
11.6602876797
 30
0.0
 10
11.3875577732
 20
11.6535663287
 30
0.0
 10
11.3791334404
 20
11.6455443907
 30
0.0
 10
11.3756095242
 20
11.6414449924
 30
0.0
  0
ENDSEC
  0
SECTION
  2
OBJECTS
  0
DICTIONARY
  5
C
100
AcDbDictionary
280
0
281
1
  3
ACAD_GROUP
350
D
  3
ACAD_MLINESTYLE
350
17
  3
ACAD_LAYOUT
350
1A
  3
ACAD_PLOTSETTINGS
350
19
  3
ACAD_PLOTSTYLENAME
350
E
  0
DICTIONARY
  5
D
102
{ACAD_REACTORS
330
C
102
}
100
AcDbDictionary
280
0
281
1
  0
ACDBDICTIONARYWDFLT
  5
E
102
{ACAD_REACTORS
330
C
102
}
100
AcDbDictionary
281
1
  3
Normal
350
F
100
AcDbDictionaryWithDefault
340
F
  0
DICTIONARY
  5
17
102
{ACAD_REACTORS
330
C
102
}
100
AcDbDictionary
280
0
281
1
  3
Standard
350
18
  0
DICTIONARY
  5
19
102
{ACAD_REACTORS
330
C
102
}
100
AcDbDictionary
281
1
  0
DICTIONARY
  5
1A
102
{ACAD_REACTORS
330
C
102
}
100
AcDbDictionary
281
1
  3
Model
350
33C
  3
Layout1
350
33D
  0
ACDBPLACEHOLDER
  5
F
102
{ACAD_REACTORS
330
E
102
}
  0
MLINESTYLE
  5
18
102
{ACAD_REACTORS
330
17
102
}
100
AcDbMlineStyle
  2
STANDARD
 70
0
  3

 62
256
 51
90.0
 52
90.0
 71
2
 49
0.5
 62
256
  6
BYLAYER
 49
-0.5
 62
256
  6
BYLAYER
  0
LAYOUT
  5
33C
102
{ACAD_REACTORS
330
1A
102
}
100
AcDbPlotSettings
  1

  2
none_device
  4
ANSI_C_(22.00_x_17.00_Inches)
  6

 40
0.0
 41
0.0
 42
0.0
 43
0.0
 44
558.8
 45
431.8
 46
0.0
 47
0.0
 48
0.0
 49
0.0
140
0.0
141
0.0
142
1.0
143
1.0
 70
1024
 72
0
 73
0
 74
0
  7

 75
0
147
1.0
148
0.0
149
0.0
100
AcDbLayout
  1
Model
 70
0
 71
0
 10
0.0
 20
0.0
 11
22.0
 21
17.0
 12
0.0
 22
0.0
 32
0.0
 14
0.0
 24
0.0
 34
0.0
 15
0.0
 25
0.0
 35
0.0
146
0.0
 13
0.0
 23
0.0
 33
0.0
 16
1.0
 26
0.0
 36
0.0
 17
0.0
 27
1.0
 37
0.0
 76
0
330
202
345
0
346
0
  0
LAYOUT
  5
33D
102
{ACAD_REACTORS
330
1A
102
}
100
AcDbPlotSettings
  1

  2
none_device
  4
ANSI_C_(22.00_x_17.00_Inches)
  6

 40
0.0
 41
0.0
 42
0.0
 43
0.0
 44
558.8
 45
431.8
 46
0.0
 47
0.0
 48
0.0
 49
0.0
140
0.0
141
0.0
142
1.0
143
1.0
 70
0
 72
0
 73
0
 74
0
  7

 75
0
147
1.0
148
0.0
149
0.0
100
AcDbLayout
  1
Layout1
 70
0
 71
1
 10
0.0
 20
0.0
 11
22.0
 21
17.0
 12
0.0
 22
0.0
 32
0.0
 14
0.0
 24
0.0
 34
0.0
 15
0.0
 25
0.0
 35
0.0
146
0.0
 13
0.0
 23
0.0
 33
0.0
 16
1.0
 26
0.0
 36
0.0
 17
0.0
 27
1.0
 37
0.0
 76
0
330
203
345
0
346
0
  0
ENDSEC
  0
EOF
